ISO-10303-21;
HEADER;
FILE_DESCRIPTION (( 'STEP AP214' ),
    '1' );
FILE_NAME ('UNI200T.C_STEP_V10424.STEP',
    '2024-04-05T10:00:31',
    ( '' ),
    ( '' ),
    'SwSTEP 2.0',
    'SolidWorks 2019',
    '' );
FILE_SCHEMA (( 'AUTOMOTIVE_DESIGN' ));
ENDSEC;

DATA;
#1 = ORIENTED_EDGE ( 'NONE', *, *, #66, .T. ) ;
#2 = EDGE_LOOP ( 'NONE', ( #194, #65, #112, #8 ) ) ;
#3 = PRODUCT_DEFINITION_SHAPE ( 'NONE', 'NONE',  #169 ) ;
#4 = EDGE_CURVE ( 'NONE', #98, #80, #85, .T. ) ;
#5 = COLOUR_RGB ( '',0.7921568627450980005, 0.8196078431372548767, 0.9333333333333333481 ) ;
#6 = DIRECTION ( 'NONE',  ( 0.000000000000000000, -0.000000000000000000, -1.000000000000000000 ) ) ;
#7 = ORIENTED_EDGE ( 'NONE', *, *, #38, .F. ) ;
#8 = ORIENTED_EDGE ( 'NONE', *, *, #81, .T. ) ;
#9 = FACE_OUTER_BOUND ( 'NONE', #188, .T. ) ;
#10 = VECTOR ( 'NONE', #161, 1000.000000000000000 ) ;
#11 = DIRECTION ( 'NONE',  ( 0.000000000000000000, 0.000000000000000000, -1.000000000000000000 ) ) ;
#12 = EDGE_CURVE ( 'NONE', #20, #98, #102, .T. ) ;
#13 = DIRECTION ( 'NONE',  ( -0.000000000000000000, -1.000000000000000000, -0.000000000000000000 ) ) ;
#14 = VECTOR ( 'NONE', #198, 1000.000000000000000 ) ;
#15 = CARTESIAN_POINT ( 'NONE',  ( -1000.000000000000000, 12.00000000000000000, 230.0000000000000000 ) ) ;
#16 = DIRECTION ( 'NONE',  ( 0.000000000000000000, -0.000000000000000000, -1.000000000000000000 ) ) ;
#17 =( LENGTH_UNIT ( ) NAMED_UNIT ( * ) SI_UNIT ( .MILLI., .METRE. ) );
#18 = STYLED_ITEM ( 'NONE', ( #123 ), #88 ) ;
#19 =( GEOMETRIC_REPRESENTATION_CONTEXT ( 3 ) GLOBAL_UNCERTAINTY_ASSIGNED_CONTEXT ( ( #168 ) ) GLOBAL_UNIT_ASSIGNED_CONTEXT ( ( #17, #103, #31 ) ) REPRESENTATION_CONTEXT ( 'NONE', 'WORKASPACE' ) );
#20 = VERTEX_POINT ( 'NONE', #83 ) ;
#21 = COLOUR_RGB ( '',0.7921568627450980005, 0.8196078431372548767, 0.9333333333333333481 ) ;
#22 = EDGE_LOOP ( 'NONE', ( #55, #171, #124, #1 ) ) ;
#23 = CARTESIAN_POINT ( 'NONE',  ( -1000.000000000000000, 12.00000000000000000, -230.0000000000000000 ) ) ;
#24 = DIRECTION ( 'NONE',  ( -0.000000000000000000, -1.000000000000000000, -0.000000000000000000 ) ) ;
#25 = VERTEX_POINT ( 'NONE', #145 ) ;
#26 = ADVANCED_FACE ( 'NONE', ( #9 ), #162, .F. ) ;
#27 = FACE_OUTER_BOUND ( 'NONE', #22, .T. ) ;
#28 = CARTESIAN_POINT ( 'NONE',  ( 1000.000000000000227, 0.000000000000000000, 230.0000000000000000 ) ) ;
#29 = LINE ( 'NONE', #28, #39 ) ;
#30 = CARTESIAN_POINT ( 'NONE',  ( 0.000000000000000000, 0.000000000000000000, 0.000000000000000000 ) ) ;
#31 =( NAMED_UNIT ( * ) SI_UNIT ( $, .STERADIAN. ) SOLID_ANGLE_UNIT ( ) );
#32 = EDGE_CURVE ( 'NONE', #80, #63, #67, .T. ) ;
#33 = ORIENTED_EDGE ( 'NONE', *, *, #81, .F. ) ;
#34 = CARTESIAN_POINT ( 'NONE',  ( 1000.000000000000227, 12.00000000000000000, 230.0000000000000000 ) ) ;
#35 = CARTESIAN_POINT ( 'NONE',  ( -1000.000000000000000, 12.00000000000000000, -230.0000000000000000 ) ) ;
#36 = LINE ( 'NONE', #178, #108 ) ;
#37 = LINE ( 'NONE', #56, #158 ) ;
#38 = EDGE_CURVE ( 'NONE', #80, #192, #54, .T. ) ;
#39 = VECTOR ( 'NONE', #75, 1000.000000000000000 ) ;
#40 = FILL_AREA_STYLE_COLOUR ( '', #5 ) ;
#41 = DIRECTION ( 'NONE',  ( 0.000000000000000000, -1.000000000000000000, 0.000000000000000000 ) ) ;
#42 = CARTESIAN_POINT ( 'NONE',  ( 1000.000000000000227, 0.000000000000000000, 230.0000000000000000 ) ) ;
#43 = AXIS2_PLACEMENT_3D ( 'NONE', #154, #165, #150 ) ;
#44 = UNCERTAINTY_MEASURE_WITH_UNIT (LENGTH_MEASURE( 1.000000000000000082E-05 ), #136, 'distance_accuracy_value', 'NONE');
#45 =( LENGTH_UNIT ( ) NAMED_UNIT ( * ) SI_UNIT ( .MILLI., .METRE. ) );
#46 =( NAMED_UNIT ( * ) SI_UNIT ( $, .STERADIAN. ) SOLID_ANGLE_UNIT ( ) );
#47 = ADVANCED_FACE ( 'NONE', ( #114 ), #53, .F. ) ;
#48 = CLOSED_SHELL ( 'NONE', ( #175, #61, #26, #156, #47, #190 ) ) ;
#49 = ORIENTED_EDGE ( 'NONE', *, *, #38, .T. ) ;
#50 = VECTOR ( 'NONE', #11, 1000.000000000000000 ) ;
#51 = CARTESIAN_POINT ( 'NONE',  ( -1000.000000000000000, 12.00000000000000000, 230.0000000000000000 ) ) ;
#52 = EDGE_LOOP ( 'NONE', ( #159, #174, #146, #130 ) ) ;
#53 = PLANE ( 'NONE',  #94 ) ;
#54 = LINE ( 'NONE', #51, #182 ) ;
#55 = ORIENTED_EDGE ( 'NONE', *, *, #117, .T. ) ;
#56 = CARTESIAN_POINT ( 'NONE',  ( -1000.000000000000000, 0.000000000000000000, 230.0000000000000000 ) ) ;
#57 = DIRECTION ( 'NONE',  ( -1.000000000000000000, 0.000000000000000000, 0.000000000000000000 ) ) ;
#58 = FACE_OUTER_BOUND ( 'NONE', #2, .T. ) ;
#59 = FILL_AREA_STYLE ('',( #40 ) ) ;
#60 = AXIS2_PLACEMENT_3D ( 'NONE', #69, #68, #129 ) ;
#61 = ADVANCED_FACE ( 'NONE', ( #113 ), #176, .F. ) ;
#62 = SURFACE_SIDE_STYLE ('',( #78 ) ) ;
#63 = VERTEX_POINT ( 'NONE', #177 ) ;
#64 = PRESENTATION_LAYER_ASSIGNMENT (  '', '', ( #164 ) ) ;
#65 = ORIENTED_EDGE ( 'NONE', *, *, #66, .F. ) ;
#66 = EDGE_CURVE ( 'NONE', #20, #193, #36, .T. ) ;
#67 = LINE ( 'NONE', #23, #148 ) ;
#68 = DIRECTION ( 'NONE',  ( 1.000000000000000000, -0.000000000000000000, 0.000000000000000000 ) ) ;
#69 = CARTESIAN_POINT ( 'NONE',  ( -1000.000000000000000, 12.00000000000000000, 230.0000000000000000 ) ) ;
#70 = ORIENTED_EDGE ( 'NONE', *, *, #184, .F. ) ;
#71 = CARTESIAN_POINT ( 'NONE',  ( -1000.000000000000000, 12.00000000000000000, 230.0000000000000000 ) ) ;
#72 = PLANE ( 'NONE',  #189 ) ;
#73 = AXIS2_PLACEMENT_3D ( 'NONE', #157, #141, #201 ) ;
#74 =( NAMED_UNIT ( * ) SI_UNIT ( $, .STERADIAN. ) SOLID_ANGLE_UNIT ( ) );
#75 = DIRECTION ( 'NONE',  ( 0.000000000000000000, 0.000000000000000000, -1.000000000000000000 ) ) ;
#76 = VECTOR ( 'NONE', #151, 1000.000000000000000 ) ;
#77 = EDGE_CURVE ( 'NONE', #63, #25, #37, .T. ) ;
#78 = SURFACE_STYLE_FILL_AREA ( #202 ) ;
#79 = APPLICATION_PROTOCOL_DEFINITION ( 'draft international standard', 'automotive_design', 1998, #186 ) ;
#80 = VERTEX_POINT ( 'NONE', #135 ) ;
#81 = EDGE_CURVE ( 'NONE', #192, #25, #199, .T. ) ;
#82 = VECTOR ( 'NONE', #152, 1000.000000000000000 ) ;
#83 = CARTESIAN_POINT ( 'NONE',  ( 1000.000000000000227, 12.00000000000000000, 230.0000000000000000 ) ) ;
#84 = CARTESIAN_POINT ( 'NONE',  ( -1000.000000000000000, 12.00000000000000000, -230.0000000000000000 ) ) ;
#85 = LINE ( 'NONE', #84, #10 ) ;
#86 = MANIFOLD_SOLID_BREP ( 'Boss-Extrude1', #48 ) ;
#87 = ORIENTED_EDGE ( 'NONE', *, *, #117, .F. ) ;
#88 = ADVANCED_BREP_SHAPE_REPRESENTATION ( 'UNI200T.C_STEP_V10424', ( #86, #73 ), #19 ) ;
#89 = CARTESIAN_POINT ( 'NONE',  ( 1000.000000000000227, 12.00000000000000000, -230.0000000000000000 ) ) ;
#90 = CARTESIAN_POINT ( 'NONE',  ( 1000.000000000000227, 0.000000000000000000, -230.0000000000000000 ) ) ;
#91 = CARTESIAN_POINT ( 'NONE',  ( 1000.000000000000227, 12.00000000000000000, -230.0000000000000000 ) ) ;
#92 = DIRECTION ( 'NONE',  ( 0.000000000000000000, 0.000000000000000000, 1.000000000000000000 ) ) ;
#93 = PRODUCT_DEFINITION_CONTEXT ( 'detailed design', #186, 'design' ) ;
#94 = AXIS2_PLACEMENT_3D ( 'NONE', #143, #127, #6 ) ;
#95 = APPLICATION_CONTEXT ( 'automotive_design' ) ;
#96 =( GEOMETRIC_REPRESENTATION_CONTEXT ( 3 ) GLOBAL_UNCERTAINTY_ASSIGNED_CONTEXT ( ( #185 ) ) GLOBAL_UNIT_ASSIGNED_CONTEXT ( ( #45, #170, #46 ) ) REPRESENTATION_CONTEXT ( 'NONE', 'WORKASPACE' ) );
#97 = EDGE_LOOP ( 'NONE', ( #87, #115, #100, #70 ) ) ;
#98 = VERTEX_POINT ( 'NONE', #89 ) ;
#99 = MECHANICAL_DESIGN_GEOMETRIC_PRESENTATION_REPRESENTATION (  '', ( #18 ), #96 ) ;
#100 = ORIENTED_EDGE ( 'NONE', *, *, #77, .F. ) ;
#101 = DIRECTION ( 'NONE',  ( -0.000000000000000000, -1.000000000000000000, -0.000000000000000000 ) ) ;
#102 = LINE ( 'NONE', #34, #50 ) ;
#103 =( NAMED_UNIT ( * ) PLANE_ANGLE_UNIT ( ) SI_UNIT ( $, .RADIAN. ) );
#104 = DIRECTION ( 'NONE',  ( 1.000000000000000000, 0.000000000000000000, 0.000000000000000000 ) ) ;
#105 = CARTESIAN_POINT ( 'NONE',  ( -1000.000000000000000, 0.000000000000000000, -230.0000000000000000 ) ) ;
#106 = SURFACE_STYLE_FILL_AREA ( #59 ) ;
#107 = VERTEX_POINT ( 'NONE', #90 ) ;
#108 = VECTOR ( 'NONE', #24, 1000.000000000000000 ) ;
#109 = EDGE_CURVE ( 'NONE', #192, #20, #179, .T. ) ;
#110 = DIRECTION ( 'NONE',  ( -0.000000000000000000, -0.000000000000000000, 1.000000000000000000 ) ) ;
#111 = PRODUCT_CONTEXT ( 'NONE', #95, 'mechanical' ) ;
#112 = ORIENTED_EDGE ( 'NONE', *, *, #109, .F. ) ;
#113 = FACE_OUTER_BOUND ( 'NONE', #52, .T. ) ;
#114 = FACE_OUTER_BOUND ( 'NONE', #173, .T. ) ;
#115 = ORIENTED_EDGE ( 'NONE', *, *, #140, .F. ) ;
#116 = SURFACE_STYLE_USAGE ( .BOTH. , #167 ) ;
#117 = EDGE_CURVE ( 'NONE', #193, #107, #29, .T. ) ;
#118 = LINE ( 'NONE', #105, #82 ) ;
#119 = FACE_OUTER_BOUND ( 'NONE', #97, .T. ) ;
#120 = VECTOR ( 'NONE', #13, 1000.000000000000000 ) ;
#121 = CARTESIAN_POINT ( 'NONE',  ( -1000.000000000000000, 12.00000000000000000, 230.0000000000000000 ) ) ;
#122 = SURFACE_STYLE_USAGE ( .BOTH. , #62 ) ;
#123 = PRESENTATION_STYLE_ASSIGNMENT (( #122 ) ) ;
#124 = ORIENTED_EDGE ( 'NONE', *, *, #12, .F. ) ;
#125 = PRODUCT ( 'UNI200T.C_STEP_V10424', 'UNI200T.C_STEP_V10424', '', ( #111 ) ) ;
#126 = DIRECTION ( 'NONE',  ( 0.000000000000000000, 0.000000000000000000, 1.000000000000000000 ) ) ;
#127 = DIRECTION ( 'NONE',  ( 0.000000000000000000, -1.000000000000000000, 0.000000000000000000 ) ) ;
#128 = ORIENTED_EDGE ( 'NONE', *, *, #32, .T. ) ;
#129 = DIRECTION ( 'NONE',  ( 0.000000000000000000, 0.000000000000000000, -1.000000000000000000 ) ) ;
#130 = ORIENTED_EDGE ( 'NONE', *, *, #149, .T. ) ;
#131 = PRODUCT_RELATED_PRODUCT_CATEGORY ( 'part', '', ( #125 ) ) ;
#132 = LINE ( 'NONE', #196, #76 ) ;
#133 = PRESENTATION_LAYER_ASSIGNMENT (  '', '', ( #18 ) ) ;
#134 = PRESENTATION_STYLE_ASSIGNMENT (( #116 ) ) ;
#135 = CARTESIAN_POINT ( 'NONE',  ( -1000.000000000000000, 12.00000000000000000, -230.0000000000000000 ) ) ;
#136 =( LENGTH_UNIT ( ) NAMED_UNIT ( * ) SI_UNIT ( .MILLI., .METRE. ) );
#137 =( GEOMETRIC_REPRESENTATION_CONTEXT ( 3 ) GLOBAL_UNCERTAINTY_ASSIGNED_CONTEXT ( ( #44 ) ) GLOBAL_UNIT_ASSIGNED_CONTEXT ( ( #136, #180, #74 ) ) REPRESENTATION_CONTEXT ( 'NONE', 'WORKASPACE' ) );
#138 = FILL_AREA_STYLE_COLOUR ( '', #21 ) ;
#139 = APPLICATION_PROTOCOL_DEFINITION ( 'draft international standard', 'automotive_design', 1998, #95 ) ;
#140 = EDGE_CURVE ( 'NONE', #25, #193, #132, .T. ) ;
#141 = DIRECTION ( 'NONE',  ( 0.000000000000000000, 0.000000000000000000, 1.000000000000000000 ) ) ;
#142 = SHAPE_DEFINITION_REPRESENTATION ( #3, #88 ) ;
#143 = CARTESIAN_POINT ( 'NONE',  ( 0.000000000000000000, 12.00000000000000000, 0.000000000000000000 ) ) ;
#144 = AXIS2_PLACEMENT_3D ( 'NONE', #30, #41, #16 ) ;
#145 = CARTESIAN_POINT ( 'NONE',  ( -1000.000000000000000, 0.000000000000000000, 230.0000000000000000 ) ) ;
#146 = ORIENTED_EDGE ( 'NONE', *, *, #4, .F. ) ;
#147 = ORIENTED_EDGE ( 'NONE', *, *, #77, .T. ) ;
#148 = VECTOR ( 'NONE', #101, 1000.000000000000000 ) ;
#149 = EDGE_CURVE ( 'NONE', #98, #107, #195, .T. ) ;
#150 = DIRECTION ( 'NONE',  ( -1.000000000000000000, 0.000000000000000000, -0.000000000000000000 ) ) ;
#151 = DIRECTION ( 'NONE',  ( 1.000000000000000000, 0.000000000000000000, 0.000000000000000000 ) ) ;
#152 = DIRECTION ( 'NONE',  ( -1.000000000000000000, -0.000000000000000000, -0.000000000000000000 ) ) ;
#153 = CARTESIAN_POINT ( 'NONE',  ( 1000.000000000000227, 12.00000000000000000, 230.0000000000000000 ) ) ;
#154 = CARTESIAN_POINT ( 'NONE',  ( -1000.000000000000000, 12.00000000000000000, 230.0000000000000000 ) ) ;
#155 = MECHANICAL_DESIGN_GEOMETRIC_PRESENTATION_REPRESENTATION (  '', ( #164 ), #137 ) ;
#156 = ADVANCED_FACE ( 'NONE', ( #58 ), #166, .F. ) ;
#157 = CARTESIAN_POINT ( 'NONE',  ( 0.000000000000000000, 0.000000000000000000, 0.000000000000000000 ) ) ;
#158 = VECTOR ( 'NONE', #183, 1000.000000000000000 ) ;
#159 = ORIENTED_EDGE ( 'NONE', *, *, #184, .T. ) ;
#160 = ORIENTED_EDGE ( 'NONE', *, *, #4, .T. ) ;
#161 = DIRECTION ( 'NONE',  ( -1.000000000000000000, -0.000000000000000000, -0.000000000000000000 ) ) ;
#162 = PLANE ( 'NONE',  #60 ) ;
#163 = ORIENTED_EDGE ( 'NONE', *, *, #109, .T. ) ;
#164 = STYLED_ITEM ( 'NONE', ( #134 ), #86 ) ;
#165 = DIRECTION ( 'NONE',  ( 0.000000000000000000, 0.000000000000000000, -1.000000000000000000 ) ) ;
#166 = PLANE ( 'NONE',  #43 ) ;
#167 = SURFACE_SIDE_STYLE ('',( #106 ) ) ;
#168 = UNCERTAINTY_MEASURE_WITH_UNIT (LENGTH_MEASURE( 1.000000000000000082E-05 ), #17, 'distance_accuracy_value', 'NONE');
#169 = PRODUCT_DEFINITION ( 'UNKNOWN', '', #197, #93 ) ;
#170 =( NAMED_UNIT ( * ) PLANE_ANGLE_UNIT ( ) SI_UNIT ( $, .RADIAN. ) );
#171 = ORIENTED_EDGE ( 'NONE', *, *, #149, .F. ) ;
#172 = AXIS2_PLACEMENT_3D ( 'NONE', #35, #126, #191 ) ;
#173 = EDGE_LOOP ( 'NONE', ( #187, #160, #49, #163 ) ) ;
#174 = ORIENTED_EDGE ( 'NONE', *, *, #32, .F. ) ;
#175 = ADVANCED_FACE ( 'NONE', ( #27 ), #72, .F. ) ;
#176 = PLANE ( 'NONE',  #172 ) ;
#177 = CARTESIAN_POINT ( 'NONE',  ( -1000.000000000000000, 0.000000000000000000, -230.0000000000000000 ) ) ;
#178 = CARTESIAN_POINT ( 'NONE',  ( 1000.000000000000227, 12.00000000000000000, 230.0000000000000000 ) ) ;
#179 = LINE ( 'NONE', #71, #200 ) ;
#180 =( NAMED_UNIT ( * ) PLANE_ANGLE_UNIT ( ) SI_UNIT ( $, .RADIAN. ) );
#181 = PLANE ( 'NONE',  #144 ) ;
#182 = VECTOR ( 'NONE', #110, 1000.000000000000000 ) ;
#183 = DIRECTION ( 'NONE',  ( -0.000000000000000000, -0.000000000000000000, 1.000000000000000000 ) ) ;
#184 = EDGE_CURVE ( 'NONE', #107, #63, #118, .T. ) ;
#185 = UNCERTAINTY_MEASURE_WITH_UNIT (LENGTH_MEASURE( 1.000000000000000082E-05 ), #45, 'distance_accuracy_value', 'NONE');
#186 = APPLICATION_CONTEXT ( 'automotive_design' ) ;
#187 = ORIENTED_EDGE ( 'NONE', *, *, #12, .T. ) ;
#188 = EDGE_LOOP ( 'NONE', ( #147, #33, #7, #128 ) ) ;
#189 = AXIS2_PLACEMENT_3D ( 'NONE', #153, #57, #92 ) ;
#190 = ADVANCED_FACE ( 'NONE', ( #119 ), #181, .T. ) ;
#191 = DIRECTION ( 'NONE',  ( 1.000000000000000000, 0.000000000000000000, -0.000000000000000000 ) ) ;
#192 = VERTEX_POINT ( 'NONE', #121 ) ;
#193 = VERTEX_POINT ( 'NONE', #42 ) ;
#194 = ORIENTED_EDGE ( 'NONE', *, *, #140, .T. ) ;
#195 = LINE ( 'NONE', #91, #120 ) ;
#196 = CARTESIAN_POINT ( 'NONE',  ( -1000.000000000000000, 0.000000000000000000, 230.0000000000000000 ) ) ;
#197 = PRODUCT_DEFINITION_FORMATION_WITH_SPECIFIED_SOURCE ( 'ANY', '', #125, .NOT_KNOWN. ) ;
#198 = DIRECTION ( 'NONE',  ( -0.000000000000000000, -1.000000000000000000, -0.000000000000000000 ) ) ;
#199 = LINE ( 'NONE', #15, #14 ) ;
#200 = VECTOR ( 'NONE', #104, 1000.000000000000000 ) ;
#201 = DIRECTION ( 'NONE',  ( 1.000000000000000000, 0.000000000000000000, 0.000000000000000000 ) ) ;
#202 = FILL_AREA_STYLE ('',( #138 ) ) ;
ENDSEC;
END-ISO-10303-21;
