ISO-10303-21;
HEADER;
FILE_DESCRIPTION (( 'STEP AP214' ),
    '1' );
FILE_NAME ('UNI180T.C_STEP_V10424.STEP',
    '2024-04-05T10:00:11',
    ( '' ),
    ( '' ),
    'SwSTEP 2.0',
    'SolidWorks 2019',
    '' );
FILE_SCHEMA (( 'AUTOMOTIVE_DESIGN' ));
ENDSEC;

DATA;
#1 = LINE ( 'NONE', #167, #168 ) ;
#2 = ORIENTED_EDGE ( 'NONE', *, *, #5, .T. ) ;
#3 = ORIENTED_EDGE ( 'NONE', *, *, #39, .T. ) ;
#4 = LINE ( 'NONE', #78, #47 ) ;
#5 = EDGE_CURVE ( 'NONE', #126, #123, #15, .T. ) ;
#6 = CARTESIAN_POINT ( 'NONE',  ( 900.0000000000000000, 12.00000000000000000, 230.0000000000000000 ) ) ;
#7 = AXIS2_PLACEMENT_3D ( 'NONE', #87, #145, #36 ) ;
#8 = ORIENTED_EDGE ( 'NONE', *, *, #139, .F. ) ;
#9 = ORIENTED_EDGE ( 'NONE', *, *, #39, .F. ) ;
#10 = SURFACE_STYLE_USAGE ( .BOTH. , #146 ) ;
#11 = DIRECTION ( 'NONE',  ( -0.000000000000000000, -1.000000000000000000, -0.000000000000000000 ) ) ;
#12 = CARTESIAN_POINT ( 'NONE',  ( -899.9999999999998863, 0.000000000000000000, -230.0000000000000000 ) ) ;
#13 = DIRECTION ( 'NONE',  ( -0.000000000000000000, -0.000000000000000000, 1.000000000000000000 ) ) ;
#14 = VERTEX_POINT ( 'NONE', #49 ) ;
#15 = LINE ( 'NONE', #184, #19 ) ;
#16 = DIRECTION ( 'NONE',  ( -0.000000000000000000, -1.000000000000000000, -0.000000000000000000 ) ) ;
#17 =( NAMED_UNIT ( * ) PLANE_ANGLE_UNIT ( ) SI_UNIT ( $, .RADIAN. ) );
#18 = DIRECTION ( 'NONE',  ( 0.000000000000000000, 0.000000000000000000, -1.000000000000000000 ) ) ;
#19 = VECTOR ( 'NONE', #16, 1000.000000000000000 ) ;
#20 = LINE ( 'NONE', #6, #34 ) ;
#21 = ORIENTED_EDGE ( 'NONE', *, *, #81, .F. ) ;
#22 = DIRECTION ( 'NONE',  ( 0.000000000000000000, -1.000000000000000000, 0.000000000000000000 ) ) ;
#23 = ADVANCED_FACE ( 'NONE', ( #45 ), #57, .F. ) ;
#24 = FACE_OUTER_BOUND ( 'NONE', #48, .T. ) ;
#25 = MECHANICAL_DESIGN_GEOMETRIC_PRESENTATION_REPRESENTATION (  '', ( #156 ), #143 ) ;
#26 = DIRECTION ( 'NONE',  ( 1.000000000000000000, 0.000000000000000000, 0.000000000000000000 ) ) ;
#27 = DIRECTION ( 'NONE',  ( -1.000000000000000000, -0.000000000000000000, -0.000000000000000000 ) ) ;
#28 = SURFACE_STYLE_FILL_AREA ( #148 ) ;
#29 = UNCERTAINTY_MEASURE_WITH_UNIT (LENGTH_MEASURE( 1.000000000000000082E-05 ), #33, 'distance_accuracy_value', 'NONE');
#30 = DIRECTION ( 'NONE',  ( 0.000000000000000000, 0.000000000000000000, 1.000000000000000000 ) ) ;
#31 = VECTOR ( 'NONE', #58, 1000.000000000000000 ) ;
#32 = EDGE_CURVE ( 'NONE', #137, #14, #1, .T. ) ;
#33 =( LENGTH_UNIT ( ) NAMED_UNIT ( * ) SI_UNIT ( .MILLI., .METRE. ) );
#34 = VECTOR ( 'NONE', #117, 1000.000000000000000 ) ;
#35 = FACE_OUTER_BOUND ( 'NONE', #84, .T. ) ;
#36 = DIRECTION ( 'NONE',  ( 0.000000000000000000, -0.000000000000000000, -1.000000000000000000 ) ) ;
#37 = ORIENTED_EDGE ( 'NONE', *, *, #32, .T. ) ;
#38 = DIRECTION ( 'NONE',  ( 0.000000000000000000, 0.000000000000000000, 1.000000000000000000 ) ) ;
#39 = EDGE_CURVE ( 'NONE', #91, #123, #170, .T. ) ;
#40 = CARTESIAN_POINT ( 'NONE',  ( -899.9999999999998863, 12.00000000000000000, 230.0000000000000000 ) ) ;
#41 = CARTESIAN_POINT ( 'NONE',  ( 900.0000000000000000, 0.000000000000000000, 230.0000000000000000 ) ) ;
#42 = APPLICATION_PROTOCOL_DEFINITION ( 'draft international standard', 'automotive_design', 1998, #165 ) ;
#43 = ORIENTED_EDGE ( 'NONE', *, *, #139, .T. ) ;
#44 = MECHANICAL_DESIGN_GEOMETRIC_PRESENTATION_REPRESENTATION (  '', ( #162 ), #172 ) ;
#45 = FACE_OUTER_BOUND ( 'NONE', #183, .T. ) ;
#46 = ADVANCED_FACE ( 'NONE', ( #35 ), #120, .F. ) ;
#47 = VECTOR ( 'NONE', #182, 1000.000000000000000 ) ;
#48 = EDGE_LOOP ( 'NONE', ( #98, #75, #105, #166 ) ) ;
#49 = CARTESIAN_POINT ( 'NONE',  ( -899.9999999999998863, 0.000000000000000000, 230.0000000000000000 ) ) ;
#50 = CARTESIAN_POINT ( 'NONE',  ( -899.9999999999998863, 12.00000000000000000, 230.0000000000000000 ) ) ;
#51 = ORIENTED_EDGE ( 'NONE', *, *, #116, .F. ) ;
#52 = FACE_OUTER_BOUND ( 'NONE', #190, .T. ) ;
#53 = DIRECTION ( 'NONE',  ( 0.000000000000000000, 0.000000000000000000, -1.000000000000000000 ) ) ;
#54 = LINE ( 'NONE', #119, #64 ) ;
#55 = VECTOR ( 'NONE', #193, 1000.000000000000000 ) ;
#56 = PRODUCT_DEFINITION_CONTEXT ( 'detailed design', #80, 'design' ) ;
#57 = PLANE ( 'NONE',  #82 ) ;
#58 = DIRECTION ( 'NONE',  ( 0.000000000000000000, 0.000000000000000000, -1.000000000000000000 ) ) ;
#59 = EDGE_CURVE ( 'NONE', #152, #14, #4, .T. ) ;
#60 = CARTESIAN_POINT ( 'NONE',  ( 900.0000000000000000, 12.00000000000000000, 230.0000000000000000 ) ) ;
#61 = ORIENTED_EDGE ( 'NONE', *, *, #151, .F. ) ;
#62 = PRODUCT_DEFINITION ( 'UNKNOWN', '', #111, #56 ) ;
#63 = LINE ( 'NONE', #194, #55 ) ;
#64 = VECTOR ( 'NONE', #11, 1000.000000000000000 ) ;
#65 = ORIENTED_EDGE ( 'NONE', *, *, #59, .T. ) ;
#66 = ORIENTED_EDGE ( 'NONE', *, *, #5, .F. ) ;
#67 =( NAMED_UNIT ( * ) PLANE_ANGLE_UNIT ( ) SI_UNIT ( $, .RADIAN. ) );
#68 = PLANE ( 'NONE',  #7 ) ;
#69 = LINE ( 'NONE', #197, #118 ) ;
#70 = PRESENTATION_STYLE_ASSIGNMENT (( #10 ) ) ;
#71 = LINE ( 'NONE', #50, #200 ) ;
#72 = MANIFOLD_SOLID_BREP ( 'Boss-Extrude1', #196 ) ;
#73 = DIRECTION ( 'NONE',  ( -0.000000000000000000, -1.000000000000000000, -0.000000000000000000 ) ) ;
#74 = ADVANCED_FACE ( 'NONE', ( #115 ), #159, .F. ) ;
#75 = ORIENTED_EDGE ( 'NONE', *, *, #151, .T. ) ;
#76 = DIRECTION ( 'NONE',  ( -1.000000000000000000, 0.000000000000000000, 0.000000000000000000 ) ) ;
#77 = AXIS2_PLACEMENT_3D ( 'NONE', #187, #178, #102 ) ;
#78 = CARTESIAN_POINT ( 'NONE',  ( -899.9999999999998863, 0.000000000000000000, 230.0000000000000000 ) ) ;
#79 = FILL_AREA_STYLE_COLOUR ( '', #142 ) ;
#80 = APPLICATION_CONTEXT ( 'automotive_design' ) ;
#81 = EDGE_CURVE ( 'NONE', #123, #152, #177, .T. ) ;
#82 = AXIS2_PLACEMENT_3D ( 'NONE', #106, #18, #107 ) ;
#83 = CARTESIAN_POINT ( 'NONE',  ( 900.0000000000000000, 12.00000000000000000, -230.0000000000000000 ) ) ;
#84 = EDGE_LOOP ( 'NONE', ( #3, #66, #94, #112 ) ) ;
#85 = ORIENTED_EDGE ( 'NONE', *, *, #186, .T. ) ;
#86 = LINE ( 'NONE', #90, #180 ) ;
#87 = CARTESIAN_POINT ( 'NONE',  ( 0.000000000000000000, 0.000000000000000000, 0.000000000000000000 ) ) ;
#88 = PRESENTATION_LAYER_ASSIGNMENT (  '', '', ( #162 ) ) ;
#89 = SHAPE_DEFINITION_REPRESENTATION ( #97, #92 ) ;
#90 = CARTESIAN_POINT ( 'NONE',  ( -899.9999999999998863, 12.00000000000000000, 230.0000000000000000 ) ) ;
#91 = VERTEX_POINT ( 'NONE', #41 ) ;
#92 = ADVANCED_BREP_SHAPE_REPRESENTATION ( 'UNI180T.C_STEP_V10424', ( #72, #189 ), #135 ) ;
#93 = PRESENTATION_LAYER_ASSIGNMENT (  '', '', ( #156 ) ) ;
#94 = ORIENTED_EDGE ( 'NONE', *, *, #157, .F. ) ;
#95 = ADVANCED_FACE ( 'NONE', ( #24 ), #130, .F. ) ;
#96 =( NAMED_UNIT ( * ) SI_UNIT ( $, .STERADIAN. ) SOLID_ANGLE_UNIT ( ) );
#97 = PRODUCT_DEFINITION_SHAPE ( 'NONE', 'NONE',  #62 ) ;
#98 = ORIENTED_EDGE ( 'NONE', *, *, #157, .T. ) ;
#99 = PLANE ( 'NONE',  #171 ) ;
#100 = EDGE_CURVE ( 'NONE', #137, #125, #71, .T. ) ;
#101 = AXIS2_PLACEMENT_3D ( 'NONE', #155, #22, #163 ) ;
#102 = DIRECTION ( 'NONE',  ( 0.000000000000000000, 0.000000000000000000, -1.000000000000000000 ) ) ;
#103 = DIRECTION ( 'NONE',  ( 0.000000000000000000, 0.000000000000000000, 1.000000000000000000 ) ) ;
#104 =( LENGTH_UNIT ( ) NAMED_UNIT ( * ) SI_UNIT ( .MILLI., .METRE. ) );
#105 = ORIENTED_EDGE ( 'NONE', *, *, #116, .T. ) ;
#106 = CARTESIAN_POINT ( 'NONE',  ( -899.9999999999998863, 12.00000000000000000, 230.0000000000000000 ) ) ;
#107 = DIRECTION ( 'NONE',  ( -1.000000000000000000, 0.000000000000000000, -0.000000000000000000 ) ) ;
#108 = VECTOR ( 'NONE', #174, 1000.000000000000000 ) ;
#109 = PRODUCT_RELATED_PRODUCT_CATEGORY ( 'part', '', ( #192 ) ) ;
#110 = CARTESIAN_POINT ( 'NONE',  ( -899.9999999999998863, 12.00000000000000000, -230.0000000000000000 ) ) ;
#111 = PRODUCT_DEFINITION_FORMATION_WITH_SPECIFIED_SOURCE ( 'ANY', '', #192, .NOT_KNOWN. ) ;
#112 = ORIENTED_EDGE ( 'NONE', *, *, #173, .T. ) ;
#113 = ORIENTED_EDGE ( 'NONE', *, *, #32, .F. ) ;
#114 = CARTESIAN_POINT ( 'NONE',  ( -899.9999999999998863, 12.00000000000000000, -230.0000000000000000 ) ) ;
#115 = FACE_OUTER_BOUND ( 'NONE', #122, .T. ) ;
#116 = EDGE_CURVE ( 'NONE', #144, #137, #86, .T. ) ;
#117 = DIRECTION ( 'NONE',  ( -0.000000000000000000, -1.000000000000000000, -0.000000000000000000 ) ) ;
#118 = VECTOR ( 'NONE', #53, 1000.000000000000000 ) ;
#119 = CARTESIAN_POINT ( 'NONE',  ( -899.9999999999998863, 12.00000000000000000, -230.0000000000000000 ) ) ;
#120 = PLANE ( 'NONE',  #131 ) ;
#121 = SURFACE_SIDE_STYLE ('',( #150 ) ) ;
#122 = EDGE_LOOP ( 'NONE', ( #65, #113, #51, #43 ) ) ;
#123 = VERTEX_POINT ( 'NONE', #199 ) ;
#124 = CARTESIAN_POINT ( 'NONE',  ( -899.9999999999998863, 0.000000000000000000, -230.0000000000000000 ) ) ;
#125 = VERTEX_POINT ( 'NONE', #160 ) ;
#126 = VERTEX_POINT ( 'NONE', #83 ) ;
#127 = DIRECTION ( 'NONE',  ( 1.000000000000000000, 0.000000000000000000, 0.000000000000000000 ) ) ;
#128 = ADVANCED_FACE ( 'NONE', ( #133 ), #68, .T. ) ;
#129 = CARTESIAN_POINT ( 'NONE',  ( -899.9999999999998863, 12.00000000000000000, -230.0000000000000000 ) ) ;
#130 = PLANE ( 'NONE',  #101 ) ;
#131 = AXIS2_PLACEMENT_3D ( 'NONE', #60, #76, #30 ) ;
#132 =( NAMED_UNIT ( * ) SI_UNIT ( $, .STERADIAN. ) SOLID_ANGLE_UNIT ( ) );
#133 = FACE_OUTER_BOUND ( 'NONE', #191, .T. ) ;
#134 = UNCERTAINTY_MEASURE_WITH_UNIT (LENGTH_MEASURE( 1.000000000000000082E-05 ), #104, 'distance_accuracy_value', 'NONE');
#135 =( GEOMETRIC_REPRESENTATION_CONTEXT ( 3 ) GLOBAL_UNCERTAINTY_ASSIGNED_CONTEXT ( ( #134 ) ) GLOBAL_UNIT_ASSIGNED_CONTEXT ( ( #104, #67, #132 ) ) REPRESENTATION_CONTEXT ( 'NONE', 'WORKASPACE' ) );
#136 = ORIENTED_EDGE ( 'NONE', *, *, #100, .F. ) ;
#137 = VERTEX_POINT ( 'NONE', #40 ) ;
#138 = PRESENTATION_STYLE_ASSIGNMENT (( #141 ) ) ;
#139 = EDGE_CURVE ( 'NONE', #144, #152, #54, .T. ) ;
#140 = ORIENTED_EDGE ( 'NONE', *, *, #173, .F. ) ;
#141 = SURFACE_STYLE_USAGE ( .BOTH. , #121 ) ;
#142 = COLOUR_RGB ( '',0.7921568627450980005, 0.8196078431372548767, 0.9333333333333333481 ) ;
#143 =( GEOMETRIC_REPRESENTATION_CONTEXT ( 3 ) GLOBAL_UNCERTAINTY_ASSIGNED_CONTEXT ( ( #29 ) ) GLOBAL_UNIT_ASSIGNED_CONTEXT ( ( #33, #17, #96 ) ) REPRESENTATION_CONTEXT ( 'NONE', 'WORKASPACE' ) );
#144 = VERTEX_POINT ( 'NONE', #129 ) ;
#145 = DIRECTION ( 'NONE',  ( 0.000000000000000000, -1.000000000000000000, 0.000000000000000000 ) ) ;
#146 = SURFACE_SIDE_STYLE ('',( #28 ) ) ;
#147 = LINE ( 'NONE', #110, #108 ) ;
#148 = FILL_AREA_STYLE ('',( #149 ) ) ;
#149 = FILL_AREA_STYLE_COLOUR ( '', #188 ) ;
#150 = SURFACE_STYLE_FILL_AREA ( #202 ) ;
#151 = EDGE_CURVE ( 'NONE', #126, #144, #147, .T. ) ;
#152 = VERTEX_POINT ( 'NONE', #12 ) ;
#153 = VECTOR ( 'NONE', #27, 1000.000000000000000 ) ;
#154 = DIRECTION ( 'NONE',  ( 1.000000000000000000, 0.000000000000000000, -0.000000000000000000 ) ) ;
#155 = CARTESIAN_POINT ( 'NONE',  ( 0.000000000000000000, 12.00000000000000000, 0.000000000000000000 ) ) ;
#156 = STYLED_ITEM ( 'NONE', ( #138 ), #72 ) ;
#157 = EDGE_CURVE ( 'NONE', #125, #126, #69, .T. ) ;
#158 =( NAMED_UNIT ( * ) PLANE_ANGLE_UNIT ( ) SI_UNIT ( $, .RADIAN. ) );
#159 = PLANE ( 'NONE',  #77 ) ;
#160 = CARTESIAN_POINT ( 'NONE',  ( 900.0000000000000000, 12.00000000000000000, 230.0000000000000000 ) ) ;
#161 = APPLICATION_PROTOCOL_DEFINITION ( 'draft international standard', 'automotive_design', 1998, #80 ) ;
#162 = STYLED_ITEM ( 'NONE', ( #70 ), #92 ) ;
#163 = DIRECTION ( 'NONE',  ( 0.000000000000000000, -0.000000000000000000, -1.000000000000000000 ) ) ;
#164 = CARTESIAN_POINT ( 'NONE',  ( 0.000000000000000000, 0.000000000000000000, 0.000000000000000000 ) ) ;
#165 = APPLICATION_CONTEXT ( 'automotive_design' ) ;
#166 = ORIENTED_EDGE ( 'NONE', *, *, #100, .T. ) ;
#167 = CARTESIAN_POINT ( 'NONE',  ( -899.9999999999998863, 12.00000000000000000, 230.0000000000000000 ) ) ;
#168 = VECTOR ( 'NONE', #73, 1000.000000000000000 ) ;
#169 = CARTESIAN_POINT ( 'NONE',  ( 900.0000000000000000, 0.000000000000000000, 230.0000000000000000 ) ) ;
#170 = LINE ( 'NONE', #169, #31 ) ;
#171 = AXIS2_PLACEMENT_3D ( 'NONE', #114, #38, #154 ) ;
#172 =( GEOMETRIC_REPRESENTATION_CONTEXT ( 3 ) GLOBAL_UNCERTAINTY_ASSIGNED_CONTEXT ( ( #201 ) ) GLOBAL_UNIT_ASSIGNED_CONTEXT ( ( #179, #158, #195 ) ) REPRESENTATION_CONTEXT ( 'NONE', 'WORKASPACE' ) );
#173 = EDGE_CURVE ( 'NONE', #125, #91, #20, .T. ) ;
#174 = DIRECTION ( 'NONE',  ( -1.000000000000000000, -0.000000000000000000, -0.000000000000000000 ) ) ;
#175 = ORIENTED_EDGE ( 'NONE', *, *, #59, .F. ) ;
#176 = ORIENTED_EDGE ( 'NONE', *, *, #186, .F. ) ;
#177 = LINE ( 'NONE', #124, #153 ) ;
#178 = DIRECTION ( 'NONE',  ( 1.000000000000000000, -0.000000000000000000, 0.000000000000000000 ) ) ;
#179 =( LENGTH_UNIT ( ) NAMED_UNIT ( * ) SI_UNIT ( .MILLI., .METRE. ) );
#180 = VECTOR ( 'NONE', #13, 1000.000000000000000 ) ;
#181 = PRODUCT_CONTEXT ( 'NONE', #165, 'mechanical' ) ;
#182 = DIRECTION ( 'NONE',  ( -0.000000000000000000, -0.000000000000000000, 1.000000000000000000 ) ) ;
#183 = EDGE_LOOP ( 'NONE', ( #85, #140, #136, #37 ) ) ;
#184 = CARTESIAN_POINT ( 'NONE',  ( 900.0000000000000000, 12.00000000000000000, -230.0000000000000000 ) ) ;
#185 = ORIENTED_EDGE ( 'NONE', *, *, #81, .T. ) ;
#186 = EDGE_CURVE ( 'NONE', #14, #91, #63, .T. ) ;
#187 = CARTESIAN_POINT ( 'NONE',  ( -899.9999999999998863, 12.00000000000000000, 230.0000000000000000 ) ) ;
#188 = COLOUR_RGB ( '',0.7921568627450980005, 0.8196078431372548767, 0.9333333333333333481 ) ;
#189 = AXIS2_PLACEMENT_3D ( 'NONE', #164, #103, #26 ) ;
#190 = EDGE_LOOP ( 'NONE', ( #185, #8, #61, #2 ) ) ;
#191 = EDGE_LOOP ( 'NONE', ( #9, #176, #175, #21 ) ) ;
#192 = PRODUCT ( 'UNI180T.C_STEP_V10424', 'UNI180T.C_STEP_V10424', '', ( #181 ) ) ;
#193 = DIRECTION ( 'NONE',  ( 1.000000000000000000, 0.000000000000000000, 0.000000000000000000 ) ) ;
#194 = CARTESIAN_POINT ( 'NONE',  ( -899.9999999999998863, 0.000000000000000000, 230.0000000000000000 ) ) ;
#195 =( NAMED_UNIT ( * ) SI_UNIT ( $, .STERADIAN. ) SOLID_ANGLE_UNIT ( ) );
#196 = CLOSED_SHELL ( 'NONE', ( #46, #198, #74, #23, #95, #128 ) ) ;
#197 = CARTESIAN_POINT ( 'NONE',  ( 900.0000000000000000, 12.00000000000000000, 230.0000000000000000 ) ) ;
#198 = ADVANCED_FACE ( 'NONE', ( #52 ), #99, .F. ) ;
#199 = CARTESIAN_POINT ( 'NONE',  ( 900.0000000000000000, 0.000000000000000000, -230.0000000000000000 ) ) ;
#200 = VECTOR ( 'NONE', #127, 1000.000000000000000 ) ;
#201 = UNCERTAINTY_MEASURE_WITH_UNIT (LENGTH_MEASURE( 1.000000000000000082E-05 ), #179, 'distance_accuracy_value', 'NONE');
#202 = FILL_AREA_STYLE ('',( #79 ) ) ;
ENDSEC;
END-ISO-10303-21;
