ISO-10303-21;
HEADER;
FILE_DESCRIPTION (( 'STEP AP214' ),
    '1' );
FILE_NAME ('UNI160T.C_STEP_V10424.STEP',
    '2024-04-05T09:59:53',
    ( '' ),
    ( '' ),
    'SwSTEP 2.0',
    'SolidWorks 2019',
    '' );
FILE_SCHEMA (( 'AUTOMOTIVE_DESIGN' ));
ENDSEC;

DATA;
#1 = ORIENTED_EDGE ( 'NONE', *, *, #45, .T. ) ;
#2 = CARTESIAN_POINT ( 'NONE',  ( -799.9999999999998863, 12.00000000000000000, 230.0000000000000000 ) ) ;
#3 = STYLED_ITEM ( 'NONE', ( #11 ), #149 ) ;
#4 = PLANE ( 'NONE',  #109 ) ;
#5 = CARTESIAN_POINT ( 'NONE',  ( -799.9999999999998863, 12.00000000000000000, -230.0000000000000000 ) ) ;
#6 = CARTESIAN_POINT ( 'NONE',  ( -799.9999999999998863, 0.000000000000000000, 230.0000000000000000 ) ) ;
#7 = VECTOR ( 'NONE', #195, 1000.000000000000000 ) ;
#8 = VERTEX_POINT ( 'NONE', #146 ) ;
#9 = CARTESIAN_POINT ( 'NONE',  ( 800.0000000000001137, 0.000000000000000000, -230.0000000000000000 ) ) ;
#10 = FILL_AREA_STYLE_COLOUR ( '', #168 ) ;
#11 = PRESENTATION_STYLE_ASSIGNMENT (( #166 ) ) ;
#12 = EDGE_LOOP ( 'NONE', ( #132, #93, #29, #43 ) ) ;
#13 = ADVANCED_FACE ( 'NONE', ( #114 ), #4, .F. ) ;
#14 = VECTOR ( 'NONE', #145, 1000.000000000000000 ) ;
#15 = EDGE_CURVE ( 'NONE', #8, #157, #131, .T. ) ;
#16 = DIRECTION ( 'NONE',  ( -0.000000000000000000, -0.000000000000000000, 1.000000000000000000 ) ) ;
#17 = LINE ( 'NONE', #148, #197 ) ;
#18 = CARTESIAN_POINT ( 'NONE',  ( -799.9999999999998863, 0.000000000000000000, -230.0000000000000000 ) ) ;
#19 = PLANE ( 'NONE',  #154 ) ;
#20 = LINE ( 'NONE', #95, #170 ) ;
#21 = CARTESIAN_POINT ( 'NONE',  ( 800.0000000000001137, 12.00000000000000000, 230.0000000000000000 ) ) ;
#22 = LINE ( 'NONE', #31, #120 ) ;
#23 =( NAMED_UNIT ( * ) PLANE_ANGLE_UNIT ( ) SI_UNIT ( $, .RADIAN. ) );
#24 = ADVANCED_FACE ( 'NONE', ( #26 ), #40, .F. ) ;
#25 = EDGE_LOOP ( 'NONE', ( #1, #28, #173, #164 ) ) ;
#26 = FACE_OUTER_BOUND ( 'NONE', #25, .T. ) ;
#27 = CARTESIAN_POINT ( 'NONE',  ( -799.9999999999998863, 12.00000000000000000, 230.0000000000000000 ) ) ;
#28 = ORIENTED_EDGE ( 'NONE', *, *, #64, .F. ) ;
#29 = ORIENTED_EDGE ( 'NONE', *, *, #196, .F. ) ;
#30 = CARTESIAN_POINT ( 'NONE',  ( 800.0000000000001137, 12.00000000000000000, 230.0000000000000000 ) ) ;
#31 = CARTESIAN_POINT ( 'NONE',  ( -799.9999999999998863, 12.00000000000000000, 230.0000000000000000 ) ) ;
#32 = PRODUCT ( 'UNI160T.C_STEP_V10424', 'UNI160T.C_STEP_V10424', '', ( #89 ) ) ;
#33 = PLANE ( 'NONE',  #106 ) ;
#34 =( LENGTH_UNIT ( ) NAMED_UNIT ( * ) SI_UNIT ( .MILLI., .METRE. ) );
#35 =( GEOMETRIC_REPRESENTATION_CONTEXT ( 3 ) GLOBAL_UNCERTAINTY_ASSIGNED_CONTEXT ( ( #96 ) ) GLOBAL_UNIT_ASSIGNED_CONTEXT ( ( #69, #65, #71 ) ) REPRESENTATION_CONTEXT ( 'NONE', 'WORKASPACE' ) );
#36 = ORIENTED_EDGE ( 'NONE', *, *, #83, .F. ) ;
#37 = ORIENTED_EDGE ( 'NONE', *, *, #41, .F. ) ;
#38 = CLOSED_SHELL ( 'NONE', ( #13, #85, #24, #108, #183, #90 ) ) ;
#39 = ORIENTED_EDGE ( 'NONE', *, *, #159, .F. ) ;
#40 = PLANE ( 'NONE',  #142 ) ;
#41 = EDGE_CURVE ( 'NONE', #137, #8, #17, .T. ) ;
#42 = UNCERTAINTY_MEASURE_WITH_UNIT (LENGTH_MEASURE( 1.000000000000000082E-05 ), #169, 'distance_accuracy_value', 'NONE');
#43 = ORIENTED_EDGE ( 'NONE', *, *, #64, .T. ) ;
#44 = FILL_AREA_STYLE_COLOUR ( '', #126 ) ;
#45 = EDGE_CURVE ( 'NONE', #46, #138, #100, .T. ) ;
#46 = VERTEX_POINT ( 'NONE', #18 ) ;
#47 = CARTESIAN_POINT ( 'NONE',  ( 0.000000000000000000, 0.000000000000000000, 0.000000000000000000 ) ) ;
#48 = PRESENTATION_LAYER_ASSIGNMENT (  '', '', ( #3 ) ) ;
#49 = LINE ( 'NONE', #27, #135 ) ;
#50 = DIRECTION ( 'NONE',  ( -1.000000000000000000, -0.000000000000000000, -0.000000000000000000 ) ) ;
#51 = VECTOR ( 'NONE', #129, 1000.000000000000000 ) ;
#52 =( NAMED_UNIT ( * ) SI_UNIT ( $, .STERADIAN. ) SOLID_ANGLE_UNIT ( ) );
#53 = SURFACE_SIDE_STYLE ('',( #133 ) ) ;
#54 = VECTOR ( 'NONE', #50, 1000.000000000000000 ) ;
#55 = ORIENTED_EDGE ( 'NONE', *, *, #45, .F. ) ;
#56 = DIRECTION ( 'NONE',  ( -0.000000000000000000, -1.000000000000000000, -0.000000000000000000 ) ) ;
#57 = DIRECTION ( 'NONE',  ( 0.000000000000000000, 0.000000000000000000, -1.000000000000000000 ) ) ;
#58 = VECTOR ( 'NONE', #57, 1000.000000000000000 ) ;
#59 = ORIENTED_EDGE ( 'NONE', *, *, #41, .T. ) ;
#60 = DIRECTION ( 'NONE',  ( 0.000000000000000000, -0.000000000000000000, -1.000000000000000000 ) ) ;
#61 = CARTESIAN_POINT ( 'NONE',  ( -799.9999999999998863, 12.00000000000000000, -230.0000000000000000 ) ) ;
#62 = LINE ( 'NONE', #61, #51 ) ;
#63 =( GEOMETRIC_REPRESENTATION_CONTEXT ( 3 ) GLOBAL_UNCERTAINTY_ASSIGNED_CONTEXT ( ( #76 ) ) GLOBAL_UNIT_ASSIGNED_CONTEXT ( ( #34, #23, #52 ) ) REPRESENTATION_CONTEXT ( 'NONE', 'WORKASPACE' ) );
#64 = EDGE_CURVE ( 'NONE', #156, #138, #49, .T. ) ;
#65 =( NAMED_UNIT ( * ) PLANE_ANGLE_UNIT ( ) SI_UNIT ( $, .RADIAN. ) );
#66 = EDGE_LOOP ( 'NONE', ( #59, #128, #110, #92 ) ) ;
#67 = EDGE_CURVE ( 'NONE', #111, #157, #81, .T. ) ;
#68 = VECTOR ( 'NONE', #98, 1000.000000000000000 ) ;
#69 =( LENGTH_UNIT ( ) NAMED_UNIT ( * ) SI_UNIT ( .MILLI., .METRE. ) );
#70 = VERTEX_POINT ( 'NONE', #5 ) ;
#71 =( NAMED_UNIT ( * ) SI_UNIT ( $, .STERADIAN. ) SOLID_ANGLE_UNIT ( ) );
#72 =( NAMED_UNIT ( * ) SI_UNIT ( $, .STERADIAN. ) SOLID_ANGLE_UNIT ( ) );
#73 = PRODUCT_RELATED_PRODUCT_CATEGORY ( 'part', '', ( #32 ) ) ;
#74 = APPLICATION_CONTEXT ( 'automotive_design' ) ;
#75 = ADVANCED_BREP_SHAPE_REPRESENTATION ( 'UNI160T.C_STEP_V10424', ( #149, #193 ), #35 ) ;
#76 = UNCERTAINTY_MEASURE_WITH_UNIT (LENGTH_MEASURE( 1.000000000000000082E-05 ), #34, 'distance_accuracy_value', 'NONE');
#77 = PLANE ( 'NONE',  #162 ) ;
#78 = DIRECTION ( 'NONE',  ( 0.000000000000000000, 0.000000000000000000, -1.000000000000000000 ) ) ;
#79 = DIRECTION ( 'NONE',  ( 0.000000000000000000, 0.000000000000000000, 1.000000000000000000 ) ) ;
#80 = DIRECTION ( 'NONE',  ( -1.000000000000000000, 0.000000000000000000, -0.000000000000000000 ) ) ;
#81 = LINE ( 'NONE', #161, #58 ) ;
#82 = STYLED_ITEM ( 'NONE', ( #119 ), #75 ) ;
#83 = EDGE_CURVE ( 'NONE', #70, #46, #62, .T. ) ;
#84 = PRODUCT_DEFINITION_SHAPE ( 'NONE', 'NONE',  #180 ) ;
#85 = ADVANCED_FACE ( 'NONE', ( #171 ), #19, .F. ) ;
#86 = DIRECTION ( 'NONE',  ( 1.000000000000000000, 0.000000000000000000, 0.000000000000000000 ) ) ;
#87 = APPLICATION_PROTOCOL_DEFINITION ( 'draft international standard', 'automotive_design', 1998, #74 ) ;
#88 = FACE_OUTER_BOUND ( 'NONE', #66, .T. ) ;
#89 = PRODUCT_CONTEXT ( 'NONE', #74, 'mechanical' ) ;
#90 = ADVANCED_FACE ( 'NONE', ( #191 ), #77, .T. ) ;
#91 = ORIENTED_EDGE ( 'NONE', *, *, #201, .T. ) ;
#92 = ORIENTED_EDGE ( 'NONE', *, *, #196, .T. ) ;
#93 = ORIENTED_EDGE ( 'NONE', *, *, #201, .F. ) ;
#94 = MECHANICAL_DESIGN_GEOMETRIC_PRESENTATION_REPRESENTATION (  '', ( #3 ), #63 ) ;
#95 = CARTESIAN_POINT ( 'NONE',  ( -799.9999999999998863, 12.00000000000000000, 230.0000000000000000 ) ) ;
#96 = UNCERTAINTY_MEASURE_WITH_UNIT (LENGTH_MEASURE( 1.000000000000000082E-05 ), #69, 'distance_accuracy_value', 'NONE');
#97 = CARTESIAN_POINT ( 'NONE',  ( 800.0000000000001137, 0.000000000000000000, 230.0000000000000000 ) ) ;
#98 = DIRECTION ( 'NONE',  ( -0.000000000000000000, -1.000000000000000000, -0.000000000000000000 ) ) ;
#99 = AXIS2_PLACEMENT_3D ( 'NONE', #115, #176, #80 ) ;
#100 = LINE ( 'NONE', #6, #14 ) ;
#101 = CARTESIAN_POINT ( 'NONE',  ( -799.9999999999998863, 0.000000000000000000, 230.0000000000000000 ) ) ;
#102 = LINE ( 'NONE', #21, #147 ) ;
#103 =( NAMED_UNIT ( * ) PLANE_ANGLE_UNIT ( ) SI_UNIT ( $, .RADIAN. ) );
#104 = ORIENTED_EDGE ( 'NONE', *, *, #15, .F. ) ;
#105 = LINE ( 'NONE', #118, #7 ) ;
#106 = AXIS2_PLACEMENT_3D ( 'NONE', #117, #134, #178 ) ;
#107 = ORIENTED_EDGE ( 'NONE', *, *, #151, .T. ) ;
#108 = ADVANCED_FACE ( 'NONE', ( #158 ), #194, .F. ) ;
#109 = AXIS2_PLACEMENT_3D ( 'NONE', #116, #113, #79 ) ;
#110 = ORIENTED_EDGE ( 'NONE', *, *, #143, .T. ) ;
#111 = VERTEX_POINT ( 'NONE', #97 ) ;
#112 = DIRECTION ( 'NONE',  ( 1.000000000000000000, -0.000000000000000000, 0.000000000000000000 ) ) ;
#113 = DIRECTION ( 'NONE',  ( -1.000000000000000000, 0.000000000000000000, 0.000000000000000000 ) ) ;
#114 = FACE_OUTER_BOUND ( 'NONE', #160, .T. ) ;
#115 = CARTESIAN_POINT ( 'NONE',  ( -799.9999999999998863, 12.00000000000000000, 230.0000000000000000 ) ) ;
#116 = CARTESIAN_POINT ( 'NONE',  ( 800.0000000000001137, 12.00000000000000000, 230.0000000000000000 ) ) ;
#117 = CARTESIAN_POINT ( 'NONE',  ( 0.000000000000000000, 12.00000000000000000, 0.000000000000000000 ) ) ;
#118 = CARTESIAN_POINT ( 'NONE',  ( -799.9999999999998863, 0.000000000000000000, -230.0000000000000000 ) ) ;
#119 = PRESENTATION_STYLE_ASSIGNMENT (( #136 ) ) ;
#120 = VECTOR ( 'NONE', #86, 1000.000000000000000 ) ;
#121 = DIRECTION ( 'NONE',  ( 1.000000000000000000, 0.000000000000000000, 0.000000000000000000 ) ) ;
#122 = EDGE_CURVE ( 'NONE', #138, #111, #165, .T. ) ;
#123 = ORIENTED_EDGE ( 'NONE', *, *, #67, .T. ) ;
#124 = DIRECTION ( 'NONE',  ( 0.000000000000000000, 0.000000000000000000, 1.000000000000000000 ) ) ;
#125 = EDGE_LOOP ( 'NONE', ( #202, #175, #55, #188 ) ) ;
#126 = COLOUR_RGB ( '',0.7921568627450980005, 0.8196078431372548767, 0.9333333333333333481 ) ;
#127 = DIRECTION ( 'NONE',  ( 0.000000000000000000, -1.000000000000000000, 0.000000000000000000 ) ) ;
#128 = ORIENTED_EDGE ( 'NONE', *, *, #159, .T. ) ;
#129 = DIRECTION ( 'NONE',  ( -0.000000000000000000, -1.000000000000000000, -0.000000000000000000 ) ) ;
#130 =( GEOMETRIC_REPRESENTATION_CONTEXT ( 3 ) GLOBAL_UNCERTAINTY_ASSIGNED_CONTEXT ( ( #42 ) ) GLOBAL_UNIT_ASSIGNED_CONTEXT ( ( #169, #103, #72 ) ) REPRESENTATION_CONTEXT ( 'NONE', 'WORKASPACE' ) );
#131 = LINE ( 'NONE', #141, #68 ) ;
#132 = ORIENTED_EDGE ( 'NONE', *, *, #122, .T. ) ;
#133 = SURFACE_STYLE_FILL_AREA ( #198 ) ;
#134 = DIRECTION ( 'NONE',  ( 0.000000000000000000, -1.000000000000000000, 0.000000000000000000 ) ) ;
#135 = VECTOR ( 'NONE', #56, 1000.000000000000000 ) ;
#136 = SURFACE_STYLE_USAGE ( .BOTH. , #53 ) ;
#137 = VERTEX_POINT ( 'NONE', #30 ) ;
#138 = VERTEX_POINT ( 'NONE', #101 ) ;
#139 = CARTESIAN_POINT ( 'NONE',  ( 0.000000000000000000, 0.000000000000000000, 0.000000000000000000 ) ) ;
#140 = PRESENTATION_LAYER_ASSIGNMENT (  '', '', ( #82 ) ) ;
#141 = CARTESIAN_POINT ( 'NONE',  ( 800.0000000000001137, 12.00000000000000000, -230.0000000000000000 ) ) ;
#142 = AXIS2_PLACEMENT_3D ( 'NONE', #190, #112, #163 ) ;
#143 = EDGE_CURVE ( 'NONE', #70, #156, #20, .T. ) ;
#144 = CARTESIAN_POINT ( 'NONE',  ( -799.9999999999998863, 12.00000000000000000, -230.0000000000000000 ) ) ;
#145 = DIRECTION ( 'NONE',  ( -0.000000000000000000, -0.000000000000000000, 1.000000000000000000 ) ) ;
#146 = CARTESIAN_POINT ( 'NONE',  ( 800.0000000000001137, 12.00000000000000000, -230.0000000000000000 ) ) ;
#147 = VECTOR ( 'NONE', #184, 1000.000000000000000 ) ;
#148 = CARTESIAN_POINT ( 'NONE',  ( 800.0000000000001137, 12.00000000000000000, 230.0000000000000000 ) ) ;
#149 = MANIFOLD_SOLID_BREP ( 'Boss-Extrude1', #38 ) ;
#150 = SURFACE_STYLE_FILL_AREA ( #153 ) ;
#151 = EDGE_CURVE ( 'NONE', #157, #46, #105, .T. ) ;
#152 = CARTESIAN_POINT ( 'NONE',  ( -799.9999999999998863, 12.00000000000000000, -230.0000000000000000 ) ) ;
#153 = FILL_AREA_STYLE ('',( #44 ) ) ;
#154 = AXIS2_PLACEMENT_3D ( 'NONE', #144, #124, #174 ) ;
#155 = SHAPE_DEFINITION_REPRESENTATION ( #84, #75 ) ;
#156 = VERTEX_POINT ( 'NONE', #2 ) ;
#157 = VERTEX_POINT ( 'NONE', #9 ) ;
#158 = FACE_OUTER_BOUND ( 'NONE', #12, .T. ) ;
#159 = EDGE_CURVE ( 'NONE', #8, #70, #167, .T. ) ;
#160 = EDGE_LOOP ( 'NONE', ( #123, #104, #37, #91 ) ) ;
#161 = CARTESIAN_POINT ( 'NONE',  ( 800.0000000000001137, 0.000000000000000000, 230.0000000000000000 ) ) ;
#162 = AXIS2_PLACEMENT_3D ( 'NONE', #47, #127, #60 ) ;
#163 = DIRECTION ( 'NONE',  ( 0.000000000000000000, 0.000000000000000000, -1.000000000000000000 ) ) ;
#164 = ORIENTED_EDGE ( 'NONE', *, *, #83, .T. ) ;
#165 = LINE ( 'NONE', #189, #182 ) ;
#166 = SURFACE_STYLE_USAGE ( .BOTH. , #186 ) ;
#167 = LINE ( 'NONE', #152, #54 ) ;
#168 = COLOUR_RGB ( '',0.7921568627450980005, 0.8196078431372548767, 0.9333333333333333481 ) ;
#169 =( LENGTH_UNIT ( ) NAMED_UNIT ( * ) SI_UNIT ( .MILLI., .METRE. ) );
#170 = VECTOR ( 'NONE', #16, 1000.000000000000000 ) ;
#171 = FACE_OUTER_BOUND ( 'NONE', #185, .T. ) ;
#172 = PRODUCT_DEFINITION_CONTEXT ( 'detailed design', #192, 'design' ) ;
#173 = ORIENTED_EDGE ( 'NONE', *, *, #143, .F. ) ;
#174 = DIRECTION ( 'NONE',  ( 1.000000000000000000, 0.000000000000000000, -0.000000000000000000 ) ) ;
#175 = ORIENTED_EDGE ( 'NONE', *, *, #122, .F. ) ;
#176 = DIRECTION ( 'NONE',  ( 0.000000000000000000, 0.000000000000000000, -1.000000000000000000 ) ) ;
#177 = DIRECTION ( 'NONE',  ( 1.000000000000000000, 0.000000000000000000, 0.000000000000000000 ) ) ;
#178 = DIRECTION ( 'NONE',  ( 0.000000000000000000, -0.000000000000000000, -1.000000000000000000 ) ) ;
#179 = PRODUCT_DEFINITION_FORMATION_WITH_SPECIFIED_SOURCE ( 'ANY', '', #32, .NOT_KNOWN. ) ;
#180 = PRODUCT_DEFINITION ( 'UNKNOWN', '', #179, #172 ) ;
#181 = ORIENTED_EDGE ( 'NONE', *, *, #15, .T. ) ;
#182 = VECTOR ( 'NONE', #177, 1000.000000000000000 ) ;
#183 = ADVANCED_FACE ( 'NONE', ( #88 ), #33, .F. ) ;
#184 = DIRECTION ( 'NONE',  ( -0.000000000000000000, -1.000000000000000000, -0.000000000000000000 ) ) ;
#185 = EDGE_LOOP ( 'NONE', ( #107, #36, #39, #181 ) ) ;
#186 = SURFACE_SIDE_STYLE ('',( #150 ) ) ;
#187 = APPLICATION_PROTOCOL_DEFINITION ( 'draft international standard', 'automotive_design', 1998, #192 ) ;
#188 = ORIENTED_EDGE ( 'NONE', *, *, #151, .F. ) ;
#189 = CARTESIAN_POINT ( 'NONE',  ( -799.9999999999998863, 0.000000000000000000, 230.0000000000000000 ) ) ;
#190 = CARTESIAN_POINT ( 'NONE',  ( -799.9999999999998863, 12.00000000000000000, 230.0000000000000000 ) ) ;
#191 = FACE_OUTER_BOUND ( 'NONE', #125, .T. ) ;
#192 = APPLICATION_CONTEXT ( 'automotive_design' ) ;
#193 = AXIS2_PLACEMENT_3D ( 'NONE', #139, #200, #121 ) ;
#194 = PLANE ( 'NONE',  #99 ) ;
#195 = DIRECTION ( 'NONE',  ( -1.000000000000000000, -0.000000000000000000, -0.000000000000000000 ) ) ;
#196 = EDGE_CURVE ( 'NONE', #156, #137, #22, .T. ) ;
#197 = VECTOR ( 'NONE', #78, 1000.000000000000000 ) ;
#198 = FILL_AREA_STYLE ('',( #10 ) ) ;
#199 = MECHANICAL_DESIGN_GEOMETRIC_PRESENTATION_REPRESENTATION (  '', ( #82 ), #130 ) ;
#200 = DIRECTION ( 'NONE',  ( 0.000000000000000000, 0.000000000000000000, 1.000000000000000000 ) ) ;
#201 = EDGE_CURVE ( 'NONE', #137, #111, #102, .T. ) ;
#202 = ORIENTED_EDGE ( 'NONE', *, *, #67, .F. ) ;
ENDSEC;
END-ISO-10303-21;
