ISO-10303-21;
HEADER;
FILE_DESCRIPTION (( 'STEP AP214' ),
    '1' );
FILE_NAME ('UNI140T.C_STEP_V10424.STEP',
    '2024-04-05T09:59:32',
    ( '' ),
    ( '' ),
    'SwSTEP 2.0',
    'SolidWorks 2019',
    '' );
FILE_SCHEMA (( 'AUTOMOTIVE_DESIGN' ));
ENDSEC;

DATA;
#1 = SURFACE_STYLE_USAGE ( .BOTH. , #66 ) ;
#2 = EDGE_CURVE ( 'NONE', #53, #144, #72, .T. ) ;
#3 = AXIS2_PLACEMENT_3D ( 'NONE', #159, #22, #141 ) ;
#4 = ORIENTED_EDGE ( 'NONE', *, *, #117, .F. ) ;
#5 = VERTEX_POINT ( 'NONE', #91 ) ;
#6 = ORIENTED_EDGE ( 'NONE', *, *, #124, .T. ) ;
#7 =( GEOMETRIC_REPRESENTATION_CONTEXT ( 3 ) GLOBAL_UNCERTAINTY_ASSIGNED_CONTEXT ( ( #37 ) ) GLOBAL_UNIT_ASSIGNED_CONTEXT ( ( #95, #15, #25 ) ) REPRESENTATION_CONTEXT ( 'NONE', 'WORKASPACE' ) );
#8 = DIRECTION ( 'NONE',  ( 0.000000000000000000, -1.000000000000000000, 0.000000000000000000 ) ) ;
#9 = DIRECTION ( 'NONE',  ( -1.000000000000000000, 0.000000000000000000, -0.000000000000000000 ) ) ;
#10 = FILL_AREA_STYLE_COLOUR ( '', #86 ) ;
#11 = ADVANCED_BREP_SHAPE_REPRESENTATION ( 'UNI140T.C_STEP_V10424', ( #131, #67 ), #7 ) ;
#12 = LINE ( 'NONE', #116, #17 ) ;
#13 = FACE_OUTER_BOUND ( 'NONE', #140, .T. ) ;
#14 = AXIS2_PLACEMENT_3D ( 'NONE', #19, #85, #9 ) ;
#15 =( NAMED_UNIT ( * ) PLANE_ANGLE_UNIT ( ) SI_UNIT ( $, .RADIAN. ) );
#16 = DIRECTION ( 'NONE',  ( -0.000000000000000000, -1.000000000000000000, -0.000000000000000000 ) ) ;
#17 = VECTOR ( 'NONE', #161, 1000.000000000000000 ) ;
#18 = ORIENTED_EDGE ( 'NONE', *, *, #32, .T. ) ;
#19 = CARTESIAN_POINT ( 'NONE',  ( -699.9999999999998863, 12.00000000000000000, 230.0000000000000000 ) ) ;
#20 = ORIENTED_EDGE ( 'NONE', *, *, #30, .F. ) ;
#21 = LINE ( 'NONE', #104, #158 ) ;
#22 = DIRECTION ( 'NONE',  ( -1.000000000000000000, 0.000000000000000000, 0.000000000000000000 ) ) ;
#23 = DIRECTION ( 'NONE',  ( -0.000000000000000000, -0.000000000000000000, 1.000000000000000000 ) ) ;
#24 = VERTEX_POINT ( 'NONE', #192 ) ;
#25 =( NAMED_UNIT ( * ) SI_UNIT ( $, .STERADIAN. ) SOLID_ANGLE_UNIT ( ) );
#26 = DIRECTION ( 'NONE',  ( 0.000000000000000000, -0.000000000000000000, -1.000000000000000000 ) ) ;
#27 = ADVANCED_FACE ( 'NONE', ( #172 ), #43, .F. ) ;
#28 = DIRECTION ( 'NONE',  ( 0.000000000000000000, 0.000000000000000000, -1.000000000000000000 ) ) ;
#29 = CARTESIAN_POINT ( 'NONE',  ( -699.9999999999998863, 0.000000000000000000, -230.0000000000000000 ) ) ;
#30 = EDGE_CURVE ( 'NONE', #53, #5, #174, .T. ) ;
#31 = ORIENTED_EDGE ( 'NONE', *, *, #170, .F. ) ;
#32 = EDGE_CURVE ( 'NONE', #35, #175, #21, .T. ) ;
#33 = PLANE ( 'NONE',  #3 ) ;
#34 = VECTOR ( 'NONE', #181, 1000.000000000000000 ) ;
#35 = VERTEX_POINT ( 'NONE', #74 ) ;
#36 = DIRECTION ( 'NONE',  ( 1.000000000000000000, 0.000000000000000000, 0.000000000000000000 ) ) ;
#37 = UNCERTAINTY_MEASURE_WITH_UNIT (LENGTH_MEASURE( 1.000000000000000082E-05 ), #95, 'distance_accuracy_value', 'NONE');
#38 = PRODUCT_DEFINITION_SHAPE ( 'NONE', 'NONE',  #111 ) ;
#39 = CARTESIAN_POINT ( 'NONE',  ( -699.9999999999998863, 12.00000000000000000, 230.0000000000000000 ) ) ;
#40 = PRODUCT_RELATED_PRODUCT_CATEGORY ( 'part', '', ( #127 ) ) ;
#41 = DIRECTION ( 'NONE',  ( -0.000000000000000000, -0.000000000000000000, 1.000000000000000000 ) ) ;
#42 = EDGE_CURVE ( 'NONE', #5, #24, #12, .T. ) ;
#43 = PLANE ( 'NONE',  #193 ) ;
#44 = STYLED_ITEM ( 'NONE', ( #107 ), #11 ) ;
#45 = DIRECTION ( 'NONE',  ( 0.000000000000000000, 0.000000000000000000, -1.000000000000000000 ) ) ;
#46 = FILL_AREA_STYLE ('',( #120 ) ) ;
#47 = SURFACE_STYLE_USAGE ( .BOTH. , #186 ) ;
#48 = LINE ( 'NONE', #29, #52 ) ;
#49 =( LENGTH_UNIT ( ) NAMED_UNIT ( * ) SI_UNIT ( .MILLI., .METRE. ) );
#50 = AXIS2_PLACEMENT_3D ( 'NONE', #94, #182, #26 ) ;
#51 = APPLICATION_CONTEXT ( 'automotive_design' ) ;
#52 = VECTOR ( 'NONE', #79, 1000.000000000000000 ) ;
#53 = VERTEX_POINT ( 'NONE', #101 ) ;
#54 = ORIENTED_EDGE ( 'NONE', *, *, #2, .F. ) ;
#55 = CARTESIAN_POINT ( 'NONE',  ( -699.9999999999998863, 12.00000000000000000, 230.0000000000000000 ) ) ;
#56 = ORIENTED_EDGE ( 'NONE', *, *, #157, .F. ) ;
#57 = LINE ( 'NONE', #90, #78 ) ;
#58 = LINE ( 'NONE', #163, #190 ) ;
#59 = FACE_OUTER_BOUND ( 'NONE', #139, .T. ) ;
#60 = ADVANCED_FACE ( 'NONE', ( #145 ), #102, .F. ) ;
#61 = CARTESIAN_POINT ( 'NONE',  ( -699.9999999999998863, 0.000000000000000000, 230.0000000000000000 ) ) ;
#62 = PRESENTATION_STYLE_ASSIGNMENT (( #1 ) ) ;
#63 = VECTOR ( 'NONE', #137, 1000.000000000000000 ) ;
#64 = APPLICATION_PROTOCOL_DEFINITION ( 'draft international standard', 'automotive_design', 1998, #51 ) ;
#65 = CARTESIAN_POINT ( 'NONE',  ( 700.0000000000001137, 12.00000000000000000, -230.0000000000000000 ) ) ;
#66 = SURFACE_SIDE_STYLE ('',( #199 ) ) ;
#67 = AXIS2_PLACEMENT_3D ( 'NONE', #200, #150, #105 ) ;
#68 = EDGE_CURVE ( 'NONE', #175, #76, #57, .T. ) ;
#69 = ORIENTED_EDGE ( 'NONE', *, *, #157, .T. ) ;
#70 = MECHANICAL_DESIGN_GEOMETRIC_PRESENTATION_REPRESENTATION (  '', ( #44 ), #178 ) ;
#71 = EDGE_LOOP ( 'NONE', ( #6, #54, #4, #125 ) ) ;
#72 = LINE ( 'NONE', #55, #34 ) ;
#73 = ORIENTED_EDGE ( 'NONE', *, *, #124, .F. ) ;
#74 = CARTESIAN_POINT ( 'NONE',  ( 700.0000000000001137, 12.00000000000000000, -230.0000000000000000 ) ) ;
#75 = ORIENTED_EDGE ( 'NONE', *, *, #167, .T. ) ;
#76 = VERTEX_POINT ( 'NONE', #133 ) ;
#77 = EDGE_LOOP ( 'NONE', ( #191, #99, #189, #69 ) ) ;
#78 = VECTOR ( 'NONE', #128, 1000.000000000000000 ) ;
#79 = DIRECTION ( 'NONE',  ( -1.000000000000000000, -0.000000000000000000, -0.000000000000000000 ) ) ;
#80 = PRODUCT_CONTEXT ( 'NONE', #51, 'mechanical' ) ;
#81 = CARTESIAN_POINT ( 'NONE',  ( -699.9999999999998863, 12.00000000000000000, -230.0000000000000000 ) ) ;
#82 = VECTOR ( 'NONE', #28, 1000.000000000000000 ) ;
#83 = ADVANCED_FACE ( 'NONE', ( #176 ), #197, .F. ) ;
#84 = ORIENTED_EDGE ( 'NONE', *, *, #167, .F. ) ;
#85 = DIRECTION ( 'NONE',  ( 0.000000000000000000, 0.000000000000000000, -1.000000000000000000 ) ) ;
#86 = COLOUR_RGB ( '',0.7921568627450980005, 0.8196078431372548767, 0.9333333333333333481 ) ;
#87 = ORIENTED_EDGE ( 'NONE', *, *, #170, .T. ) ;
#88 = ORIENTED_EDGE ( 'NONE', *, *, #42, .F. ) ;
#89 = ORIENTED_EDGE ( 'NONE', *, *, #180, .F. ) ;
#90 = CARTESIAN_POINT ( 'NONE',  ( -699.9999999999998863, 12.00000000000000000, -230.0000000000000000 ) ) ;
#91 = CARTESIAN_POINT ( 'NONE',  ( 700.0000000000001137, 12.00000000000000000, 230.0000000000000000 ) ) ;
#92 = CARTESIAN_POINT ( 'NONE',  ( 700.0000000000001137, 12.00000000000000000, 230.0000000000000000 ) ) ;
#93 = VECTOR ( 'NONE', #36, 1000.000000000000000 ) ;
#94 = CARTESIAN_POINT ( 'NONE',  ( 0.000000000000000000, 0.000000000000000000, 0.000000000000000000 ) ) ;
#95 =( LENGTH_UNIT ( ) NAMED_UNIT ( * ) SI_UNIT ( .MILLI., .METRE. ) );
#96 = LINE ( 'NONE', #155, #156 ) ;
#97 =( NAMED_UNIT ( * ) PLANE_ANGLE_UNIT ( ) SI_UNIT ( $, .RADIAN. ) );
#98 = EDGE_LOOP ( 'NONE', ( #75, #18, #173, #126 ) ) ;
#99 = ORIENTED_EDGE ( 'NONE', *, *, #68, .F. ) ;
#100 = ORIENTED_EDGE ( 'NONE', *, *, #180, .T. ) ;
#101 = CARTESIAN_POINT ( 'NONE',  ( -699.9999999999998863, 12.00000000000000000, 230.0000000000000000 ) ) ;
#102 = PLANE ( 'NONE',  #198 ) ;
#103 = DIRECTION ( 'NONE',  ( 0.000000000000000000, 0.000000000000000000, 1.000000000000000000 ) ) ;
#104 = CARTESIAN_POINT ( 'NONE',  ( -699.9999999999998863, 12.00000000000000000, -230.0000000000000000 ) ) ;
#105 = DIRECTION ( 'NONE',  ( 1.000000000000000000, 0.000000000000000000, 0.000000000000000000 ) ) ;
#106 = LINE ( 'NONE', #61, #63 ) ;
#107 = PRESENTATION_STYLE_ASSIGNMENT (( #47 ) ) ;
#108 = ADVANCED_FACE ( 'NONE', ( #132 ), #33, .F. ) ;
#109 = ADVANCED_FACE ( 'NONE', ( #59 ), #146, .F. ) ;
#110 = STYLED_ITEM ( 'NONE', ( #62 ), #131 ) ;
#111 = PRODUCT_DEFINITION ( 'UNKNOWN', '', #153, #149 ) ;
#112 = ORIENTED_EDGE ( 'NONE', *, *, #42, .T. ) ;
#113 = DIRECTION ( 'NONE',  ( 1.000000000000000000, -0.000000000000000000, 0.000000000000000000 ) ) ;
#114 = ORIENTED_EDGE ( 'NONE', *, *, #2, .T. ) ;
#115 = CARTESIAN_POINT ( 'NONE',  ( -699.9999999999998863, 12.00000000000000000, -230.0000000000000000 ) ) ;
#116 = CARTESIAN_POINT ( 'NONE',  ( 700.0000000000001137, 12.00000000000000000, 230.0000000000000000 ) ) ;
#117 = EDGE_CURVE ( 'NONE', #175, #53, #130, .T. ) ;
#118 = DIRECTION ( 'NONE',  ( -1.000000000000000000, -0.000000000000000000, -0.000000000000000000 ) ) ;
#119 = PRESENTATION_LAYER_ASSIGNMENT (  '', '', ( #44 ) ) ;
#120 = FILL_AREA_STYLE_COLOUR ( '', #169 ) ;
#121 = SURFACE_STYLE_FILL_AREA ( #46 ) ;
#122 = LINE ( 'NONE', #65, #138 ) ;
#123 = CLOSED_SHELL ( 'NONE', ( #108, #27, #83, #109, #60, #143 ) ) ;
#124 = EDGE_CURVE ( 'NONE', #76, #144, #58, .T. ) ;
#125 = ORIENTED_EDGE ( 'NONE', *, *, #68, .T. ) ;
#126 = ORIENTED_EDGE ( 'NONE', *, *, #30, .T. ) ;
#127 = PRODUCT ( 'UNI140T.C_STEP_V10424', 'UNI140T.C_STEP_V10424', '', ( #80 ) ) ;
#128 = DIRECTION ( 'NONE',  ( -0.000000000000000000, -1.000000000000000000, -0.000000000000000000 ) ) ;
#129 = UNCERTAINTY_MEASURE_WITH_UNIT (LENGTH_MEASURE( 1.000000000000000082E-05 ), #187, 'distance_accuracy_value', 'NONE');
#130 = LINE ( 'NONE', #195, #151 ) ;
#131 = MANIFOLD_SOLID_BREP ( 'Boss-Extrude1', #123 ) ;
#132 = FACE_OUTER_BOUND ( 'NONE', #160, .T. ) ;
#133 = CARTESIAN_POINT ( 'NONE',  ( -699.9999999999998863, 0.000000000000000000, -230.0000000000000000 ) ) ;
#134 = APPLICATION_PROTOCOL_DEFINITION ( 'draft international standard', 'automotive_design', 1998, #183 ) ;
#135 =( GEOMETRIC_REPRESENTATION_CONTEXT ( 3 ) GLOBAL_UNCERTAINTY_ASSIGNED_CONTEXT ( ( #129 ) ) GLOBAL_UNIT_ASSIGNED_CONTEXT ( ( #187, #202, #185 ) ) REPRESENTATION_CONTEXT ( 'NONE', 'WORKASPACE' ) );
#136 = FILL_AREA_STYLE ('',( #10 ) ) ;
#137 = DIRECTION ( 'NONE',  ( 1.000000000000000000, 0.000000000000000000, 0.000000000000000000 ) ) ;
#138 = VECTOR ( 'NONE', #16, 1000.000000000000000 ) ;
#139 = EDGE_LOOP ( 'NONE', ( #100, #88, #20, #114 ) ) ;
#140 = EDGE_LOOP ( 'NONE', ( #31, #89, #73, #171 ) ) ;
#141 = DIRECTION ( 'NONE',  ( 0.000000000000000000, 0.000000000000000000, 1.000000000000000000 ) ) ;
#142 = PRESENTATION_LAYER_ASSIGNMENT (  '', '', ( #110 ) ) ;
#143 = ADVANCED_FACE ( 'NONE', ( #13 ), #147, .T. ) ;
#144 = VERTEX_POINT ( 'NONE', #184 ) ;
#145 = FACE_OUTER_BOUND ( 'NONE', #98, .T. ) ;
#146 = PLANE ( 'NONE',  #14 ) ;
#147 = PLANE ( 'NONE',  #50 ) ;
#148 = DIRECTION ( 'NONE',  ( 1.000000000000000000, 0.000000000000000000, -0.000000000000000000 ) ) ;
#149 = PRODUCT_DEFINITION_CONTEXT ( 'detailed design', #183, 'design' ) ;
#150 = DIRECTION ( 'NONE',  ( 0.000000000000000000, 0.000000000000000000, 1.000000000000000000 ) ) ;
#151 = VECTOR ( 'NONE', #41, 1000.000000000000000 ) ;
#152 = SHAPE_DEFINITION_REPRESENTATION ( #38, #11 ) ;
#153 = PRODUCT_DEFINITION_FORMATION_WITH_SPECIFIED_SOURCE ( 'ANY', '', #127, .NOT_KNOWN. ) ;
#154 = LINE ( 'NONE', #92, #82 ) ;
#155 = CARTESIAN_POINT ( 'NONE',  ( 700.0000000000001137, 0.000000000000000000, 230.0000000000000000 ) ) ;
#156 = VECTOR ( 'NONE', #45, 1000.000000000000000 ) ;
#157 = EDGE_CURVE ( 'NONE', #35, #165, #122, .T. ) ;
#158 = VECTOR ( 'NONE', #118, 1000.000000000000000 ) ;
#159 = CARTESIAN_POINT ( 'NONE',  ( 700.0000000000001137, 12.00000000000000000, 230.0000000000000000 ) ) ;
#160 = EDGE_LOOP ( 'NONE', ( #87, #56, #84, #112 ) ) ;
#161 = DIRECTION ( 'NONE',  ( -0.000000000000000000, -1.000000000000000000, -0.000000000000000000 ) ) ;
#162 = DIRECTION ( 'NONE',  ( 0.000000000000000000, 0.000000000000000000, -1.000000000000000000 ) ) ;
#163 = CARTESIAN_POINT ( 'NONE',  ( -699.9999999999998863, 0.000000000000000000, 230.0000000000000000 ) ) ;
#164 = EDGE_CURVE ( 'NONE', #165, #76, #48, .T. ) ;
#165 = VERTEX_POINT ( 'NONE', #168 ) ;
#166 =( NAMED_UNIT ( * ) SI_UNIT ( $, .STERADIAN. ) SOLID_ANGLE_UNIT ( ) );
#167 = EDGE_CURVE ( 'NONE', #5, #35, #154, .T. ) ;
#168 = CARTESIAN_POINT ( 'NONE',  ( 700.0000000000001137, 0.000000000000000000, -230.0000000000000000 ) ) ;
#169 = COLOUR_RGB ( '',0.7921568627450980005, 0.8196078431372548767, 0.9333333333333333481 ) ;
#170 = EDGE_CURVE ( 'NONE', #24, #165, #96, .T. ) ;
#171 = ORIENTED_EDGE ( 'NONE', *, *, #164, .F. ) ;
#172 = FACE_OUTER_BOUND ( 'NONE', #77, .T. ) ;
#173 = ORIENTED_EDGE ( 'NONE', *, *, #117, .T. ) ;
#174 = LINE ( 'NONE', #39, #93 ) ;
#175 = VERTEX_POINT ( 'NONE', #81 ) ;
#176 = FACE_OUTER_BOUND ( 'NONE', #71, .T. ) ;
#177 = UNCERTAINTY_MEASURE_WITH_UNIT (LENGTH_MEASURE( 1.000000000000000082E-05 ), #49, 'distance_accuracy_value', 'NONE');
#178 =( GEOMETRIC_REPRESENTATION_CONTEXT ( 3 ) GLOBAL_UNCERTAINTY_ASSIGNED_CONTEXT ( ( #177 ) ) GLOBAL_UNIT_ASSIGNED_CONTEXT ( ( #49, #97, #166 ) ) REPRESENTATION_CONTEXT ( 'NONE', 'WORKASPACE' ) );
#179 = CARTESIAN_POINT ( 'NONE',  ( 0.000000000000000000, 12.00000000000000000, 0.000000000000000000 ) ) ;
#180 = EDGE_CURVE ( 'NONE', #144, #24, #106, .T. ) ;
#181 = DIRECTION ( 'NONE',  ( -0.000000000000000000, -1.000000000000000000, -0.000000000000000000 ) ) ;
#182 = DIRECTION ( 'NONE',  ( 0.000000000000000000, -1.000000000000000000, 0.000000000000000000 ) ) ;
#183 = APPLICATION_CONTEXT ( 'automotive_design' ) ;
#184 = CARTESIAN_POINT ( 'NONE',  ( -699.9999999999998863, 0.000000000000000000, 230.0000000000000000 ) ) ;
#185 =( NAMED_UNIT ( * ) SI_UNIT ( $, .STERADIAN. ) SOLID_ANGLE_UNIT ( ) );
#186 = SURFACE_SIDE_STYLE ('',( #121 ) ) ;
#187 =( LENGTH_UNIT ( ) NAMED_UNIT ( * ) SI_UNIT ( .MILLI., .METRE. ) );
#188 = AXIS2_PLACEMENT_3D ( 'NONE', #196, #113, #162 ) ;
#189 = ORIENTED_EDGE ( 'NONE', *, *, #32, .F. ) ;
#190 = VECTOR ( 'NONE', #23, 1000.000000000000000 ) ;
#191 = ORIENTED_EDGE ( 'NONE', *, *, #164, .T. ) ;
#192 = CARTESIAN_POINT ( 'NONE',  ( 700.0000000000001137, 0.000000000000000000, 230.0000000000000000 ) ) ;
#193 = AXIS2_PLACEMENT_3D ( 'NONE', #115, #103, #148 ) ;
#194 = DIRECTION ( 'NONE',  ( 0.000000000000000000, -0.000000000000000000, -1.000000000000000000 ) ) ;
#195 = CARTESIAN_POINT ( 'NONE',  ( -699.9999999999998863, 12.00000000000000000, 230.0000000000000000 ) ) ;
#196 = CARTESIAN_POINT ( 'NONE',  ( -699.9999999999998863, 12.00000000000000000, 230.0000000000000000 ) ) ;
#197 = PLANE ( 'NONE',  #188 ) ;
#198 = AXIS2_PLACEMENT_3D ( 'NONE', #179, #8, #194 ) ;
#199 = SURFACE_STYLE_FILL_AREA ( #136 ) ;
#200 = CARTESIAN_POINT ( 'NONE',  ( 0.000000000000000000, 0.000000000000000000, 0.000000000000000000 ) ) ;
#201 = MECHANICAL_DESIGN_GEOMETRIC_PRESENTATION_REPRESENTATION (  '', ( #110 ), #135 ) ;
#202 =( NAMED_UNIT ( * ) PLANE_ANGLE_UNIT ( ) SI_UNIT ( $, .RADIAN. ) );
ENDSEC;
END-ISO-10303-21;
