ISO-10303-21;
HEADER;
FILE_DESCRIPTION (( 'STEP AP203' ),
    '1' );
FILE_NAME ('UNI120T.C_V10124.STEP',
    '2024-01-30T09:35:28',
    ( '' ),
    ( '' ),
    'SwSTEP 2.0',
    'SolidWorks 2019',
    '' );
FILE_SCHEMA (( 'CONFIG_CONTROL_DESIGN' ));
ENDSEC;

DATA;
#1 = ADVANCED_FACE ( 'NONE', ( #237 ), #91, .F. ) ;
#2 = DIRECTION ( 'NONE',  ( 0.000000000000000000, 0.000000000000000000, -1.000000000000000000 ) ) ;
#3 = PERSON_AND_ORGANIZATION ( #27, #68 ) ;
#4 = ADVANCED_BREP_SHAPE_REPRESENTATION ( 'UNI120T.C_V10124', ( #43, #171 ), #35 ) ;
#5 = VECTOR ( 'NONE', #117, 1000.000000000000000 ) ;
#6 = COORDINATED_UNIVERSAL_TIME_OFFSET ( 0, 0, .AHEAD. ) ;
#7 = EDGE_CURVE ( 'NONE', #88, #15, #160, .T. ) ;
#8 = AXIS2_PLACEMENT_3D ( 'NONE', #222, #132, #192 ) ;
#9 = COORDINATED_UNIVERSAL_TIME_OFFSET ( 0, 0, .AHEAD. ) ;
#10 = CC_DESIGN_PERSON_AND_ORGANIZATION_ASSIGNMENT ( #105, #176, ( #12 ) ) ;
#11 = EDGE_LOOP ( 'NONE', ( #212, #50, #54, #125 ) ) ;
#12 = PRODUCT_DEFINITION_FORMATION_WITH_SPECIFIED_SOURCE ( 'ANY', '', #159, .NOT_KNOWN. ) ;
#13 = VERTEX_POINT ( 'NONE', #234 ) ;
#14 = DESIGN_CONTEXT ( 'detailed design', #173, 'design' ) ;
#15 = VERTEX_POINT ( 'NONE', #72 ) ;
#16 = ORIENTED_EDGE ( 'NONE', *, *, #224, .T. ) ;
#17 = CC_DESIGN_PERSON_AND_ORGANIZATION_ASSIGNMENT ( #123, #211, ( #221 ) ) ;
#18 = EDGE_LOOP ( 'NONE', ( #87, #201, #47, #119 ) ) ;
#19 = PLANE ( 'NONE',  #156 ) ;
#20 = LINE ( 'NONE', #164, #61 ) ;
#21 = LINE ( 'NONE', #166, #5 ) ;
#22 = DIRECTION ( 'NONE',  ( -1.000000000000000000, -0.000000000000000000, -0.000000000000000000 ) ) ;
#23 =( NAMED_UNIT ( * ) SI_UNIT ( $, .STERADIAN. ) SOLID_ANGLE_UNIT ( ) );
#24 = APPROVAL_DATE_TIME ( #44, #202 ) ;
#25 = VECTOR ( 'NONE', #169, 1000.000000000000000 ) ;
#26 = CARTESIAN_POINT ( 'NONE',  ( -600.0000000000001137, 0.000000000000000000, 230.0000000000000000 ) ) ;
#27 = PERSON ( 'UNSPECIFIED', 'UNSPECIFIED', 'UNSPECIFIED', ('UNSPECIFIED'), ('UNSPECIFIED'), ('UNSPECIFIED') ) ;
#28 = EDGE_LOOP ( 'NONE', ( #139, #215, #143, #16 ) ) ;
#29 = ADVANCED_FACE ( 'NONE', ( #93 ), #161, .F. ) ;
#30 = DATE_TIME_ROLE ( 'creation_date' ) ;
#31 = ORIENTED_EDGE ( 'NONE', *, *, #66, .F. ) ;
#32 = APPROVAL_ROLE ( '' ) ;
#33 = PERSON_AND_ORGANIZATION ( #27, #68 ) ;
#34 = LOCAL_TIME ( 9, 35, 28.00000000000000000, #9 ) ;
#35 =( GEOMETRIC_REPRESENTATION_CONTEXT ( 3 ) GLOBAL_UNCERTAINTY_ASSIGNED_CONTEXT ( ( #92 ) ) GLOBAL_UNIT_ASSIGNED_CONTEXT ( ( #84, #170, #23 ) ) REPRESENTATION_CONTEXT ( 'NONE', 'WORKASPACE' ) );
#36 = EDGE_CURVE ( 'NONE', #88, #175, #145, .T. ) ;
#37 = CARTESIAN_POINT ( 'NONE',  ( -600.0000000000001137, 12.00000000000000000, 230.0000000000000000 ) ) ;
#38 = CARTESIAN_POINT ( 'NONE',  ( -600.0000000000001137, 12.00000000000000000, 230.0000000000000000 ) ) ;
#39 = AXIS2_PLACEMENT_3D ( 'NONE', #186, #113, #45 ) ;
#40 = DIRECTION ( 'NONE',  ( -1.000000000000000000, -0.000000000000000000, -0.000000000000000000 ) ) ;
#41 = CALENDAR_DATE ( 2024, 30, 1 ) ;
#42 = PERSON_AND_ORGANIZATION_ROLE ( 'design_owner' ) ;
#43 = MANIFOLD_SOLID_BREP ( 'Boss-Extrude1', #118 ) ;
#44 = DATE_AND_TIME ( #142, #191 ) ;
#45 = DIRECTION ( 'NONE',  ( 0.000000000000000000, 0.000000000000000000, 1.000000000000000000 ) ) ;
#46 = PERSON_AND_ORGANIZATION ( #27, #68 ) ;
#47 = ORIENTED_EDGE ( 'NONE', *, *, #151, .F. ) ;
#48 = DATE_AND_TIME ( #154, #34 ) ;
#49 = VERTEX_POINT ( 'NONE', #129 ) ;
#50 = ORIENTED_EDGE ( 'NONE', *, *, #102, .T. ) ;
#51 = DIRECTION ( 'NONE',  ( 0.000000000000000000, 0.000000000000000000, 1.000000000000000000 ) ) ;
#52 = VECTOR ( 'NONE', #146, 1000.000000000000000 ) ;
#53 = ORIENTED_EDGE ( 'NONE', *, *, #218, .F. ) ;
#54 = ORIENTED_EDGE ( 'NONE', *, *, #7, .T. ) ;
#55 = EDGE_CURVE ( 'NONE', #104, #49, #131, .T. ) ;
#56 = DIRECTION ( 'NONE',  ( -0.000000000000000000, -1.000000000000000000, -0.000000000000000000 ) ) ;
#57 = ORIENTED_EDGE ( 'NONE', *, *, #218, .T. ) ;
#58 = DIRECTION ( 'NONE',  ( -1.000000000000000000, 0.000000000000000000, -0.000000000000000000 ) ) ;
#59 = CC_DESIGN_PERSON_AND_ORGANIZATION_ASSIGNMENT ( #209, #42, ( #159 ) ) ;
#60 = CARTESIAN_POINT ( 'NONE',  ( 0.000000000000000000, 0.000000000000000000, 0.000000000000000000 ) ) ;
#61 = VECTOR ( 'NONE', #80, 1000.000000000000000 ) ;
#62 = DATE_AND_TIME ( #41, #89 ) ;
#63 = CARTESIAN_POINT ( 'NONE',  ( 599.9999999999998863, 0.000000000000000000, 230.0000000000000000 ) ) ;
#64 = ADVANCED_FACE ( 'NONE', ( #110 ), #183, .T. ) ;
#65 = APPROVAL_STATUS ( 'not_yet_approved' ) ;
#66 = EDGE_CURVE ( 'NONE', #15, #228, #95, .T. ) ;
#67 = PERSON_AND_ORGANIZATION ( #27, #68 ) ;
#68 = ORGANIZATION ( 'UNSPECIFIED', 'UNSPECIFIED', '' ) ;
#69 = EDGE_LOOP ( 'NONE', ( #216, #53, #233, #179 ) ) ;
#70 = APPROVAL_ROLE ( '' ) ;
#71 = CARTESIAN_POINT ( 'NONE',  ( -600.0000000000001137, 12.00000000000000000, -230.0000000000000000 ) ) ;
#72 = CARTESIAN_POINT ( 'NONE',  ( -600.0000000000001137, 12.00000000000000000, 230.0000000000000000 ) ) ;
#73 = LOCAL_TIME ( 9, 35, 28.00000000000000000, #196 ) ;
#74 = EDGE_LOOP ( 'NONE', ( #103, #31, #231, #157 ) ) ;
#75 = CARTESIAN_POINT ( 'NONE',  ( 599.9999999999998863, 12.00000000000000000, 230.0000000000000000 ) ) ;
#76 = AXIS2_PLACEMENT_3D ( 'NONE', #217, #124, #107 ) ;
#77 = FACE_OUTER_BOUND ( 'NONE', #11, .T. ) ;
#78 = LINE ( 'NONE', #187, #185 ) ;
#79 = PLANE ( 'NONE',  #39 ) ;
#80 = DIRECTION ( 'NONE',  ( 0.000000000000000000, 0.000000000000000000, -1.000000000000000000 ) ) ;
#81 = AXIS2_PLACEMENT_3D ( 'NONE', #94, #51, #198 ) ;
#82 = EDGE_CURVE ( 'NONE', #15, #104, #220, .T. ) ;
#83 = CARTESIAN_POINT ( 'NONE',  ( -600.0000000000001137, 0.000000000000000000, 230.0000000000000000 ) ) ;
#84 =( LENGTH_UNIT ( ) NAMED_UNIT ( * ) SI_UNIT ( .MILLI., .METRE. ) );
#85 = CC_DESIGN_DATE_AND_TIME_ASSIGNMENT ( #121, #30, ( #126 ) ) ;
#86 = DATE_AND_TIME ( #172, #73 ) ;
#87 = ORIENTED_EDGE ( 'NONE', *, *, #229, .T. ) ;
#88 = VERTEX_POINT ( 'NONE', #71 ) ;
#89 = LOCAL_TIME ( 9, 35, 28.00000000000000000, #223 ) ;
#90 = DIRECTION ( 'NONE',  ( 1.000000000000000000, 0.000000000000000000, 0.000000000000000000 ) ) ;
#91 = PLANE ( 'NONE',  #81 ) ;
#92 = UNCERTAINTY_MEASURE_WITH_UNIT (LENGTH_MEASURE( 1.000000000000000082E-05 ), #84, 'distance_accuracy_value', 'NONE');
#93 = FACE_OUTER_BOUND ( 'NONE', #74, .T. ) ;
#94 = CARTESIAN_POINT ( 'NONE',  ( -600.0000000000001137, 12.00000000000000000, -230.0000000000000000 ) ) ;
#95 = LINE ( 'NONE', #163, #52 ) ;
#96 = CARTESIAN_POINT ( 'NONE',  ( 599.9999999999998863, 12.00000000000000000, -230.0000000000000000 ) ) ;
#97 = CARTESIAN_POINT ( 'NONE',  ( 599.9999999999998863, 12.00000000000000000, -230.0000000000000000 ) ) ;
#98 = APPLICATION_PROTOCOL_DEFINITION ( 'international standard', 'config_control_design', 1994, #162 ) ;
#99 = SHAPE_DEFINITION_REPRESENTATION ( #144, #4 ) ;
#100 = DIRECTION ( 'NONE',  ( -0.000000000000000000, -1.000000000000000000, -0.000000000000000000 ) ) ;
#101 = DIRECTION ( 'NONE',  ( 1.000000000000000000, 0.000000000000000000, 0.000000000000000000 ) ) ;
#102 = EDGE_CURVE ( 'NONE', #122, #88, #203, .T. ) ;
#103 = ORIENTED_EDGE ( 'NONE', *, *, #194, .T. ) ;
#104 = VERTEX_POINT ( 'NONE', #112 ) ;
#105 = PERSON_AND_ORGANIZATION ( #27, #68 ) ;
#106 = ORIENTED_EDGE ( 'NONE', *, *, #82, .F. ) ;
#107 = DIRECTION ( 'NONE',  ( 0.000000000000000000, -0.000000000000000000, -1.000000000000000000 ) ) ;
#108 = DIRECTION ( 'NONE',  ( 1.000000000000000000, -0.000000000000000000, 0.000000000000000000 ) ) ;
#109 = VECTOR ( 'NONE', #40, 1000.000000000000000 ) ;
#110 = FACE_OUTER_BOUND ( 'NONE', #69, .T. ) ;
#111 = EDGE_CURVE ( 'NONE', #13, #175, #78, .T. ) ;
#112 = CARTESIAN_POINT ( 'NONE',  ( 599.9999999999998863, 12.00000000000000000, 230.0000000000000000 ) ) ;
#113 = DIRECTION ( 'NONE',  ( -1.000000000000000000, 0.000000000000000000, 0.000000000000000000 ) ) ;
#114 = CC_DESIGN_PERSON_AND_ORGANIZATION_ASSIGNMENT ( #33, #227, ( #12 ) ) ;
#115 = CARTESIAN_POINT ( 'NONE',  ( -600.0000000000001137, 0.000000000000000000, -230.0000000000000000 ) ) ;
#116 = LOCAL_TIME ( 9, 35, 28.00000000000000000, #6 ) ;
#117 = DIRECTION ( 'NONE',  ( 1.000000000000000000, 0.000000000000000000, 0.000000000000000000 ) ) ;
#118 = CLOSED_SHELL ( 'NONE', ( #214, #1, #29, #120, #153, #64 ) ) ;
#119 = ORIENTED_EDGE ( 'NONE', *, *, #55, .T. ) ;
#120 = ADVANCED_FACE ( 'NONE', ( #184 ), #19, .F. ) ;
#121 = DATE_AND_TIME ( #150, #116 ) ;
#122 = VERTEX_POINT ( 'NONE', #96 ) ;
#123 = PERSON_AND_ORGANIZATION ( #27, #68 ) ;
#124 = DIRECTION ( 'NONE',  ( 0.000000000000000000, -1.000000000000000000, 0.000000000000000000 ) ) ;
#125 = ORIENTED_EDGE ( 'NONE', *, *, #82, .T. ) ;
#126 = PRODUCT_DEFINITION ( 'UNKNOWN', '', #12, #14 ) ;
#127 = CARTESIAN_POINT ( 'NONE',  ( -600.0000000000001137, 12.00000000000000000, 230.0000000000000000 ) ) ;
#128 = APPROVAL_PERSON_ORGANIZATION ( #230, #202, #32 ) ;
#129 = CARTESIAN_POINT ( 'NONE',  ( 599.9999999999998863, 0.000000000000000000, 230.0000000000000000 ) ) ;
#130 = VECTOR ( 'NONE', #200, 1000.000000000000000 ) ;
#131 = LINE ( 'NONE', #75, #130 ) ;
#132 = DIRECTION ( 'NONE',  ( 0.000000000000000000, -1.000000000000000000, 0.000000000000000000 ) ) ;
#133 = CARTESIAN_POINT ( 'NONE',  ( -600.0000000000001137, 12.00000000000000000, -230.0000000000000000 ) ) ;
#134 = LINE ( 'NONE', #26, #137 ) ;
#135 = LINE ( 'NONE', #63, #25 ) ;
#136 = CC_DESIGN_APPROVAL ( #202, ( #221 ) ) ;
#137 = VECTOR ( 'NONE', #188, 1000.000000000000000 ) ;
#138 = APPROVAL ( #232, 'UNSPECIFIED' ) ;
#139 = ORIENTED_EDGE ( 'NONE', *, *, #111, .T. ) ;
#140 = PRODUCT_RELATED_PRODUCT_CATEGORY ( 'detail', '', ( #159 ) ) ;
#141 = EDGE_LOOP ( 'NONE', ( #57, #182, #106, #210 ) ) ;
#142 = CALENDAR_DATE ( 2024, 30, 1 ) ;
#143 = ORIENTED_EDGE ( 'NONE', *, *, #102, .F. ) ;
#144 = PRODUCT_DEFINITION_SHAPE ( 'NONE', 'NONE',  #126 ) ;
#145 = LINE ( 'NONE', #219, #152 ) ;
#146 = DIRECTION ( 'NONE',  ( -0.000000000000000000, -1.000000000000000000, -0.000000000000000000 ) ) ;
#147 = PLANE ( 'NONE',  #8 ) ;
#148 = CC_DESIGN_SECURITY_CLASSIFICATION ( #221, ( #12 ) ) ;
#149 = APPROVAL_ROLE ( '' ) ;
#150 = CALENDAR_DATE ( 2024, 30, 1 ) ;
#151 = EDGE_CURVE ( 'NONE', #104, #122, #20, .T. ) ;
#152 = VECTOR ( 'NONE', #56, 1000.000000000000000 ) ;
#153 = ADVANCED_FACE ( 'NONE', ( #77 ), #147, .F. ) ;
#154 = CALENDAR_DATE ( 2024, 30, 1 ) ;
#155 = COORDINATED_UNIVERSAL_TIME_OFFSET ( 0, 0, .AHEAD. ) ;
#156 = AXIS2_PLACEMENT_3D ( 'NONE', #167, #2, #58 ) ;
#157 = ORIENTED_EDGE ( 'NONE', *, *, #36, .T. ) ;
#158 = DATE_TIME_ROLE ( 'classification_date' ) ;
#159 = PRODUCT ( 'UNI120T.C_V10124', 'UNI120T.C_V10124', '', ( #206 ) ) ;
#160 = LINE ( 'NONE', #127, #213 ) ;
#161 = PLANE ( 'NONE',  #178 ) ;
#162 = APPLICATION_CONTEXT ( 'configuration controlled 3d designs of mechanical parts and assemblies' ) ;
#163 = CARTESIAN_POINT ( 'NONE',  ( -600.0000000000001137, 12.00000000000000000, 230.0000000000000000 ) ) ;
#164 = CARTESIAN_POINT ( 'NONE',  ( 599.9999999999998863, 12.00000000000000000, 230.0000000000000000 ) ) ;
#165 = VECTOR ( 'NONE', #100, 1000.000000000000000 ) ;
#166 = CARTESIAN_POINT ( 'NONE',  ( -600.0000000000001137, 0.000000000000000000, 230.0000000000000000 ) ) ;
#167 = CARTESIAN_POINT ( 'NONE',  ( -600.0000000000001137, 12.00000000000000000, 230.0000000000000000 ) ) ;
#168 = APPROVAL_STATUS ( 'not_yet_approved' ) ;
#169 = DIRECTION ( 'NONE',  ( 0.000000000000000000, 0.000000000000000000, -1.000000000000000000 ) ) ;
#170 =( NAMED_UNIT ( * ) PLANE_ANGLE_UNIT ( ) SI_UNIT ( $, .RADIAN. ) );
#171 = AXIS2_PLACEMENT_3D ( 'NONE', #60, #226, #101 ) ;
#172 = CALENDAR_DATE ( 2024, 30, 1 ) ;
#173 = APPLICATION_CONTEXT ( 'configuration controlled 3d designs of mechanical parts and assemblies' ) ;
#174 = SECURITY_CLASSIFICATION_LEVEL ( 'unclassified' ) ;
#175 = VERTEX_POINT ( 'NONE', #115 ) ;
#176 = PERSON_AND_ORGANIZATION_ROLE ( 'design_supplier' ) ;
#177 = VECTOR ( 'NONE', #90, 1000.000000000000000 ) ;
#178 = AXIS2_PLACEMENT_3D ( 'NONE', #37, #108, #180 ) ;
#179 = ORIENTED_EDGE ( 'NONE', *, *, #111, .F. ) ;
#180 = DIRECTION ( 'NONE',  ( 0.000000000000000000, 0.000000000000000000, -1.000000000000000000 ) ) ;
#181 = CC_DESIGN_DATE_AND_TIME_ASSIGNMENT ( #48, #158, ( #221 ) ) ;
#182 = ORIENTED_EDGE ( 'NONE', *, *, #55, .F. ) ;
#183 = PLANE ( 'NONE',  #76 ) ;
#184 = FACE_OUTER_BOUND ( 'NONE', #141, .T. ) ;
#185 = VECTOR ( 'NONE', #22, 1000.000000000000000 ) ;
#186 = CARTESIAN_POINT ( 'NONE',  ( 599.9999999999998863, 12.00000000000000000, 230.0000000000000000 ) ) ;
#187 = CARTESIAN_POINT ( 'NONE',  ( -600.0000000000001137, 0.000000000000000000, -230.0000000000000000 ) ) ;
#188 = DIRECTION ( 'NONE',  ( -0.000000000000000000, -0.000000000000000000, 1.000000000000000000 ) ) ;
#189 = PERSON_AND_ORGANIZATION_ROLE ( 'creator' ) ;
#190 = APPROVAL ( #168, 'UNSPECIFIED' ) ;
#191 = LOCAL_TIME ( 9, 35, 28.00000000000000000, #155 ) ;
#192 = DIRECTION ( 'NONE',  ( 0.000000000000000000, -0.000000000000000000, -1.000000000000000000 ) ) ;
#193 = APPROVAL_PERSON_ORGANIZATION ( #3, #190, #149 ) ;
#194 = EDGE_CURVE ( 'NONE', #175, #228, #134, .T. ) ;
#195 = APPROVAL_DATE_TIME ( #86, #138 ) ;
#196 = COORDINATED_UNIVERSAL_TIME_OFFSET ( 0, 0, .AHEAD. ) ;
#197 = CC_DESIGN_APPROVAL ( #190, ( #126 ) ) ;
#198 = DIRECTION ( 'NONE',  ( 1.000000000000000000, 0.000000000000000000, -0.000000000000000000 ) ) ;
#199 = CC_DESIGN_PERSON_AND_ORGANIZATION_ASSIGNMENT ( #46, #189, ( #126 ) ) ;
#200 = DIRECTION ( 'NONE',  ( -0.000000000000000000, -1.000000000000000000, -0.000000000000000000 ) ) ;
#201 = ORIENTED_EDGE ( 'NONE', *, *, #224, .F. ) ;
#202 = APPROVAL ( #65, 'UNSPECIFIED' ) ;
#203 = LINE ( 'NONE', #133, #109 ) ;
#204 = APPLICATION_PROTOCOL_DEFINITION ( 'international standard', 'config_control_design', 1994, #173 ) ;
#205 = CC_DESIGN_APPROVAL ( #138, ( #12 ) ) ;
#206 = MECHANICAL_CONTEXT ( 'NONE', #162, 'mechanical' ) ;
#207 = FACE_OUTER_BOUND ( 'NONE', #18, .T. ) ;
#208 = APPROVAL_DATE_TIME ( #62, #190 ) ;
#209 = PERSON_AND_ORGANIZATION ( #27, #68 ) ;
#210 = ORIENTED_EDGE ( 'NONE', *, *, #66, .T. ) ;
#211 = PERSON_AND_ORGANIZATION_ROLE ( 'classification_officer' ) ;
#212 = ORIENTED_EDGE ( 'NONE', *, *, #151, .T. ) ;
#213 = VECTOR ( 'NONE', #236, 1000.000000000000000 ) ;
#214 = ADVANCED_FACE ( 'NONE', ( #207 ), #79, .F. ) ;
#215 = ORIENTED_EDGE ( 'NONE', *, *, #36, .F. ) ;
#216 = ORIENTED_EDGE ( 'NONE', *, *, #229, .F. ) ;
#217 = CARTESIAN_POINT ( 'NONE',  ( 0.000000000000000000, 0.000000000000000000, 0.000000000000000000 ) ) ;
#218 = EDGE_CURVE ( 'NONE', #228, #49, #21, .T. ) ;
#219 = CARTESIAN_POINT ( 'NONE',  ( -600.0000000000001137, 12.00000000000000000, -230.0000000000000000 ) ) ;
#220 = LINE ( 'NONE', #38, #177 ) ;
#221 = SECURITY_CLASSIFICATION ( '', '', #174 ) ;
#222 = CARTESIAN_POINT ( 'NONE',  ( 0.000000000000000000, 12.00000000000000000, 0.000000000000000000 ) ) ;
#223 = COORDINATED_UNIVERSAL_TIME_OFFSET ( 0, 0, .AHEAD. ) ;
#224 = EDGE_CURVE ( 'NONE', #122, #13, #225, .T. ) ;
#225 = LINE ( 'NONE', #97, #165 ) ;
#226 = DIRECTION ( 'NONE',  ( 0.000000000000000000, 0.000000000000000000, 1.000000000000000000 ) ) ;
#227 = PERSON_AND_ORGANIZATION_ROLE ( 'creator' ) ;
#228 = VERTEX_POINT ( 'NONE', #83 ) ;
#229 = EDGE_CURVE ( 'NONE', #49, #13, #135, .T. ) ;
#230 = PERSON_AND_ORGANIZATION ( #27, #68 ) ;
#231 = ORIENTED_EDGE ( 'NONE', *, *, #7, .F. ) ;
#232 = APPROVAL_STATUS ( 'not_yet_approved' ) ;
#233 = ORIENTED_EDGE ( 'NONE', *, *, #194, .F. ) ;
#234 = CARTESIAN_POINT ( 'NONE',  ( 599.9999999999998863, 0.000000000000000000, -230.0000000000000000 ) ) ;
#235 = APPROVAL_PERSON_ORGANIZATION ( #67, #138, #70 ) ;
#236 = DIRECTION ( 'NONE',  ( -0.000000000000000000, -0.000000000000000000, 1.000000000000000000 ) ) ;
#237 = FACE_OUTER_BOUND ( 'NONE', #28, .T. ) ;
ENDSEC;
END-ISO-10303-21;
