ISO-10303-21;
HEADER;
FILE_DESCRIPTION (( 'STEP AP203' ),
    '1' );
FILE_NAME ('UNI100T.C_V10124.STEP',
    '2024-01-30T09:35:10',
    ( '' ),
    ( '' ),
    'SwSTEP 2.0',
    'SolidWorks 2019',
    '' );
FILE_SCHEMA (( 'CONFIG_CONTROL_DESIGN' ));
ENDSEC;

DATA;
#1 = APPROVAL_PERSON_ORGANIZATION ( #56, #199, #165 ) ;
#2 = LOCAL_TIME ( 9, 35, 10.00000000000000000, #200 ) ;
#3 = PRODUCT_DEFINITION_SHAPE ( 'NONE', 'NONE',  #26 ) ;
#4 = ORIENTED_EDGE ( 'NONE', *, *, #161, .F. ) ;
#5 = CARTESIAN_POINT ( 'NONE',  ( 0.000000000000000000, 0.000000000000000000, 0.000000000000000000 ) ) ;
#6 = CARTESIAN_POINT ( 'NONE',  ( -500.0000000000001137, 0.000000000000000000, 230.0000000000000000 ) ) ;
#7 = PRODUCT_DEFINITION_FORMATION_WITH_SPECIFIED_SOURCE ( 'ANY', '', #154, .NOT_KNOWN. ) ;
#8 = ORIENTED_EDGE ( 'NONE', *, *, #74, .F. ) ;
#9 = LINE ( 'NONE', #231, #202 ) ;
#10 =( NAMED_UNIT ( * ) SI_UNIT ( $, .STERADIAN. ) SOLID_ANGLE_UNIT ( ) );
#11 = MECHANICAL_CONTEXT ( 'NONE', #173, 'mechanical' ) ;
#12 = APPROVAL ( #225, 'UNSPECIFIED' ) ;
#13 = PERSON_AND_ORGANIZATION_ROLE ( 'creator' ) ;
#14 = CC_DESIGN_PERSON_AND_ORGANIZATION_ASSIGNMENT ( #34, #134, ( #205 ) ) ;
#15 = APPROVAL_PERSON_ORGANIZATION ( #32, #33, #142 ) ;
#16 = ORIENTED_EDGE ( 'NONE', *, *, #155, .T. ) ;
#17 = ORIENTED_EDGE ( 'NONE', *, *, #62, .F. ) ;
#18 = EDGE_CURVE ( 'NONE', #35, #23, #228, .T. ) ;
#19 = ORIENTED_EDGE ( 'NONE', *, *, #18, .F. ) ;
#20 = DIRECTION ( 'NONE',  ( 0.000000000000000000, 0.000000000000000000, -1.000000000000000000 ) ) ;
#21 = PRODUCT_RELATED_PRODUCT_CATEGORY ( 'detail', '', ( #154 ) ) ;
#22 = DATE_TIME_ROLE ( 'classification_date' ) ;
#23 = VERTEX_POINT ( 'NONE', #151 ) ;
#24 = CARTESIAN_POINT ( 'NONE',  ( 499.9999999999998863, 0.000000000000000000, -230.0000000000000000 ) ) ;
#25 = LINE ( 'NONE', #102, #49 ) ;
#26 = PRODUCT_DEFINITION ( 'UNKNOWN', '', #7, #141 ) ;
#27 = VERTEX_POINT ( 'NONE', #6 ) ;
#28 = DIRECTION ( 'NONE',  ( 0.000000000000000000, -1.000000000000000000, 0.000000000000000000 ) ) ;
#29 = PLANE ( 'NONE',  #144 ) ;
#30 = FACE_OUTER_BOUND ( 'NONE', #132, .T. ) ;
#31 = CARTESIAN_POINT ( 'NONE',  ( 499.9999999999998863, 0.000000000000000000, 230.0000000000000000 ) ) ;
#32 = PERSON_AND_ORGANIZATION ( #52, #176 ) ;
#33 = APPROVAL ( #68, 'UNSPECIFIED' ) ;
#34 = PERSON_AND_ORGANIZATION ( #52, #176 ) ;
#35 = VERTEX_POINT ( 'NONE', #117 ) ;
#36 = VERTEX_POINT ( 'NONE', #24 ) ;
#37 = PLANE ( 'NONE',  #96 ) ;
#38 = CALENDAR_DATE ( 2024, 30, 1 ) ;
#39 = ORIENTED_EDGE ( 'NONE', *, *, #74, .T. ) ;
#40 = CARTESIAN_POINT ( 'NONE',  ( 0.000000000000000000, 12.00000000000000000, 0.000000000000000000 ) ) ;
#41 = MANIFOLD_SOLID_BREP ( 'Boss-Extrude1', #61 ) ;
#42 = DIRECTION ( 'NONE',  ( -1.000000000000000000, 0.000000000000000000, 0.000000000000000000 ) ) ;
#43 = LINE ( 'NONE', #105, #217 ) ;
#44 = EDGE_LOOP ( 'NONE', ( #116, #94, #103, #80 ) ) ;
#45 = CC_DESIGN_SECURITY_CLASSIFICATION ( #205, ( #7 ) ) ;
#46 = DIRECTION ( 'NONE',  ( 1.000000000000000000, 0.000000000000000000, 0.000000000000000000 ) ) ;
#47 = FACE_OUTER_BOUND ( 'NONE', #168, .T. ) ;
#48 = DIRECTION ( 'NONE',  ( 0.000000000000000000, 0.000000000000000000, -1.000000000000000000 ) ) ;
#49 = VECTOR ( 'NONE', #224, 1000.000000000000000 ) ;
#50 = LINE ( 'NONE', #160, #84 ) ;
#51 = PERSON_AND_ORGANIZATION ( #52, #176 ) ;
#52 = PERSON ( 'UNSPECIFIED', 'UNSPECIFIED', 'UNSPECIFIED', ('UNSPECIFIED'), ('UNSPECIFIED'), ('UNSPECIFIED') ) ;
#53 = EDGE_CURVE ( 'NONE', #23, #27, #100, .T. ) ;
#54 = DATE_AND_TIME ( #113, #170 ) ;
#55 = PERSON_AND_ORGANIZATION_ROLE ( 'design_supplier' ) ;
#56 = PERSON_AND_ORGANIZATION ( #52, #176 ) ;
#57 = CC_DESIGN_PERSON_AND_ORGANIZATION_ASSIGNMENT ( #51, #128, ( #26 ) ) ;
#58 = VERTEX_POINT ( 'NONE', #177 ) ;
#59 = LINE ( 'NONE', #122, #181 ) ;
#60 = CARTESIAN_POINT ( 'NONE',  ( 499.9999999999998863, 12.00000000000000000, -230.0000000000000000 ) ) ;
#61 = CLOSED_SHELL ( 'NONE', ( #77, #148, #104, #179, #119, #66 ) ) ;
#62 = EDGE_CURVE ( 'NONE', #118, #36, #59, .T. ) ;
#63 = DIRECTION ( 'NONE',  ( -0.000000000000000000, -1.000000000000000000, -0.000000000000000000 ) ) ;
#64 = DIRECTION ( 'NONE',  ( -0.000000000000000000, -0.000000000000000000, 1.000000000000000000 ) ) ;
#65 = CARTESIAN_POINT ( 'NONE',  ( -500.0000000000001137, 12.00000000000000000, 230.0000000000000000 ) ) ;
#66 = ADVANCED_FACE ( 'NONE', ( #137 ), #215, .T. ) ;
#67 = AXIS2_PLACEMENT_3D ( 'NONE', #5, #28, #194 ) ;
#68 = APPROVAL_STATUS ( 'not_yet_approved' ) ;
#69 = DIRECTION ( 'NONE',  ( 1.000000000000000000, 0.000000000000000000, -0.000000000000000000 ) ) ;
#70 = APPLICATION_PROTOCOL_DEFINITION ( 'international standard', 'config_control_design', 1994, #190 ) ;
#71 = EDGE_CURVE ( 'NONE', #35, #183, #171, .T. ) ;
#72 = CC_DESIGN_APPROVAL ( #199, ( #7 ) ) ;
#73 = DIRECTION ( 'NONE',  ( 0.000000000000000000, 0.000000000000000000, -1.000000000000000000 ) ) ;
#74 = EDGE_CURVE ( 'NONE', #58, #153, #209, .T. ) ;
#75 = APPROVAL_DATE_TIME ( #54, #199 ) ;
#76 = ORIENTED_EDGE ( 'NONE', *, *, #98, .F. ) ;
#77 = ADVANCED_FACE ( 'NONE', ( #139 ), #133, .F. ) ;
#78 = ORIENTED_EDGE ( 'NONE', *, *, #112, .F. ) ;
#79 = COORDINATED_UNIVERSAL_TIME_OFFSET ( 0, 0, .AHEAD. ) ;
#80 = ORIENTED_EDGE ( 'NONE', *, *, #112, .T. ) ;
#81 = ORIENTED_EDGE ( 'NONE', *, *, #98, .T. ) ;
#82 = ORIENTED_EDGE ( 'NONE', *, *, #71, .F. ) ;
#83 = SHAPE_DEFINITION_REPRESENTATION ( #3, #85 ) ;
#84 = VECTOR ( 'NONE', #48, 1000.000000000000000 ) ;
#85 = ADVANCED_BREP_SHAPE_REPRESENTATION ( 'UNI100T.C_V10124', ( #41, #126 ), #226 ) ;
#86 = FACE_OUTER_BOUND ( 'NONE', #204, .T. ) ;
#87 = CARTESIAN_POINT ( 'NONE',  ( -500.0000000000001137, 12.00000000000000000, -230.0000000000000000 ) ) ;
#88 = CC_DESIGN_DATE_AND_TIME_ASSIGNMENT ( #147, #167, ( #26 ) ) ;
#89 = DIRECTION ( 'NONE',  ( -0.000000000000000000, -1.000000000000000000, -0.000000000000000000 ) ) ;
#90 = DIRECTION ( 'NONE',  ( -1.000000000000000000, -0.000000000000000000, -0.000000000000000000 ) ) ;
#91 = CC_DESIGN_PERSON_AND_ORGANIZATION_ASSIGNMENT ( #235, #55, ( #7 ) ) ;
#92 = CALENDAR_DATE ( 2024, 30, 1 ) ;
#93 = AXIS2_PLACEMENT_3D ( 'NONE', #40, #162, #218 ) ;
#94 = ORIENTED_EDGE ( 'NONE', *, *, #108, .T. ) ;
#95 = APPROVAL_STATUS ( 'not_yet_approved' ) ;
#96 = AXIS2_PLACEMENT_3D ( 'NONE', #184, #156, #20 ) ;
#97 = ORIENTED_EDGE ( 'NONE', *, *, #129, .F. ) ;
#98 = EDGE_CURVE ( 'NONE', #27, #153, #25, .T. ) ;
#99 = ORIENTED_EDGE ( 'NONE', *, *, #53, .F. ) ;
#100 = LINE ( 'NONE', #189, #149 ) ;
#101 = CARTESIAN_POINT ( 'NONE',  ( -500.0000000000001137, 12.00000000000000000, 230.0000000000000000 ) ) ;
#102 = CARTESIAN_POINT ( 'NONE',  ( -500.0000000000001137, 0.000000000000000000, 230.0000000000000000 ) ) ;
#103 = ORIENTED_EDGE ( 'NONE', *, *, #71, .T. ) ;
#104 = ADVANCED_FACE ( 'NONE', ( #86 ), #37, .F. ) ;
#105 = CARTESIAN_POINT ( 'NONE',  ( -500.0000000000001137, 12.00000000000000000, -230.0000000000000000 ) ) ;
#106 = LINE ( 'NONE', #107, #222 ) ;
#107 = CARTESIAN_POINT ( 'NONE',  ( -500.0000000000001137, 0.000000000000000000, -230.0000000000000000 ) ) ;
#108 = EDGE_CURVE ( 'NONE', #118, #35, #43, .T. ) ;
#109 = PLANE ( 'NONE',  #237 ) ;
#110 = CARTESIAN_POINT ( 'NONE',  ( -500.0000000000001137, 12.00000000000000000, 230.0000000000000000 ) ) ;
#111 = CALENDAR_DATE ( 2024, 30, 1 ) ;
#112 = EDGE_CURVE ( 'NONE', #183, #58, #138, .T. ) ;
#113 = CALENDAR_DATE ( 2024, 30, 1 ) ;
#114 = LOCAL_TIME ( 9, 35, 10.00000000000000000, #201 ) ;
#115 = EDGE_LOOP ( 'NONE', ( #191, #17, #206, #39 ) ) ;
#116 = ORIENTED_EDGE ( 'NONE', *, *, #193, .T. ) ;
#117 = CARTESIAN_POINT ( 'NONE',  ( -500.0000000000001137, 12.00000000000000000, -230.0000000000000000 ) ) ;
#118 = VERTEX_POINT ( 'NONE', #60 ) ;
#119 = ADVANCED_FACE ( 'NONE', ( #136 ), #211, .F. ) ;
#120 = CALENDAR_DATE ( 2024, 30, 1 ) ;
#121 = CC_DESIGN_PERSON_AND_ORGANIZATION_ASSIGNMENT ( #146, #230, ( #154 ) ) ;
#122 = CARTESIAN_POINT ( 'NONE',  ( 499.9999999999998863, 12.00000000000000000, -230.0000000000000000 ) ) ;
#123 = UNCERTAINTY_MEASURE_WITH_UNIT (LENGTH_MEASURE( 1.000000000000000082E-05 ), #143, 'distance_accuracy_value', 'NONE');
#124 = APPLICATION_PROTOCOL_DEFINITION ( 'international standard', 'config_control_design', 1994, #173 ) ;
#125 =( NAMED_UNIT ( * ) PLANE_ANGLE_UNIT ( ) SI_UNIT ( $, .RADIAN. ) );
#126 = AXIS2_PLACEMENT_3D ( 'NONE', #198, #127, #46 ) ;
#127 = DIRECTION ( 'NONE',  ( 0.000000000000000000, 0.000000000000000000, 1.000000000000000000 ) ) ;
#128 = PERSON_AND_ORGANIZATION_ROLE ( 'creator' ) ;
#129 = EDGE_CURVE ( 'NONE', #153, #36, #50, .T. ) ;
#130 = LOCAL_TIME ( 9, 35, 10.00000000000000000, #79 ) ;
#131 = ORIENTED_EDGE ( 'NONE', *, *, #53, .T. ) ;
#132 = EDGE_LOOP ( 'NONE', ( #16, #19, #150, #174 ) ) ;
#133 = PLANE ( 'NONE',  #159 ) ;
#134 = PERSON_AND_ORGANIZATION_ROLE ( 'classification_officer' ) ;
#135 = EDGE_LOOP ( 'NONE', ( #97, #76, #99, #223 ) ) ;
#136 = FACE_OUTER_BOUND ( 'NONE', #44, .T. ) ;
#137 = FACE_OUTER_BOUND ( 'NONE', #135, .T. ) ;
#138 = LINE ( 'NONE', #65, #212 ) ;
#139 = FACE_OUTER_BOUND ( 'NONE', #115, .T. ) ;
#140 = LOCAL_TIME ( 9, 35, 10.00000000000000000, #210 ) ;
#141 = DESIGN_CONTEXT ( 'detailed design', #190, 'design' ) ;
#142 = APPROVAL_ROLE ( '' ) ;
#143 =( LENGTH_UNIT ( ) NAMED_UNIT ( * ) SI_UNIT ( .MILLI., .METRE. ) );
#144 = AXIS2_PLACEMENT_3D ( 'NONE', #196, #232, #69 ) ;
#145 = DIRECTION ( 'NONE',  ( 0.000000000000000000, 0.000000000000000000, -1.000000000000000000 ) ) ;
#146 = PERSON_AND_ORGANIZATION ( #52, #176 ) ;
#147 = DATE_AND_TIME ( #111, #114 ) ;
#148 = ADVANCED_FACE ( 'NONE', ( #30 ), #29, .F. ) ;
#149 = VECTOR ( 'NONE', #64, 1000.000000000000000 ) ;
#150 = ORIENTED_EDGE ( 'NONE', *, *, #108, .F. ) ;
#151 = CARTESIAN_POINT ( 'NONE',  ( -500.0000000000001137, 0.000000000000000000, -230.0000000000000000 ) ) ;
#152 = CARTESIAN_POINT ( 'NONE',  ( 499.9999999999998863, 12.00000000000000000, 230.0000000000000000 ) ) ;
#153 = VERTEX_POINT ( 'NONE', #31 ) ;
#154 = PRODUCT ( 'UNI100T.C_V10124', 'UNI100T.C_V10124', '', ( #11 ) ) ;
#155 = EDGE_CURVE ( 'NONE', #36, #23, #106, .T. ) ;
#156 = DIRECTION ( 'NONE',  ( 1.000000000000000000, -0.000000000000000000, 0.000000000000000000 ) ) ;
#157 = DIRECTION ( 'NONE',  ( 0.000000000000000000, 0.000000000000000000, 1.000000000000000000 ) ) ;
#158 = LINE ( 'NONE', #220, #229 ) ;
#159 = AXIS2_PLACEMENT_3D ( 'NONE', #216, #42, #157 ) ;
#160 = CARTESIAN_POINT ( 'NONE',  ( 499.9999999999998863, 0.000000000000000000, 230.0000000000000000 ) ) ;
#161 = EDGE_CURVE ( 'NONE', #183, #27, #9, .T. ) ;
#162 = DIRECTION ( 'NONE',  ( 0.000000000000000000, -1.000000000000000000, 0.000000000000000000 ) ) ;
#163 = CC_DESIGN_APPROVAL ( #12, ( #205 ) ) ;
#164 = DATE_AND_TIME ( #92, #2 ) ;
#165 = APPROVAL_ROLE ( '' ) ;
#166 = VECTOR ( 'NONE', #63, 1000.000000000000000 ) ;
#167 = DATE_TIME_ROLE ( 'creation_date' ) ;
#168 = EDGE_LOOP ( 'NONE', ( #81, #8, #78, #186 ) ) ;
#169 = CC_DESIGN_DATE_AND_TIME_ASSIGNMENT ( #185, #22, ( #205 ) ) ;
#170 = LOCAL_TIME ( 9, 35, 10.00000000000000000, #236 ) ;
#171 = LINE ( 'NONE', #101, #192 ) ;
#172 = PERSON_AND_ORGANIZATION ( #52, #176 ) ;
#173 = APPLICATION_CONTEXT ( 'configuration controlled 3d designs of mechanical parts and assemblies' ) ;
#174 = ORIENTED_EDGE ( 'NONE', *, *, #62, .T. ) ;
#175 = DIRECTION ( 'NONE',  ( -0.000000000000000000, -1.000000000000000000, -0.000000000000000000 ) ) ;
#176 = ORGANIZATION ( 'UNSPECIFIED', 'UNSPECIFIED', '' ) ;
#177 = CARTESIAN_POINT ( 'NONE',  ( 499.9999999999998863, 12.00000000000000000, 230.0000000000000000 ) ) ;
#178 = DIRECTION ( 'NONE',  ( -1.000000000000000000, -0.000000000000000000, -0.000000000000000000 ) ) ;
#179 = ADVANCED_FACE ( 'NONE', ( #47 ), #109, .F. ) ;
#180 = CARTESIAN_POINT ( 'NONE',  ( -500.0000000000001137, 12.00000000000000000, 230.0000000000000000 ) ) ;
#181 = VECTOR ( 'NONE', #175, 1000.000000000000000 ) ;
#182 = CC_DESIGN_PERSON_AND_ORGANIZATION_ASSIGNMENT ( #221, #13, ( #7 ) ) ;
#183 = VERTEX_POINT ( 'NONE', #180 ) ;
#184 = CARTESIAN_POINT ( 'NONE',  ( -500.0000000000001137, 12.00000000000000000, 230.0000000000000000 ) ) ;
#185 = DATE_AND_TIME ( #38, #140 ) ;
#186 = ORIENTED_EDGE ( 'NONE', *, *, #161, .T. ) ;
#187 = DIRECTION ( 'NONE',  ( 1.000000000000000000, 0.000000000000000000, 0.000000000000000000 ) ) ;
#188 = APPROVAL_DATE_TIME ( #207, #12 ) ;
#189 = CARTESIAN_POINT ( 'NONE',  ( -500.0000000000001137, 0.000000000000000000, 230.0000000000000000 ) ) ;
#190 = APPLICATION_CONTEXT ( 'configuration controlled 3d designs of mechanical parts and assemblies' ) ;
#191 = ORIENTED_EDGE ( 'NONE', *, *, #129, .T. ) ;
#192 = VECTOR ( 'NONE', #214, 1000.000000000000000 ) ;
#193 = EDGE_CURVE ( 'NONE', #58, #118, #158, .T. ) ;
#194 = DIRECTION ( 'NONE',  ( 0.000000000000000000, -0.000000000000000000, -1.000000000000000000 ) ) ;
#195 = DIRECTION ( 'NONE',  ( -1.000000000000000000, 0.000000000000000000, -0.000000000000000000 ) ) ;
#196 = CARTESIAN_POINT ( 'NONE',  ( -500.0000000000001137, 12.00000000000000000, -230.0000000000000000 ) ) ;
#197 = VECTOR ( 'NONE', #227, 1000.000000000000000 ) ;
#198 = CARTESIAN_POINT ( 'NONE',  ( 0.000000000000000000, 0.000000000000000000, 0.000000000000000000 ) ) ;
#199 = APPROVAL ( #95, 'UNSPECIFIED' ) ;
#200 = COORDINATED_UNIVERSAL_TIME_OFFSET ( 0, 0, .AHEAD. ) ;
#201 = COORDINATED_UNIVERSAL_TIME_OFFSET ( 0, 0, .AHEAD. ) ;
#202 = VECTOR ( 'NONE', #89, 1000.000000000000000 ) ;
#203 = SECURITY_CLASSIFICATION_LEVEL ( 'unclassified' ) ;
#204 = EDGE_LOOP ( 'NONE', ( #131, #4, #82, #208 ) ) ;
#205 = SECURITY_CLASSIFICATION ( '', '', #203 ) ;
#206 = ORIENTED_EDGE ( 'NONE', *, *, #193, .F. ) ;
#207 = DATE_AND_TIME ( #120, #130 ) ;
#208 = ORIENTED_EDGE ( 'NONE', *, *, #18, .T. ) ;
#209 = LINE ( 'NONE', #152, #197 ) ;
#210 = COORDINATED_UNIVERSAL_TIME_OFFSET ( 0, 0, .AHEAD. ) ;
#211 = PLANE ( 'NONE',  #93 ) ;
#212 = VECTOR ( 'NONE', #187, 1000.000000000000000 ) ;
#213 = APPROVAL_ROLE ( '' ) ;
#214 = DIRECTION ( 'NONE',  ( -0.000000000000000000, -0.000000000000000000, 1.000000000000000000 ) ) ;
#215 = PLANE ( 'NONE',  #67 ) ;
#216 = CARTESIAN_POINT ( 'NONE',  ( 499.9999999999998863, 12.00000000000000000, 230.0000000000000000 ) ) ;
#217 = VECTOR ( 'NONE', #178, 1000.000000000000000 ) ;
#218 = DIRECTION ( 'NONE',  ( 0.000000000000000000, -0.000000000000000000, -1.000000000000000000 ) ) ;
#219 = CC_DESIGN_APPROVAL ( #33, ( #26 ) ) ;
#220 = CARTESIAN_POINT ( 'NONE',  ( 499.9999999999998863, 12.00000000000000000, 230.0000000000000000 ) ) ;
#221 = PERSON_AND_ORGANIZATION ( #52, #176 ) ;
#222 = VECTOR ( 'NONE', #90, 1000.000000000000000 ) ;
#223 = ORIENTED_EDGE ( 'NONE', *, *, #155, .F. ) ;
#224 = DIRECTION ( 'NONE',  ( 1.000000000000000000, 0.000000000000000000, 0.000000000000000000 ) ) ;
#225 = APPROVAL_STATUS ( 'not_yet_approved' ) ;
#226 =( GEOMETRIC_REPRESENTATION_CONTEXT ( 3 ) GLOBAL_UNCERTAINTY_ASSIGNED_CONTEXT ( ( #123 ) ) GLOBAL_UNIT_ASSIGNED_CONTEXT ( ( #143, #125, #10 ) ) REPRESENTATION_CONTEXT ( 'NONE', 'WORKASPACE' ) );
#227 = DIRECTION ( 'NONE',  ( -0.000000000000000000, -1.000000000000000000, -0.000000000000000000 ) ) ;
#228 = LINE ( 'NONE', #87, #166 ) ;
#229 = VECTOR ( 'NONE', #145, 1000.000000000000000 ) ;
#230 = PERSON_AND_ORGANIZATION_ROLE ( 'design_owner' ) ;
#231 = CARTESIAN_POINT ( 'NONE',  ( -500.0000000000001137, 12.00000000000000000, 230.0000000000000000 ) ) ;
#232 = DIRECTION ( 'NONE',  ( 0.000000000000000000, 0.000000000000000000, 1.000000000000000000 ) ) ;
#233 = APPROVAL_PERSON_ORGANIZATION ( #172, #12, #213 ) ;
#234 = APPROVAL_DATE_TIME ( #164, #33 ) ;
#235 = PERSON_AND_ORGANIZATION ( #52, #176 ) ;
#236 = COORDINATED_UNIVERSAL_TIME_OFFSET ( 0, 0, .AHEAD. ) ;
#237 = AXIS2_PLACEMENT_3D ( 'NONE', #110, #73, #195 ) ;
ENDSEC;
END-ISO-10303-21;
