ISO-10303-21;
HEADER;
FILE_DESCRIPTION (( 'STEP AP203' ),
    '1' );
FILE_NAME ('UNI080T.C_V10124.STEP',
    '2024-01-30T09:34:53',
    ( '' ),
    ( '' ),
    'SwSTEP 2.0',
    'SolidWorks 2019',
    '' );
FILE_SCHEMA (( 'CONFIG_CONTROL_DESIGN' ));
ENDSEC;

DATA;
#1 = ADVANCED_FACE ( 'NONE', ( #99 ), #102, .F. ) ;
#2 = MECHANICAL_CONTEXT ( 'NONE', #25, 'mechanical' ) ;
#3 = EDGE_CURVE ( 'NONE', #103, #85, #10, .T. ) ;
#4 = CC_DESIGN_APPROVAL ( #118, ( #210 ) ) ;
#5 = PERSON_AND_ORGANIZATION ( #163, #136 ) ;
#6 = EDGE_CURVE ( 'NONE', #59, #85, #202, .T. ) ;
#7 = EDGE_LOOP ( 'NONE', ( #31, #223, #66, #27 ) ) ;
#8 = DIRECTION ( 'NONE',  ( 0.000000000000000000, 0.000000000000000000, 1.000000000000000000 ) ) ;
#9 = ORIENTED_EDGE ( 'NONE', *, *, #105, .T. ) ;
#10 = LINE ( 'NONE', #44, #93 ) ;
#11 = CARTESIAN_POINT ( 'NONE',  ( 0.000000000000000000, 12.00000000000000000, 0.000000000000000000 ) ) ;
#12 = CC_DESIGN_APPROVAL ( #74, ( #22 ) ) ;
#13 = DIRECTION ( 'NONE',  ( -0.000000000000000000, -1.000000000000000000, -0.000000000000000000 ) ) ;
#14 = EDGE_LOOP ( 'NONE', ( #220, #24, #47, #117 ) ) ;
#15 = CARTESIAN_POINT ( 'NONE',  ( 401.0000000000000000, 12.00000000000000000, 230.0000000000000000 ) ) ;
#16 = APPLICATION_PROTOCOL_DEFINITION ( 'international standard', 'config_control_design', 1994, #25 ) ;
#17 = APPROVAL_PERSON_ORGANIZATION ( #215, #74, #107 ) ;
#18 = CARTESIAN_POINT ( 'NONE',  ( -401.0000000000000000, 12.00000000000000000, -230.0000000000000000 ) ) ;
#19 = CC_DESIGN_DATE_AND_TIME_ASSIGNMENT ( #147, #88, ( #210 ) ) ;
#20 = COORDINATED_UNIVERSAL_TIME_OFFSET ( 0, 0, .AHEAD. ) ;
#21 = CALENDAR_DATE ( 2024, 30, 1 ) ;
#22 = PRODUCT_DEFINITION_FORMATION_WITH_SPECIFIED_SOURCE ( 'ANY', '', #236, .NOT_KNOWN. ) ;
#23 = PLANE ( 'NONE',  #73 ) ;
#24 = ORIENTED_EDGE ( 'NONE', *, *, #3, .F. ) ;
#25 = APPLICATION_CONTEXT ( 'configuration controlled 3d designs of mechanical parts and assemblies' ) ;
#26 = PLANE ( 'NONE',  #75 ) ;
#27 = ORIENTED_EDGE ( 'NONE', *, *, #148, .F. ) ;
#28 = CARTESIAN_POINT ( 'NONE',  ( 401.0000000000000000, 0.000000000000000000, 230.0000000000000000 ) ) ;
#29 = EDGE_CURVE ( 'NONE', #174, #120, #111, .T. ) ;
#30 = CARTESIAN_POINT ( 'NONE',  ( -401.0000000000000000, 12.00000000000000000, 230.0000000000000000 ) ) ;
#31 = ORIENTED_EDGE ( 'NONE', *, *, #29, .F. ) ;
#32 = LINE ( 'NONE', #237, #129 ) ;
#33 = LINE ( 'NONE', #49, #206 ) ;
#34 =( NAMED_UNIT ( * ) PLANE_ANGLE_UNIT ( ) SI_UNIT ( $, .RADIAN. ) );
#35 = COORDINATED_UNIVERSAL_TIME_OFFSET ( 0, 0, .AHEAD. ) ;
#36 = PRODUCT_RELATED_PRODUCT_CATEGORY ( 'detail', '', ( #236 ) ) ;
#37 = COORDINATED_UNIVERSAL_TIME_OFFSET ( 0, 0, .AHEAD. ) ;
#38 = VECTOR ( 'NONE', #116, 1000.000000000000000 ) ;
#39 = COORDINATED_UNIVERSAL_TIME_OFFSET ( 0, 0, .AHEAD. ) ;
#40 = COORDINATED_UNIVERSAL_TIME_OFFSET ( 0, 0, .AHEAD. ) ;
#41 = PERSON_AND_ORGANIZATION ( #163, #136 ) ;
#42 = ADVANCED_FACE ( 'NONE', ( #133 ), #23, .F. ) ;
#43 = DIRECTION ( 'NONE',  ( -0.000000000000000000, -0.000000000000000000, 1.000000000000000000 ) ) ;
#44 = CARTESIAN_POINT ( 'NONE',  ( -401.0000000000000000, 12.00000000000000000, 230.0000000000000000 ) ) ;
#45 = CARTESIAN_POINT ( 'NONE',  ( -401.0000000000000000, 0.000000000000000000, -230.0000000000000000 ) ) ;
#46 = DIRECTION ( 'NONE',  ( -1.000000000000000000, 0.000000000000000000, -0.000000000000000000 ) ) ;
#47 = ORIENTED_EDGE ( 'NONE', *, *, #198, .F. ) ;
#48 = APPROVAL_STATUS ( 'not_yet_approved' ) ;
#49 = CARTESIAN_POINT ( 'NONE',  ( -401.0000000000000000, 0.000000000000000000, 230.0000000000000000 ) ) ;
#50 = EDGE_CURVE ( 'NONE', #97, #120, #169, .T. ) ;
#51 = AXIS2_PLACEMENT_3D ( 'NONE', #131, #8, #173 ) ;
#52 = CALENDAR_DATE ( 2024, 30, 1 ) ;
#53 = PERSON_AND_ORGANIZATION_ROLE ( 'creator' ) ;
#54 = VECTOR ( 'NONE', #182, 1000.000000000000000 ) ;
#55 = PERSON_AND_ORGANIZATION_ROLE ( 'classification_officer' ) ;
#56 = ADVANCED_FACE ( 'NONE', ( #65 ), #224, .T. ) ;
#57 = VECTOR ( 'NONE', #43, 1000.000000000000000 ) ;
#58 = EDGE_LOOP ( 'NONE', ( #225, #188, #207, #9 ) ) ;
#59 = VERTEX_POINT ( 'NONE', #155 ) ;
#60 = FACE_OUTER_BOUND ( 'NONE', #58, .T. ) ;
#61 = CC_DESIGN_PERSON_AND_ORGANIZATION_ASSIGNMENT ( #5, #53, ( #22 ) ) ;
#62 = CARTESIAN_POINT ( 'NONE',  ( 401.0000000000000000, 0.000000000000000000, -230.0000000000000000 ) ) ;
#63 = ORIENTED_EDGE ( 'NONE', *, *, #148, .T. ) ;
#64 = VECTOR ( 'NONE', #193, 1000.000000000000000 ) ;
#65 = FACE_OUTER_BOUND ( 'NONE', #7, .T. ) ;
#66 = ORIENTED_EDGE ( 'NONE', *, *, #6, .F. ) ;
#67 = LINE ( 'NONE', #30, #228 ) ;
#68 = LINE ( 'NONE', #18, #64 ) ;
#69 = ORIENTED_EDGE ( 'NONE', *, *, #191, .F. ) ;
#70 = PRODUCT_DEFINITION_SHAPE ( 'NONE', 'NONE',  #210 ) ;
#71 = DATE_AND_TIME ( #52, #213 ) ;
#72 = DIRECTION ( 'NONE',  ( 0.000000000000000000, 0.000000000000000000, -1.000000000000000000 ) ) ;
#73 = AXIS2_PLACEMENT_3D ( 'NONE', #185, #135, #171 ) ;
#74 = APPROVAL ( #195, 'UNSPECIFIED' ) ;
#75 = AXIS2_PLACEMENT_3D ( 'NONE', #11, #119, #95 ) ;
#76 = CC_DESIGN_PERSON_AND_ORGANIZATION_ASSIGNMENT ( #143, #106, ( #210 ) ) ;
#77 = DESIGN_CONTEXT ( 'detailed design', #87, 'design' ) ;
#78 = SECURITY_CLASSIFICATION_LEVEL ( 'unclassified' ) ;
#79 = AXIS2_PLACEMENT_3D ( 'NONE', #81, #80, #46 ) ;
#80 = DIRECTION ( 'NONE',  ( 0.000000000000000000, 0.000000000000000000, -1.000000000000000000 ) ) ;
#81 = CARTESIAN_POINT ( 'NONE',  ( -401.0000000000000000, 12.00000000000000000, 230.0000000000000000 ) ) ;
#82 = DIRECTION ( 'NONE',  ( 1.000000000000000000, 0.000000000000000000, 0.000000000000000000 ) ) ;
#83 = CARTESIAN_POINT ( 'NONE',  ( -401.0000000000000000, 0.000000000000000000, 230.0000000000000000 ) ) ;
#84 = ADVANCED_FACE ( 'NONE', ( #168 ), #26, .F. ) ;
#85 = VERTEX_POINT ( 'NONE', #227 ) ;
#86 = DATE_AND_TIME ( #104, #126 ) ;
#87 = APPLICATION_CONTEXT ( 'configuration controlled 3d designs of mechanical parts and assemblies' ) ;
#88 = DATE_TIME_ROLE ( 'creation_date' ) ;
#89 = VECTOR ( 'NONE', #72, 1000.000000000000000 ) ;
#90 = CARTESIAN_POINT ( 'NONE',  ( -401.0000000000000000, 12.00000000000000000, -230.0000000000000000 ) ) ;
#91 = VECTOR ( 'NONE', #186, 1000.000000000000000 ) ;
#92 = DATE_TIME_ROLE ( 'classification_date' ) ;
#93 = VECTOR ( 'NONE', #13, 1000.000000000000000 ) ;
#94 = DIRECTION ( 'NONE',  ( 0.000000000000000000, -1.000000000000000000, 0.000000000000000000 ) ) ;
#95 = DIRECTION ( 'NONE',  ( 0.000000000000000000, -0.000000000000000000, -1.000000000000000000 ) ) ;
#96 = EDGE_LOOP ( 'NONE', ( #121, #134, #229, #184 ) ) ;
#97 = VERTEX_POINT ( 'NONE', #139 ) ;
#98 = LINE ( 'NONE', #156, #178 ) ;
#99 = FACE_OUTER_BOUND ( 'NONE', #158, .T. ) ;
#100 = ORIENTED_EDGE ( 'NONE', *, *, #214, .T. ) ;
#101 = LOCAL_TIME ( 9, 34, 53.00000000000000000, #39 ) ;
#102 = PLANE ( 'NONE',  #51 ) ;
#103 = VERTEX_POINT ( 'NONE', #226 ) ;
#104 = CALENDAR_DATE ( 2024, 30, 1 ) ;
#105 = EDGE_CURVE ( 'NONE', #113, #174, #98, .T. ) ;
#106 = PERSON_AND_ORGANIZATION_ROLE ( 'creator' ) ;
#107 = APPROVAL_ROLE ( '' ) ;
#108 = ADVANCED_FACE ( 'NONE', ( #187 ), #112, .F. ) ;
#109 = AXIS2_PLACEMENT_3D ( 'NONE', #183, #94, #211 ) ;
#110 = PERSON_AND_ORGANIZATION_ROLE ( 'design_supplier' ) ;
#111 = LINE ( 'NONE', #28, #54 ) ;
#112 = PLANE ( 'NONE',  #79 ) ;
#113 = VERTEX_POINT ( 'NONE', #153 ) ;
#114 = APPROVAL_PERSON_ORGANIZATION ( #235, #118, #162 ) ;
#115 = ORIENTED_EDGE ( 'NONE', *, *, #214, .F. ) ;
#116 = DIRECTION ( 'NONE',  ( -1.000000000000000000, -0.000000000000000000, -0.000000000000000000 ) ) ;
#117 = ORIENTED_EDGE ( 'NONE', *, *, #191, .T. ) ;
#118 = APPROVAL ( #48, 'UNSPECIFIED' ) ;
#119 = DIRECTION ( 'NONE',  ( 0.000000000000000000, -1.000000000000000000, 0.000000000000000000 ) ) ;
#120 = VERTEX_POINT ( 'NONE', #62 ) ;
#121 = ORIENTED_EDGE ( 'NONE', *, *, #203, .T. ) ;
#122 = DIRECTION ( 'NONE',  ( -0.000000000000000000, -1.000000000000000000, -0.000000000000000000 ) ) ;
#123 = PERSON_AND_ORGANIZATION ( #163, #136 ) ;
#124 =( NAMED_UNIT ( * ) SI_UNIT ( $, .STERADIAN. ) SOLID_ANGLE_UNIT ( ) );
#125 =( LENGTH_UNIT ( ) NAMED_UNIT ( * ) SI_UNIT ( .MILLI., .METRE. ) );
#126 = LOCAL_TIME ( 9, 34, 53.00000000000000000, #20 ) ;
#127 = APPROVAL_DATE_TIME ( #71, #118 ) ;
#128 = APPROVAL_ROLE ( '' ) ;
#129 = VECTOR ( 'NONE', #161, 1000.000000000000000 ) ;
#130 = CALENDAR_DATE ( 2024, 30, 1 ) ;
#131 = CARTESIAN_POINT ( 'NONE',  ( -401.0000000000000000, 12.00000000000000000, -230.0000000000000000 ) ) ;
#132 = ORIENTED_EDGE ( 'NONE', *, *, #167, .T. ) ;
#133 = FACE_OUTER_BOUND ( 'NONE', #14, .T. ) ;
#134 = ORIENTED_EDGE ( 'NONE', *, *, #105, .F. ) ;
#135 = DIRECTION ( 'NONE',  ( 1.000000000000000000, -0.000000000000000000, 0.000000000000000000 ) ) ;
#136 = ORGANIZATION ( 'UNSPECIFIED', 'UNSPECIFIED', '' ) ;
#137 = PLANE ( 'NONE',  #217 ) ;
#138 = EDGE_LOOP ( 'NONE', ( #157, #100, #170, #132 ) ) ;
#139 = CARTESIAN_POINT ( 'NONE',  ( 401.0000000000000000, 12.00000000000000000, -230.0000000000000000 ) ) ;
#140 = PERSON_AND_ORGANIZATION_ROLE ( 'design_owner' ) ;
#141 = AXIS2_PLACEMENT_3D ( 'NONE', #192, #145, #176 ) ;
#142 = CARTESIAN_POINT ( 'NONE',  ( -401.0000000000000000, 12.00000000000000000, 230.0000000000000000 ) ) ;
#143 = PERSON_AND_ORGANIZATION ( #163, #136 ) ;
#144 = ADVANCED_FACE ( 'NONE', ( #60 ), #137, .F. ) ;
#145 = DIRECTION ( 'NONE',  ( 0.000000000000000000, 0.000000000000000000, 1.000000000000000000 ) ) ;
#146 = CC_DESIGN_PERSON_AND_ORGANIZATION_ASSIGNMENT ( #218, #110, ( #22 ) ) ;
#147 = DATE_AND_TIME ( #190, #179 ) ;
#148 = EDGE_CURVE ( 'NONE', #120, #59, #208, .T. ) ;
#149 = APPROVAL_STATUS ( 'not_yet_approved' ) ;
#150 = CC_DESIGN_PERSON_AND_ORGANIZATION_ASSIGNMENT ( #41, #55, ( #172 ) ) ;
#151 = CC_DESIGN_SECURITY_CLASSIFICATION ( #172, ( #22 ) ) ;
#152 =( GEOMETRIC_REPRESENTATION_CONTEXT ( 3 ) GLOBAL_UNCERTAINTY_ASSIGNED_CONTEXT ( ( #180 ) ) GLOBAL_UNIT_ASSIGNED_CONTEXT ( ( #125, #34, #124 ) ) REPRESENTATION_CONTEXT ( 'NONE', 'WORKASPACE' ) );
#153 = CARTESIAN_POINT ( 'NONE',  ( 401.0000000000000000, 12.00000000000000000, 230.0000000000000000 ) ) ;
#154 = DIRECTION ( 'NONE',  ( -1.000000000000000000, 0.000000000000000000, 0.000000000000000000 ) ) ;
#155 = CARTESIAN_POINT ( 'NONE',  ( -401.0000000000000000, 0.000000000000000000, -230.0000000000000000 ) ) ;
#156 = CARTESIAN_POINT ( 'NONE',  ( 401.0000000000000000, 12.00000000000000000, 230.0000000000000000 ) ) ;
#157 = ORIENTED_EDGE ( 'NONE', *, *, #221, .T. ) ;
#158 = EDGE_LOOP ( 'NONE', ( #63, #69, #115, #209 ) ) ;
#159 = APPROVAL_DATE_TIME ( #86, #74 ) ;
#160 = CLOSED_SHELL ( 'NONE', ( #144, #1, #42, #108, #84, #56 ) ) ;
#161 = DIRECTION ( 'NONE',  ( -1.000000000000000000, -0.000000000000000000, -0.000000000000000000 ) ) ;
#162 = APPROVAL_ROLE ( '' ) ;
#163 = PERSON ( 'UNSPECIFIED', 'UNSPECIFIED', 'UNSPECIFIED', ('UNSPECIFIED'), ('UNSPECIFIED'), ('UNSPECIFIED') ) ;
#164 = CARTESIAN_POINT ( 'NONE',  ( 401.0000000000000000, 0.000000000000000000, 230.0000000000000000 ) ) ;
#165 = LOCAL_TIME ( 9, 34, 53.00000000000000000, #40 ) ;
#166 = PERSON_AND_ORGANIZATION ( #163, #136 ) ;
#167 = EDGE_CURVE ( 'NONE', #103, #113, #67, .T. ) ;
#168 = FACE_OUTER_BOUND ( 'NONE', #138, .T. ) ;
#169 = LINE ( 'NONE', #231, #91 ) ;
#170 = ORIENTED_EDGE ( 'NONE', *, *, #198, .T. ) ;
#171 = DIRECTION ( 'NONE',  ( 0.000000000000000000, 0.000000000000000000, -1.000000000000000000 ) ) ;
#172 = SECURITY_CLASSIFICATION ( '', '', #78 ) ;
#173 = DIRECTION ( 'NONE',  ( 1.000000000000000000, 0.000000000000000000, -0.000000000000000000 ) ) ;
#174 = VERTEX_POINT ( 'NONE', #164 ) ;
#175 = LINE ( 'NONE', #15, #89 ) ;
#176 = DIRECTION ( 'NONE',  ( 1.000000000000000000, 0.000000000000000000, 0.000000000000000000 ) ) ;
#177 = DIRECTION ( 'NONE',  ( 1.000000000000000000, 0.000000000000000000, 0.000000000000000000 ) ) ;
#178 = VECTOR ( 'NONE', #122, 1000.000000000000000 ) ;
#179 = LOCAL_TIME ( 9, 34, 53.00000000000000000, #37 ) ;
#180 = UNCERTAINTY_MEASURE_WITH_UNIT (LENGTH_MEASURE( 1.000000000000000082E-05 ), #125, 'distance_accuracy_value', 'NONE');
#181 = APPROVAL_DATE_TIME ( #196, #230 ) ;
#182 = DIRECTION ( 'NONE',  ( 0.000000000000000000, 0.000000000000000000, -1.000000000000000000 ) ) ;
#183 = CARTESIAN_POINT ( 'NONE',  ( 0.000000000000000000, 0.000000000000000000, 0.000000000000000000 ) ) ;
#184 = ORIENTED_EDGE ( 'NONE', *, *, #3, .T. ) ;
#185 = CARTESIAN_POINT ( 'NONE',  ( -401.0000000000000000, 12.00000000000000000, 230.0000000000000000 ) ) ;
#186 = DIRECTION ( 'NONE',  ( -0.000000000000000000, -1.000000000000000000, -0.000000000000000000 ) ) ;
#187 = FACE_OUTER_BOUND ( 'NONE', #96, .T. ) ;
#188 = ORIENTED_EDGE ( 'NONE', *, *, #50, .F. ) ;
#189 = CC_DESIGN_PERSON_AND_ORGANIZATION_ASSIGNMENT ( #123, #140, ( #236 ) ) ;
#190 = CALENDAR_DATE ( 2024, 30, 1 ) ;
#191 = EDGE_CURVE ( 'NONE', #222, #59, #68, .T. ) ;
#192 = CARTESIAN_POINT ( 'NONE',  ( 0.000000000000000000, 0.000000000000000000, 0.000000000000000000 ) ) ;
#193 = DIRECTION ( 'NONE',  ( -0.000000000000000000, -1.000000000000000000, -0.000000000000000000 ) ) ;
#194 = MANIFOLD_SOLID_BREP ( 'Boss-Extrude1', #160 ) ;
#195 = APPROVAL_STATUS ( 'not_yet_approved' ) ;
#196 = DATE_AND_TIME ( #21, #101 ) ;
#197 = CC_DESIGN_APPROVAL ( #230, ( #172 ) ) ;
#198 = EDGE_CURVE ( 'NONE', #222, #103, #232, .T. ) ;
#199 = SHAPE_DEFINITION_REPRESENTATION ( #70, #200 ) ;
#200 = ADVANCED_BREP_SHAPE_REPRESENTATION ( 'UNI080T.C_V10124', ( #194, #141 ), #152 ) ;
#201 = APPROVAL_PERSON_ORGANIZATION ( #166, #230, #128 ) ;
#202 = LINE ( 'NONE', #83, #57 ) ;
#203 = EDGE_CURVE ( 'NONE', #85, #174, #33, .T. ) ;
#204 = CARTESIAN_POINT ( 'NONE',  ( 401.0000000000000000, 12.00000000000000000, 230.0000000000000000 ) ) ;
#205 = DIRECTION ( 'NONE',  ( 0.000000000000000000, 0.000000000000000000, 1.000000000000000000 ) ) ;
#206 = VECTOR ( 'NONE', #177, 1000.000000000000000 ) ;
#207 = ORIENTED_EDGE ( 'NONE', *, *, #221, .F. ) ;
#208 = LINE ( 'NONE', #45, #38 ) ;
#209 = ORIENTED_EDGE ( 'NONE', *, *, #50, .T. ) ;
#210 = PRODUCT_DEFINITION ( 'UNKNOWN', '', #22, #77 ) ;
#211 = DIRECTION ( 'NONE',  ( 0.000000000000000000, -0.000000000000000000, -1.000000000000000000 ) ) ;
#212 = DIRECTION ( 'NONE',  ( -0.000000000000000000, -0.000000000000000000, 1.000000000000000000 ) ) ;
#213 = LOCAL_TIME ( 9, 34, 53.00000000000000000, #35 ) ;
#214 = EDGE_CURVE ( 'NONE', #97, #222, #32, .T. ) ;
#215 = PERSON_AND_ORGANIZATION ( #163, #136 ) ;
#216 = APPLICATION_PROTOCOL_DEFINITION ( 'international standard', 'config_control_design', 1994, #87 ) ;
#217 = AXIS2_PLACEMENT_3D ( 'NONE', #204, #154, #205 ) ;
#218 = PERSON_AND_ORGANIZATION ( #163, #136 ) ;
#219 = DATE_AND_TIME ( #130, #165 ) ;
#220 = ORIENTED_EDGE ( 'NONE', *, *, #6, .T. ) ;
#221 = EDGE_CURVE ( 'NONE', #113, #97, #175, .T. ) ;
#222 = VERTEX_POINT ( 'NONE', #90 ) ;
#223 = ORIENTED_EDGE ( 'NONE', *, *, #203, .F. ) ;
#224 = PLANE ( 'NONE',  #109 ) ;
#225 = ORIENTED_EDGE ( 'NONE', *, *, #29, .T. ) ;
#226 = CARTESIAN_POINT ( 'NONE',  ( -401.0000000000000000, 12.00000000000000000, 230.0000000000000000 ) ) ;
#227 = CARTESIAN_POINT ( 'NONE',  ( -401.0000000000000000, 0.000000000000000000, 230.0000000000000000 ) ) ;
#228 = VECTOR ( 'NONE', #82, 1000.000000000000000 ) ;
#229 = ORIENTED_EDGE ( 'NONE', *, *, #167, .F. ) ;
#230 = APPROVAL ( #149, 'UNSPECIFIED' ) ;
#231 = CARTESIAN_POINT ( 'NONE',  ( 401.0000000000000000, 12.00000000000000000, -230.0000000000000000 ) ) ;
#232 = LINE ( 'NONE', #142, #234 ) ;
#233 = CC_DESIGN_DATE_AND_TIME_ASSIGNMENT ( #219, #92, ( #172 ) ) ;
#234 = VECTOR ( 'NONE', #212, 1000.000000000000000 ) ;
#235 = PERSON_AND_ORGANIZATION ( #163, #136 ) ;
#236 = PRODUCT ( 'UNI080T.C_V10124', 'UNI080T.C_V10124', '', ( #2 ) ) ;
#237 = CARTESIAN_POINT ( 'NONE',  ( -401.0000000000000000, 12.00000000000000000, -230.0000000000000000 ) ) ;
ENDSEC;
END-ISO-10303-21;
