ISO-10303-21;
HEADER;
FILE_DESCRIPTION (( 'STEP AP203' ),
    '1' );
FILE_NAME ('UNI060T.C_V10124.STEP',
    '2024-01-30T09:33:09',
    ( '' ),
    ( '' ),
    'SwSTEP 2.0',
    'SolidWorks 2019',
    '' );
FILE_SCHEMA (( 'CONFIG_CONTROL_DESIGN' ));
ENDSEC;

DATA;
#1 = AXIS2_PLACEMENT_3D ( 'NONE', #195, #231, #216 ) ;
#2 = CC_DESIGN_DATE_AND_TIME_ASSIGNMENT ( #196, #233, ( #150 ) ) ;
#3 = ORIENTED_EDGE ( 'NONE', *, *, #9, .F. ) ;
#4 = VECTOR ( 'NONE', #80, 1000.000000000000000 ) ;
#5 = ORIENTED_EDGE ( 'NONE', *, *, #49, .T. ) ;
#6 = DIRECTION ( 'NONE',  ( -0.000000000000000000, -1.000000000000000000, -0.000000000000000000 ) ) ;
#7 =( GEOMETRIC_REPRESENTATION_CONTEXT ( 3 ) GLOBAL_UNCERTAINTY_ASSIGNED_CONTEXT ( ( #176 ) ) GLOBAL_UNIT_ASSIGNED_CONTEXT ( ( #235, #50, #170 ) ) REPRESENTATION_CONTEXT ( 'NONE', 'WORKASPACE' ) );
#8 = ORIENTED_EDGE ( 'NONE', *, *, #140, .T. ) ;
#9 = EDGE_CURVE ( 'NONE', #126, #62, #130, .T. ) ;
#10 = LINE ( 'NONE', #153, #91 ) ;
#11 = CARTESIAN_POINT ( 'NONE',  ( -301.0000000000000000, 0.000000000000000000, 230.0000000000000284 ) ) ;
#12 = EDGE_CURVE ( 'NONE', #95, #203, #106, .T. ) ;
#13 = CARTESIAN_POINT ( 'NONE',  ( -301.0000000000000000, 0.000000000000000000, -229.9999999999999432 ) ) ;
#14 = LOCAL_TIME ( 9, 33, 9.000000000000000000, #129 ) ;
#15 = LINE ( 'NONE', #175, #207 ) ;
#16 = DATE_AND_TIME ( #109, #86 ) ;
#17 = FACE_OUTER_BOUND ( 'NONE', #145, .T. ) ;
#18 = PLANE ( 'NONE',  #213 ) ;
#19 = MANIFOLD_SOLID_BREP ( 'Boss-Extrude1', #218 ) ;
#20 = ORIENTED_EDGE ( 'NONE', *, *, #12, .F. ) ;
#21 = VERTEX_POINT ( 'NONE', #26 ) ;
#22 = DIRECTION ( 'NONE',  ( 0.000000000000000000, 0.000000000000000000, -1.000000000000000000 ) ) ;
#23 = AXIS2_PLACEMENT_3D ( 'NONE', #125, #52, #32 ) ;
#24 = LINE ( 'NONE', #81, #169 ) ;
#25 = CALENDAR_DATE ( 2024, 30, 1 ) ;
#26 = CARTESIAN_POINT ( 'NONE',  ( -301.0000000000000000, 0.000000000000000000, 230.0000000000000284 ) ) ;
#27 = EDGE_CURVE ( 'NONE', #75, #127, #24, .T. ) ;
#28 = CARTESIAN_POINT ( 'NONE',  ( -301.0000000000000000, 12.00000000000000000, 230.0000000000000284 ) ) ;
#29 = APPROVAL_ROLE ( '' ) ;
#30 = LINE ( 'NONE', #40, #104 ) ;
#31 = FACE_OUTER_BOUND ( 'NONE', #112, .T. ) ;
#32 = DIRECTION ( 'NONE',  ( 1.000000000000000000, 0.000000000000000000, 0.000000000000000000 ) ) ;
#33 = APPROVAL_STATUS ( 'not_yet_approved' ) ;
#34 = APPROVAL_PERSON_ORGANIZATION ( #67, #117, #108 ) ;
#35 = APPROVAL_STATUS ( 'not_yet_approved' ) ;
#36 = SECURITY_CLASSIFICATION_LEVEL ( 'unclassified' ) ;
#37 = ORIENTED_EDGE ( 'NONE', *, *, #12, .T. ) ;
#38 = DATE_AND_TIME ( #70, #161 ) ;
#39 = ORIENTED_EDGE ( 'NONE', *, *, #9, .T. ) ;
#40 = CARTESIAN_POINT ( 'NONE',  ( 301.0000000000000000, 12.00000000000000000, 230.0000000000000284 ) ) ;
#41 = CARTESIAN_POINT ( 'NONE',  ( -301.0000000000000000, 12.00000000000000000, 230.0000000000000284 ) ) ;
#42 = AXIS2_PLACEMENT_3D ( 'NONE', #141, #121, #191 ) ;
#43 = DIRECTION ( 'NONE',  ( -0.000000000000000000, -1.000000000000000000, -0.000000000000000000 ) ) ;
#44 = CC_DESIGN_PERSON_AND_ORGANIZATION_ASSIGNMENT ( #55, #48, ( #150 ) ) ;
#45 = CARTESIAN_POINT ( 'NONE',  ( -301.0000000000000000, 12.00000000000000000, -229.9999999999999432 ) ) ;
#46 = CARTESIAN_POINT ( 'NONE',  ( 301.0000000000000000, 0.000000000000000000, 230.0000000000000284 ) ) ;
#47 = VECTOR ( 'NONE', #64, 1000.000000000000000 ) ;
#48 = PERSON_AND_ORGANIZATION_ROLE ( 'creator' ) ;
#49 = EDGE_CURVE ( 'NONE', #126, #95, #30, .T. ) ;
#50 =( NAMED_UNIT ( * ) PLANE_ANGLE_UNIT ( ) SI_UNIT ( $, .RADIAN. ) );
#51 = APPROVAL_ROLE ( '' ) ;
#52 = DIRECTION ( 'NONE',  ( 0.000000000000000000, 0.000000000000000000, 1.000000000000000000 ) ) ;
#53 = APPROVAL_PERSON_ORGANIZATION ( #101, #220, #29 ) ;
#54 = CC_DESIGN_PERSON_AND_ORGANIZATION_ASSIGNMENT ( #72, #182, ( #134 ) ) ;
#55 = PERSON_AND_ORGANIZATION ( #98, #184 ) ;
#56 = ORIENTED_EDGE ( 'NONE', *, *, #49, .F. ) ;
#57 = APPROVAL ( #35, 'UNSPECIFIED' ) ;
#58 = CC_DESIGN_PERSON_AND_ORGANIZATION_ASSIGNMENT ( #146, #160, ( #194 ) ) ;
#59 = DIRECTION ( 'NONE',  ( -1.000000000000000000, 0.000000000000000000, 0.000000000000000000 ) ) ;
#60 = PLANE ( 'NONE',  #78 ) ;
#61 = DATE_TIME_ROLE ( 'classification_date' ) ;
#62 = VERTEX_POINT ( 'NONE', #46 ) ;
#63 = CC_DESIGN_APPROVAL ( #117, ( #134 ) ) ;
#64 = DIRECTION ( 'NONE',  ( 1.000000000000000000, 0.000000000000000000, 0.000000000000000000 ) ) ;
#65 = DIRECTION ( 'NONE',  ( 0.000000000000000000, 0.000000000000000000, 1.000000000000000000 ) ) ;
#66 = EDGE_CURVE ( 'NONE', #75, #206, #10, .T. ) ;
#67 = PERSON_AND_ORGANIZATION ( #98, #184 ) ;
#68 = PLANE ( 'NONE',  #42 ) ;
#69 = AXIS2_PLACEMENT_3D ( 'NONE', #155, #59, #65 ) ;
#70 = CALENDAR_DATE ( 2024, 30, 1 ) ;
#71 = LOCAL_TIME ( 9, 33, 9.000000000000000000, #87 ) ;
#72 = PERSON_AND_ORGANIZATION ( #98, #184 ) ;
#73 = ADVANCED_BREP_SHAPE_REPRESENTATION ( 'UNI060T.C_V10124', ( #19, #23 ), #7 ) ;
#74 = ORIENTED_EDGE ( 'NONE', *, *, #76, .T. ) ;
#75 = VERTEX_POINT ( 'NONE', #45 ) ;
#76 = EDGE_CURVE ( 'NONE', #127, #21, #151, .T. ) ;
#77 = ORIENTED_EDGE ( 'NONE', *, *, #89, .T. ) ;
#78 = AXIS2_PLACEMENT_3D ( 'NONE', #41, #116, #171 ) ;
#79 = CARTESIAN_POINT ( 'NONE',  ( 301.0000000000000000, 12.00000000000000000, -229.9999999999999432 ) ) ;
#80 = DIRECTION ( 'NONE',  ( -0.000000000000000000, -1.000000000000000000, -0.000000000000000000 ) ) ;
#81 = CARTESIAN_POINT ( 'NONE',  ( -301.0000000000000000, 12.00000000000000000, 230.0000000000000284 ) ) ;
#82 = FACE_OUTER_BOUND ( 'NONE', #111, .T. ) ;
#83 = APPLICATION_PROTOCOL_DEFINITION ( 'international standard', 'config_control_design', 1994, #88 ) ;
#84 = EDGE_CURVE ( 'NONE', #95, #75, #152, .T. ) ;
#85 = CARTESIAN_POINT ( 'NONE',  ( 301.0000000000000000, 0.000000000000000000, -229.9999999999999432 ) ) ;
#86 = LOCAL_TIME ( 9, 33, 9.000000000000000000, #219 ) ;
#87 = COORDINATED_UNIVERSAL_TIME_OFFSET ( 0, 0, .AHEAD. ) ;
#88 = APPLICATION_CONTEXT ( 'configuration controlled 3d designs of mechanical parts and assemblies' ) ;
#89 = EDGE_CURVE ( 'NONE', #62, #203, #103, .T. ) ;
#90 = DIRECTION ( 'NONE',  ( 1.000000000000000000, 0.000000000000000000, -0.000000000000000000 ) ) ;
#91 = VECTOR ( 'NONE', #6, 1000.000000000000000 ) ;
#92 = ADVANCED_FACE ( 'NONE', ( #229 ), #120, .F. ) ;
#93 = ORIENTED_EDGE ( 'NONE', *, *, #76, .F. ) ;
#94 = ORIENTED_EDGE ( 'NONE', *, *, #84, .F. ) ;
#95 = VERTEX_POINT ( 'NONE', #79 ) ;
#96 = ORIENTED_EDGE ( 'NONE', *, *, #27, .F. ) ;
#97 = DIRECTION ( 'NONE',  ( -0.000000000000000000, -0.000000000000000000, 1.000000000000000000 ) ) ;
#98 = PERSON ( 'UNSPECIFIED', 'UNSPECIFIED', 'UNSPECIFIED', ('UNSPECIFIED'), ('UNSPECIFIED'), ('UNSPECIFIED') ) ;
#99 = CARTESIAN_POINT ( 'NONE',  ( -301.0000000000000000, 12.00000000000000000, 230.0000000000000284 ) ) ;
#100 = EDGE_CURVE ( 'NONE', #203, #206, #188, .T. ) ;
#101 = PERSON_AND_ORGANIZATION ( #98, #184 ) ;
#102 = PLANE ( 'NONE',  #69 ) ;
#103 = LINE ( 'NONE', #205, #232 ) ;
#104 = VECTOR ( 'NONE', #22, 1000.000000000000000 ) ;
#105 = ADVANCED_FACE ( 'NONE', ( #82 ), #102, .F. ) ;
#106 = LINE ( 'NONE', #186, #4 ) ;
#107 = APPROVAL_PERSON_ORGANIZATION ( #217, #57, #51 ) ;
#108 = APPROVAL_ROLE ( '' ) ;
#109 = CALENDAR_DATE ( 2024, 30, 1 ) ;
#110 = CC_DESIGN_DATE_AND_TIME_ASSIGNMENT ( #187, #61, ( #194 ) ) ;
#111 = EDGE_LOOP ( 'NONE', ( #77, #20, #56, #39 ) ) ;
#112 = EDGE_LOOP ( 'NONE', ( #204, #163, #221, #119 ) ) ;
#113 = PERSON_AND_ORGANIZATION ( #98, #184 ) ;
#114 = ORIENTED_EDGE ( 'NONE', *, *, #66, .T. ) ;
#115 = CARTESIAN_POINT ( 'NONE',  ( 301.0000000000000000, 12.00000000000000000, 230.0000000000000284 ) ) ;
#116 = DIRECTION ( 'NONE',  ( 0.000000000000000000, 0.000000000000000000, -1.000000000000000000 ) ) ;
#117 = APPROVAL ( #33, 'UNSPECIFIED' ) ;
#118 = DIRECTION ( 'NONE',  ( 0.000000000000000000, 0.000000000000000000, -1.000000000000000000 ) ) ;
#119 = ORIENTED_EDGE ( 'NONE', *, *, #100, .F. ) ;
#120 = PLANE ( 'NONE',  #148 ) ;
#121 = DIRECTION ( 'NONE',  ( 0.000000000000000000, -1.000000000000000000, 0.000000000000000000 ) ) ;
#122 = DIRECTION ( 'NONE',  ( -0.000000000000000000, -0.000000000000000000, 1.000000000000000000 ) ) ;
#123 = APPROVAL_DATE_TIME ( #16, #57 ) ;
#124 = SHAPE_DEFINITION_REPRESENTATION ( #139, #73 ) ;
#125 = CARTESIAN_POINT ( 'NONE',  ( 0.000000000000000000, 0.000000000000000000, 0.000000000000000000 ) ) ;
#126 = VERTEX_POINT ( 'NONE', #115 ) ;
#127 = VERTEX_POINT ( 'NONE', #149 ) ;
#128 = EDGE_CURVE ( 'NONE', #21, #62, #225, .T. ) ;
#129 = COORDINATED_UNIVERSAL_TIME_OFFSET ( 0, 0, .AHEAD. ) ;
#130 = LINE ( 'NONE', #131, #143 ) ;
#131 = CARTESIAN_POINT ( 'NONE',  ( 301.0000000000000000, 12.00000000000000000, 230.0000000000000284 ) ) ;
#132 = COORDINATED_UNIVERSAL_TIME_OFFSET ( 0, 0, .AHEAD. ) ;
#133 = DIRECTION ( 'NONE',  ( 0.000000000000000000, 0.000000000000000000, -1.000000000000000000 ) ) ;
#134 = PRODUCT_DEFINITION_FORMATION_WITH_SPECIFIED_SOURCE ( 'ANY', '', #215, .NOT_KNOWN. ) ;
#135 = LINE ( 'NONE', #165, #177 ) ;
#136 = CC_DESIGN_PERSON_AND_ORGANIZATION_ASSIGNMENT ( #113, #197, ( #134 ) ) ;
#137 = DIRECTION ( 'NONE',  ( 1.000000000000000000, 0.000000000000000000, 0.000000000000000000 ) ) ;
#138 = APPROVAL_DATE_TIME ( #193, #220 ) ;
#139 = PRODUCT_DEFINITION_SHAPE ( 'NONE', 'NONE',  #150 ) ;
#140 = EDGE_CURVE ( 'NONE', #127, #126, #135, .T. ) ;
#141 = CARTESIAN_POINT ( 'NONE',  ( 0.000000000000000000, 0.000000000000000000, 0.000000000000000000 ) ) ;
#142 = PERSON_AND_ORGANIZATION_ROLE ( 'design_owner' ) ;
#143 = VECTOR ( 'NONE', #185, 1000.000000000000000 ) ;
#144 = ADVANCED_FACE ( 'NONE', ( #226 ), #60, .F. ) ;
#145 = EDGE_LOOP ( 'NONE', ( #5, #166, #181, #8 ) ) ;
#146 = PERSON_AND_ORGANIZATION ( #98, #184 ) ;
#147 = ORIENTED_EDGE ( 'NONE', *, *, #100, .T. ) ;
#148 = AXIS2_PLACEMENT_3D ( 'NONE', #99, #168, #133 ) ;
#149 = CARTESIAN_POINT ( 'NONE',  ( -301.0000000000000000, 12.00000000000000000, 230.0000000000000284 ) ) ;
#150 = PRODUCT_DEFINITION ( 'UNKNOWN', '', #134, #237 ) ;
#151 = LINE ( 'NONE', #28, #223 ) ;
#152 = LINE ( 'NONE', #183, #198 ) ;
#153 = CARTESIAN_POINT ( 'NONE',  ( -301.0000000000000000, 12.00000000000000000, -229.9999999999999432 ) ) ;
#154 = APPROVAL_STATUS ( 'not_yet_approved' ) ;
#155 = CARTESIAN_POINT ( 'NONE',  ( 301.0000000000000000, 12.00000000000000000, 230.0000000000000284 ) ) ;
#156 = PLANE ( 'NONE',  #1 ) ;
#157 = CALENDAR_DATE ( 2024, 30, 1 ) ;
#158 = DIRECTION ( 'NONE',  ( 0.000000000000000000, 0.000000000000000000, 1.000000000000000000 ) ) ;
#159 = VECTOR ( 'NONE', #228, 1000.000000000000000 ) ;
#160 = PERSON_AND_ORGANIZATION_ROLE ( 'classification_officer' ) ;
#161 = LOCAL_TIME ( 9, 33, 9.000000000000000000, #202 ) ;
#162 = ORIENTED_EDGE ( 'NONE', *, *, #179, .T. ) ;
#163 = ORIENTED_EDGE ( 'NONE', *, *, #128, .F. ) ;
#164 = ORIENTED_EDGE ( 'NONE', *, *, #128, .T. ) ;
#165 = CARTESIAN_POINT ( 'NONE',  ( -301.0000000000000000, 12.00000000000000000, 230.0000000000000284 ) ) ;
#166 = ORIENTED_EDGE ( 'NONE', *, *, #84, .T. ) ;
#167 = DIRECTION ( 'NONE',  ( -1.000000000000000000, -0.000000000000000000, -0.000000000000000000 ) ) ;
#168 = DIRECTION ( 'NONE',  ( 1.000000000000000000, -0.000000000000000000, 0.000000000000000000 ) ) ;
#169 = VECTOR ( 'NONE', #97, 1000.000000000000000 ) ;
#170 =( NAMED_UNIT ( * ) SI_UNIT ( $, .STERADIAN. ) SOLID_ANGLE_UNIT ( ) );
#171 = DIRECTION ( 'NONE',  ( -1.000000000000000000, 0.000000000000000000, -0.000000000000000000 ) ) ;
#172 = PRODUCT_RELATED_PRODUCT_CATEGORY ( 'detail', '', ( #215 ) ) ;
#173 = APPLICATION_PROTOCOL_DEFINITION ( 'international standard', 'config_control_design', 1994, #234 ) ;
#174 = CC_DESIGN_APPROVAL ( #57, ( #150 ) ) ;
#175 = CARTESIAN_POINT ( 'NONE',  ( -301.0000000000000000, 0.000000000000000000, 230.0000000000000284 ) ) ;
#176 = UNCERTAINTY_MEASURE_WITH_UNIT (LENGTH_MEASURE( 1.000000000000000082E-05 ), #235, 'distance_accuracy_value', 'NONE');
#177 = VECTOR ( 'NONE', #137, 1000.000000000000000 ) ;
#178 = CC_DESIGN_SECURITY_CLASSIFICATION ( #194, ( #134 ) ) ;
#179 = EDGE_CURVE ( 'NONE', #206, #21, #15, .T. ) ;
#180 = APPROVAL_DATE_TIME ( #38, #117 ) ;
#181 = ORIENTED_EDGE ( 'NONE', *, *, #27, .T. ) ;
#182 = PERSON_AND_ORGANIZATION_ROLE ( 'creator' ) ;
#183 = CARTESIAN_POINT ( 'NONE',  ( -301.0000000000000000, 12.00000000000000000, -229.9999999999999432 ) ) ;
#184 = ORGANIZATION ( 'UNSPECIFIED', 'UNSPECIFIED', '' ) ;
#185 = DIRECTION ( 'NONE',  ( -0.000000000000000000, -1.000000000000000000, -0.000000000000000000 ) ) ;
#186 = CARTESIAN_POINT ( 'NONE',  ( 301.0000000000000000, 12.00000000000000000, -229.9999999999999432 ) ) ;
#187 = DATE_AND_TIME ( #25, #224 ) ;
#188 = LINE ( 'NONE', #13, #159 ) ;
#189 = CC_DESIGN_PERSON_AND_ORGANIZATION_ASSIGNMENT ( #212, #142, ( #215 ) ) ;
#190 = CARTESIAN_POINT ( 'NONE',  ( -301.0000000000000000, 12.00000000000000000, -229.9999999999999432 ) ) ;
#191 = DIRECTION ( 'NONE',  ( 0.000000000000000000, -0.000000000000000000, -1.000000000000000000 ) ) ;
#192 = CARTESIAN_POINT ( 'NONE',  ( -301.0000000000000000, 0.000000000000000000, -229.9999999999999432 ) ) ;
#193 = DATE_AND_TIME ( #222, #14 ) ;
#194 = SECURITY_CLASSIFICATION ( '', '', #36 ) ;
#195 = CARTESIAN_POINT ( 'NONE',  ( 0.000000000000000000, 12.00000000000000000, 0.000000000000000000 ) ) ;
#196 = DATE_AND_TIME ( #157, #71 ) ;
#197 = PERSON_AND_ORGANIZATION_ROLE ( 'design_supplier' ) ;
#198 = VECTOR ( 'NONE', #167, 1000.000000000000000 ) ;
#199 = CC_DESIGN_APPROVAL ( #220, ( #194 ) ) ;
#200 = ADVANCED_FACE ( 'NONE', ( #31 ), #68, .T. ) ;
#201 = EDGE_LOOP ( 'NONE', ( #162, #93, #96, #114 ) ) ;
#202 = COORDINATED_UNIVERSAL_TIME_OFFSET ( 0, 0, .AHEAD. ) ;
#203 = VERTEX_POINT ( 'NONE', #85 ) ;
#204 = ORIENTED_EDGE ( 'NONE', *, *, #89, .F. ) ;
#205 = CARTESIAN_POINT ( 'NONE',  ( 301.0000000000000000, 0.000000000000000000, 230.0000000000000284 ) ) ;
#206 = VERTEX_POINT ( 'NONE', #192 ) ;
#207 = VECTOR ( 'NONE', #122, 1000.000000000000000 ) ;
#208 = ORIENTED_EDGE ( 'NONE', *, *, #140, .F. ) ;
#209 = ADVANCED_FACE ( 'NONE', ( #17 ), #156, .F. ) ;
#210 = EDGE_LOOP ( 'NONE', ( #147, #211, #94, #37 ) ) ;
#211 = ORIENTED_EDGE ( 'NONE', *, *, #66, .F. ) ;
#212 = PERSON_AND_ORGANIZATION ( #98, #184 ) ;
#213 = AXIS2_PLACEMENT_3D ( 'NONE', #190, #158, #90 ) ;
#214 = MECHANICAL_CONTEXT ( 'NONE', #88, 'mechanical' ) ;
#215 = PRODUCT ( 'UNI060T.C_V10124', 'UNI060T.C_V10124', '', ( #214 ) ) ;
#216 = DIRECTION ( 'NONE',  ( 0.000000000000000000, -0.000000000000000000, -1.000000000000000000 ) ) ;
#217 = PERSON_AND_ORGANIZATION ( #98, #184 ) ;
#218 = CLOSED_SHELL ( 'NONE', ( #105, #227, #92, #144, #209, #200 ) ) ;
#219 = COORDINATED_UNIVERSAL_TIME_OFFSET ( 0, 0, .AHEAD. ) ;
#220 = APPROVAL ( #154, 'UNSPECIFIED' ) ;
#221 = ORIENTED_EDGE ( 'NONE', *, *, #179, .F. ) ;
#222 = CALENDAR_DATE ( 2024, 30, 1 ) ;
#223 = VECTOR ( 'NONE', #43, 1000.000000000000000 ) ;
#224 = LOCAL_TIME ( 9, 33, 9.000000000000000000, #132 ) ;
#225 = LINE ( 'NONE', #11, #47 ) ;
#226 = FACE_OUTER_BOUND ( 'NONE', #230, .T. ) ;
#227 = ADVANCED_FACE ( 'NONE', ( #236 ), #18, .F. ) ;
#228 = DIRECTION ( 'NONE',  ( -1.000000000000000000, -0.000000000000000000, -0.000000000000000000 ) ) ;
#229 = FACE_OUTER_BOUND ( 'NONE', #201, .T. ) ;
#230 = EDGE_LOOP ( 'NONE', ( #164, #3, #208, #74 ) ) ;
#231 = DIRECTION ( 'NONE',  ( 0.000000000000000000, -1.000000000000000000, 0.000000000000000000 ) ) ;
#232 = VECTOR ( 'NONE', #118, 1000.000000000000000 ) ;
#233 = DATE_TIME_ROLE ( 'creation_date' ) ;
#234 = APPLICATION_CONTEXT ( 'configuration controlled 3d designs of mechanical parts and assemblies' ) ;
#235 =( LENGTH_UNIT ( ) NAMED_UNIT ( * ) SI_UNIT ( .MILLI., .METRE. ) );
#236 = FACE_OUTER_BOUND ( 'NONE', #210, .T. ) ;
#237 = DESIGN_CONTEXT ( 'detailed design', #234, 'design' ) ;
ENDSEC;
END-ISO-10303-21;
