ISO-10303-21;
HEADER;
FILE_DESCRIPTION (( 'STEP AP203' ),
    '1' );
FILE_NAME ('UNI050T.C_V10124.STEP',
    '2024-01-30T09:33:41',
    ( '' ),
    ( '' ),
    'SwSTEP 2.0',
    'SolidWorks 2019',
    '' );
FILE_SCHEMA (( 'CONFIG_CONTROL_DESIGN' ));
ENDSEC;

DATA;
#1 = VECTOR ( 'NONE', #45, 1000.000000000000000 ) ;
#2 = CC_DESIGN_APPROVAL ( #34, ( #169 ) ) ;
#3 = ORIENTED_EDGE ( 'NONE', *, *, #48, .T. ) ;
#4 = EDGE_CURVE ( 'NONE', #42, #226, #188, .T. ) ;
#5 = ORIENTED_EDGE ( 'NONE', *, *, #224, .T. ) ;
#6 = FACE_OUTER_BOUND ( 'NONE', #115, .T. ) ;
#7 = ORIENTED_EDGE ( 'NONE', *, *, #211, .F. ) ;
#8 = DATE_TIME_ROLE ( 'creation_date' ) ;
#9 = DIRECTION ( 'NONE',  ( -1.000000000000000000, -0.000000000000000000, -0.000000000000000000 ) ) ;
#10 = ADVANCED_FACE ( 'NONE', ( #81 ), #187, .F. ) ;
#11 = CARTESIAN_POINT ( 'NONE',  ( -251.0000000000000000, 12.00000000000000000, -179.9999999999998579 ) ) ;
#12 = DIRECTION ( 'NONE',  ( 0.000000000000000000, -0.000000000000000000, -1.000000000000000000 ) ) ;
#13 = LOCAL_TIME ( 9, 33, 41.00000000000000000, #180 ) ;
#14 = CALENDAR_DATE ( 2024, 30, 1 ) ;
#15 = CC_DESIGN_PERSON_AND_ORGANIZATION_ASSIGNMENT ( #53, #125, ( #169 ) ) ;
#16 = EDGE_LOOP ( 'NONE', ( #203, #151, #206, #84 ) ) ;
#17 = SHAPE_DEFINITION_REPRESENTATION ( #145, #57 ) ;
#18 = EDGE_CURVE ( 'NONE', #23, #41, #186, .T. ) ;
#19 = LINE ( 'NONE', #147, #221 ) ;
#20 = CARTESIAN_POINT ( 'NONE',  ( 251.0000000000001137, 12.00000000000000000, -179.9999999999998579 ) ) ;
#21 = CALENDAR_DATE ( 2024, 30, 1 ) ;
#22 = DIRECTION ( 'NONE',  ( 0.000000000000000000, 0.000000000000000000, -1.000000000000000000 ) ) ;
#23 = VERTEX_POINT ( 'NONE', #65 ) ;
#24 = APPROVAL_DATE_TIME ( #100, #95 ) ;
#25 = EDGE_CURVE ( 'NONE', #134, #226, #19, .T. ) ;
#26 = EDGE_LOOP ( 'NONE', ( #112, #205, #101, #64 ) ) ;
#27 = LOCAL_TIME ( 9, 33, 41.00000000000000000, #128 ) ;
#28 = CARTESIAN_POINT ( 'NONE',  ( 251.0000000000001137, 12.00000000000000000, 180.0000000000001421 ) ) ;
#29 = CARTESIAN_POINT ( 'NONE',  ( -251.0000000000000000, 0.000000000000000000, 180.0000000000001421 ) ) ;
#30 = VECTOR ( 'NONE', #123, 1000.000000000000000 ) ;
#31 = APPROVAL_STATUS ( 'not_yet_approved' ) ;
#32 = CARTESIAN_POINT ( 'NONE',  ( -251.0000000000000000, 12.00000000000000000, 180.0000000000001421 ) ) ;
#33 = DIRECTION ( 'NONE',  ( 0.000000000000000000, -1.000000000000000000, 0.000000000000000000 ) ) ;
#34 = APPROVAL ( #31, 'UNSPECIFIED' ) ;
#35 = PERSON_AND_ORGANIZATION_ROLE ( 'classification_officer' ) ;
#36 = LOCAL_TIME ( 9, 33, 41.00000000000000000, #167 ) ;
#37 = CC_DESIGN_PERSON_AND_ORGANIZATION_ASSIGNMENT ( #76, #219, ( #77 ) ) ;
#38 = APPROVAL_DATE_TIME ( #146, #159 ) ;
#39 = DIRECTION ( 'NONE',  ( -0.000000000000000000, -1.000000000000000000, -0.000000000000000000 ) ) ;
#40 = ORIENTED_EDGE ( 'NONE', *, *, #216, .F. ) ;
#41 = VERTEX_POINT ( 'NONE', #135 ) ;
#42 = VERTEX_POINT ( 'NONE', #222 ) ;
#43 = VERTEX_POINT ( 'NONE', #60 ) ;
#44 = VECTOR ( 'NONE', #98, 1000.000000000000000 ) ;
#45 = DIRECTION ( 'NONE',  ( 0.000000000000000000, 0.000000000000000000, -1.000000000000000000 ) ) ;
#46 = APPROVAL_PERSON_ORGANIZATION ( #192, #34, #230 ) ;
#47 = FACE_OUTER_BOUND ( 'NONE', #26, .T. ) ;
#48 = EDGE_CURVE ( 'NONE', #134, #170, #129, .T. ) ;
#49 = DATE_AND_TIME ( #157, #68 ) ;
#50 = DIRECTION ( 'NONE',  ( 1.000000000000000000, 0.000000000000000000, 0.000000000000000000 ) ) ;
#51 = CALENDAR_DATE ( 2024, 30, 1 ) ;
#52 = CARTESIAN_POINT ( 'NONE',  ( 251.0000000000001137, 12.00000000000000000, 180.0000000000001421 ) ) ;
#53 = PERSON_AND_ORGANIZATION ( #78, #103 ) ;
#54 = CC_DESIGN_DATE_AND_TIME_ASSIGNMENT ( #89, #8, ( #164 ) ) ;
#55 = DESIGN_CONTEXT ( 'detailed design', #181, 'design' ) ;
#56 = AXIS2_PLACEMENT_3D ( 'NONE', #75, #113, #196 ) ;
#57 = ADVANCED_BREP_SHAPE_REPRESENTATION ( 'UNI050T.C_V10124', ( #105, #56 ), #158 ) ;
#58 = CALENDAR_DATE ( 2024, 30, 1 ) ;
#59 = VECTOR ( 'NONE', #99, 1000.000000000000000 ) ;
#60 = CARTESIAN_POINT ( 'NONE',  ( 251.0000000000001137, 12.00000000000000000, 180.0000000000001421 ) ) ;
#61 = ORIENTED_EDGE ( 'NONE', *, *, #90, .T. ) ;
#62 = APPLICATION_PROTOCOL_DEFINITION ( 'international standard', 'config_control_design', 1994, #181 ) ;
#63 = ORIENTED_EDGE ( 'NONE', *, *, #74, .T. ) ;
#64 = ORIENTED_EDGE ( 'NONE', *, *, #4, .F. ) ;
#65 = CARTESIAN_POINT ( 'NONE',  ( -251.0000000000000000, 0.000000000000000000, 180.0000000000001421 ) ) ;
#66 = EDGE_CURVE ( 'NONE', #223, #42, #149, .T. ) ;
#67 = CARTESIAN_POINT ( 'NONE',  ( 0.000000000000000000, 0.000000000000000000, 0.000000000000000000 ) ) ;
#68 = LOCAL_TIME ( 9, 33, 41.00000000000000000, #93 ) ;
#69 = DIRECTION ( 'NONE',  ( -0.000000000000000000, -1.000000000000000000, -0.000000000000000000 ) ) ;
#70 = PERSON_AND_ORGANIZATION_ROLE ( 'creator' ) ;
#71 = CARTESIAN_POINT ( 'NONE',  ( -251.0000000000000000, 0.000000000000000000, -179.9999999999998579 ) ) ;
#72 = DIRECTION ( 'NONE',  ( 0.000000000000000000, 0.000000000000000000, -1.000000000000000000 ) ) ;
#73 = VECTOR ( 'NONE', #9, 1000.000000000000000 ) ;
#74 = EDGE_CURVE ( 'NONE', #41, #42, #150, .T. ) ;
#75 = CARTESIAN_POINT ( 'NONE',  ( 0.000000000000000000, 0.000000000000000000, 0.000000000000000000 ) ) ;
#76 = PERSON_AND_ORGANIZATION ( #78, #103 ) ;
#77 = PRODUCT ( 'UNI050T.C_V10124', 'UNI050T.C_V10124', '', ( #183 ) ) ;
#78 = PERSON ( 'UNSPECIFIED', 'UNSPECIFIED', 'UNSPECIFIED', ('UNSPECIFIED'), ('UNSPECIFIED'), ('UNSPECIFIED') ) ;
#79 = CARTESIAN_POINT ( 'NONE',  ( -251.0000000000000000, 0.000000000000000000, 180.0000000000001421 ) ) ;
#80 = CC_DESIGN_APPROVAL ( #159, ( #139 ) ) ;
#81 = FACE_OUTER_BOUND ( 'NONE', #118, .T. ) ;
#82 = DIRECTION ( 'NONE',  ( 0.000000000000000000, 0.000000000000000000, 1.000000000000000000 ) ) ;
#83 = ADVANCED_FACE ( 'NONE', ( #6 ), #191, .F. ) ;
#84 = ORIENTED_EDGE ( 'NONE', *, *, #25, .T. ) ;
#85 = VECTOR ( 'NONE', #231, 1000.000000000000000 ) ;
#86 = ORIENTED_EDGE ( 'NONE', *, *, #199, .T. ) ;
#87 = CARTESIAN_POINT ( 'NONE',  ( -251.0000000000000000, 12.00000000000000000, 180.0000000000001421 ) ) ;
#88 = DIRECTION ( 'NONE',  ( 0.000000000000000000, 0.000000000000000000, 1.000000000000000000 ) ) ;
#89 = DATE_AND_TIME ( #51, #148 ) ;
#90 = EDGE_CURVE ( 'NONE', #170, #23, #208, .T. ) ;
#91 = PLANE ( 'NONE',  #198 ) ;
#92 = CARTESIAN_POINT ( 'NONE',  ( -251.0000000000000000, 12.00000000000000000, -179.9999999999998579 ) ) ;
#93 = COORDINATED_UNIVERSAL_TIME_OFFSET ( 0, 0, .AHEAD. ) ;
#94 = DIRECTION ( 'NONE',  ( 0.000000000000000000, -1.000000000000000000, 0.000000000000000000 ) ) ;
#95 = APPROVAL ( #132, 'UNSPECIFIED' ) ;
#96 = PERSON_AND_ORGANIZATION ( #78, #103 ) ;
#97 = PRODUCT_RELATED_PRODUCT_CATEGORY ( 'detail', '', ( #77 ) ) ;
#98 = DIRECTION ( 'NONE',  ( -0.000000000000000000, -0.000000000000000000, 1.000000000000000000 ) ) ;
#99 = DIRECTION ( 'NONE',  ( -0.000000000000000000, -1.000000000000000000, -0.000000000000000000 ) ) ;
#100 = DATE_AND_TIME ( #21, #27 ) ;
#101 = ORIENTED_EDGE ( 'NONE', *, *, #116, .F. ) ;
#102 = CARTESIAN_POINT ( 'NONE',  ( -251.0000000000000000, 0.000000000000000000, -179.9999999999998579 ) ) ;
#103 = ORGANIZATION ( 'UNSPECIFIED', 'UNSPECIFIED', '' ) ;
#104 = ORIENTED_EDGE ( 'NONE', *, *, #66, .T. ) ;
#105 = MANIFOLD_SOLID_BREP ( 'Boss-Extrude1', #232 ) ;
#106 = COORDINATED_UNIVERSAL_TIME_OFFSET ( 0, 0, .AHEAD. ) ;
#107 = CARTESIAN_POINT ( 'NONE',  ( -251.0000000000000000, 12.00000000000000000, 180.0000000000001421 ) ) ;
#108 = PLANE ( 'NONE',  #138 ) ;
#109 = FACE_OUTER_BOUND ( 'NONE', #202, .T. ) ;
#110 = LINE ( 'NONE', #92, #73 ) ;
#111 = AXIS2_PLACEMENT_3D ( 'NONE', #87, #72, #142 ) ;
#112 = ORIENTED_EDGE ( 'NONE', *, *, #74, .F. ) ;
#113 = DIRECTION ( 'NONE',  ( 0.000000000000000000, 0.000000000000000000, 1.000000000000000000 ) ) ;
#114 = CARTESIAN_POINT ( 'NONE',  ( -251.0000000000000000, 12.00000000000000000, 180.0000000000001421 ) ) ;
#115 = EDGE_LOOP ( 'NONE', ( #190, #204, #40, #61 ) ) ;
#116 = EDGE_CURVE ( 'NONE', #226, #23, #195, .T. ) ;
#117 = ORIENTED_EDGE ( 'NONE', *, *, #199, .F. ) ;
#118 = EDGE_LOOP ( 'NONE', ( #182, #168, #7, #104 ) ) ;
#119 = ORIENTED_EDGE ( 'NONE', *, *, #211, .T. ) ;
#120 = VECTOR ( 'NONE', #228, 1000.000000000000000 ) ;
#121 = LINE ( 'NONE', #162, #227 ) ;
#122 = CARTESIAN_POINT ( 'NONE',  ( 251.0000000000001137, 12.00000000000000000, 180.0000000000001421 ) ) ;
#123 = DIRECTION ( 'NONE',  ( -0.000000000000000000, -0.000000000000000000, 1.000000000000000000 ) ) ;
#124 = LINE ( 'NONE', #52, #1 ) ;
#125 = PERSON_AND_ORGANIZATION_ROLE ( 'design_supplier' ) ;
#126 = SECURITY_CLASSIFICATION_LEVEL ( 'unclassified' ) ;
#127 = APPROVAL_PERSON_ORGANIZATION ( #153, #95, #189 ) ;
#128 = COORDINATED_UNIVERSAL_TIME_OFFSET ( 0, 0, .AHEAD. ) ;
#129 = LINE ( 'NONE', #114, #44 ) ;
#130 = APPROVAL_STATUS ( 'not_yet_approved' ) ;
#131 = CARTESIAN_POINT ( 'NONE',  ( -251.0000000000000000, 12.00000000000000000, -179.9999999999998579 ) ) ;
#132 = APPROVAL_STATUS ( 'not_yet_approved' ) ;
#133 = DIRECTION ( 'NONE',  ( -1.000000000000000000, -0.000000000000000000, -0.000000000000000000 ) ) ;
#134 = VERTEX_POINT ( 'NONE', #11 ) ;
#135 = CARTESIAN_POINT ( 'NONE',  ( 251.0000000000001137, 0.000000000000000000, 180.0000000000001421 ) ) ;
#136 = ADVANCED_FACE ( 'NONE', ( #109 ), #213, .F. ) ;
#137 = DIRECTION ( 'NONE',  ( 0.000000000000000000, -0.000000000000000000, -1.000000000000000000 ) ) ;
#138 = AXIS2_PLACEMENT_3D ( 'NONE', #28, #175, #88 ) ;
#139 = SECURITY_CLASSIFICATION ( '', '', #126 ) ;
#140 = CARTESIAN_POINT ( 'NONE',  ( -251.0000000000000000, 12.00000000000000000, 180.0000000000001421 ) ) ;
#141 =( NAMED_UNIT ( * ) PLANE_ANGLE_UNIT ( ) SI_UNIT ( $, .RADIAN. ) );
#142 = DIRECTION ( 'NONE',  ( -1.000000000000000000, 0.000000000000000000, -0.000000000000000000 ) ) ;
#143 = APPLICATION_PROTOCOL_DEFINITION ( 'international standard', 'config_control_design', 1994, #234 ) ;
#144 = UNCERTAINTY_MEASURE_WITH_UNIT (LENGTH_MEASURE( 1.000000000000000082E-05 ), #155, 'distance_accuracy_value', 'NONE');
#145 = PRODUCT_DEFINITION_SHAPE ( 'NONE', 'NONE',  #164 ) ;
#146 = DATE_AND_TIME ( #58, #36 ) ;
#147 = CARTESIAN_POINT ( 'NONE',  ( -251.0000000000000000, 12.00000000000000000, -179.9999999999998579 ) ) ;
#148 = LOCAL_TIME ( 9, 33, 41.00000000000000000, #106 ) ;
#149 = LINE ( 'NONE', #20, #59 ) ;
#150 = LINE ( 'NONE', #225, #184 ) ;
#151 = ORIENTED_EDGE ( 'NONE', *, *, #90, .F. ) ;
#152 = AXIS2_PLACEMENT_3D ( 'NONE', #131, #82, #172 ) ;
#153 = PERSON_AND_ORGANIZATION ( #78, #103 ) ;
#154 = ORIENTED_EDGE ( 'NONE', *, *, #66, .F. ) ;
#155 =( LENGTH_UNIT ( ) NAMED_UNIT ( * ) SI_UNIT ( .MILLI., .METRE. ) );
#156 = FACE_OUTER_BOUND ( 'NONE', #16, .T. ) ;
#157 = CALENDAR_DATE ( 2024, 30, 1 ) ;
#158 =( GEOMETRIC_REPRESENTATION_CONTEXT ( 3 ) GLOBAL_UNCERTAINTY_ASSIGNED_CONTEXT ( ( #144 ) ) GLOBAL_UNIT_ASSIGNED_CONTEXT ( ( #155, #141, #229 ) ) REPRESENTATION_CONTEXT ( 'NONE', 'WORKASPACE' ) );
#159 = APPROVAL ( #130, 'UNSPECIFIED' ) ;
#160 = CARTESIAN_POINT ( 'NONE',  ( 251.0000000000001137, 12.00000000000000000, -179.9999999999998579 ) ) ;
#161 = PERSON_AND_ORGANIZATION ( #78, #103 ) ;
#162 = CARTESIAN_POINT ( 'NONE',  ( -251.0000000000000000, 12.00000000000000000, 180.0000000000001421 ) ) ;
#163 = CC_DESIGN_APPROVAL ( #95, ( #164 ) ) ;
#164 = PRODUCT_DEFINITION ( 'UNKNOWN', '', #169, #55 ) ;
#165 = DATE_AND_TIME ( #14, #13 ) ;
#166 = CC_DESIGN_PERSON_AND_ORGANIZATION_ASSIGNMENT ( #207, #70, ( #164 ) ) ;
#167 = COORDINATED_UNIVERSAL_TIME_OFFSET ( 0, 0, .AHEAD. ) ;
#168 = ORIENTED_EDGE ( 'NONE', *, *, #25, .F. ) ;
#169 = PRODUCT_DEFINITION_FORMATION_WITH_SPECIFIED_SOURCE ( 'ANY', '', #77, .NOT_KNOWN. ) ;
#170 = VERTEX_POINT ( 'NONE', #107 ) ;
#171 = ORIENTED_EDGE ( 'NONE', *, *, #216, .T. ) ;
#172 = DIRECTION ( 'NONE',  ( 1.000000000000000000, 0.000000000000000000, -0.000000000000000000 ) ) ;
#173 = AXIS2_PLACEMENT_3D ( 'NONE', #193, #94, #12 ) ;
#174 = PLANE ( 'NONE',  #200 ) ;
#175 = DIRECTION ( 'NONE',  ( -1.000000000000000000, 0.000000000000000000, 0.000000000000000000 ) ) ;
#176 = VECTOR ( 'NONE', #69, 1000.000000000000000 ) ;
#177 = DIRECTION ( 'NONE',  ( 1.000000000000000000, -0.000000000000000000, 0.000000000000000000 ) ) ;
#178 = CC_DESIGN_PERSON_AND_ORGANIZATION_ASSIGNMENT ( #197, #35, ( #139 ) ) ;
#179 = APPROVAL_PERSON_ORGANIZATION ( #96, #159, #218 ) ;
#180 = COORDINATED_UNIVERSAL_TIME_OFFSET ( 0, 0, .AHEAD. ) ;
#181 = APPLICATION_CONTEXT ( 'configuration controlled 3d designs of mechanical parts and assemblies' ) ;
#182 = ORIENTED_EDGE ( 'NONE', *, *, #4, .T. ) ;
#183 = MECHANICAL_CONTEXT ( 'NONE', #234, 'mechanical' ) ;
#184 = VECTOR ( 'NONE', #22, 1000.000000000000000 ) ;
#185 = EDGE_LOOP ( 'NONE', ( #63, #154, #117, #5 ) ) ;
#186 = LINE ( 'NONE', #79, #120 ) ;
#187 = PLANE ( 'NONE',  #152 ) ;
#188 = LINE ( 'NONE', #102, #209 ) ;
#189 = APPROVAL_ROLE ( '' ) ;
#190 = ORIENTED_EDGE ( 'NONE', *, *, #18, .T. ) ;
#191 = PLANE ( 'NONE',  #111 ) ;
#192 = PERSON_AND_ORGANIZATION ( #78, #103 ) ;
#193 = CARTESIAN_POINT ( 'NONE',  ( 0.000000000000000000, 12.00000000000000000, 0.000000000000000000 ) ) ;
#194 = CC_DESIGN_PERSON_AND_ORGANIZATION_ASSIGNMENT ( #161, #237, ( #169 ) ) ;
#195 = LINE ( 'NONE', #29, #30 ) ;
#196 = DIRECTION ( 'NONE',  ( 1.000000000000000000, 0.000000000000000000, 0.000000000000000000 ) ) ;
#197 = PERSON_AND_ORGANIZATION ( #78, #103 ) ;
#198 = AXIS2_PLACEMENT_3D ( 'NONE', #67, #33, #137 ) ;
#199 = EDGE_CURVE ( 'NONE', #43, #223, #124, .T. ) ;
#200 = AXIS2_PLACEMENT_3D ( 'NONE', #140, #177, #212 ) ;
#201 = ADVANCED_FACE ( 'NONE', ( #215 ), #108, .F. ) ;
#202 = EDGE_LOOP ( 'NONE', ( #86, #119, #3, #171 ) ) ;
#203 = ORIENTED_EDGE ( 'NONE', *, *, #116, .T. ) ;
#204 = ORIENTED_EDGE ( 'NONE', *, *, #224, .F. ) ;
#205 = ORIENTED_EDGE ( 'NONE', *, *, #18, .F. ) ;
#206 = ORIENTED_EDGE ( 'NONE', *, *, #48, .F. ) ;
#207 = PERSON_AND_ORGANIZATION ( #78, #103 ) ;
#208 = LINE ( 'NONE', #32, #85 ) ;
#209 = VECTOR ( 'NONE', #133, 1000.000000000000000 ) ;
#210 = CC_DESIGN_SECURITY_CLASSIFICATION ( #139, ( #169 ) ) ;
#211 = EDGE_CURVE ( 'NONE', #223, #134, #110, .T. ) ;
#212 = DIRECTION ( 'NONE',  ( 0.000000000000000000, 0.000000000000000000, -1.000000000000000000 ) ) ;
#213 = PLANE ( 'NONE',  #173 ) ;
#214 = ADVANCED_FACE ( 'NONE', ( #156 ), #174, .F. ) ;
#215 = FACE_OUTER_BOUND ( 'NONE', #185, .T. ) ;
#216 = EDGE_CURVE ( 'NONE', #170, #43, #121, .T. ) ;
#217 = DATE_TIME_ROLE ( 'classification_date' ) ;
#218 = APPROVAL_ROLE ( '' ) ;
#219 = PERSON_AND_ORGANIZATION_ROLE ( 'design_owner' ) ;
#220 = ADVANCED_FACE ( 'NONE', ( #47 ), #91, .T. ) ;
#221 = VECTOR ( 'NONE', #39, 1000.000000000000000 ) ;
#222 = CARTESIAN_POINT ( 'NONE',  ( 251.0000000000001137, 0.000000000000000000, -179.9999999999998579 ) ) ;
#223 = VERTEX_POINT ( 'NONE', #160 ) ;
#224 = EDGE_CURVE ( 'NONE', #43, #41, #235, .T. ) ;
#225 = CARTESIAN_POINT ( 'NONE',  ( 251.0000000000001137, 0.000000000000000000, 180.0000000000001421 ) ) ;
#226 = VERTEX_POINT ( 'NONE', #71 ) ;
#227 = VECTOR ( 'NONE', #50, 1000.000000000000000 ) ;
#228 = DIRECTION ( 'NONE',  ( 1.000000000000000000, 0.000000000000000000, 0.000000000000000000 ) ) ;
#229 =( NAMED_UNIT ( * ) SI_UNIT ( $, .STERADIAN. ) SOLID_ANGLE_UNIT ( ) );
#230 = APPROVAL_ROLE ( '' ) ;
#231 = DIRECTION ( 'NONE',  ( -0.000000000000000000, -1.000000000000000000, -0.000000000000000000 ) ) ;
#232 = CLOSED_SHELL ( 'NONE', ( #201, #10, #214, #83, #136, #220 ) ) ;
#233 = APPROVAL_DATE_TIME ( #49, #34 ) ;
#234 = APPLICATION_CONTEXT ( 'configuration controlled 3d designs of mechanical parts and assemblies' ) ;
#235 = LINE ( 'NONE', #122, #176 ) ;
#236 = CC_DESIGN_DATE_AND_TIME_ASSIGNMENT ( #165, #217, ( #139 ) ) ;
#237 = PERSON_AND_ORGANIZATION_ROLE ( 'creator' ) ;
ENDSEC;
END-ISO-10303-21;
