ISO-10303-21;
HEADER;
FILE_DESCRIPTION (( 'STEP AP214' ),
    '1' );
FILE_NAME ('UN120T.STEP',
    '2022-11-30T09:36:52',
    ( '' ),
    ( '' ),
    'SwSTEP 2.0',
    'SolidWorks 2019',
    '' );
FILE_SCHEMA (( 'AUTOMOTIVE_DESIGN' ));
ENDSEC;

DATA;
#1 =( GEOMETRIC_REPRESENTATION_CONTEXT ( 3 ) GLOBAL_UNCERTAINTY_ASSIGNED_CONTEXT ( ( #188 ) ) GLOBAL_UNIT_ASSIGNED_CONTEXT ( ( #25, #11, #105 ) ) REPRESENTATION_CONTEXT ( 'NONE', 'WORKASPACE' ) );
#2 = EDGE_CURVE ( 'NONE', #126, #5, #163, .T. ) ;
#3 = EDGE_LOOP ( 'NONE', ( #80, #178, #109, #179 ) ) ;
#4 = DIRECTION ( 'NONE',  ( -0.000000000000000000, -1.000000000000000000, -0.000000000000000000 ) ) ;
#5 = VERTEX_POINT ( 'NONE', #161 ) ;
#6 = CARTESIAN_POINT ( 'NONE',  ( 600.0000000000000000, 25.00000000000000000, 229.9999999999999716 ) ) ;
#7 = VECTOR ( 'NONE', #4, 1000.000000000000000 ) ;
#8 = VERTEX_POINT ( 'NONE', #194 ) ;
#9 = DIRECTION ( 'NONE',  ( 1.000000000000000000, 0.000000000000000000, -0.000000000000000000 ) ) ;
#10 = FACE_OUTER_BOUND ( 'NONE', #3, .T. ) ;
#11 =( NAMED_UNIT ( * ) PLANE_ANGLE_UNIT ( ) SI_UNIT ( $, .RADIAN. ) );
#12 = AXIS2_PLACEMENT_3D ( 'NONE', #164, #23, #9 ) ;
#13 = ADVANCED_BREP_SHAPE_REPRESENTATION ( 'UN120T', ( #89, #146 ), #64 ) ;
#14 = APPLICATION_CONTEXT ( 'automotive_design' ) ;
#15 = VECTOR ( 'NONE', #159, 1000.000000000000000 ) ;
#16 = COLOUR_RGB ( '',0.7921568627450980005, 0.8196078431372548767, 0.9333333333333333481 ) ;
#17 = ORIENTED_EDGE ( 'NONE', *, *, #27, .F. ) ;
#18 = ORIENTED_EDGE ( 'NONE', *, *, #165, .T. ) ;
#19 = PRODUCT_DEFINITION ( 'UNKNOWN', '', #81, #75 ) ;
#20 = DIRECTION ( 'NONE',  ( -0.000000000000000000, -0.000000000000000000, 1.000000000000000000 ) ) ;
#21 = CARTESIAN_POINT ( 'NONE',  ( -600.0000000000000000, 25.00000000000000000, 229.9999999999999716 ) ) ;
#22 = CARTESIAN_POINT ( 'NONE',  ( -600.0000000000000000, 25.00000000000000000, 229.9999999999999716 ) ) ;
#23 = DIRECTION ( 'NONE',  ( 0.000000000000000000, 0.000000000000000000, 1.000000000000000000 ) ) ;
#24 = LINE ( 'NONE', #54, #132 ) ;
#25 =( LENGTH_UNIT ( ) NAMED_UNIT ( * ) SI_UNIT ( .MILLI., .METRE. ) );
#26 =( LENGTH_UNIT ( ) NAMED_UNIT ( * ) SI_UNIT ( .MILLI., .METRE. ) );
#27 = EDGE_CURVE ( 'NONE', #8, #113, #145, .T. ) ;
#28 = UNCERTAINTY_MEASURE_WITH_UNIT (LENGTH_MEASURE( 1.000000000000000082E-05 ), #26, 'distance_accuracy_value', 'NONE');
#29 = SURFACE_STYLE_FILL_AREA ( #173 ) ;
#30 = STYLED_ITEM ( 'NONE', ( #36 ), #89 ) ;
#31 = ORIENTED_EDGE ( 'NONE', *, *, #95, .T. ) ;
#32 = EDGE_CURVE ( 'NONE', #5, #113, #147, .T. ) ;
#33 = ORIENTED_EDGE ( 'NONE', *, *, #184, .T. ) ;
#34 = FACE_OUTER_BOUND ( 'NONE', #155, .T. ) ;
#35 = ORIENTED_EDGE ( 'NONE', *, *, #125, .F. ) ;
#36 = PRESENTATION_STYLE_ASSIGNMENT (( #56 ) ) ;
#37 = DIRECTION ( 'NONE',  ( 0.000000000000000000, 0.000000000000000000, 1.000000000000000000 ) ) ;
#38 = DIRECTION ( 'NONE',  ( 0.000000000000000000, -0.000000000000000000, -1.000000000000000000 ) ) ;
#39 = CARTESIAN_POINT ( 'NONE',  ( 600.0000000000000000, 0.000000000000000000, 229.9999999999999716 ) ) ;
#40 = VECTOR ( 'NONE', #162, 1000.000000000000000 ) ;
#41 = DIRECTION ( 'NONE',  ( 0.000000000000000000, -1.000000000000000000, 0.000000000000000000 ) ) ;
#42 = VECTOR ( 'NONE', #74, 1000.000000000000000 ) ;
#43 = PRODUCT ( 'UN120T', 'UN120T', '', ( #172 ) ) ;
#44 = APPLICATION_PROTOCOL_DEFINITION ( 'draft international standard', 'automotive_design', 1998, #14 ) ;
#45 = CARTESIAN_POINT ( 'NONE',  ( -600.0000000000000000, 0.000000000000000000, -230.0000000000000284 ) ) ;
#46 = CARTESIAN_POINT ( 'NONE',  ( 0.000000000000000000, 25.00000000000000000, 0.000000000000000000 ) ) ;
#47 = PRESENTATION_LAYER_ASSIGNMENT (  '', '', ( #196 ) ) ;
#48 = ORIENTED_EDGE ( 'NONE', *, *, #32, .F. ) ;
#49 = VERTEX_POINT ( 'NONE', #67 ) ;
#50 = CARTESIAN_POINT ( 'NONE',  ( -600.0000000000000000, 25.00000000000000000, 229.9999999999999716 ) ) ;
#51 = CARTESIAN_POINT ( 'NONE',  ( 600.0000000000000000, 25.00000000000000000, -230.0000000000000284 ) ) ;
#52 = VECTOR ( 'NONE', #90, 1000.000000000000000 ) ;
#53 = VERTEX_POINT ( 'NONE', #129 ) ;
#54 = CARTESIAN_POINT ( 'NONE',  ( -600.0000000000000000, 25.00000000000000000, -230.0000000000000284 ) ) ;
#55 = SURFACE_SIDE_STYLE ('',( #186 ) ) ;
#56 = SURFACE_STYLE_USAGE ( .BOTH. , #55 ) ;
#57 = ADVANCED_FACE ( 'NONE', ( #83 ), #127, .F. ) ;
#58 = LINE ( 'NONE', #45, #190 ) ;
#59 = DIRECTION ( 'NONE',  ( -1.000000000000000000, -0.000000000000000000, -0.000000000000000000 ) ) ;
#60 = VECTOR ( 'NONE', #20, 1000.000000000000000 ) ;
#61 = CARTESIAN_POINT ( 'NONE',  ( 0.000000000000000000, 0.000000000000000000, 0.000000000000000000 ) ) ;
#62 =( NAMED_UNIT ( * ) SI_UNIT ( $, .STERADIAN. ) SOLID_ANGLE_UNIT ( ) );
#63 = SHAPE_DEFINITION_REPRESENTATION ( #91, #13 ) ;
#64 =( GEOMETRIC_REPRESENTATION_CONTEXT ( 3 ) GLOBAL_UNCERTAINTY_ASSIGNED_CONTEXT ( ( #28 ) ) GLOBAL_UNIT_ASSIGNED_CONTEXT ( ( #26, #169, #94 ) ) REPRESENTATION_CONTEXT ( 'NONE', 'WORKASPACE' ) );
#65 = ORIENTED_EDGE ( 'NONE', *, *, #198, .T. ) ;
#66 = EDGE_CURVE ( 'NONE', #49, #53, #68, .T. ) ;
#67 = CARTESIAN_POINT ( 'NONE',  ( 600.0000000000000000, 25.00000000000000000, -230.0000000000000284 ) ) ;
#68 = LINE ( 'NONE', #51, #40 ) ;
#69 = EDGE_LOOP ( 'NONE', ( #33, #18, #191, #31 ) ) ;
#70 = CARTESIAN_POINT ( 'NONE',  ( 600.0000000000000000, 0.000000000000000000, 229.9999999999999716 ) ) ;
#71 = AXIS2_PLACEMENT_3D ( 'NONE', #50, #86, #150 ) ;
#72 = ORIENTED_EDGE ( 'NONE', *, *, #66, .T. ) ;
#73 = LINE ( 'NONE', #197, #42 ) ;
#74 = DIRECTION ( 'NONE',  ( -0.000000000000000000, -1.000000000000000000, -0.000000000000000000 ) ) ;
#75 = PRODUCT_DEFINITION_CONTEXT ( 'detailed design', #14, 'design' ) ;
#76 = SURFACE_SIDE_STYLE ('',( #29 ) ) ;
#77 =( LENGTH_UNIT ( ) NAMED_UNIT ( * ) SI_UNIT ( .MILLI., .METRE. ) );
#78 = ORIENTED_EDGE ( 'NONE', *, *, #185, .T. ) ;
#79 = VERTEX_POINT ( 'NONE', #6 ) ;
#80 = ORIENTED_EDGE ( 'NONE', *, *, #125, .T. ) ;
#81 = PRODUCT_DEFINITION_FORMATION_WITH_SPECIFIED_SOURCE ( 'ANY', '', #43, .NOT_KNOWN. ) ;
#82 = DIRECTION ( 'NONE',  ( 0.000000000000000000, 0.000000000000000000, -1.000000000000000000 ) ) ;
#83 = FACE_OUTER_BOUND ( 'NONE', #181, .T. ) ;
#84 = FACE_OUTER_BOUND ( 'NONE', #101, .T. ) ;
#85 = MECHANICAL_DESIGN_GEOMETRIC_PRESENTATION_REPRESENTATION (  '', ( #30 ), #1 ) ;
#86 = DIRECTION ( 'NONE',  ( 0.000000000000000000, 0.000000000000000000, -1.000000000000000000 ) ) ;
#87 = LINE ( 'NONE', #117, #170 ) ;
#88 = DIRECTION ( 'NONE',  ( 0.000000000000000000, -1.000000000000000000, 0.000000000000000000 ) ) ;
#89 = MANIFOLD_SOLID_BREP ( 'Boss-Extrude1', #97 ) ;
#90 = DIRECTION ( 'NONE',  ( -0.000000000000000000, -1.000000000000000000, -0.000000000000000000 ) ) ;
#91 = PRODUCT_DEFINITION_SHAPE ( 'NONE', 'NONE',  #19 ) ;
#92 = CARTESIAN_POINT ( 'NONE',  ( 600.0000000000000000, 25.00000000000000000, 229.9999999999999716 ) ) ;
#93 = ADVANCED_FACE ( 'NONE', ( #151 ), #149, .T. ) ;
#94 =( NAMED_UNIT ( * ) SI_UNIT ( $, .STERADIAN. ) SOLID_ANGLE_UNIT ( ) );
#95 = EDGE_CURVE ( 'NONE', #5, #79, #200, .T. ) ;
#96 = DIRECTION ( 'NONE',  ( 0.000000000000000000, 0.000000000000000000, -1.000000000000000000 ) ) ;
#97 = CLOSED_SHELL ( 'NONE', ( #106, #143, #121, #57, #166, #93 ) ) ;
#98 = CARTESIAN_POINT ( 'NONE',  ( -600.0000000000000000, 0.000000000000000000, 229.9999999999999716 ) ) ;
#99 = ORIENTED_EDGE ( 'NONE', *, *, #185, .F. ) ;
#100 = LINE ( 'NONE', #70, #142 ) ;
#101 = EDGE_LOOP ( 'NONE', ( #78, #108, #141, #72 ) ) ;
#102 = PLANE ( 'NONE',  #12 ) ;
#103 = FILL_AREA_STYLE_COLOUR ( '', #187 ) ;
#104 = CARTESIAN_POINT ( 'NONE',  ( -600.0000000000000000, 0.000000000000000000, 229.9999999999999716 ) ) ;
#105 =( NAMED_UNIT ( * ) SI_UNIT ( $, .STERADIAN. ) SOLID_ANGLE_UNIT ( ) );
#106 = ADVANCED_FACE ( 'NONE', ( #10 ), #180, .F. ) ;
#107 = ORIENTED_EDGE ( 'NONE', *, *, #27, .T. ) ;
#108 = ORIENTED_EDGE ( 'NONE', *, *, #198, .F. ) ;
#109 = ORIENTED_EDGE ( 'NONE', *, *, #184, .F. ) ;
#110 = VERTEX_POINT ( 'NONE', #39 ) ;
#111 = AXIS2_PLACEMENT_3D ( 'NONE', #134, #195, #37 ) ;
#112 = DIRECTION ( 'NONE',  ( 1.000000000000000000, 0.000000000000000000, 0.000000000000000000 ) ) ;
#113 = VERTEX_POINT ( 'NONE', #104 ) ;
#114 = DIRECTION ( 'NONE',  ( 0.000000000000000000, 0.000000000000000000, -1.000000000000000000 ) ) ;
#115 =( GEOMETRIC_REPRESENTATION_CONTEXT ( 3 ) GLOBAL_UNCERTAINTY_ASSIGNED_CONTEXT ( ( #201 ) ) GLOBAL_UNIT_ASSIGNED_CONTEXT ( ( #77, #122, #62 ) ) REPRESENTATION_CONTEXT ( 'NONE', 'WORKASPACE' ) );
#116 = DIRECTION ( 'NONE',  ( -1.000000000000000000, -0.000000000000000000, -0.000000000000000000 ) ) ;
#117 = CARTESIAN_POINT ( 'NONE',  ( -600.0000000000000000, 0.000000000000000000, 229.9999999999999716 ) ) ;
#118 = CARTESIAN_POINT ( 'NONE',  ( -600.0000000000000000, 25.00000000000000000, -230.0000000000000284 ) ) ;
#119 = DIRECTION ( 'NONE',  ( 1.000000000000000000, 0.000000000000000000, 0.000000000000000000 ) ) ;
#120 = EDGE_CURVE ( 'NONE', #113, #110, #87, .T. ) ;
#121 = ADVANCED_FACE ( 'NONE', ( #34 ), #193, .F. ) ;
#122 =( NAMED_UNIT ( * ) PLANE_ANGLE_UNIT ( ) SI_UNIT ( $, .RADIAN. ) );
#123 = ORIENTED_EDGE ( 'NONE', *, *, #95, .F. ) ;
#124 = VECTOR ( 'NONE', #96, 1000.000000000000000 ) ;
#125 = EDGE_CURVE ( 'NONE', #110, #53, #100, .T. ) ;
#126 = VERTEX_POINT ( 'NONE', #199 ) ;
#127 = PLANE ( 'NONE',  #71 ) ;
#128 = CARTESIAN_POINT ( 'NONE',  ( -600.0000000000000000, 25.00000000000000000, 229.9999999999999716 ) ) ;
#129 = CARTESIAN_POINT ( 'NONE',  ( 600.0000000000000000, 0.000000000000000000, -230.0000000000000284 ) ) ;
#130 = PRESENTATION_LAYER_ASSIGNMENT (  '', '', ( #30 ) ) ;
#131 = DIRECTION ( 'NONE',  ( 1.000000000000000000, -0.000000000000000000, 0.000000000000000000 ) ) ;
#132 = VECTOR ( 'NONE', #116, 1000.000000000000000 ) ;
#133 = CARTESIAN_POINT ( 'NONE',  ( -600.0000000000000000, 25.00000000000000000, 229.9999999999999716 ) ) ;
#134 = CARTESIAN_POINT ( 'NONE',  ( 600.0000000000000000, 25.00000000000000000, 229.9999999999999716 ) ) ;
#135 = PLANE ( 'NONE',  #171 ) ;
#136 = DIRECTION ( 'NONE',  ( 1.000000000000000000, 0.000000000000000000, 0.000000000000000000 ) ) ;
#137 = MECHANICAL_DESIGN_GEOMETRIC_PRESENTATION_REPRESENTATION (  '', ( #196 ), #115 ) ;
#138 = PRESENTATION_STYLE_ASSIGNMENT (( #174 ) ) ;
#139 = APPLICATION_PROTOCOL_DEFINITION ( 'draft international standard', 'automotive_design', 1998, #153 ) ;
#140 = DIRECTION ( 'NONE',  ( 0.000000000000000000, 0.000000000000000000, 1.000000000000000000 ) ) ;
#141 = ORIENTED_EDGE ( 'NONE', *, *, #165, .F. ) ;
#142 = VECTOR ( 'NONE', #82, 1000.000000000000000 ) ;
#143 = ADVANCED_FACE ( 'NONE', ( #84 ), #102, .F. ) ;
#144 = EDGE_CURVE ( 'NONE', #79, #110, #73, .T. ) ;
#145 = LINE ( 'NONE', #98, #60 ) ;
#146 = AXIS2_PLACEMENT_3D ( 'NONE', #61, #140, #119 ) ;
#147 = LINE ( 'NONE', #22, #7 ) ;
#148 = EDGE_LOOP ( 'NONE', ( #35, #175, #17, #99 ) ) ;
#149 = PLANE ( 'NONE',  #156 ) ;
#150 = DIRECTION ( 'NONE',  ( -1.000000000000000000, 0.000000000000000000, -0.000000000000000000 ) ) ;
#151 = FACE_OUTER_BOUND ( 'NONE', #148, .T. ) ;
#152 = LINE ( 'NONE', #118, #52 ) ;
#153 = APPLICATION_CONTEXT ( 'automotive_design' ) ;
#154 = FILL_AREA_STYLE_COLOUR ( '', #16 ) ;
#155 = EDGE_LOOP ( 'NONE', ( #107, #48, #157, #65 ) ) ;
#156 = AXIS2_PLACEMENT_3D ( 'NONE', #168, #88, #38 ) ;
#157 = ORIENTED_EDGE ( 'NONE', *, *, #2, .F. ) ;
#158 = ORIENTED_EDGE ( 'NONE', *, *, #144, .F. ) ;
#159 = DIRECTION ( 'NONE',  ( -0.000000000000000000, -0.000000000000000000, 1.000000000000000000 ) ) ;
#160 = AXIS2_PLACEMENT_3D ( 'NONE', #21, #131, #114 ) ;
#161 = CARTESIAN_POINT ( 'NONE',  ( -600.0000000000000000, 25.00000000000000000, 229.9999999999999716 ) ) ;
#162 = DIRECTION ( 'NONE',  ( -0.000000000000000000, -1.000000000000000000, -0.000000000000000000 ) ) ;
#163 = LINE ( 'NONE', #133, #15 ) ;
#164 = CARTESIAN_POINT ( 'NONE',  ( -600.0000000000000000, 25.00000000000000000, -230.0000000000000284 ) ) ;
#165 = EDGE_CURVE ( 'NONE', #49, #126, #24, .T. ) ;
#166 = ADVANCED_FACE ( 'NONE', ( #183 ), #135, .F. ) ;
#167 = PRODUCT_RELATED_PRODUCT_CATEGORY ( 'part', '', ( #43 ) ) ;
#168 = CARTESIAN_POINT ( 'NONE',  ( 0.000000000000000000, 0.000000000000000000, 0.000000000000000000 ) ) ;
#169 =( NAMED_UNIT ( * ) PLANE_ANGLE_UNIT ( ) SI_UNIT ( $, .RADIAN. ) );
#170 = VECTOR ( 'NONE', #136, 1000.000000000000000 ) ;
#171 = AXIS2_PLACEMENT_3D ( 'NONE', #46, #41, #202 ) ;
#172 = PRODUCT_CONTEXT ( 'NONE', #153, 'mechanical' ) ;
#173 = FILL_AREA_STYLE ('',( #154 ) ) ;
#174 = SURFACE_STYLE_USAGE ( .BOTH. , #76 ) ;
#175 = ORIENTED_EDGE ( 'NONE', *, *, #120, .F. ) ;
#176 = ORIENTED_EDGE ( 'NONE', *, *, #32, .T. ) ;
#177 = VECTOR ( 'NONE', #112, 1000.000000000000000 ) ;
#178 = ORIENTED_EDGE ( 'NONE', *, *, #66, .F. ) ;
#179 = ORIENTED_EDGE ( 'NONE', *, *, #144, .T. ) ;
#180 = PLANE ( 'NONE',  #111 ) ;
#181 = EDGE_LOOP ( 'NONE', ( #192, #158, #123, #176 ) ) ;
#182 = FILL_AREA_STYLE ('',( #103 ) ) ;
#183 = FACE_OUTER_BOUND ( 'NONE', #69, .T. ) ;
#184 = EDGE_CURVE ( 'NONE', #79, #49, #189, .T. ) ;
#185 = EDGE_CURVE ( 'NONE', #53, #8, #58, .T. ) ;
#186 = SURFACE_STYLE_FILL_AREA ( #182 ) ;
#187 = COLOUR_RGB ( '',0.7921568627450980005, 0.8196078431372548767, 0.9333333333333333481 ) ;
#188 = UNCERTAINTY_MEASURE_WITH_UNIT (LENGTH_MEASURE( 1.000000000000000082E-05 ), #25, 'distance_accuracy_value', 'NONE');
#189 = LINE ( 'NONE', #92, #124 ) ;
#190 = VECTOR ( 'NONE', #59, 1000.000000000000000 ) ;
#191 = ORIENTED_EDGE ( 'NONE', *, *, #2, .T. ) ;
#192 = ORIENTED_EDGE ( 'NONE', *, *, #120, .T. ) ;
#193 = PLANE ( 'NONE',  #160 ) ;
#194 = CARTESIAN_POINT ( 'NONE',  ( -600.0000000000000000, 0.000000000000000000, -230.0000000000000284 ) ) ;
#195 = DIRECTION ( 'NONE',  ( -1.000000000000000000, 0.000000000000000000, 0.000000000000000000 ) ) ;
#196 = STYLED_ITEM ( 'NONE', ( #138 ), #13 ) ;
#197 = CARTESIAN_POINT ( 'NONE',  ( 600.0000000000000000, 25.00000000000000000, 229.9999999999999716 ) ) ;
#198 = EDGE_CURVE ( 'NONE', #126, #8, #152, .T. ) ;
#199 = CARTESIAN_POINT ( 'NONE',  ( -600.0000000000000000, 25.00000000000000000, -230.0000000000000284 ) ) ;
#200 = LINE ( 'NONE', #128, #177 ) ;
#201 = UNCERTAINTY_MEASURE_WITH_UNIT (LENGTH_MEASURE( 1.000000000000000082E-05 ), #77, 'distance_accuracy_value', 'NONE');
#202 = DIRECTION ( 'NONE',  ( 0.000000000000000000, -0.000000000000000000, -1.000000000000000000 ) ) ;
ENDSEC;
END-ISO-10303-21;
