ISO-10303-21;
HEADER;
FILE_DESCRIPTION (( 'STEP AP214' ),
    '1' );
FILE_NAME ('UN080T.STEP',
    '2022-11-30T09:36:24',
    ( '' ),
    ( '' ),
    'SwSTEP 2.0',
    'SolidWorks 2019',
    '' );
FILE_SCHEMA (( 'AUTOMOTIVE_DESIGN' ));
ENDSEC;

DATA;
#1 = PLANE ( 'NONE',  #155 ) ;
#2 = ADVANCED_FACE ( 'NONE', ( #128 ), #55, .F. ) ;
#3 = VECTOR ( 'NONE', #17, 1000.000000000000000 ) ;
#4 = SURFACE_SIDE_STYLE ('',( #106 ) ) ;
#5 = FILL_AREA_STYLE ('',( #172 ) ) ;
#6 = EDGE_CURVE ( 'NONE', #77, #96, #146, .T. ) ;
#7 = EDGE_LOOP ( 'NONE', ( #193, #49, #124, #140 ) ) ;
#8 = DIRECTION ( 'NONE',  ( -0.000000000000000000, -1.000000000000000000, -0.000000000000000000 ) ) ;
#9 = STYLED_ITEM ( 'NONE', ( #64 ), #158 ) ;
#10 = VERTEX_POINT ( 'NONE', #134 ) ;
#11 = DIRECTION ( 'NONE',  ( 0.000000000000000000, -1.000000000000000000, 0.000000000000000000 ) ) ;
#12 = VECTOR ( 'NONE', #30, 1000.000000000000000 ) ;
#13 = LINE ( 'NONE', #187, #113 ) ;
#14 = CARTESIAN_POINT ( 'NONE',  ( -401.0000000000001705, 25.00000000000000000, 230.0000000000000000 ) ) ;
#15 = VECTOR ( 'NONE', #8, 1000.000000000000000 ) ;
#16 = DIRECTION ( 'NONE',  ( 0.000000000000000000, 0.000000000000000000, -1.000000000000000000 ) ) ;
#17 = DIRECTION ( 'NONE',  ( -1.000000000000000000, -0.000000000000000000, -0.000000000000000000 ) ) ;
#18 = EDGE_CURVE ( 'NONE', #180, #96, #171, .T. ) ;
#19 = CARTESIAN_POINT ( 'NONE',  ( 0.000000000000000000, 0.000000000000000000, 0.000000000000000000 ) ) ;
#20 = APPLICATION_CONTEXT ( 'automotive_design' ) ;
#21 =( NAMED_UNIT ( * ) SI_UNIT ( $, .STERADIAN. ) SOLID_ANGLE_UNIT ( ) );
#22 = FILL_AREA_STYLE ('',( #123 ) ) ;
#23 = ORIENTED_EDGE ( 'NONE', *, *, #102, .T. ) ;
#24 = DIRECTION ( 'NONE',  ( 1.000000000000000000, 0.000000000000000000, -0.000000000000000000 ) ) ;
#25 = ORIENTED_EDGE ( 'NONE', *, *, #6, .F. ) ;
#26 = COLOUR_RGB ( '',0.7921568627450980005, 0.8196078431372548767, 0.9333333333333333481 ) ;
#27 = ORIENTED_EDGE ( 'NONE', *, *, #161, .F. ) ;
#28 = MANIFOLD_SOLID_BREP ( 'Boss-Extrude1', #147 ) ;
#29 = CARTESIAN_POINT ( 'NONE',  ( -401.0000000000001705, 25.00000000000000000, -230.0000000000000000 ) ) ;
#30 = DIRECTION ( 'NONE',  ( -0.000000000000000000, -1.000000000000000000, -0.000000000000000000 ) ) ;
#31 = DIRECTION ( 'NONE',  ( -1.000000000000000000, 0.000000000000000000, -0.000000000000000000 ) ) ;
#32 = CARTESIAN_POINT ( 'NONE',  ( 400.9999999999998295, 25.00000000000000000, 230.0000000000000000 ) ) ;
#33 = VECTOR ( 'NONE', #148, 1000.000000000000000 ) ;
#34 = FACE_OUTER_BOUND ( 'NONE', #110, .T. ) ;
#35 = DIRECTION ( 'NONE',  ( -0.000000000000000000, -1.000000000000000000, -0.000000000000000000 ) ) ;
#36 = ADVANCED_FACE ( 'NONE', ( #78 ), #178, .F. ) ;
#37 = ORIENTED_EDGE ( 'NONE', *, *, #102, .F. ) ;
#38 = ORIENTED_EDGE ( 'NONE', *, *, #188, .F. ) ;
#39 = ORIENTED_EDGE ( 'NONE', *, *, #166, .T. ) ;
#40 = DIRECTION ( 'NONE',  ( 0.000000000000000000, 0.000000000000000000, 1.000000000000000000 ) ) ;
#41 = ORIENTED_EDGE ( 'NONE', *, *, #69, .F. ) ;
#42 = PLANE ( 'NONE',  #130 ) ;
#43 = LINE ( 'NONE', #14, #76 ) ;
#44 = MECHANICAL_DESIGN_GEOMETRIC_PRESENTATION_REPRESENTATION (  '', ( #109 ), #184 ) ;
#45 = FACE_OUTER_BOUND ( 'NONE', #143, .T. ) ;
#46 =( NAMED_UNIT ( * ) PLANE_ANGLE_UNIT ( ) SI_UNIT ( $, .RADIAN. ) );
#47 = UNCERTAINTY_MEASURE_WITH_UNIT (LENGTH_MEASURE( 1.000000000000000082E-05 ), #194, 'distance_accuracy_value', 'NONE');
#48 =( GEOMETRIC_REPRESENTATION_CONTEXT ( 3 ) GLOBAL_UNCERTAINTY_ASSIGNED_CONTEXT ( ( #175 ) ) GLOBAL_UNIT_ASSIGNED_CONTEXT ( ( #62, #141, #21 ) ) REPRESENTATION_CONTEXT ( 'NONE', 'WORKASPACE' ) );
#49 = ORIENTED_EDGE ( 'NONE', *, *, #84, .F. ) ;
#50 = UNCERTAINTY_MEASURE_WITH_UNIT (LENGTH_MEASURE( 1.000000000000000082E-05 ), #189, 'distance_accuracy_value', 'NONE');
#51 =( NAMED_UNIT ( * ) PLANE_ANGLE_UNIT ( ) SI_UNIT ( $, .RADIAN. ) );
#52 = DIRECTION ( 'NONE',  ( 0.000000000000000000, -0.000000000000000000, -1.000000000000000000 ) ) ;
#53 = ORIENTED_EDGE ( 'NONE', *, *, #166, .F. ) ;
#54 = DIRECTION ( 'NONE',  ( 0.000000000000000000, -1.000000000000000000, 0.000000000000000000 ) ) ;
#55 = PLANE ( 'NONE',  #191 ) ;
#56 = ADVANCED_FACE ( 'NONE', ( #156 ), #176, .T. ) ;
#57 = PLANE ( 'NONE',  #94 ) ;
#58 = DIRECTION ( 'NONE',  ( 0.000000000000000000, 0.000000000000000000, -1.000000000000000000 ) ) ;
#59 = DIRECTION ( 'NONE',  ( 0.000000000000000000, 0.000000000000000000, -1.000000000000000000 ) ) ;
#60 = CARTESIAN_POINT ( 'NONE',  ( 400.9999999999998295, 25.00000000000000000, 230.0000000000000000 ) ) ;
#61 = EDGE_LOOP ( 'NONE', ( #23, #157, #122, #39 ) ) ;
#62 =( LENGTH_UNIT ( ) NAMED_UNIT ( * ) SI_UNIT ( .MILLI., .METRE. ) );
#63 = PRODUCT_DEFINITION_SHAPE ( 'NONE', 'NONE',  #144 ) ;
#64 = PRESENTATION_STYLE_ASSIGNMENT (( #93 ) ) ;
#65 = CARTESIAN_POINT ( 'NONE',  ( 0.000000000000000000, 0.000000000000000000, 0.000000000000000000 ) ) ;
#66 = ORIENTED_EDGE ( 'NONE', *, *, #18, .F. ) ;
#67 = MECHANICAL_DESIGN_GEOMETRIC_PRESENTATION_REPRESENTATION (  '', ( #9 ), #48 ) ;
#68 = VERTEX_POINT ( 'NONE', #179 ) ;
#69 = EDGE_CURVE ( 'NONE', #95, #68, #159, .T. ) ;
#70 = DIRECTION ( 'NONE',  ( 0.000000000000000000, 0.000000000000000000, 1.000000000000000000 ) ) ;
#71 = AXIS2_PLACEMENT_3D ( 'NONE', #65, #54, #52 ) ;
#72 = DIRECTION ( 'NONE',  ( -1.000000000000000000, 0.000000000000000000, 0.000000000000000000 ) ) ;
#73 = APPLICATION_CONTEXT ( 'automotive_design' ) ;
#74 = AXIS2_PLACEMENT_3D ( 'NONE', #19, #174, #118 ) ;
#75 =( NAMED_UNIT ( * ) SI_UNIT ( $, .STERADIAN. ) SOLID_ANGLE_UNIT ( ) );
#76 = VECTOR ( 'NONE', #190, 1000.000000000000000 ) ;
#77 = VERTEX_POINT ( 'NONE', #145 ) ;
#78 = FACE_OUTER_BOUND ( 'NONE', #7, .T. ) ;
#79 = CARTESIAN_POINT ( 'NONE',  ( 400.9999999999998295, 25.00000000000000000, -230.0000000000000000 ) ) ;
#80 = VECTOR ( 'NONE', #119, 1000.000000000000000 ) ;
#81 = VERTEX_POINT ( 'NONE', #164 ) ;
#82 = EDGE_LOOP ( 'NONE', ( #121, #25, #27, #173 ) ) ;
#83 = LINE ( 'NONE', #29, #150 ) ;
#84 = EDGE_CURVE ( 'NONE', #142, #10, #165, .T. ) ;
#85 = DIRECTION ( 'NONE',  ( 1.000000000000000000, -0.000000000000000000, 0.000000000000000000 ) ) ;
#86 = VECTOR ( 'NONE', #59, 1000.000000000000000 ) ;
#87 = LINE ( 'NONE', #168, #86 ) ;
#88 = APPLICATION_PROTOCOL_DEFINITION ( 'draft international standard', 'automotive_design', 1998, #73 ) ;
#89 = PRODUCT_DEFINITION_FORMATION_WITH_SPECIFIED_SOURCE ( 'ANY', '', #92, .NOT_KNOWN. ) ;
#90 = PRODUCT_DEFINITION_CONTEXT ( 'detailed design', #73, 'design' ) ;
#91 = EDGE_CURVE ( 'NONE', #95, #142, #83, .T. ) ;
#92 = PRODUCT ( 'UN080T', 'UN080T', '', ( #153 ) ) ;
#93 = SURFACE_STYLE_USAGE ( .BOTH. , #4 ) ;
#94 = AXIS2_PLACEMENT_3D ( 'NONE', #133, #85, #16 ) ;
#95 = VERTEX_POINT ( 'NONE', #182 ) ;
#96 = VERTEX_POINT ( 'NONE', #202 ) ;
#97 = SURFACE_STYLE_FILL_AREA ( #22 ) ;
#98 = ORIENTED_EDGE ( 'NONE', *, *, #200, .T. ) ;
#99 = PRESENTATION_LAYER_ASSIGNMENT (  '', '', ( #9 ) ) ;
#100 = LINE ( 'NONE', #199, #3 ) ;
#101 = CARTESIAN_POINT ( 'NONE',  ( -401.0000000000001705, 0.000000000000000000, 230.0000000000000000 ) ) ;
#102 = EDGE_CURVE ( 'NONE', #180, #95, #87, .T. ) ;
#103 = DIRECTION ( 'NONE',  ( 0.000000000000000000, 0.000000000000000000, -1.000000000000000000 ) ) ;
#104 = SHAPE_DEFINITION_REPRESENTATION ( #63, #158 ) ;
#105 = VECTOR ( 'NONE', #35, 1000.000000000000000 ) ;
#106 = SURFACE_STYLE_FILL_AREA ( #5 ) ;
#107 =( GEOMETRIC_REPRESENTATION_CONTEXT ( 3 ) GLOBAL_UNCERTAINTY_ASSIGNED_CONTEXT ( ( #50 ) ) GLOBAL_UNIT_ASSIGNED_CONTEXT ( ( #189, #46, #75 ) ) REPRESENTATION_CONTEXT ( 'NONE', 'WORKASPACE' ) );
#108 =( NAMED_UNIT ( * ) SI_UNIT ( $, .STERADIAN. ) SOLID_ANGLE_UNIT ( ) );
#109 = STYLED_ITEM ( 'NONE', ( #181 ), #28 ) ;
#110 = EDGE_LOOP ( 'NONE', ( #198, #66, #53, #196 ) ) ;
#111 = CARTESIAN_POINT ( 'NONE',  ( 0.000000000000000000, 25.00000000000000000, 0.000000000000000000 ) ) ;
#112 = DIRECTION ( 'NONE',  ( -0.000000000000000000, -1.000000000000000000, -0.000000000000000000 ) ) ;
#113 = VECTOR ( 'NONE', #167, 1000.000000000000000 ) ;
#114 = PRODUCT_RELATED_PRODUCT_CATEGORY ( 'part', '', ( #92 ) ) ;
#115 = CARTESIAN_POINT ( 'NONE',  ( 400.9999999999998295, 0.000000000000000000, 230.0000000000000000 ) ) ;
#116 = EDGE_CURVE ( 'NONE', #68, #10, #100, .T. ) ;
#117 = LINE ( 'NONE', #137, #33 ) ;
#118 = DIRECTION ( 'NONE',  ( 1.000000000000000000, 0.000000000000000000, 0.000000000000000000 ) ) ;
#119 = DIRECTION ( 'NONE',  ( 1.000000000000000000, 0.000000000000000000, 0.000000000000000000 ) ) ;
#120 = VECTOR ( 'NONE', #112, 1000.000000000000000 ) ;
#121 = ORIENTED_EDGE ( 'NONE', *, *, #200, .F. ) ;
#122 = ORIENTED_EDGE ( 'NONE', *, *, #129, .T. ) ;
#123 = FILL_AREA_STYLE_COLOUR ( '', #170 ) ;
#124 = ORIENTED_EDGE ( 'NONE', *, *, #91, .F. ) ;
#125 = CARTESIAN_POINT ( 'NONE',  ( -401.0000000000001705, 25.00000000000000000, -230.0000000000000000 ) ) ;
#126 = ORIENTED_EDGE ( 'NONE', *, *, #161, .T. ) ;
#127 = SURFACE_STYLE_USAGE ( .BOTH. , #195 ) ;
#128 = FACE_OUTER_BOUND ( 'NONE', #61, .T. ) ;
#129 = EDGE_CURVE ( 'NONE', #142, #81, #13, .T. ) ;
#130 = AXIS2_PLACEMENT_3D ( 'NONE', #132, #58, #31 ) ;
#131 = CARTESIAN_POINT ( 'NONE',  ( -401.0000000000001705, 25.00000000000000000, -230.0000000000000000 ) ) ;
#132 = CARTESIAN_POINT ( 'NONE',  ( -401.0000000000001705, 25.00000000000000000, 230.0000000000000000 ) ) ;
#133 = CARTESIAN_POINT ( 'NONE',  ( -401.0000000000001705, 25.00000000000000000, 230.0000000000000000 ) ) ;
#134 = CARTESIAN_POINT ( 'NONE',  ( -401.0000000000001705, 0.000000000000000000, -230.0000000000000000 ) ) ;
#135 = LINE ( 'NONE', #115, #154 ) ;
#136 = ADVANCED_FACE ( 'NONE', ( #34 ), #42, .F. ) ;
#137 = CARTESIAN_POINT ( 'NONE',  ( -401.0000000000001705, 0.000000000000000000, 230.0000000000000000 ) ) ;
#138 = FACE_OUTER_BOUND ( 'NONE', #163, .T. ) ;
#139 = PRESENTATION_LAYER_ASSIGNMENT (  '', '', ( #109 ) ) ;
#140 = ORIENTED_EDGE ( 'NONE', *, *, #69, .T. ) ;
#141 =( NAMED_UNIT ( * ) PLANE_ANGLE_UNIT ( ) SI_UNIT ( $, .RADIAN. ) );
#142 = VERTEX_POINT ( 'NONE', #151 ) ;
#143 = EDGE_LOOP ( 'NONE', ( #126, #38, #160, #152 ) ) ;
#144 = PRODUCT_DEFINITION ( 'UNKNOWN', '', #89, #90 ) ;
#145 = CARTESIAN_POINT ( 'NONE',  ( -401.0000000000001705, 0.000000000000000000, 230.0000000000000000 ) ) ;
#146 = LINE ( 'NONE', #101, #80 ) ;
#147 = CLOSED_SHELL ( 'NONE', ( #169, #36, #185, #136, #2, #56 ) ) ;
#148 = DIRECTION ( 'NONE',  ( -0.000000000000000000, -0.000000000000000000, 1.000000000000000000 ) ) ;
#149 = CARTESIAN_POINT ( 'NONE',  ( -401.0000000000001705, 25.00000000000000000, 230.0000000000000000 ) ) ;
#150 = VECTOR ( 'NONE', #197, 1000.000000000000000 ) ;
#151 = CARTESIAN_POINT ( 'NONE',  ( -401.0000000000001705, 25.00000000000000000, -230.0000000000000000 ) ) ;
#152 = ORIENTED_EDGE ( 'NONE', *, *, #84, .T. ) ;
#153 = PRODUCT_CONTEXT ( 'NONE', #20, 'mechanical' ) ;
#154 = VECTOR ( 'NONE', #103, 1000.000000000000000 ) ;
#155 = AXIS2_PLACEMENT_3D ( 'NONE', #32, #72, #70 ) ;
#156 = FACE_OUTER_BOUND ( 'NONE', #82, .T. ) ;
#157 = ORIENTED_EDGE ( 'NONE', *, *, #91, .T. ) ;
#158 = ADVANCED_BREP_SHAPE_REPRESENTATION ( 'UN080T', ( #28, #74 ), #107 ) ;
#159 = LINE ( 'NONE', #79, #15 ) ;
#160 = ORIENTED_EDGE ( 'NONE', *, *, #129, .F. ) ;
#161 = EDGE_CURVE ( 'NONE', #10, #77, #117, .T. ) ;
#162 = AXIS2_PLACEMENT_3D ( 'NONE', #125, #40, #24 ) ;
#163 = EDGE_LOOP ( 'NONE', ( #98, #41, #37, #177 ) ) ;
#164 = CARTESIAN_POINT ( 'NONE',  ( -401.0000000000001705, 25.00000000000000000, 230.0000000000000000 ) ) ;
#165 = LINE ( 'NONE', #131, #120 ) ;
#166 = EDGE_CURVE ( 'NONE', #81, #180, #43, .T. ) ;
#167 = DIRECTION ( 'NONE',  ( -0.000000000000000000, -0.000000000000000000, 1.000000000000000000 ) ) ;
#168 = CARTESIAN_POINT ( 'NONE',  ( 400.9999999999998295, 25.00000000000000000, 230.0000000000000000 ) ) ;
#169 = ADVANCED_FACE ( 'NONE', ( #138 ), #1, .F. ) ;
#170 = COLOUR_RGB ( '',0.7921568627450980005, 0.8196078431372548767, 0.9333333333333333481 ) ;
#171 = LINE ( 'NONE', #201, #105 ) ;
#172 = FILL_AREA_STYLE_COLOUR ( '', #26 ) ;
#173 = ORIENTED_EDGE ( 'NONE', *, *, #116, .F. ) ;
#174 = DIRECTION ( 'NONE',  ( 0.000000000000000000, 0.000000000000000000, 1.000000000000000000 ) ) ;
#175 = UNCERTAINTY_MEASURE_WITH_UNIT (LENGTH_MEASURE( 1.000000000000000082E-05 ), #62, 'distance_accuracy_value', 'NONE');
#176 = PLANE ( 'NONE',  #71 ) ;
#177 = ORIENTED_EDGE ( 'NONE', *, *, #18, .T. ) ;
#178 = PLANE ( 'NONE',  #162 ) ;
#179 = CARTESIAN_POINT ( 'NONE',  ( 400.9999999999998295, 0.000000000000000000, -230.0000000000000000 ) ) ;
#180 = VERTEX_POINT ( 'NONE', #60 ) ;
#181 = PRESENTATION_STYLE_ASSIGNMENT (( #127 ) ) ;
#182 = CARTESIAN_POINT ( 'NONE',  ( 400.9999999999998295, 25.00000000000000000, -230.0000000000000000 ) ) ;
#183 = DIRECTION ( 'NONE',  ( 0.000000000000000000, -0.000000000000000000, -1.000000000000000000 ) ) ;
#184 =( GEOMETRIC_REPRESENTATION_CONTEXT ( 3 ) GLOBAL_UNCERTAINTY_ASSIGNED_CONTEXT ( ( #47 ) ) GLOBAL_UNIT_ASSIGNED_CONTEXT ( ( #194, #51, #108 ) ) REPRESENTATION_CONTEXT ( 'NONE', 'WORKASPACE' ) );
#185 = ADVANCED_FACE ( 'NONE', ( #45 ), #57, .F. ) ;
#186 = LINE ( 'NONE', #149, #12 ) ;
#187 = CARTESIAN_POINT ( 'NONE',  ( -401.0000000000001705, 25.00000000000000000, 230.0000000000000000 ) ) ;
#188 = EDGE_CURVE ( 'NONE', #81, #77, #186, .T. ) ;
#189 =( LENGTH_UNIT ( ) NAMED_UNIT ( * ) SI_UNIT ( .MILLI., .METRE. ) );
#190 = DIRECTION ( 'NONE',  ( 1.000000000000000000, 0.000000000000000000, 0.000000000000000000 ) ) ;
#191 = AXIS2_PLACEMENT_3D ( 'NONE', #111, #11, #183 ) ;
#192 = APPLICATION_PROTOCOL_DEFINITION ( 'draft international standard', 'automotive_design', 1998, #20 ) ;
#193 = ORIENTED_EDGE ( 'NONE', *, *, #116, .T. ) ;
#194 =( LENGTH_UNIT ( ) NAMED_UNIT ( * ) SI_UNIT ( .MILLI., .METRE. ) );
#195 = SURFACE_SIDE_STYLE ('',( #97 ) ) ;
#196 = ORIENTED_EDGE ( 'NONE', *, *, #188, .T. ) ;
#197 = DIRECTION ( 'NONE',  ( -1.000000000000000000, -0.000000000000000000, -0.000000000000000000 ) ) ;
#198 = ORIENTED_EDGE ( 'NONE', *, *, #6, .T. ) ;
#199 = CARTESIAN_POINT ( 'NONE',  ( -401.0000000000001705, 0.000000000000000000, -230.0000000000000000 ) ) ;
#200 = EDGE_CURVE ( 'NONE', #96, #68, #135, .T. ) ;
#201 = CARTESIAN_POINT ( 'NONE',  ( 400.9999999999998295, 25.00000000000000000, 230.0000000000000000 ) ) ;
#202 = CARTESIAN_POINT ( 'NONE',  ( 400.9999999999998295, 0.000000000000000000, 230.0000000000000000 ) ) ;
ENDSEC;
END-ISO-10303-21;
