ISO-10303-21;
HEADER;
FILE_DESCRIPTION (( 'STEP AP214' ),
    '1' );
FILE_NAME ('UN050T.STEP',
    '2022-10-07T08:25:48',
    ( '' ),
    ( '' ),
    'SwSTEP 2.0',
    'SolidWorks 2019',
    '' );
FILE_SCHEMA (( 'AUTOMOTIVE_DESIGN' ));
ENDSEC;

DATA;
#1 = FILL_AREA_STYLE_COLOUR ( '', #112 ) ;
#2 = VECTOR ( 'NONE', #47, 1000.000000000000000 ) ;
#3 = DIRECTION ( 'NONE',  ( 0.000000000000000000, 0.000000000000000000, 1.000000000000000000 ) ) ;
#4 = VERTEX_POINT ( 'NONE', #59 ) ;
#5 = DIRECTION ( 'NONE',  ( 1.000000000000000000, 0.000000000000000000, 0.000000000000000000 ) ) ;
#6 = ORIENTED_EDGE ( 'NONE', *, *, #101, .F. ) ;
#7 = DIRECTION ( 'NONE',  ( -0.000000000000000000, -0.000000000000000000, 1.000000000000000000 ) ) ;
#8 = CARTESIAN_POINT ( 'NONE',  ( -250.9999999999998863, 0.000000000000000000, -180.0000000000000000 ) ) ;
#9 =( NAMED_UNIT ( * ) SI_UNIT ( $, .STERADIAN. ) SOLID_ANGLE_UNIT ( ) );
#10 = EDGE_LOOP ( 'NONE', ( #157, #12, #144, #200 ) ) ;
#11 = FACE_OUTER_BOUND ( 'NONE', #80, .T. ) ;
#12 = ORIENTED_EDGE ( 'NONE', *, *, #140, .T. ) ;
#13 = PRESENTATION_LAYER_ASSIGNMENT (  '', '', ( #187 ) ) ;
#14 = EDGE_CURVE ( 'NONE', #183, #51, #176, .T. ) ;
#15 = FILL_AREA_STYLE ('',( #1 ) ) ;
#16 = PLANE ( 'NONE',  #173 ) ;
#17 = MECHANICAL_DESIGN_GEOMETRIC_PRESENTATION_REPRESENTATION (  '', ( #65 ), #42 ) ;
#18 = VECTOR ( 'NONE', #24, 1000.000000000000000 ) ;
#19 = FACE_OUTER_BOUND ( 'NONE', #165, .T. ) ;
#20 = DIRECTION ( 'NONE',  ( -0.000000000000000000, -0.000000000000000000, 1.000000000000000000 ) ) ;
#21 = SHAPE_DEFINITION_REPRESENTATION ( #62, #135 ) ;
#22 = ORIENTED_EDGE ( 'NONE', *, *, #71, .T. ) ;
#23 = CARTESIAN_POINT ( 'NONE',  ( -250.9999999999998863, 25.00000000000000000, 180.0000000000000000 ) ) ;
#24 = DIRECTION ( 'NONE',  ( -0.000000000000000000, -1.000000000000000000, -0.000000000000000000 ) ) ;
#25 = ORIENTED_EDGE ( 'NONE', *, *, #163, .T. ) ;
#26 = DIRECTION ( 'NONE',  ( 0.000000000000000000, -0.000000000000000000, -1.000000000000000000 ) ) ;
#27 = SURFACE_STYLE_USAGE ( .BOTH. , #70 ) ;
#28 = ADVANCED_FACE ( 'NONE', ( #19 ), #161, .F. ) ;
#29 = DIRECTION ( 'NONE',  ( -0.000000000000000000, -1.000000000000000000, -0.000000000000000000 ) ) ;
#30 = AXIS2_PLACEMENT_3D ( 'NONE', #189, #129, #164 ) ;
#31 = CARTESIAN_POINT ( 'NONE',  ( -250.9999999999998863, 25.00000000000000000, -180.0000000000000000 ) ) ;
#32 = VECTOR ( 'NONE', #162, 1000.000000000000000 ) ;
#33 = APPLICATION_PROTOCOL_DEFINITION ( 'draft international standard', 'automotive_design', 1998, #124 ) ;
#34 = CARTESIAN_POINT ( 'NONE',  ( 251.0000000000001137, 0.000000000000000000, 180.0000000000000000 ) ) ;
#35 = ORIENTED_EDGE ( 'NONE', *, *, #90, .F. ) ;
#36 = ORIENTED_EDGE ( 'NONE', *, *, #163, .F. ) ;
#37 = CARTESIAN_POINT ( 'NONE',  ( -250.9999999999998863, 25.00000000000000000, 180.0000000000000000 ) ) ;
#38 = DIRECTION ( 'NONE',  ( 0.000000000000000000, 0.000000000000000000, -1.000000000000000000 ) ) ;
#39 = SURFACE_STYLE_FILL_AREA ( #181 ) ;
#40 = ORIENTED_EDGE ( 'NONE', *, *, #140, .F. ) ;
#41 = PLANE ( 'NONE',  #57 ) ;
#42 =( GEOMETRIC_REPRESENTATION_CONTEXT ( 3 ) GLOBAL_UNCERTAINTY_ASSIGNED_CONTEXT ( ( #182 ) ) GLOBAL_UNIT_ASSIGNED_CONTEXT ( ( #114, #134, #198 ) ) REPRESENTATION_CONTEXT ( 'NONE', 'WORKASPACE' ) );
#43 = CARTESIAN_POINT ( 'NONE',  ( -250.9999999999998863, 25.00000000000000000, -180.0000000000000000 ) ) ;
#44 = CARTESIAN_POINT ( 'NONE',  ( -250.9999999999998863, 25.00000000000000000, 180.0000000000000000 ) ) ;
#45 = ORIENTED_EDGE ( 'NONE', *, *, #64, .T. ) ;
#46 = VERTEX_POINT ( 'NONE', #179 ) ;
#47 = DIRECTION ( 'NONE',  ( -0.000000000000000000, -1.000000000000000000, -0.000000000000000000 ) ) ;
#48 = ORIENTED_EDGE ( 'NONE', *, *, #14, .F. ) ;
#49 = LINE ( 'NONE', #158, #136 ) ;
#50 = PRODUCT_CONTEXT ( 'NONE', #124, 'mechanical' ) ;
#51 = VERTEX_POINT ( 'NONE', #81 ) ;
#52 = DIRECTION ( 'NONE',  ( 0.000000000000000000, -1.000000000000000000, 0.000000000000000000 ) ) ;
#53 = PRODUCT_RELATED_PRODUCT_CATEGORY ( 'part', '', ( #122 ) ) ;
#54 = SURFACE_STYLE_FILL_AREA ( #15 ) ;
#55 = VECTOR ( 'NONE', #128, 1000.000000000000000 ) ;
#56 = EDGE_CURVE ( 'NONE', #132, #197, #61, .T. ) ;
#57 = AXIS2_PLACEMENT_3D ( 'NONE', #99, #52, #26 ) ;
#58 = DIRECTION ( 'NONE',  ( -1.000000000000000000, -0.000000000000000000, -0.000000000000000000 ) ) ;
#59 = CARTESIAN_POINT ( 'NONE',  ( 251.0000000000001137, 0.000000000000000000, 180.0000000000000000 ) ) ;
#60 = PLANE ( 'NONE',  #86 ) ;
#61 = LINE ( 'NONE', #76, #119 ) ;
#62 = PRODUCT_DEFINITION_SHAPE ( 'NONE', 'NONE',  #148 ) ;
#63 = LINE ( 'NONE', #37, #18 ) ;
#64 = EDGE_CURVE ( 'NONE', #197, #4, #123, .T. ) ;
#65 = STYLED_ITEM ( 'NONE', ( #78 ), #135 ) ;
#66 = ORIENTED_EDGE ( 'NONE', *, *, #64, .F. ) ;
#67 = AXIS2_PLACEMENT_3D ( 'NONE', #23, #127, #38 ) ;
#68 = ORIENTED_EDGE ( 'NONE', *, *, #202, .T. ) ;
#69 = DIRECTION ( 'NONE',  ( 0.000000000000000000, -0.000000000000000000, -1.000000000000000000 ) ) ;
#70 = SURFACE_SIDE_STYLE ('',( #54 ) ) ;
#71 = EDGE_CURVE ( 'NONE', #132, #51, #63, .T. ) ;
#72 = VECTOR ( 'NONE', #58, 1000.000000000000000 ) ;
#73 = LINE ( 'NONE', #43, #199 ) ;
#74 =( GEOMETRIC_REPRESENTATION_CONTEXT ( 3 ) GLOBAL_UNCERTAINTY_ASSIGNED_CONTEXT ( ( #100 ) ) GLOBAL_UNIT_ASSIGNED_CONTEXT ( ( #88, #97, #9 ) ) REPRESENTATION_CONTEXT ( 'NONE', 'WORKASPACE' ) );
#75 = AXIS2_PLACEMENT_3D ( 'NONE', #188, #3, #141 ) ;
#76 = CARTESIAN_POINT ( 'NONE',  ( -250.9999999999998863, 25.00000000000000000, 180.0000000000000000 ) ) ;
#77 = CARTESIAN_POINT ( 'NONE',  ( -250.9999999999998863, 0.000000000000000000, 180.0000000000000000 ) ) ;
#78 = PRESENTATION_STYLE_ASSIGNMENT (( #130 ) ) ;
#79 =( NAMED_UNIT ( * ) SI_UNIT ( $, .STERADIAN. ) SOLID_ANGLE_UNIT ( ) );
#80 = EDGE_LOOP ( 'NONE', ( #68, #35, #6, #45 ) ) ;
#81 = CARTESIAN_POINT ( 'NONE',  ( -250.9999999999998863, 0.000000000000000000, 180.0000000000000000 ) ) ;
#82 = DIRECTION ( 'NONE',  ( 0.000000000000000000, 0.000000000000000000, -1.000000000000000000 ) ) ;
#83 = FILL_AREA_STYLE_COLOUR ( '', #115 ) ;
#84 = EDGE_LOOP ( 'NONE', ( #98, #36, #40, #175 ) ) ;
#85 = CARTESIAN_POINT ( 'NONE',  ( 0.000000000000000000, 25.00000000000000000, 0.000000000000000000 ) ) ;
#86 = AXIS2_PLACEMENT_3D ( 'NONE', #110, #177, #195 ) ;
#87 = PRODUCT_DEFINITION_CONTEXT ( 'detailed design', #113, 'design' ) ;
#88 =( LENGTH_UNIT ( ) NAMED_UNIT ( * ) SI_UNIT ( .MILLI., .METRE. ) );
#89 = FACE_OUTER_BOUND ( 'NONE', #10, .T. ) ;
#90 = EDGE_CURVE ( 'NONE', #46, #137, #91, .T. ) ;
#91 = LINE ( 'NONE', #143, #2 ) ;
#92 = EDGE_LOOP ( 'NONE', ( #149, #66, #160, #22 ) ) ;
#93 = CARTESIAN_POINT ( 'NONE',  ( -250.9999999999998863, 0.000000000000000000, 180.0000000000000000 ) ) ;
#94 = CARTESIAN_POINT ( 'NONE',  ( 251.0000000000001137, 25.00000000000000000, 180.0000000000000000 ) ) ;
#95 = APPLICATION_PROTOCOL_DEFINITION ( 'draft international standard', 'automotive_design', 1998, #113 ) ;
#96 = ORIENTED_EDGE ( 'NONE', *, *, #202, .F. ) ;
#97 =( NAMED_UNIT ( * ) PLANE_ANGLE_UNIT ( ) SI_UNIT ( $, .RADIAN. ) );
#98 = ORIENTED_EDGE ( 'NONE', *, *, #131, .T. ) ;
#99 = CARTESIAN_POINT ( 'NONE',  ( 0.000000000000000000, 0.000000000000000000, 0.000000000000000000 ) ) ;
#100 = UNCERTAINTY_MEASURE_WITH_UNIT (LENGTH_MEASURE( 1.000000000000000082E-05 ), #88, 'distance_accuracy_value', 'NONE');
#101 = EDGE_CURVE ( 'NONE', #197, #46, #172, .T. ) ;
#102 = PRESENTATION_LAYER_ASSIGNMENT (  '', '', ( #65 ) ) ;
#103 = PLANE ( 'NONE',  #75 ) ;
#104 = CARTESIAN_POINT ( 'NONE',  ( 251.0000000000001137, 0.000000000000000000, -180.0000000000000000 ) ) ;
#105 = ADVANCED_FACE ( 'NONE', ( #192 ), #60, .F. ) ;
#106 = CARTESIAN_POINT ( 'NONE',  ( 251.0000000000001137, 25.00000000000000000, 180.0000000000000000 ) ) ;
#107 = VERTEX_POINT ( 'NONE', #31 ) ;
#108 = ORIENTED_EDGE ( 'NONE', *, *, #116, .F. ) ;
#109 = CLOSED_SHELL ( 'NONE', ( #170, #151, #28, #105, #168, #180 ) ) ;
#110 = CARTESIAN_POINT ( 'NONE',  ( -250.9999999999998863, 25.00000000000000000, 180.0000000000000000 ) ) ;
#111 = ORIENTED_EDGE ( 'NONE', *, *, #131, .F. ) ;
#112 = COLOUR_RGB ( '',0.7921568627450980005, 0.8196078431372548767, 0.9333333333333333481 ) ;
#113 = APPLICATION_CONTEXT ( 'automotive_design' ) ;
#114 =( LENGTH_UNIT ( ) NAMED_UNIT ( * ) SI_UNIT ( .MILLI., .METRE. ) );
#115 = COLOUR_RGB ( '',0.7921568627450980005, 0.8196078431372548767, 0.9333333333333333481 ) ;
#116 = EDGE_CURVE ( 'NONE', #107, #132, #49, .T. ) ;
#117 = ORIENTED_EDGE ( 'NONE', *, *, #120, .F. ) ;
#118 = DIRECTION ( 'NONE',  ( 0.000000000000000000, -1.000000000000000000, 0.000000000000000000 ) ) ;
#119 = VECTOR ( 'NONE', #142, 1000.000000000000000 ) ;
#120 = EDGE_CURVE ( 'NONE', #51, #4, #125, .T. ) ;
#121 = LINE ( 'NONE', #171, #72 ) ;
#122 = PRODUCT ( 'UN050T', 'UN050T', '', ( #50 ) ) ;
#123 = LINE ( 'NONE', #194, #32 ) ;
#124 = APPLICATION_CONTEXT ( 'automotive_design' ) ;
#125 = LINE ( 'NONE', #77, #152 ) ;
#126 =( NAMED_UNIT ( * ) PLANE_ANGLE_UNIT ( ) SI_UNIT ( $, .RADIAN. ) );
#127 = DIRECTION ( 'NONE',  ( 1.000000000000000000, -0.000000000000000000, 0.000000000000000000 ) ) ;
#128 = DIRECTION ( 'NONE',  ( -1.000000000000000000, -0.000000000000000000, -0.000000000000000000 ) ) ;
#129 = DIRECTION ( 'NONE',  ( 0.000000000000000000, 0.000000000000000000, 1.000000000000000000 ) ) ;
#130 = SURFACE_STYLE_USAGE ( .BOTH. , #178 ) ;
#131 = EDGE_CURVE ( 'NONE', #137, #183, #146, .T. ) ;
#132 = VERTEX_POINT ( 'NONE', #44 ) ;
#133 = VECTOR ( 'NONE', #159, 1000.000000000000000 ) ;
#134 =( NAMED_UNIT ( * ) PLANE_ANGLE_UNIT ( ) SI_UNIT ( $, .RADIAN. ) );
#135 = ADVANCED_BREP_SHAPE_REPRESENTATION ( 'UN050T', ( #184, #30 ), #74 ) ;
#136 = VECTOR ( 'NONE', #20, 1000.000000000000000 ) ;
#137 = VERTEX_POINT ( 'NONE', #104 ) ;
#138 = DIRECTION ( 'NONE',  ( -1.000000000000000000, 0.000000000000000000, 0.000000000000000000 ) ) ;
#139 = PRESENTATION_STYLE_ASSIGNMENT (( #27 ) ) ;
#140 = EDGE_CURVE ( 'NONE', #46, #107, #121, .T. ) ;
#141 = DIRECTION ( 'NONE',  ( 1.000000000000000000, 0.000000000000000000, -0.000000000000000000 ) ) ;
#142 = DIRECTION ( 'NONE',  ( 1.000000000000000000, 0.000000000000000000, 0.000000000000000000 ) ) ;
#143 = CARTESIAN_POINT ( 'NONE',  ( 251.0000000000001137, 25.00000000000000000, -180.0000000000000000 ) ) ;
#144 = ORIENTED_EDGE ( 'NONE', *, *, #116, .T. ) ;
#145 = EDGE_LOOP ( 'NONE', ( #96, #117, #48, #111 ) ) ;
#146 = LINE ( 'NONE', #8, #55 ) ;
#147 = UNCERTAINTY_MEASURE_WITH_UNIT (LENGTH_MEASURE( 1.000000000000000082E-05 ), #186, 'distance_accuracy_value', 'NONE');
#148 = PRODUCT_DEFINITION ( 'UNKNOWN', '', #156, #87 ) ;
#149 = ORIENTED_EDGE ( 'NONE', *, *, #120, .T. ) ;
#150 = CARTESIAN_POINT ( 'NONE',  ( 251.0000000000001137, 25.00000000000000000, 180.0000000000000000 ) ) ;
#151 = ADVANCED_FACE ( 'NONE', ( #155 ), #103, .F. ) ;
#152 = VECTOR ( 'NONE', #5, 1000.000000000000000 ) ;
#153 = AXIS2_PLACEMENT_3D ( 'NONE', #150, #138, #185 ) ;
#154 = CARTESIAN_POINT ( 'NONE',  ( -250.9999999999998863, 0.000000000000000000, -180.0000000000000000 ) ) ;
#155 = FACE_OUTER_BOUND ( 'NONE', #84, .T. ) ;
#156 = PRODUCT_DEFINITION_FORMATION_WITH_SPECIFIED_SOURCE ( 'ANY', '', #122, .NOT_KNOWN. ) ;
#157 = ORIENTED_EDGE ( 'NONE', *, *, #101, .T. ) ;
#158 = CARTESIAN_POINT ( 'NONE',  ( -250.9999999999998863, 25.00000000000000000, 180.0000000000000000 ) ) ;
#159 = DIRECTION ( 'NONE',  ( 0.000000000000000000, 0.000000000000000000, -1.000000000000000000 ) ) ;
#160 = ORIENTED_EDGE ( 'NONE', *, *, #56, .F. ) ;
#161 = PLANE ( 'NONE',  #67 ) ;
#162 = DIRECTION ( 'NONE',  ( -0.000000000000000000, -1.000000000000000000, -0.000000000000000000 ) ) ;
#163 = EDGE_CURVE ( 'NONE', #107, #183, #73, .T. ) ;
#164 = DIRECTION ( 'NONE',  ( 1.000000000000000000, 0.000000000000000000, 0.000000000000000000 ) ) ;
#165 = EDGE_LOOP ( 'NONE', ( #190, #191, #108, #25 ) ) ;
#166 = PLANE ( 'NONE',  #153 ) ;
#167 = VECTOR ( 'NONE', #7, 1000.000000000000000 ) ;
#168 = ADVANCED_FACE ( 'NONE', ( #89 ), #16, .F. ) ;
#169 =( GEOMETRIC_REPRESENTATION_CONTEXT ( 3 ) GLOBAL_UNCERTAINTY_ASSIGNED_CONTEXT ( ( #147 ) ) GLOBAL_UNIT_ASSIGNED_CONTEXT ( ( #186, #126, #79 ) ) REPRESENTATION_CONTEXT ( 'NONE', 'WORKASPACE' ) );
#170 = ADVANCED_FACE ( 'NONE', ( #11 ), #166, .F. ) ;
#171 = CARTESIAN_POINT ( 'NONE',  ( -250.9999999999998863, 25.00000000000000000, -180.0000000000000000 ) ) ;
#172 = LINE ( 'NONE', #94, #193 ) ;
#173 = AXIS2_PLACEMENT_3D ( 'NONE', #85, #118, #69 ) ;
#174 = LINE ( 'NONE', #34, #133 ) ;
#175 = ORIENTED_EDGE ( 'NONE', *, *, #90, .T. ) ;
#176 = LINE ( 'NONE', #93, #167 ) ;
#177 = DIRECTION ( 'NONE',  ( 0.000000000000000000, 0.000000000000000000, -1.000000000000000000 ) ) ;
#178 = SURFACE_SIDE_STYLE ('',( #39 ) ) ;
#179 = CARTESIAN_POINT ( 'NONE',  ( 251.0000000000001137, 25.00000000000000000, -180.0000000000000000 ) ) ;
#180 = ADVANCED_FACE ( 'NONE', ( #201 ), #41, .T. ) ;
#181 = FILL_AREA_STYLE ('',( #83 ) ) ;
#182 = UNCERTAINTY_MEASURE_WITH_UNIT (LENGTH_MEASURE( 1.000000000000000082E-05 ), #114, 'distance_accuracy_value', 'NONE');
#183 = VERTEX_POINT ( 'NONE', #154 ) ;
#184 = MANIFOLD_SOLID_BREP ( 'Boss-Extrude1', #109 ) ;
#185 = DIRECTION ( 'NONE',  ( 0.000000000000000000, 0.000000000000000000, 1.000000000000000000 ) ) ;
#186 =( LENGTH_UNIT ( ) NAMED_UNIT ( * ) SI_UNIT ( .MILLI., .METRE. ) );
#187 = STYLED_ITEM ( 'NONE', ( #139 ), #184 ) ;
#188 = CARTESIAN_POINT ( 'NONE',  ( -250.9999999999998863, 25.00000000000000000, -180.0000000000000000 ) ) ;
#189 = CARTESIAN_POINT ( 'NONE',  ( 0.000000000000000000, 0.000000000000000000, 0.000000000000000000 ) ) ;
#190 = ORIENTED_EDGE ( 'NONE', *, *, #14, .T. ) ;
#191 = ORIENTED_EDGE ( 'NONE', *, *, #71, .F. ) ;
#192 = FACE_OUTER_BOUND ( 'NONE', #92, .T. ) ;
#193 = VECTOR ( 'NONE', #82, 1000.000000000000000 ) ;
#194 = CARTESIAN_POINT ( 'NONE',  ( 251.0000000000001137, 25.00000000000000000, 180.0000000000000000 ) ) ;
#195 = DIRECTION ( 'NONE',  ( -1.000000000000000000, 0.000000000000000000, -0.000000000000000000 ) ) ;
#196 = MECHANICAL_DESIGN_GEOMETRIC_PRESENTATION_REPRESENTATION (  '', ( #187 ), #169 ) ;
#197 = VERTEX_POINT ( 'NONE', #106 ) ;
#198 =( NAMED_UNIT ( * ) SI_UNIT ( $, .STERADIAN. ) SOLID_ANGLE_UNIT ( ) );
#199 = VECTOR ( 'NONE', #29, 1000.000000000000000 ) ;
#200 = ORIENTED_EDGE ( 'NONE', *, *, #56, .T. ) ;
#201 = FACE_OUTER_BOUND ( 'NONE', #145, .T. ) ;
#202 = EDGE_CURVE ( 'NONE', #4, #137, #174, .T. ) ;
ENDSEC;
END-ISO-10303-21;
