ISO-10303-21;
HEADER;
FILE_DESCRIPTION (( 'STEP AP214' ),
    '1' );
FILE_NAME ('TSHC_STEP_V11122.STEP',
    '2022-11-07T13:25:19',
    ( '' ),
    ( '' ),
    'SwSTEP 2.0',
    'SolidWorks 2019',
    '' );
FILE_SCHEMA (( 'AUTOMOTIVE_DESIGN' ));
ENDSEC;

DATA;
#1 =( NAMED_UNIT ( * ) SI_UNIT ( $, .STERADIAN. ) SOLID_ANGLE_UNIT ( ) );
#2 = COLOUR_RGB ( '',0.7921568627450980005, 0.8196078431372548767, 0.9333333333333333481 ) ;
#3 = EDGE_CURVE ( 'NONE', #87, #180, #198, .T. ) ;
#4 = DIRECTION ( 'NONE',  ( -0.000000000000000000, -1.000000000000000000, -0.000000000000000000 ) ) ;
#5 = DIRECTION ( 'NONE',  ( 0.000000000000000000, 1.000000000000000000, 0.000000000000000000 ) ) ;
#6 = DIRECTION ( 'NONE',  ( 0.000000000000000000, 0.000000000000000000, 1.000000000000000000 ) ) ;
#7 =( NAMED_UNIT ( * ) SI_UNIT ( $, .STERADIAN. ) SOLID_ANGLE_UNIT ( ) );
#8 = CIRCLE ( 'NONE', #116, 1.000000000000000888 ) ;
#9 = TOROIDAL_SURFACE ( 'NONE', #229, 20.99999999999999645, 1.000000000000000000 ) ;
#10 = AXIS2_PLACEMENT_3D ( 'NONE', #84, #128, #173 ) ;
#11 = ADVANCED_FACE ( 'NONE', ( #398 ), #16, .F. ) ;
#12 = ORIENTED_EDGE ( 'NONE', *, *, #114, .T. ) ;
#13 = CARTESIAN_POINT ( 'NONE',  ( 0.000000000000000000, 9.000000000000000000, 0.000000000000000000 ) ) ;
#14 = ORIENTED_EDGE ( 'NONE', *, *, #139, .F. ) ;
#15 = DIRECTION ( 'NONE',  ( 0.000000000000000000, 0.000000000000000000, 1.000000000000000000 ) ) ;
#16 = CYLINDRICAL_SURFACE ( 'NONE', #10, 22.00000000000000000 ) ;
#17 = EDGE_LOOP ( 'NONE', ( #358, #22, #111, #370 ) ) ;
#18 = CIRCLE ( 'NONE', #317, 4.000000000000001776 ) ;
#19 = DIRECTION ( 'NONE',  ( 0.000000000000000000, 1.000000000000000000, 0.000000000000000000 ) ) ;
#20 = EDGE_CURVE ( 'NONE', #321, #232, #222, .T. ) ;
#21 = DIRECTION ( 'NONE',  ( 0.000000000000000000, 1.000000000000000000, 0.000000000000000000 ) ) ;
#22 = ORIENTED_EDGE ( 'NONE', *, *, #140, .F. ) ;
#23 = STYLED_ITEM ( 'NONE', ( #160 ), #169 ) ;
#24 = ORIENTED_EDGE ( 'NONE', *, *, #217, .F. ) ;
#25 = SURFACE_STYLE_USAGE ( .BOTH. , #37 ) ;
#26 = CARTESIAN_POINT ( 'NONE',  ( 0.000000000000000000, 8.000000000000000000, 0.000000000000000000 ) ) ;
#27 = CARTESIAN_POINT ( 'NONE',  ( 2.694222958124176809E-15, 0.000000000000000000, 22.00000000000000000 ) ) ;
#28 = DIRECTION ( 'NONE',  ( 0.000000000000000000, 0.000000000000000000, 1.000000000000000000 ) ) ;
#29 = CARTESIAN_POINT ( 'NONE',  ( 0.000000000000000000, 8.000000000000000000, 0.000000000000000000 ) ) ;
#30 = AXIS2_PLACEMENT_3D ( 'NONE', #333, #243, #62 ) ;
#31 = CARTESIAN_POINT ( 'NONE',  ( 2.694222958124176809E-15, 7.000000000000000000, 22.00000000000000000 ) ) ;
#32 = DIRECTION ( 'NONE',  ( 0.000000000000000000, 0.000000000000000000, 1.000000000000000000 ) ) ;
#33 = PRESENTATION_STYLE_ASSIGNMENT (( #25 ) ) ;
#34 = UNCERTAINTY_MEASURE_WITH_UNIT (LENGTH_MEASURE( 1.000000000000000082E-05 ), #373, 'distance_accuracy_value', 'NONE');
#35 = ADVANCED_FACE ( 'NONE', ( #48 ), #209, .F. ) ;
#36 = CARTESIAN_POINT ( 'NONE',  ( 0.000000000000000000, 9.000000000000000000, -13.00000000000000000 ) ) ;
#37 = SURFACE_SIDE_STYLE ('',( #131 ) ) ;
#38 = DIRECTION ( 'NONE',  ( 1.000000000000000000, 0.000000000000000000, 0.000000000000000000 ) ) ;
#39 = ADVANCED_FACE ( 'NONE', ( #335 ), #109, .T. ) ;
#40 = AXIS2_PLACEMENT_3D ( 'NONE', #103, #274, #368 ) ;
#41 = AXIS2_PLACEMENT_3D ( 'NONE', #244, #177, #330 ) ;
#42 = EDGE_LOOP ( 'NONE', ( #354, #204, #174, #228 ) ) ;
#43 = AXIS2_PLACEMENT_3D ( 'NONE', #13, #390, #120 ) ;
#44 = ORIENTED_EDGE ( 'NONE', *, *, #171, .T. ) ;
#45 = STYLED_ITEM ( 'NONE', ( #33 ), #258 ) ;
#46 = ORIENTED_EDGE ( 'NONE', *, *, #256, .T. ) ;
#47 = DIRECTION ( 'NONE',  ( 0.000000000000000000, 1.000000000000000000, 0.000000000000000000 ) ) ;
#48 = FACE_OUTER_BOUND ( 'NONE', #359, .T. ) ;
#49 = VERTEX_POINT ( 'NONE', #386 ) ;
#50 = ADVANCED_FACE ( 'NONE', ( #115 ), #294, .T. ) ;
#51 = DIRECTION ( 'NONE',  ( 0.000000000000000000, 0.000000000000000000, 1.000000000000000000 ) ) ;
#52 = ORIENTED_EDGE ( 'NONE', *, *, #207, .F. ) ;
#53 = ORIENTED_EDGE ( 'NONE', *, *, #316, .F. ) ;
#54 = CIRCLE ( 'NONE', #147, 20.99999999999999645 ) ;
#55 = DIRECTION ( 'NONE',  ( 0.000000000000000000, -0.000000000000000000, 1.000000000000000000 ) ) ;
#56 = FACE_OUTER_BOUND ( 'NONE', #393, .T. ) ;
#57 = CARTESIAN_POINT ( 'NONE',  ( 0.000000000000000000, 9.000000000000000000, 0.000000000000000000 ) ) ;
#58 = VECTOR ( 'NONE', #360, 1000.000000000000000 ) ;
#59 = DIRECTION ( 'NONE',  ( 0.000000000000000000, 0.000000000000000000, 1.000000000000000000 ) ) ;
#60 = DIRECTION ( 'NONE',  ( 0.000000000000000000, 1.000000000000000000, 0.000000000000000000 ) ) ;
#61 = ADVANCED_FACE ( 'NONE', ( #213, #339 ), #236, .F. ) ;
#62 = DIRECTION ( 'NONE',  ( 0.000000000000000000, 0.000000000000000000, 1.000000000000000000 ) ) ;
#63 = EDGE_LOOP ( 'NONE', ( #176, #199, #391, #271 ) ) ;
#64 = CARTESIAN_POINT ( 'NONE',  ( 0.000000000000000000, 9.000000000000000000, 0.000000000000000000 ) ) ;
#65 =( NAMED_UNIT ( * ) PLANE_ANGLE_UNIT ( ) SI_UNIT ( $, .RADIAN. ) );
#66 = CARTESIAN_POINT ( 'NONE',  ( 0.000000000000000000, 0.000000000000000000, -13.00000000000000000 ) ) ;
#67 = UNCERTAINTY_MEASURE_WITH_UNIT (LENGTH_MEASURE( 1.000000000000000082E-05 ), #266, 'distance_accuracy_value', 'NONE');
#68 = VECTOR ( 'NONE', #132, 1000.000000000000000 ) ;
#69 = DIRECTION ( 'NONE',  ( 0.000000000000000000, 0.000000000000000000, 1.000000000000000000 ) ) ;
#70 = AXIS2_PLACEMENT_3D ( 'NONE', #57, #183, #157 ) ;
#71 =( GEOMETRIC_REPRESENTATION_CONTEXT ( 3 ) GLOBAL_UNCERTAINTY_ASSIGNED_CONTEXT ( ( #34 ) ) GLOBAL_UNIT_ASSIGNED_CONTEXT ( ( #373, #280, #136 ) ) REPRESENTATION_CONTEXT ( 'NONE', 'WORKASPACE' ) );
#72 = CARTESIAN_POINT ( 'NONE',  ( 0.000000000000000000, 8.000000000000000000, -8.999999999999998224 ) ) ;
#73 = EDGE_CURVE ( 'NONE', #328, #124, #357, .T. ) ;
#74 = EDGE_CURVE ( 'NONE', #180, #332, #156, .T. ) ;
#75 = ADVANCED_FACE ( 'NONE', ( #239, #363 ), #270, .T. ) ;
#76 = DIRECTION ( 'NONE',  ( 0.000000000000000000, 0.000000000000000000, 1.000000000000000000 ) ) ;
#77 = APPLICATION_CONTEXT ( 'automotive_design' ) ;
#78 = CIRCLE ( 'NONE', #135, 20.99999999999999645 ) ;
#79 = AXIS2_PLACEMENT_3D ( 'NONE', #122, #302, #15 ) ;
#80 = ORIENTED_EDGE ( 'NONE', *, *, #292, .T. ) ;
#81 = VERTEX_POINT ( 'NONE', #175 ) ;
#82 = CLOSED_SHELL ( 'NONE', ( #39, #377, #383, #11, #314, #50, #75, #196, #35, #61, #142, #320, #325 ) ) ;
#83 = SURFACE_STYLE_FILL_AREA ( #186 ) ;
#84 = CARTESIAN_POINT ( 'NONE',  ( 0.000000000000000000, 9.000000000000000000, 0.000000000000000000 ) ) ;
#85 = ORIENTED_EDGE ( 'NONE', *, *, #140, .T. ) ;
#86 = CARTESIAN_POINT ( 'NONE',  ( 0.000000000000000000, 0.000000000000000000, 0.000000000000000000 ) ) ;
#87 = VERTEX_POINT ( 'NONE', #372 ) ;
#88 = ORIENTED_EDGE ( 'NONE', *, *, #108, .F. ) ;
#89 = CARTESIAN_POINT ( 'NONE',  ( 2.816687638038912352E-15, 8.000000000000000000, 23.00000000000000000 ) ) ;
#90 = DIRECTION ( 'NONE',  ( 0.000000000000000000, 0.000000000000000000, 1.000000000000000000 ) ) ;
#91 = ORIENTED_EDGE ( 'NONE', *, *, #272, .T. ) ;
#92 = ORIENTED_EDGE ( 'NONE', *, *, #384, .T. ) ;
#93 = CARTESIAN_POINT ( 'NONE',  ( 0.000000000000000000, 0.000000000000000000, 0.000000000000000000 ) ) ;
#94 = DIRECTION ( 'NONE',  ( 0.000000000000000000, 0.000000000000000000, 1.000000000000000000 ) ) ;
#95 = DIRECTION ( 'NONE',  ( 0.000000000000000000, -0.000000000000000000, 1.000000000000000000 ) ) ;
#96 = FACE_OUTER_BOUND ( 'NONE', #17, .T. ) ;
#97 = DIRECTION ( 'NONE',  ( 0.000000000000000000, 0.000000000000000000, 1.000000000000000000 ) ) ;
#98 = DIRECTION ( 'NONE',  ( -0.000000000000000000, 1.000000000000000000, -0.000000000000000000 ) ) ;
#99 = CARTESIAN_POINT ( 'NONE',  ( 0.000000000000000000, 8.000000000000000000, -13.00000000000000000 ) ) ;
#100 = CARTESIAN_POINT ( 'NONE',  ( 2.694222958124176809E-15, 8.000000000000000000, -22.00000000000000000 ) ) ;
#101 = DIRECTION ( 'NONE',  ( 0.000000000000000000, 0.000000000000000000, 1.000000000000000000 ) ) ;
#102 = CIRCLE ( 'NONE', #286, 23.00000000000000000 ) ;
#103 = CARTESIAN_POINT ( 'NONE',  ( 0.000000000000000000, 0.000000000000000000, 0.000000000000000000 ) ) ;
#104 = ORIENTED_EDGE ( 'NONE', *, *, #20, .T. ) ;
#105 = PRODUCT_CONTEXT ( 'NONE', #253, 'mechanical' ) ;
#106 = AXIS2_PLACEMENT_3D ( 'NONE', #369, #19, #32 ) ;
#107 = CIRCLE ( 'NONE', #310, 23.00000000000000000 ) ;
#108 = EDGE_CURVE ( 'NONE', #124, #328, #227, .T. ) ;
#109 = TOROIDAL_SURFACE ( 'NONE', #278, 22.00000000000000000, 1.000000000000000000 ) ;
#110 = PRESENTATION_LAYER_ASSIGNMENT (  '', '', ( #45 ) ) ;
#111 = ORIENTED_EDGE ( 'NONE', *, *, #316, .T. ) ;
#112 = ORIENTED_EDGE ( 'NONE', *, *, #394, .F. ) ;
#113 = EDGE_CURVE ( 'NONE', #87, #81, #150, .T. ) ;
#114 = EDGE_CURVE ( 'NONE', #148, #321, #234, .T. ) ;
#115 = FACE_OUTER_BOUND ( 'NONE', #63, .T. ) ;
#116 = AXIS2_PLACEMENT_3D ( 'NONE', #100, #311, #378 ) ;
#117 = EDGE_LOOP ( 'NONE', ( #146, #362 ) ) ;
#118 = AXIS2_PLACEMENT_3D ( 'NONE', #364, #361, #259 ) ;
#119 = CARTESIAN_POINT ( 'NONE',  ( 0.000000000000000000, 9.000000000000000000, 0.000000000000000000 ) ) ;
#120 = DIRECTION ( 'NONE',  ( 0.000000000000000000, 0.000000000000000000, -1.000000000000000000 ) ) ;
#121 = EDGE_LOOP ( 'NONE', ( #205, #172 ) ) ;
#122 = CARTESIAN_POINT ( 'NONE',  ( 0.000000000000000000, 0.000000000000000000, -13.00000000000000000 ) ) ;
#123 = VERTEX_POINT ( 'NONE', #397 ) ;
#124 = VERTEX_POINT ( 'NONE', #27 ) ;
#125 = FACE_OUTER_BOUND ( 'NONE', #42, .T. ) ;
#126 = DIRECTION ( 'NONE',  ( 0.000000000000000000, 0.000000000000000000, -1.000000000000000000 ) ) ;
#127 = DIRECTION ( 'NONE',  ( 1.224646799147353454E-16, 0.000000000000000000, -1.000000000000000000 ) ) ;
#128 = DIRECTION ( 'NONE',  ( -0.000000000000000000, -1.000000000000000000, -0.000000000000000000 ) ) ;
#129 =( NAMED_UNIT ( * ) PLANE_ANGLE_UNIT ( ) SI_UNIT ( $, .RADIAN. ) );
#130 = DIRECTION ( 'NONE',  ( 0.000000000000000000, 1.000000000000000000, 0.000000000000000000 ) ) ;
#131 = SURFACE_STYLE_FILL_AREA ( #189 ) ;
#132 = DIRECTION ( 'NONE',  ( -0.000000000000000000, -1.000000000000000000, -0.000000000000000000 ) ) ;
#133 = CARTESIAN_POINT ( 'NONE',  ( 2.816687638038912352E-15, 9.000000000000000000, 23.00000000000000000 ) ) ;
#134 = APPLICATION_PROTOCOL_DEFINITION ( 'draft international standard', 'automotive_design', 1998, #77 ) ;
#135 = AXIS2_PLACEMENT_3D ( 'NONE', #159, #215, #341 ) ;
#136 =( NAMED_UNIT ( * ) SI_UNIT ( $, .STERADIAN. ) SOLID_ANGLE_UNIT ( ) );
#137 = MECHANICAL_DESIGN_GEOMETRIC_PRESENTATION_REPRESENTATION (  '', ( #23 ), #353 ) ;
#138 = EDGE_CURVE ( 'NONE', #295, #356, #254, .T. ) ;
#139 = EDGE_CURVE ( 'NONE', #295, #328, #392, .T. ) ;
#140 = EDGE_CURVE ( 'NONE', #187, #295, #287, .T. ) ;
#141 = ORIENTED_EDGE ( 'NONE', *, *, #272, .F. ) ;
#142 = ADVANCED_FACE ( 'NONE', ( #56 ), #338, .F. ) ;
#143 = CARTESIAN_POINT ( 'NONE',  ( 0.000000000000000000, 8.000000000000000000, -13.00000000000000000 ) ) ;
#144 = EDGE_LOOP ( 'NONE', ( #141, #197, #324, #53 ) ) ;
#145 = CARTESIAN_POINT ( 'NONE',  ( 0.000000000000000000, 8.000000000000000000, -23.00000000000000000 ) ) ;
#146 = ORIENTED_EDGE ( 'NONE', *, *, #285, .T. ) ;
#147 = AXIS2_PLACEMENT_3D ( 'NONE', #165, #4, #94 ) ;
#148 = VERTEX_POINT ( 'NONE', #145 ) ;
#149 = PRODUCT_DEFINITION_FORMATION_WITH_SPECIFIED_SOURCE ( 'ANY', '', #220, .NOT_KNOWN. ) ;
#150 = LINE ( 'NONE', #334, #58 ) ;
#151 = AXIS2_PLACEMENT_3D ( 'NONE', #86, #297, #90 ) ;
#152 = DIRECTION ( 'NONE',  ( 0.000000000000000000, -0.000000000000000000, 1.000000000000000000 ) ) ;
#153 = ORIENTED_EDGE ( 'NONE', *, *, #384, .F. ) ;
#154 = CARTESIAN_POINT ( 'NONE',  ( 0.000000000000000000, 0.000000000000000000, -23.00000000000000000 ) ) ;
#155 = FACE_BOUND ( 'NONE', #121, .T. ) ;
#156 = LINE ( 'NONE', #182, #348 ) ;
#157 = DIRECTION ( 'NONE',  ( 0.000000000000000000, 0.000000000000000000, -1.000000000000000000 ) ) ;
#158 = FACE_OUTER_BOUND ( 'NONE', #289, .T. ) ;
#159 = CARTESIAN_POINT ( 'NONE',  ( 0.000000000000000000, 8.000000000000000000, 0.000000000000000000 ) ) ;
#160 = PRESENTATION_STYLE_ASSIGNMENT (( #262 ) ) ;
#161 = AXIS2_PLACEMENT_3D ( 'NONE', #298, #21, #152 ) ;
#162 = DIRECTION ( 'NONE',  ( 0.000000000000000000, 1.000000000000000000, 0.000000000000000000 ) ) ;
#163 = DIRECTION ( 'NONE',  ( 0.000000000000000000, 0.000000000000000000, 1.000000000000000000 ) ) ;
#164 = EDGE_CURVE ( 'NONE', #123, #232, #319, .T. ) ;
#165 = CARTESIAN_POINT ( 'NONE',  ( 0.000000000000000000, 8.000000000000000000, 0.000000000000000000 ) ) ;
#166 = FACE_OUTER_BOUND ( 'NONE', #144, .T. ) ;
#167 = ORIENTED_EDGE ( 'NONE', *, *, #283, .T. ) ;
#168 = AXIS2_PLACEMENT_3D ( 'NONE', #343, #203, #51 ) ;
#169 = MANIFOLD_SOLID_BREP ( 'Fillet1', #82 ) ;
#170 = PRODUCT_RELATED_PRODUCT_CATEGORY ( 'part', '', ( #220 ) ) ;
#171 = EDGE_CURVE ( 'NONE', #148, #123, #8, .T. ) ;
#172 = ORIENTED_EDGE ( 'NONE', *, *, #108, .T. ) ;
#173 = DIRECTION ( 'NONE',  ( 0.000000000000000000, 0.000000000000000000, -1.000000000000000000 ) ) ;
#174 = ORIENTED_EDGE ( 'NONE', *, *, #247, .T. ) ;
#175 = CARTESIAN_POINT ( 'NONE',  ( 4.898587196589412829E-16, 9.000000000000000000, -17.00000000000000000 ) ) ;
#176 = ORIENTED_EDGE ( 'NONE', *, *, #292, .F. ) ;
#177 = DIRECTION ( 'NONE',  ( 0.000000000000000000, 1.000000000000000000, 0.000000000000000000 ) ) ;
#178 = DIRECTION ( 'NONE',  ( 0.000000000000000000, 1.000000000000000000, 0.000000000000000000 ) ) ;
#179 = VECTOR ( 'NONE', #185, 1000.000000000000000 ) ;
#180 = VERTEX_POINT ( 'NONE', #72 ) ;
#181 = CARTESIAN_POINT ( 'NONE',  ( 0.000000000000000000, 9.000000000000000000, 0.000000000000000000 ) ) ;
#182 = CARTESIAN_POINT ( 'NONE',  ( 0.000000000000000000, 0.000000000000000000, -8.999999999999998224 ) ) ;
#183 = DIRECTION ( 'NONE',  ( -0.000000000000000000, -1.000000000000000000, -0.000000000000000000 ) ) ;
#184 = CARTESIAN_POINT ( 'NONE',  ( 0.000000000000000000, 0.000000000000000000, -22.00000000000000000 ) ) ;
#185 = DIRECTION ( 'NONE',  ( -0.000000000000000000, -1.000000000000000000, -0.000000000000000000 ) ) ;
#186 = FILL_AREA_STYLE ('',( #275 ) ) ;
#187 = VERTEX_POINT ( 'NONE', #31 ) ;
#188 = CIRCLE ( 'NONE', #342, 4.000000000000001776 ) ;
#189 = FILL_AREA_STYLE ('',( #313 ) ) ;
#190 = APPLICATION_PROTOCOL_DEFINITION ( 'draft international standard', 'automotive_design', 1998, #253 ) ;
#191 = DIRECTION ( 'NONE',  ( 0.000000000000000000, 0.000000000000000000, 1.000000000000000000 ) ) ;
#192 = CARTESIAN_POINT ( 'NONE',  ( 0.000000000000000000, 0.000000000000000000, 0.000000000000000000 ) ) ;
#193 = TOROIDAL_SURFACE ( 'NONE', #355, 22.00000000000000000, 1.000000000000000000 ) ;
#194 = CIRCLE ( 'NONE', #261, 4.000000000000001776 ) ;
#195 = AXIS2_PLACEMENT_3D ( 'NONE', #181, #269, #126 ) ;
#196 = ADVANCED_FACE ( 'NONE', ( #155, #305 ), #375, .F. ) ;
#197 = ORIENTED_EDGE ( 'NONE', *, *, #138, .T. ) ;
#198 = CIRCLE ( 'NONE', #389, 4.000000000000001776 ) ;
#199 = ORIENTED_EDGE ( 'NONE', *, *, #237, .T. ) ;
#200 = CARTESIAN_POINT ( 'NONE',  ( 0.000000000000000000, 0.000000000000000000, 0.000000000000000000 ) ) ;
#201 = ORIENTED_EDGE ( 'NONE', *, *, #113, .F. ) ;
#202 = EDGE_LOOP ( 'NONE', ( #52, #153 ) ) ;
#203 = DIRECTION ( 'NONE',  ( -0.000000000000000000, -1.000000000000000000, -0.000000000000000000 ) ) ;
#204 = ORIENTED_EDGE ( 'NONE', *, *, #113, .T. ) ;
#205 = ORIENTED_EDGE ( 'NONE', *, *, #73, .T. ) ;
#206 = CYLINDRICAL_SURFACE ( 'NONE', #351, 4.000000000000001776 ) ;
#207 = EDGE_CURVE ( 'NONE', #322, #329, #231, .T. ) ;
#208 = CARTESIAN_POINT ( 'NONE',  ( 0.000000000000000000, 9.000000000000000000, -22.00000000000000000 ) ) ;
#209 = CYLINDRICAL_SURFACE ( 'NONE', #43, 22.00000000000000000 ) ;
#210 = CARTESIAN_POINT ( 'NONE',  ( 0.000000000000000000, 9.000000000000000000, -8.999999999999998224 ) ) ;
#211 = DIRECTION ( 'NONE',  ( 0.000000000000000000, 0.000000000000000000, 1.000000000000000000 ) ) ;
#212 = CARTESIAN_POINT ( 'NONE',  ( 2.571758278209441267E-15, 7.000000000000000000, -20.99999999999999645 ) ) ;
#213 = FACE_OUTER_BOUND ( 'NONE', #288, .T. ) ;
#214 = DIRECTION ( 'NONE',  ( 0.000000000000000000, 0.000000000000000000, 1.000000000000000000 ) ) ;
#215 = DIRECTION ( 'NONE',  ( -0.000000000000000000, -1.000000000000000000, -0.000000000000000000 ) ) ;
#216 = EDGE_CURVE ( 'NONE', #49, #356, #54, .T. ) ;
#217 = EDGE_CURVE ( 'NONE', #148, #322, #279, .T. ) ;
#218 = CARTESIAN_POINT ( 'NONE',  ( 2.632990618166808841E-15, 8.000000000000000000, -20.99999999999999645 ) ) ;
#219 = CARTESIAN_POINT ( 'NONE',  ( 0.000000000000000000, 9.000000000000000000, -13.00000000000000000 ) ) ;
#220 = PRODUCT ( 'TSHC_STEP_V11122', 'TSHC_STEP_V11122', '', ( #105 ) ) ;
#221 = DIRECTION ( 'NONE',  ( 0.000000000000000000, 0.000000000000000000, 1.000000000000000000 ) ) ;
#222 = CIRCLE ( 'NONE', #118, 1.000000000000000888 ) ;
#223 = CARTESIAN_POINT ( 'NONE',  ( 0.000000000000000000, 7.000000000000000000, -22.00000000000000000 ) ) ;
#224 = COLOUR_RGB ( '',0.7921568627450980005, 0.8196078431372548767, 0.9333333333333333481 ) ;
#225 = AXIS2_PLACEMENT_3D ( 'NONE', #200, #47, #327 ) ;
#226 = AXIS2_PLACEMENT_3D ( 'NONE', #396, #130, #55 ) ;
#227 = CIRCLE ( 'NONE', #151, 22.00000000000000000 ) ;
#228 = ORIENTED_EDGE ( 'NONE', *, *, #74, .F. ) ;
#229 = AXIS2_PLACEMENT_3D ( 'NONE', #300, #309, #221 ) ;
#230 = ORIENTED_EDGE ( 'NONE', *, *, #171, .F. ) ;
#231 = CIRCLE ( 'NONE', #40, 23.00000000000000000 ) ;
#232 = VERTEX_POINT ( 'NONE', #371 ) ;
#233 = ORIENTED_EDGE ( 'NONE', *, *, #164, .F. ) ;
#234 = CIRCLE ( 'NONE', #168, 23.00000000000000000 ) ;
#235 = DIRECTION ( 'NONE',  ( 0.000000000000000000, 1.000000000000000000, 0.000000000000000000 ) ) ;
#236 = PLANE ( 'NONE',  #161 ) ;
#237 = EDGE_CURVE ( 'NONE', #321, #148, #102, .T. ) ;
#238 = ORIENTED_EDGE ( 'NONE', *, *, #139, .T. ) ;
#239 = FACE_OUTER_BOUND ( 'NONE', #117, .T. ) ;
#240 = DIRECTION ( 'NONE',  ( 0.000000000000000000, 1.000000000000000000, 0.000000000000000000 ) ) ;
#241 = ORIENTED_EDGE ( 'NONE', *, *, #73, .F. ) ;
#242 = CARTESIAN_POINT ( 'NONE',  ( 0.000000000000000000, 7.000000000000000000, 0.000000000000000000 ) ) ;
#243 = DIRECTION ( 'NONE',  ( -1.000000000000000000, 0.000000000000000000, 0.000000000000000000 ) ) ;
#244 = CARTESIAN_POINT ( 'NONE',  ( 0.000000000000000000, 7.000000000000000000, 0.000000000000000000 ) ) ;
#245 = DIRECTION ( 'NONE',  ( 0.000000000000000000, 0.000000000000000000, 1.000000000000000000 ) ) ;
#246 = PRODUCT_DEFINITION ( 'UNKNOWN', '', #149, #374 ) ;
#247 = EDGE_CURVE ( 'NONE', #81, #332, #194, .T. ) ;
#248 = CARTESIAN_POINT ( 'NONE',  ( 0.000000000000000000, 9.000000000000000000, -23.00000000000000000 ) ) ;
#249 = DIRECTION ( 'NONE',  ( -0.000000000000000000, -1.000000000000000000, -0.000000000000000000 ) ) ;
#250 = DIRECTION ( 'NONE',  ( 0.000000000000000000, 1.000000000000000000, 0.000000000000000000 ) ) ;
#251 = FACE_OUTER_BOUND ( 'NONE', #387, .T. ) ;
#252 = AXIS2_PLACEMENT_3D ( 'NONE', #337, #60, #97 ) ;
#253 = APPLICATION_CONTEXT ( 'automotive_design' ) ;
#254 = CIRCLE ( 'NONE', #380, 1.000000000000000888 ) ;
#255 = TOROIDAL_SURFACE ( 'NONE', #306, 20.99999999999999645, 1.000000000000000000 ) ;
#256 = EDGE_CURVE ( 'NONE', #332, #81, #18, .T. ) ;
#257 = ORIENTED_EDGE ( 'NONE', *, *, #216, .T. ) ;
#258 = ADVANCED_BREP_SHAPE_REPRESENTATION ( 'TSHC_STEP_V11122', ( #169, #318 ), #366 ) ;
#259 = DIRECTION ( 'NONE',  ( 0.000000000000000000, 0.000000000000000000, 1.000000000000000000 ) ) ;
#260 = ORIENTED_EDGE ( 'NONE', *, *, #20, .F. ) ;
#261 = AXIS2_PLACEMENT_3D ( 'NONE', #36, #162, #191 ) ;
#262 = SURFACE_STYLE_USAGE ( .BOTH. , #307 ) ;
#263 = ORIENTED_EDGE ( 'NONE', *, *, #114, .F. ) ;
#264 = ORIENTED_EDGE ( 'NONE', *, *, #394, .T. ) ;
#265 = VECTOR ( 'NONE', #293, 1000.000000000000000 ) ;
#266 =( LENGTH_UNIT ( ) NAMED_UNIT ( * ) SI_UNIT ( .MILLI., .METRE. ) );
#267 = ORIENTED_EDGE ( 'NONE', *, *, #285, .F. ) ;
#268 = ORIENTED_EDGE ( 'NONE', *, *, #256, .F. ) ;
#269 = DIRECTION ( 'NONE',  ( -0.000000000000000000, -1.000000000000000000, -0.000000000000000000 ) ) ;
#270 = PLANE ( 'NONE',  #323 ) ;
#271 = ORIENTED_EDGE ( 'NONE', *, *, #207, .T. ) ;
#272 = EDGE_CURVE ( 'NONE', #295, #187, #379, .T. ) ;
#273 = CARTESIAN_POINT ( 'NONE',  ( 2.694222958124176809E-15, 9.000000000000000000, 22.00000000000000000 ) ) ;
#274 = DIRECTION ( 'NONE',  ( 0.000000000000000000, 1.000000000000000000, 0.000000000000000000 ) ) ;
#275 = FILL_AREA_STYLE_COLOUR ( '', #224 ) ;
#276 = DIRECTION ( 'NONE',  ( -0.000000000000000000, -1.000000000000000000, -0.000000000000000000 ) ) ;
#277 = UNCERTAINTY_MEASURE_WITH_UNIT (LENGTH_MEASURE( 1.000000000000000082E-05 ), #347, 'distance_accuracy_value', 'NONE');
#278 = AXIS2_PLACEMENT_3D ( 'NONE', #331, #178, #28 ) ;
#279 = LINE ( 'NONE', #248, #68 ) ;
#280 =( NAMED_UNIT ( * ) PLANE_ANGLE_UNIT ( ) SI_UNIT ( $, .RADIAN. ) );
#281 = LINE ( 'NONE', #133, #179 ) ;
#282 = DIRECTION ( 'NONE',  ( -0.000000000000000000, 1.000000000000000000, -0.000000000000000000 ) ) ;
#283 = EDGE_CURVE ( 'NONE', #356, #49, #78, .T. ) ;
#284 = ORIENTED_EDGE ( 'NONE', *, *, #350, .T. ) ;
#285 = EDGE_CURVE ( 'NONE', #232, #123, #296, .T. ) ;
#286 = AXIS2_PLACEMENT_3D ( 'NONE', #26, #249, #6 ) ;
#287 = CIRCLE ( 'NONE', #41, 22.00000000000000000 ) ;
#288 = EDGE_LOOP ( 'NONE', ( #257, #167 ) ) ;
#289 = EDGE_LOOP ( 'NONE', ( #230, #299, #104, #233 ) ) ;
#290 = ORIENTED_EDGE ( 'NONE', *, *, #74, .T. ) ;
#291 = EDGE_LOOP ( 'NONE', ( #284, #395 ) ) ;
#292 = EDGE_CURVE ( 'NONE', #321, #329, #281, .T. ) ;
#293 = DIRECTION ( 'NONE',  ( -0.000000000000000000, -1.000000000000000000, -0.000000000000000000 ) ) ;
#294 = CYLINDRICAL_SURFACE ( 'NONE', #70, 23.00000000000000000 ) ;
#295 = VERTEX_POINT ( 'NONE', #223 ) ;
#296 = CIRCLE ( 'NONE', #352, 22.00000000000000000 ) ;
#297 = DIRECTION ( 'NONE',  ( 0.000000000000000000, 1.000000000000000000, 0.000000000000000000 ) ) ;
#298 = CARTESIAN_POINT ( 'NONE',  ( 0.000000000000000000, 8.000000000000000000, 0.000000000000000000 ) ) ;
#299 = ORIENTED_EDGE ( 'NONE', *, *, #237, .F. ) ;
#300 = CARTESIAN_POINT ( 'NONE',  ( 0.000000000000000000, 7.000000000000000000, 0.000000000000000000 ) ) ;
#301 = PRESENTATION_LAYER_ASSIGNMENT (  '', '', ( #23 ) ) ;
#302 = DIRECTION ( 'NONE',  ( -0.000000000000000000, 1.000000000000000000, -0.000000000000000000 ) ) ;
#303 = ORIENTED_EDGE ( 'NONE', *, *, #350, .F. ) ;
#304 = DIRECTION ( 'NONE',  ( 0.000000000000000000, 1.000000000000000000, 0.000000000000000000 ) ) ;
#305 = FACE_OUTER_BOUND ( 'NONE', #202, .T. ) ;
#306 = AXIS2_PLACEMENT_3D ( 'NONE', #242, #367, #214 ) ;
#307 = SURFACE_SIDE_STYLE ('',( #83 ) ) ;
#308 = EDGE_LOOP ( 'NONE', ( #268, #365 ) ) ;
#309 = DIRECTION ( 'NONE',  ( 0.000000000000000000, 1.000000000000000000, 0.000000000000000000 ) ) ;
#310 = AXIS2_PLACEMENT_3D ( 'NONE', #93, #5, #59 ) ;
#311 = DIRECTION ( 'NONE',  ( 1.000000000000000000, -0.000000000000000000, 1.224646799147353207E-16 ) ) ;
#312 = MECHANICAL_DESIGN_GEOMETRIC_PRESENTATION_REPRESENTATION (  '', ( #45 ), #71 ) ;
#313 = FILL_AREA_STYLE_COLOUR ( '', #2 ) ;
#314 = ADVANCED_FACE ( 'NONE', ( #251 ), #349, .T. ) ;
#315 = DIRECTION ( 'NONE',  ( 0.000000000000000000, 1.000000000000000000, 0.000000000000000000 ) ) ;
#316 = EDGE_CURVE ( 'NONE', #187, #49, #376, .T. ) ;
#317 = AXIS2_PLACEMENT_3D ( 'NONE', #219, #315, #211 ) ;
#318 = AXIS2_PLACEMENT_3D ( 'NONE', #192, #76, #38 ) ;
#319 = CIRCLE ( 'NONE', #106, 22.00000000000000000 ) ;
#320 = ADVANCED_FACE ( 'NONE', ( #96 ), #255, .F. ) ;
#321 = VERTEX_POINT ( 'NONE', #89 ) ;
#322 = VERTEX_POINT ( 'NONE', #154 ) ;
#323 = AXIS2_PLACEMENT_3D ( 'NONE', #119, #235, #95 ) ;
#324 = ORIENTED_EDGE ( 'NONE', *, *, #216, .F. ) ;
#325 = ADVANCED_FACE ( 'NONE', ( #158 ), #193, .T. ) ;
#326 = EDGE_LOOP ( 'NONE', ( #263, #44, #267, #260 ) ) ;
#327 = DIRECTION ( 'NONE',  ( 0.000000000000000000, 0.000000000000000000, 1.000000000000000000 ) ) ;
#328 = VERTEX_POINT ( 'NONE', #184 ) ;
#329 = VERTEX_POINT ( 'NONE', #344 ) ;
#330 = DIRECTION ( 'NONE',  ( 0.000000000000000000, 0.000000000000000000, 1.000000000000000000 ) ) ;
#331 = CARTESIAN_POINT ( 'NONE',  ( 0.000000000000000000, 8.000000000000000000, 0.000000000000000000 ) ) ;
#332 = VERTEX_POINT ( 'NONE', #210 ) ;
#333 = CARTESIAN_POINT ( 'NONE',  ( 0.000000000000000000, 7.000000000000000000, 20.99999999999999645 ) ) ;
#334 = CARTESIAN_POINT ( 'NONE',  ( 4.898587196589413815E-16, 0.000000000000000000, -17.00000000000000000 ) ) ;
#335 = FACE_OUTER_BOUND ( 'NONE', #326, .T. ) ;
#336 = LINE ( 'NONE', #273, #382 ) ;
#337 = CARTESIAN_POINT ( 'NONE',  ( 0.000000000000000000, 7.000000000000000000, 0.000000000000000000 ) ) ;
#338 = CYLINDRICAL_SURFACE ( 'NONE', #79, 4.000000000000001776 ) ;
#339 = FACE_BOUND ( 'NONE', #291, .T. ) ;
#340 = DIRECTION ( 'NONE',  ( 0.000000000000000000, 0.000000000000000000, 1.000000000000000000 ) ) ;
#341 = DIRECTION ( 'NONE',  ( 0.000000000000000000, 0.000000000000000000, 1.000000000000000000 ) ) ;
#342 = AXIS2_PLACEMENT_3D ( 'NONE', #99, #304, #101 ) ;
#343 = CARTESIAN_POINT ( 'NONE',  ( 0.000000000000000000, 8.000000000000000000, 0.000000000000000000 ) ) ;
#344 = CARTESIAN_POINT ( 'NONE',  ( 2.816687638038912352E-15, 0.000000000000000000, 23.00000000000000000 ) ) ;
#345 = DIRECTION ( 'NONE',  ( 0.000000000000000000, 1.000000000000000000, 0.000000000000000000 ) ) ;
#346 = PRODUCT_DEFINITION_SHAPE ( 'NONE', 'NONE',  #246 ) ;
#347 =( LENGTH_UNIT ( ) NAMED_UNIT ( * ) SI_UNIT ( .MILLI., .METRE. ) );
#348 = VECTOR ( 'NONE', #98, 1000.000000000000000 ) ;
#349 = CYLINDRICAL_SURFACE ( 'NONE', #195, 23.00000000000000000 ) ;
#350 = EDGE_CURVE ( 'NONE', #180, #87, #188, .T. ) ;
#351 = AXIS2_PLACEMENT_3D ( 'NONE', #66, #282, #340 ) ;
#352 = AXIS2_PLACEMENT_3D ( 'NONE', #64, #345, #69 ) ;
#353 =( GEOMETRIC_REPRESENTATION_CONTEXT ( 3 ) GLOBAL_UNCERTAINTY_ASSIGNED_CONTEXT ( ( #67 ) ) GLOBAL_UNIT_ASSIGNED_CONTEXT ( ( #266, #65, #1 ) ) REPRESENTATION_CONTEXT ( 'NONE', 'WORKASPACE' ) );
#354 = ORIENTED_EDGE ( 'NONE', *, *, #3, .F. ) ;
#355 = AXIS2_PLACEMENT_3D ( 'NONE', #29, #250, #163 ) ;
#356 = VERTEX_POINT ( 'NONE', #218 ) ;
#357 = CIRCLE ( 'NONE', #225, 22.00000000000000000 ) ;
#358 = ORIENTED_EDGE ( 'NONE', *, *, #138, .F. ) ;
#359 = EDGE_LOOP ( 'NONE', ( #112, #85, #238, #88 ) ) ;
#360 = DIRECTION ( 'NONE',  ( -0.000000000000000000, 1.000000000000000000, -0.000000000000000000 ) ) ;
#361 = DIRECTION ( 'NONE',  ( -1.000000000000000000, 0.000000000000000000, 0.000000000000000000 ) ) ;
#362 = ORIENTED_EDGE ( 'NONE', *, *, #164, .T. ) ;
#363 = FACE_BOUND ( 'NONE', #308, .T. ) ;
#364 = CARTESIAN_POINT ( 'NONE',  ( 0.000000000000000000, 8.000000000000000000, 22.00000000000000000 ) ) ;
#365 = ORIENTED_EDGE ( 'NONE', *, *, #247, .F. ) ;
#366 =( GEOMETRIC_REPRESENTATION_CONTEXT ( 3 ) GLOBAL_UNCERTAINTY_ASSIGNED_CONTEXT ( ( #277 ) ) GLOBAL_UNIT_ASSIGNED_CONTEXT ( ( #347, #129, #7 ) ) REPRESENTATION_CONTEXT ( 'NONE', 'WORKASPACE' ) );
#367 = DIRECTION ( 'NONE',  ( 0.000000000000000000, 1.000000000000000000, 0.000000000000000000 ) ) ;
#368 = DIRECTION ( 'NONE',  ( 0.000000000000000000, 0.000000000000000000, 1.000000000000000000 ) ) ;
#369 = CARTESIAN_POINT ( 'NONE',  ( 0.000000000000000000, 9.000000000000000000, 0.000000000000000000 ) ) ;
#370 = ORIENTED_EDGE ( 'NONE', *, *, #283, .F. ) ;
#371 = CARTESIAN_POINT ( 'NONE',  ( 0.000000000000000000, 9.000000000000000000, 22.00000000000000000 ) ) ;
#372 = CARTESIAN_POINT ( 'NONE',  ( 4.898587196589412829E-16, 8.000000000000000000, -17.00000000000000000 ) ) ;
#373 =( LENGTH_UNIT ( ) NAMED_UNIT ( * ) SI_UNIT ( .MILLI., .METRE. ) );
#374 = PRODUCT_DEFINITION_CONTEXT ( 'detailed design', #77, 'design' ) ;
#375 = PLANE ( 'NONE',  #226 ) ;
#376 = CIRCLE ( 'NONE', #30, 1.000000000000000888 ) ;
#377 = ADVANCED_FACE ( 'NONE', ( #166 ), #9, .F. ) ;
#378 = DIRECTION ( 'NONE',  ( 1.224646799147353454E-16, 0.000000000000000000, -1.000000000000000000 ) ) ;
#379 = CIRCLE ( 'NONE', #252, 22.00000000000000000 ) ;
#380 = AXIS2_PLACEMENT_3D ( 'NONE', #212, #388, #127 ) ;
#381 = SHAPE_DEFINITION_REPRESENTATION ( #346, #258 ) ;
#382 = VECTOR ( 'NONE', #276, 1000.000000000000000 ) ;
#383 = ADVANCED_FACE ( 'NONE', ( #125 ), #206, .F. ) ;
#384 = EDGE_CURVE ( 'NONE', #329, #322, #107, .T. ) ;
#385 = EDGE_LOOP ( 'NONE', ( #91, #264, #241, #14 ) ) ;
#386 = CARTESIAN_POINT ( 'NONE',  ( 0.000000000000000000, 8.000000000000000000, 20.99999999999999645 ) ) ;
#387 = EDGE_LOOP ( 'NONE', ( #12, #80, #92, #24 ) ) ;
#388 = DIRECTION ( 'NONE',  ( 1.000000000000000000, -0.000000000000000000, 1.224646799147353207E-16 ) ) ;
#389 = AXIS2_PLACEMENT_3D ( 'NONE', #143, #240, #245 ) ;
#390 = DIRECTION ( 'NONE',  ( -0.000000000000000000, -1.000000000000000000, -0.000000000000000000 ) ) ;
#391 = ORIENTED_EDGE ( 'NONE', *, *, #217, .T. ) ;
#392 = LINE ( 'NONE', #208, #265 ) ;
#393 = EDGE_LOOP ( 'NONE', ( #201, #303, #290, #46 ) ) ;
#394 = EDGE_CURVE ( 'NONE', #187, #124, #336, .T. ) ;
#395 = ORIENTED_EDGE ( 'NONE', *, *, #3, .T. ) ;
#396 = CARTESIAN_POINT ( 'NONE',  ( 0.000000000000000000, 0.000000000000000000, 0.000000000000000000 ) ) ;
#397 = CARTESIAN_POINT ( 'NONE',  ( 2.755455298081544778E-15, 9.000000000000000000, -22.00000000000000000 ) ) ;
#398 = FACE_OUTER_BOUND ( 'NONE', #385, .T. ) ;
ENDSEC;
END-ISO-10303-21;
