  0
SECTION
  2
HEADER
  9
$ACADVER
  1
AC1015
  9
$ACADMAINTVER
 70
     6
  9
$DWGCODEPAGE
  3
ANSI_1252
  9
$INSBASE
 10
0.0
 20
0.0
 30
0.0
  9
$EXTMIN
 10
-1.6888514968
 20
3.3404698063
 30
0.0
  9
$EXTMAX
 10
6.7757154323
 20
7.2774776803
 30
0.0
  9
$LIMMIN
 10
0.0
 20
0.0
  9
$LIMMAX
 10
12.0
 20
9.0
  9
$ORTHOMODE
 70
     0
  9
$REGENMODE
 70
     1
  9
$FILLMODE
 70
     1
  9
$QTEXTMODE
 70
     0
  9
$MIRRTEXT
 70
     1
  9
$LTSCALE
 40
1.0
  9
$ATTMODE
 70
     1
  9
$TEXTSIZE
 40
0.1377952756
  9
$TRACEWID
 40
0.05
  9
$TEXTSTYLE
  7
Standard
  9
$CLAYER
  8
0
  9
$CELTYPE
  6
ByLayer
  9
$CECOLOR
 62
   256
  9
$CELTSCALE
 40
1.0
  9
$DISPSILH
 70
     0
  9
$DIMSCALE
 40
1.0
  9
$DIMASZ
 40
0.13
  9
$DIMEXO
 40
0.0393700787
  9
$DIMDLI
 40
0.38
  9
$DIMRND
 40
0.0
  9
$DIMDLE
 40
0.0
  9
$DIMEXE
 40
0.0393700787
  9
$DIMTP
 40
0.0
  9
$DIMTM
 40
0.0
  9
$DIMTXT
 40
0.1377952756
  9
$DIMCEN
 40
0.09
  9
$DIMTSZ
 40
0.0
  9
$DIMTOL
 70
     0
  9
$DIMLIM
 70
     0
  9
$DIMTIH
 70
     1
  9
$DIMTOH
 70
     1
  9
$DIMSE1
 70
     0
  9
$DIMSE2
 70
     0
  9
$DIMTAD
 70
     1
  9
$DIMZIN
 70
     1
  9
$DIMBLK
  1

  9
$DIMASO
 70
     1
  9
$DIMSHO
 70
     1
  9
$DIMPOST
  1

  9
$DIMAPOST
  1

  9
$DIMALT
 70
     0
  9
$DIMALTD
 70
     2
  9
$DIMALTF
 40
25.4
  9
$DIMLFAC
 40
1.0
  9
$DIMTOFL
 70
     0
  9
$DIMTVP
 40
0.0
  9
$DIMTIX
 70
     0
  9
$DIMSOXD
 70
     0
  9
$DIMSAH
 70
     0
  9
$DIMBLK1
  1

  9
$DIMBLK2
  1

  9
$DIMSTYLE
  2
Standard
  9
$DIMCLRD
 70
     0
  9
$DIMCLRE
 70
     0
  9
$DIMCLRT
 70
     0
  9
$DIMTFAC
 40
1.0
  9
$DIMGAP
 40
0.06
  9
$DIMJUST
 70
     0
  9
$DIMSD1
 70
     0
  9
$DIMSD2
 70
     0
  9
$DIMTOLJ
 70
     1
  9
$DIMTZIN
 70
     1
  9
$DIMALTZ
 70
     0
  9
$DIMALTTZ
 70
     0
  9
$DIMUPT
 70
     0
  9
$DIMDEC
 70
     2
  9
$DIMTDEC
 70
     2
  9
$DIMALTU
 70
     2
  9
$DIMALTTD
 70
     2
  9
$DIMTXSTY
  7
Standard
  9
$DIMAUNIT
 70
     0
  9
$DIMADEC
 70
     2
  9
$DIMALTRND
 40
0.0
  9
$DIMAZIN
 70
     0
  9
$DIMDSEP
 70
    46
  9
$DIMATFIT
 70
     3
  9
$DIMFRAC
 70
     0
  9
$DIMLDRBLK
  1

  9
$DIMLUNIT
 70
     2
  9
$DIMLWD
 70
    -2
  9
$DIMLWE
 70
    -2
  9
$DIMTMOVE
 70
     0
  9
$LUNITS
 70
     2
  9
$LUPREC
 70
     2
  9
$SKETCHINC
 40
0.1
  9
$FILLETRAD
 40
0.5
  9
$AUNITS
 70
     0
  9
$AUPREC
 70
     2
  9
$MENU
  1
.
  9
$ELEVATION
 40
0.0
  9
$PELEVATION
 40
0.0
  9
$THICKNESS
 40
0.0
  9
$LIMCHECK
 70
     0
  9
$CHAMFERA
 40
0.0
  9
$CHAMFERB
 40
0.0
  9
$CHAMFERC
 40
0.0
  9
$CHAMFERD
 40
0.0
  9
$SKPOLY
 70
     0
  9
$TDCREATE
 40
2460356.49563588
  9
$TDUCREATE
 40
2460356.49563588
  9
$TDUPDATE
 40
2460356.495661111
  9
$TDUUPDATE
 40
2460356.495661111
  9
$TDINDWG
 40
0.0000000116
  9
$TDUSRTIMER
 40
0.0000000116
  9
$USRTIMER
 70
     1
  9
$ANGBASE
 50
0.0
  9
$ANGDIR
 70
     0
  9
$PDMODE
 70
     0
  9
$PDSIZE
 40
-1.0
  9
$PLINEWID
 40
0.0
  9
$SPLFRAME
 70
     0
  9
$SPLINETYPE
 70
     6
  9
$SPLINESEGS
 70
     8
  9
$HANDSEED
  5
2AD
  9
$SURFTAB1
 70
     6
  9
$SURFTAB2
 70
     6
  9
$SURFTYPE
 70
     6
  9
$SURFU
 70
     6
  9
$SURFV
 70
     6
  9
$UCSBASE
  2

  9
$UCSNAME
  2

  9
$UCSORG
 10
0.0
 20
0.0
 30
0.0
  9
$UCSXDIR
 10
1.0
 20
0.0
 30
0.0
  9
$UCSYDIR
 10
0.0
 20
1.0
 30
0.0
  9
$UCSORTHOREF
  2

  9
$UCSORTHOVIEW
 70
     0
  9
$UCSORGTOP
 10
0.0
 20
0.0
 30
0.0
  9
$UCSORGBOTTOM
 10
0.0
 20
0.0
 30
0.0
  9
$UCSORGLEFT
 10
0.0
 20
0.0
 30
0.0
  9
$UCSORGRIGHT
 10
0.0
 20
0.0
 30
0.0
  9
$UCSORGFRONT
 10
0.0
 20
0.0
 30
0.0
  9
$UCSORGBACK
 10
0.0
 20
0.0
 30
0.0
  9
$PUCSBASE
  2

  9
$PUCSNAME
  2

  9
$PUCSORG
 10
0.0
 20
0.0
 30
0.0
  9
$PUCSXDIR
 10
1.0
 20
0.0
 30
0.0
  9
$PUCSYDIR
 10
0.0
 20
1.0
 30
0.0
  9
$PUCSORTHOREF
  2

  9
$PUCSORTHOVIEW
 70
     0
  9
$PUCSORGTOP
 10
0.0
 20
0.0
 30
0.0
  9
$PUCSORGBOTTOM
 10
0.0
 20
0.0
 30
0.0
  9
$PUCSORGLEFT
 10
0.0
 20
0.0
 30
0.0
  9
$PUCSORGRIGHT
 10
0.0
 20
0.0
 30
0.0
  9
$PUCSORGFRONT
 10
0.0
 20
0.0
 30
0.0
  9
$PUCSORGBACK
 10
0.0
 20
0.0
 30
0.0
  9
$USERI1
 70
     0
  9
$USERI2
 70
     0
  9
$USERI3
 70
     0
  9
$USERI4
 70
     0
  9
$USERI5
 70
     0
  9
$USERR1
 40
0.0
  9
$USERR2
 40
0.0
  9
$USERR3
 40
0.0
  9
$USERR4
 40
0.0
  9
$USERR5
 40
0.0
  9
$WORLDVIEW
 70
     1
  9
$SHADEDGE
 70
     3
  9
$SHADEDIF
 70
    70
  9
$TILEMODE
 70
     1
  9
$MAXACTVP
 70
    64
  9
$PINSBASE
 10
0.0
 20
0.0
 30
0.0
  9
$PLIMCHECK
 70
     0
  9
$PEXTMIN
 10
-6.7757154323
 20
3.3404698063
 30
0.0
  9
$PEXTMAX
 10
1.6888514968
 20
7.2774776803
 30
0.0
  9
$PLIMMIN
 10
-6.9772530651
 20
3.1389324909
  9
$PLIMMAX
 10
1.8903888122
 20
9.9912012142
  9
$UNITMODE
 70
     0
  9
$VISRETAIN
 70
     1
  9
$PLINEGEN
 70
     0
  9
$PSLTSCALE
 70
     1
  9
$TREEDEPTH
 70
  3020
  9
$CMLSTYLE
  2
Standard
  9
$CMLJUST
 70
     0
  9
$CMLSCALE
 40
1.0
  9
$PROXYGRAPHICS
 70
     1
  9
$MEASUREMENT
 70
     0
  9
$CELWEIGHT
370
    -1
  9
$ENDCAPS
280
     0
  9
$JOINSTYLE
280
     0
  9
$LWDISPLAY
290
     1
  9
$INSUNITS
 70
     1
  9
$HYPERLINKBASE
  1

  9
$STYLESHEET
  1

  9
$XEDIT
290
     1
  9
$CEPSNTYPE
380
     0
  9
$PSTYLEMODE
290
     1
  9
$FINGERPRINTGUID
  2
{46307d7d-a9ff-4be5-a2c7-c83378d9b7ef}
  9
$VERSIONGUID
  2
{FAEB1C32-E019-11D5-929B-00C0DF256EC4}
  9
$EXTNAMES
290
     1
  9
$PSVPSCALE
 40
0.0
  9
$OLESTARTUP
290
     0
  0
ENDSEC
  0
SECTION
  2
CLASSES
  0
CLASS
  1
ACDBDICTIONARYWDFLT
  2
AcDbDictionaryWithDefault
  3
ObjectDBX Classes
 90
        0
280
     0
281
     0
  0
CLASS
  1
VISUALSTYLE
  2
AcDbVisualStyle
  3
ObjectDBX Classes
 90
     4095
280
     0
281
     0
  0
CLASS
  1
MATERIAL
  2
AcDbMaterial
  3
ObjectDBX Classes
 90
     1153
280
     0
281
     0
  0
CLASS
  1
SCALE
  2
AcDbScale
  3
ObjectDBX Classes
 90
     1153
280
     0
281
     0
  0
CLASS
  1
TABLESTYLE
  2
AcDbTableStyle
  3
ObjectDBX Classes
 90
     4095
280
     0
281
     0
  0
CLASS
  1
MLEADERSTYLE
  2
AcDbMLeaderStyle
  3
ACDB_MLEADERSTYLE_CLASS
 90
     4095
280
     0
281
     0
  0
CLASS
  1
SUN
  2
AcDbSun
  3
SCENEOE
 90
     1153
280
     0
281
     0
  0
CLASS
  1
ACDBPLACEHOLDER
  2
AcDbPlaceHolder
  3
ObjectDBX Classes
 90
        0
280
     0
281
     0
  0
CLASS
  1
LAYOUT
  2
AcDbLayout
  3
ObjectDBX Classes
 90
        0
280
     0
281
     0
  0
ENDSEC
  0
SECTION
  2
TABLES
  0
TABLE
  2
VPORT
  5
8
330
0
100
AcDbSymbolTable
 70
     1
  0
VPORT
  5
29
330
8
100
AcDbSymbolTableRecord
100
AcDbViewportTableRecord
  2
*Active
 70
     0
 10
0.0
 20
0.0
 11
1.0
 21
1.0
 12
2.5434319678
 22
5.3089737433
 13
0.0
 23
0.0
 14
0.5
 24
0.5
 15
0.5
 25
0.5
 16
0.0
 26
0.0
 36
1.0
 17
0.0
 27
0.0
 37
0.0
 40
4.0157480315
 41
2.15
 42
50.0
 43
0.0
 44
0.0
 50
0.0
 51
0.0
 71
     0
 72
   100
 73
     1
 74
     3
 75
     0
 76
     0
 77
     0
 78
     0
281
     0
 65
     1
110
0.0
120
0.0
130
0.0
111
1.0
121
0.0
131
0.0
112
0.0
122
1.0
132
0.0
 79
     0
146
0.0
  0
ENDTAB
  0
TABLE
  2
LTYPE
  5
5
330
0
100
AcDbSymbolTable
 70
     6
  0
LTYPE
  5
14
330
5
100
AcDbSymbolTableRecord
100
AcDbLinetypeTableRecord
  2
ByBlock
 70
     0
  3

 72
    65
 73
     0
 40
0.0
  0
LTYPE
  5
15
330
5
100
AcDbSymbolTableRecord
100
AcDbLinetypeTableRecord
  2
ByLayer
 70
     0
  3

 72
    65
 73
     0
 40
0.0
  0
LTYPE
  5
16
330
5
100
AcDbSymbolTableRecord
100
AcDbLinetypeTableRecord
  2
Continuous
 70
     0
  3
Solid line
 72
    65
 73
     0
 40
0.0
  0
LTYPE
  5
6E
330
5
100
AcDbSymbolTableRecord
100
AcDbLinetypeTableRecord
  2
HIDDEN
 70
     0
  3
Hidden __ __ __ __ __ __ __ __ __ __ __ __ __ __
 72
    65
 73
     2
 40
0.075
 49
0.05
 74
     0
 49
-0.025
 74
     0
  0
LTYPE
  5
6F
330
5
100
AcDbSymbolTableRecord
100
AcDbLinetypeTableRecord
  2
PHANTOM
 70
     0
  3
Phantom ______  __  __  ______  __  __  ______
 72
    65
 73
     6
 40
0.5
 49
0.25
 74
     0
 49
-0.05
 74
     0
 49
0.05
 74
     0
 49
-0.05
 74
     0
 49
0.05
 74
     0
 49
-0.05
 74
     0
  0
LTYPE
  5
70
330
5
100
AcDbSymbolTableRecord
100
AcDbLinetypeTableRecord
  2
CENTER
 70
     0
  3
Center ____ _ ____ _ ____ _ ____ _ ____ _ ____
 72
    65
 73
     4
 40
0.4
 49
0.25
 74
     0
 49
-0.05
 74
     0
 49
0.05
 74
     0
 49
-0.05
 74
     0
  0
LTYPE
  5
71
330
5
100
AcDbSymbolTableRecord
100
AcDbLinetypeTableRecord
  2
CENTERX2
 70
     0
  3
Center (2x) ________  __  ________  __  _____
 72
    65
 73
     4
 40
0.8
 49
0.5
 74
     0
 49
-0.1
 74
     0
 49
0.1
 74
     0
 49
-0.1
 74
     0
  0
LTYPE
  5
72
330
5
100
AcDbSymbolTableRecord
100
AcDbLinetypeTableRecord
  2
DOT2
 70
     0
  3
Dot (.5x) ........................................
 72
    65
 73
     2
 40
0.025
 49
0.0
 74
     0
 49
-0.025
 74
     0
  0
ENDTAB
  0
TABLE
  2
LAYER
  5
2
330
0
100
AcDbSymbolTable
 70
     1
  0
LAYER
  5
10
330
2
100
AcDbSymbolTableRecord
100
AcDbLayerTableRecord
  2
0
 70
     0
 62
     7
  6
Continuous
370
    -3
390
F
  0
ENDTAB
  0
TABLE
  2
STYLE
  5
3
330
0
100
AcDbSymbolTable
 70
     1
  0
STYLE
  5
11
330
3
100
AcDbSymbolTableRecord
100
AcDbTextStyleTableRecord
  2
Standard
 70
     0
 40
0.0
 41
1.0
 50
0.0
 71
     0
 42
0.1377952756
  3
txt
  4

  0
ENDTAB
  0
TABLE
  2
VIEW
  5
6
330
0
100
AcDbSymbolTable
 70
     0
  0
ENDTAB
  0
TABLE
  2
UCS
  5
7
330
0
100
AcDbSymbolTable
 70
     0
  0
ENDTAB
  0
TABLE
  2
APPID
  5
9
330
0
100
AcDbSymbolTable
 70
     1
  0
APPID
  5
12
330
9
100
AcDbSymbolTableRecord
100
AcDbRegAppTableRecord
  2
ACAD
 70
     0
  0
ENDTAB
  0
TABLE
  2
DIMSTYLE
  5
A
330
0
100
AcDbSymbolTable
 70
     1
100
AcDbDimStyleTable
  0
DIMSTYLE
105
27
330
A
100
AcDbSymbolTableRecord
100
AcDbDimStyleTableRecord
  2
Standard
 70
     0
178
     0
340
11
  0
ENDTAB
  0
TABLE
  2
BLOCK_RECORD
  5
1
330
0
100
AcDbSymbolTable
 70
     5
  0
BLOCK_RECORD
  5
1F
330
1
100
AcDbSymbolTableRecord
100
AcDbBlockTableRecord
  2
*Model_Space
340
22
  0
BLOCK_RECORD
  5
1B
330
1
100
AcDbSymbolTableRecord
100
AcDbBlockTableRecord
  2
*Paper_Space
340
1E
  0
BLOCK_RECORD
  5
23
330
1
100
AcDbSymbolTableRecord
100
AcDbBlockTableRecord
  2
*Paper_Space0
340
26
  0
BLOCK_RECORD
  5
140
330
1
100
AcDbSymbolTableRecord
100
AcDbBlockTableRecord
  2
*Paper_Space1
340
141
  0
BLOCK_RECORD
  5
191
330
1
100
AcDbSymbolTableRecord
100
AcDbBlockTableRecord
  2
*Paper_Space2
340
192
  0
BLOCK_RECORD
  5
1CB
330
1
100
AcDbSymbolTableRecord
100
AcDbBlockTableRecord
  2
*Paper_Space3
340
1CC
  0
BLOCK_RECORD
  5
203
330
1
100
AcDbSymbolTableRecord
100
AcDbBlockTableRecord
  2
*Paper_Space4
340
204
  0
ENDTAB
  0
ENDSEC
  0
SECTION
  2
BLOCKS
  0
BLOCK
  5
20
330
1F
100
AcDbEntity
  8
0
100
AcDbBlockBegin
  2
*Model_Space
 70
     0
 10
0.0
 20
0.0
 30
0.0
  3
*Model_Space
  1

  0
ENDBLK
  5
21
330
1F
100
AcDbEntity
  8
0
100
AcDbBlockEnd
  0
BLOCK
  5
1C
330
1B
100
AcDbEntity
 67
     1
  8
0
100
AcDbBlockBegin
  2
*Paper_Space
 70
     0
 10
0.0
 20
0.0
 30
0.0
  3
*Paper_Space
  1

  0
ENDBLK
  5
1D
330
1B
100
AcDbEntity
 67
     1
  8
0
100
AcDbBlockEnd
  0
BLOCK
  5
24
330
23
100
AcDbEntity
  8
0
100
AcDbBlockBegin
  2
*Paper_Space0
 70
     0
 10
0.0
 20
0.0
 30
0.0
  3
*Paper_Space0
  1

  0
SPLINE
  5
11A
330
23
100
AcDbEntity
  8
0
  6
Continuous
 62
     7
370
    25
100
AcDbSpline
210
0.0
220
0.0
230
1.0
 70
     8
 71
     3
 72
    10
 73
     6
 74
     0
 42
0.000000001
 43
0.00000001
 40
0.0
 40
0.0
 40
0.0
 40
0.0
 40
0.4266149572753364
 40
0.8533055715303571
 40
0.9999999999999999
 40
0.9999999999999999
 40
0.9999999999999999
 40
0.9999999999999999
 10
9.146621125159442
 20
6.130080113298482
 30
0.0
 10
9.137047741807054
 20
6.131311123647746
 30
0.0
 10
9.117899277334168
 20
6.133773362656777
 30
0.0
 10
9.105908415659053
 20
6.135839908247078
 30
0.0
 10
9.107712856343289
 20
6.135540203980868
 30
0.0
 10
9.108174503186437
 20
6.135463527850927
 30
0.0
  0
SPLINE
  5
11B
330
23
100
AcDbEntity
  8
0
  6
Continuous
 62
     7
370
    25
100
AcDbSpline
210
0.0
220
0.0
230
1.0
 70
     8
 71
     3
 72
    15
 73
    11
 74
     0
 42
0.000000001
 43
0.00000001
 40
0.0
 40
0.0
 40
0.0
 40
0.0
 40
0.0430166330707144
 40
0.1858930057063419
 40
0.3292251091584327
 40
0.4736395811908808
 40
0.6173734480184269
 40
0.7587292103976081
 40
0.8989794196191515
 40
1.0
 40
1.0
 40
1.0
 40
1.0
 10
9.374605554194586
 20
6.135483129888294
 30
0.0
 10
9.375069414416576
 20
6.135558863332112
 30
0.0
 10
9.377073949981956
 20
6.135886139469248
 30
0.0
 10
9.3652179564928
 20
6.133926328610757
 30
0.0
 10
9.340013732195478
 20
6.130355350073883
 30
0.0
 10
9.302480382241036
 20
6.126488442943198
 30
0.0
 10
9.258272414593401
 20
6.124275954898263
 30
0.0
 10
9.212648258083984
 20
6.124633703019536
 30
0.0
 10
9.174016078222156
 20
6.127089070894669
 30
0.0
 10
9.154706207929822
 20
6.129197365832217
 30
0.0
 10
9.146621125159442
 20
6.130080113298482
 30
0.0
  0
LINE
  5
121
330
23
100
AcDbEntity
  8
0
  6
Continuous
 62
     7
370
    25
100
AcDbLine
 10
9.0188903776
 20
6.1357453968
 30
0.0
 11
9.0188903776
 21
6.2420312103
 31
0.0
  0
LINE
  5
122
330
23
100
AcDbEntity
  8
0
  6
Continuous
 62
     7
370
    25
100
AcDbLine
 10
8.7157407713
 20
6.2420312103
 30
0.0
 11
8.7157407713
 21
6.1357453968
 31
0.0
  0
LINE
  5
123
330
23
100
AcDbEntity
  8
0
  6
Continuous
 62
     7
370
    25
100
AcDbLine
 10
9.106452349
 20
4.4822020897
 30
0.0
 11
9.1429061257
 21
3.9900761055
 31
0.0
  0
LINE
  5
124
330
23
100
AcDbEntity
  8
0
  6
Continuous
 62
     7
370
    25
100
AcDbLine
 10
9.3397565194
 20
3.9900761055
 30
0.0
 11
9.376210296
 21
4.4822020897
 31
0.0
  0
LINE
  5
125
330
23
100
AcDbEntity
  8
0
  6
Continuous
 62
     7
370
    25
100
AcDbLine
 10
8.0011738422
 20
4.4822020897
 30
0.0
 11
9.6350321099
 21
4.4822020897
 31
0.0
  0
LINE
  5
126
330
23
100
AcDbEntity
  8
0
  6
Continuous
 62
     7
370
    25
100
AcDbLine
 10
9.1081745032
 20
6.1357453968
 30
0.0
 11
8.0011738422
 21
6.1357453968
 31
0.0
  0
LINE
  5
127
330
23
100
AcDbEntity
  8
0
  6
Continuous
 62
     7
370
    25
100
AcDbLine
 10
9.6350321099
 20
6.1357453968
 30
0.0
 11
9.3746055542
 21
6.1357453968
 31
0.0
  0
LINE
  5
128
330
23
100
AcDbEntity
  8
0
  6
Continuous
 62
     7
370
    25
100
AcDbLine
 10
9.3762208122
 20
6.1356034282
 30
0.0
 11
9.3397565194
 21
6.6278713811
 31
0.0
  0
LINE
  5
129
330
23
100
AcDbEntity
  8
0
  6
Continuous
 62
     7
370
    25
100
AcDbLine
 10
9.1429061257
 20
6.6278713811
 30
0.0
 11
9.1064410118
 21
6.1355923434
 31
0.0
  0
LINE
  5
12A
330
23
100
AcDbEntity
  8
0
  6
Continuous
 62
     7
370
    25
100
AcDbLine
 10
7.8436935272
 20
7.2774776803
 30
0.0
 11
7.8436935272
 21
3.3404698063
 31
0.0
  0
LINE
  5
12B
330
23
100
AcDbEntity
  8
0
  6
Continuous
 62
     7
370
    25
100
AcDbLine
 10
8.0011738422
 20
6.6869264992
 30
0.0
 11
7.8436935272
 21
6.6869264992
 31
0.0
  0
LINE
  5
12C
330
23
100
AcDbEntity
  8
0
  6
Continuous
 62
     7
370
    25
100
AcDbLine
 10
7.9814888028
 20
3.3404698063
 30
0.0
 11
7.9814888028
 21
7.2774776803
 31
0.0
  0
LINE
  5
12D
330
23
100
AcDbEntity
  8
0
  6
Continuous
 62
     7
370
    25
100
AcDbLine
 10
8.0011738422
 20
3.9310209874
 30
0.0
 11
7.8436935272
 21
3.9310209874
 31
0.0
  0
LINE
  5
12E
330
23
100
AcDbEntity
  8
0
  6
Continuous
 62
     7
370
    25
100
AcDbLine
 10
8.0011738422
 20
7.2577926409
 30
0.0
 11
8.0011738422
 21
3.3601548456
 31
0.0
  0
LINE
  5
12F
330
23
100
AcDbEntity
  8
0
  6
Continuous
 62
     7
370
    25
100
AcDbLine
 10
7.9814888028
 20
7.2774776803
 30
0.0
 11
7.8436935272
 21
7.2774776803
 31
0.0
  0
LINE
  5
130
330
23
100
AcDbEntity
  8
0
  6
Continuous
 62
     7
370
    25
100
AcDbLine
 10
7.9814888028
 20
3.3404698063
 30
0.0
 11
7.8436935272
 21
3.3404698063
 31
0.0
  0
LINE
  5
131
330
23
100
AcDbEntity
  8
0
  6
Continuous
 62
     7
370
    25
100
AcDbLine
 10
9.3397565194
 20
3.9900761055
 30
0.0
 11
9.1429061257
 21
3.9900761055
 31
0.0
  0
LINE
  5
132
330
23
100
AcDbEntity
  8
0
  6
Continuous
 62
     7
370
    25
100
AcDbLine
 10
9.6744021887
 20
6.0963753181
 30
0.0
 11
9.6744021887
 21
4.5215721685
 31
0.0
  0
LINE
  5
133
330
23
100
AcDbEntity
  8
0
  6
Continuous
 62
     7
370
    25
100
AcDbLine
 10
9.1429061257
 20
6.6278713811
 30
0.0
 11
9.3397565194
 21
6.6278713811
 31
0.0
  0
LINE
  5
134
330
23
100
AcDbEntity
  8
0
  6
Continuous
 62
     8
370
    25
100
AcDbLine
 10
9.0188903776
 20
6.2420312103
 30
0.0
 11
8.7157407713
 21
6.2420312103
 31
0.0
  0
LINE
  5
135
330
23
100
AcDbEntity
  8
0
  6
Continuous
 62
     8
370
    25
100
AcDbLine
 10
8.7265278675
 20
6.2595904637
 30
0.0
 11
9.0081032815
 21
6.2595904637
 31
0.0
  0
LINE
  5
136
330
23
100
AcDbEntity
  8
0
  6
Continuous
 62
     8
370
    25
100
AcDbLine
 10
9.6350321099
 20
4.4822020897
 30
0.0
 11
9.6350321099
 21
6.1357453968
 31
0.0
  0
ARC
  5
137
330
23
100
AcDbEntity
  8
0
  6
Continuous
 62
     7
370
    25
100
AcDbCircle
 10
8.9992053383
 20
6.2420312103
 30
0.0
 40
0.0196850393700779
100
AcDbArc
 50
0.0
 51
63.1269288601
  0
ARC
  5
138
330
23
100
AcDbEntity
  8
0
  6
Continuous
 62
     7
370
    25
100
AcDbCircle
 10
8.7354258107
 20
6.2420312103
 30
0.0
 40
0.0196850393700779
100
AcDbArc
 50
116.8730711399
 51
180.0
  0
ARC
  5
139
330
23
100
AcDbEntity
  8
0
  6
Continuous
 62
     7
370
    25
100
AcDbCircle
 10
8.8673155745
 20
5.9817591763
 30
0.0
 40
0.311466535433061
100
AcDbArc
 50
63.12692886
 51
116.87307114
  0
ARC
  5
13A
330
23
100
AcDbEntity
  8
0
  6
Continuous
 62
     7
370
    25
100
AcDbCircle
 10
9.2413313225
 20
3.9900761055
 30
0.0
 40
0.0984251968503944
100
AcDbArc
 50
180.0
 51
0.0
  0
ARC
  5
13B
330
23
100
AcDbEntity
  8
0
  6
Continuous
 62
     7
370
    25
100
AcDbCircle
 10
9.6350321099
 20
6.0963753181
 30
0.0
 40
0.0393700787401574
100
AcDbArc
 50
0.0
 51
90.0
  0
ARC
  5
13C
330
23
100
AcDbEntity
  8
0
  6
Continuous
 62
     7
370
    25
100
AcDbCircle
 10
9.6350321099
 20
4.5215721685
 30
0.0
 40
0.0393700787401556
100
AcDbArc
 50
270.0
 51
0.0
  0
ARC
  5
13D
330
23
100
AcDbEntity
  8
0
  6
Continuous
 62
     7
370
    25
100
AcDbCircle
 10
9.2413313225
 20
6.6278713811
 30
0.0
 40
0.0984251968503944
100
AcDbArc
 50
0.0
 51
180.0
  0
ARC
  5
13E
330
23
100
AcDbEntity
  8
0
  6
Continuous
 62
     7
370
    25
100
AcDbCircle
 10
7.9814888028
 20
7.2577926409
 30
0.0
 40
0.0196850393700796
100
AcDbArc
 50
0.0
 51
90.0
  0
ARC
  5
13F
330
23
100
AcDbEntity
  8
0
  6
Continuous
 62
     7
370
    25
100
AcDbCircle
 10
7.9814888028
 20
3.3601548456
 30
0.0
 40
0.0196850393700787
100
AcDbArc
 50
270.0
 51
0.0
  0
VIEWPORT
  5
2A3
330
23
100
AcDbEntity
  8
0
100
AcDbViewport
 10
0.0
 20
0.0
 30
0.0
 40
8.4
 41
6.4
 68
     1
 69
     1
 12
2.5434319678
 22
5.3089737433
 13
0.0
 23
0.0
 14
0.5
 24
0.5
 15
0.5
 25
0.5
 16
0.0
 26
0.0
 36
1.0
 17
0.0
 27
0.0
 37
0.0
 42
50.0
 43
0.0
 44
0.0
 45
6.5781777278
 50
0.0
 51
0.0
 72
   100
 90
   557152
  1

281
     0
 71
     1
 74
     0
110
0.0
120
0.0
130
0.0
111
1.0
121
0.0
131
0.0
112
0.0
122
1.0
132
0.0
 79
     0
146
0.0
  0
ENDBLK
  5
25
330
23
100
AcDbEntity
  8
0
100
AcDbBlockEnd
  0
BLOCK
  5
142
330
140
100
AcDbEntity
  8
0
100
AcDbBlockBegin
  2
*Paper_Space1
 70
     0
 10
0.0
 20
0.0
 30
0.0
  3
*Paper_Space1
  1

  0
SPLINE
  5
166
330
140
100
AcDbEntity
  8
0
  6
Continuous
 62
     7
370
    25
100
AcDbSpline
210
0.0
220
0.0
230
1.0
 70
     8
 71
     3
 72
    10
 73
     6
 74
     0
 42
0.000000001
 43
0.00000001
 40
0.0
 40
0.0
 40
0.0
 40
0.0
 40
0.4266149572753449
 40
0.8533055715303792
 40
1.0
 40
1.0
 40
1.0
 40
1.0
 10
-9.146621125159516
 20
4.487867373238779
 30
0.0
 10
-9.137047741807129
 20
4.486636362889515
 30
0.0
 10
-9.117899277334239
 20
4.484174123880487
 30
0.0
 10
-9.105908415659131
 20
4.482107578290185
 30
0.0
 10
-9.107712856343365
 20
4.482407282556395
 30
0.0
 10
-9.10817450318651
 20
4.482483958686335
 30
0.0
  0
SPLINE
  5
167
330
140
100
AcDbEntity
  8
0
  6
Continuous
 62
     7
370
    25
100
AcDbSpline
210
0.0
220
0.0
230
1.0
 70
     8
 71
     3
 72
    15
 73
    11
 74
     0
 42
0.000000001
 43
0.00000001
 40
0.0
 40
0.0
 40
0.0
 40
0.0
 40
0.0430166330707039
 40
0.1858930057063393
 40
0.3292251091584227
 40
0.473639581190884
 40
0.6173734480184211
 40
0.7587292103976072
 40
0.8989794196191621
 40
1.0
 40
1.0
 40
1.0
 40
1.0
 10
-9.374605554194659
 20
4.482464356648968
 30
0.0
 10
-9.37506941441665
 20
4.482388623205149
 30
0.0
 10
-9.37707394998204
 20
4.482061347068013
 30
0.0
 10
-9.365217956492868
 20
4.484021157926504
 30
0.0
 10
-9.340013732195557
 20
4.487592136463376
 30
0.0
 10
-9.302480382241107
 20
4.491459043594064
 30
0.0
 10
-9.25827241459348
 20
4.493671531638999
 30
0.0
 10
-9.212648258084057
 20
4.493313783517729
 30
0.0
 10
-9.174016078222229
 20
4.490858415642592
 30
0.0
 10
-9.154706207929896
 20
4.488750120705044
 30
0.0
 10
-9.146621125159516
 20
4.487867373238779
 30
0.0
  0
LINE
  5
170
330
140
100
AcDbEntity
  8
0
  6
Continuous
 62
     7
370
    25
100
AcDbLine
 10
-9.0188903776
 20
6.1357453968
 30
0.0
 11
-9.6350321099
 21
6.1357453968
 31
0.0
  0
LINE
  5
171
330
140
100
AcDbEntity
  8
0
  6
Continuous
 62
     7
370
    25
100
AcDbLine
 10
-8.0011738422
 20
6.1357453968
 30
0.0
 11
-8.7177001609
 21
6.1357453968
 31
0.0
  0
LINE
  5
172
330
140
100
AcDbEntity
  8
0
  6
Continuous
 62
     7
370
    25
100
AcDbLine
 10
-9.1081745032
 20
4.4822020897
 30
0.0
 11
-8.0011738422
 21
4.4822020897
 31
0.0
  0
LINE
  5
173
330
140
100
AcDbEntity
  8
0
  6
Continuous
 62
     7
370
    25
100
AcDbLine
 10
-9.6350321099
 20
4.4822020897
 30
0.0
 11
-9.3746055542
 21
4.4822020897
 31
0.0
  0
LINE
  5
174
330
140
100
AcDbEntity
  8
0
  6
Continuous
 62
     7
370
    25
100
AcDbLine
 10
-8.7157407713
 20
6.1353898507
 30
0.0
 11
-8.7157407713
 21
6.2420312103
 31
0.0
  0
LINE
  5
175
330
140
100
AcDbEntity
  8
0
  6
Continuous
 62
     7
370
    25
100
AcDbLine
 10
-9.0188903776
 20
6.2420312103
 30
0.0
 11
-9.0188903776
 21
6.1357453968
 31
0.0
  0
LINE
  5
176
330
140
100
AcDbEntity
  8
0
  6
Continuous
 62
     7
370
    25
100
AcDbLine
 10
-9.3762208122
 20
4.4823440584
 30
0.0
 11
-9.3397565194
 21
3.9900761055
 31
0.0
  0
LINE
  5
177
330
140
100
AcDbEntity
  8
0
  6
Continuous
 62
     7
370
    25
100
AcDbLine
 10
-9.1429061257
 20
3.9900761055
 30
0.0
 11
-9.1064410118
 21
4.4823551431
 31
0.0
  0
LINE
  5
178
330
140
100
AcDbEntity
  8
0
  6
Continuous
 62
     7
370
    25
100
AcDbLine
 10
-9.106452349
 20
6.1357453968
 30
0.0
 11
-9.1429061257
 21
6.6278713811
 31
0.0
  0
LINE
  5
179
330
140
100
AcDbEntity
  8
0
  6
Continuous
 62
     7
370
    25
100
AcDbLine
 10
-9.3397565194
 20
6.6278713811
 30
0.0
 11
-9.376210296
 21
6.1357453968
 31
0.0
  0
LINE
  5
17A
330
140
100
AcDbEntity
  8
0
  6
Continuous
 62
     7
370
    25
100
AcDbLine
 10
-7.8436935272
 20
3.3404698063
 30
0.0
 11
-7.8436935272
 21
7.2774776803
 31
0.0
  0
LINE
  5
17B
330
140
100
AcDbEntity
  8
0
  6
Continuous
 62
     7
370
    25
100
AcDbLine
 10
-8.0011738422
 20
3.9310209874
 30
0.0
 11
-7.8436935272
 21
3.9310209874
 31
0.0
  0
LINE
  5
17C
330
140
100
AcDbEntity
  8
0
  6
Continuous
 62
     7
370
    25
100
AcDbLine
 10
-7.9814888028
 20
7.2774776803
 30
0.0
 11
-7.9814888028
 21
3.3404698063
 31
0.0
  0
LINE
  5
17D
330
140
100
AcDbEntity
  8
0
  6
Continuous
 62
     7
370
    25
100
AcDbLine
 10
-8.0011738422
 20
6.6869264992
 30
0.0
 11
-7.8436935272
 21
6.6869264992
 31
0.0
  0
LINE
  5
17E
330
140
100
AcDbEntity
  8
0
  6
Continuous
 62
     7
370
    25
100
AcDbLine
 10
-7.9814888028
 20
3.3404698063
 30
0.0
 11
-7.8436935272
 21
3.3404698063
 31
0.0
  0
LINE
  5
17F
330
140
100
AcDbEntity
  8
0
  6
Continuous
 62
     7
370
    25
100
AcDbLine
 10
-8.0011738422
 20
3.3601548456
 30
0.0
 11
-8.0011738422
 21
7.2577926409
 31
0.0
  0
LINE
  5
180
330
140
100
AcDbEntity
  8
0
  6
Continuous
 62
     7
370
    25
100
AcDbLine
 10
-7.9814888028
 20
7.2774776803
 30
0.0
 11
-7.8436935272
 21
7.2774776803
 31
0.0
  0
LINE
  5
181
330
140
100
AcDbEntity
  8
0
  6
Continuous
 62
     7
370
    25
100
AcDbLine
 10
-9.6744021887
 20
4.5215721685
 30
0.0
 11
-9.6744021887
 21
6.0963753181
 31
0.0
  0
LINE
  5
182
330
140
100
AcDbEntity
  8
0
  6
Continuous
 62
     7
370
    25
100
AcDbLine
 10
-9.1429061257
 20
3.9900761055
 30
0.0
 11
-9.3397565194
 21
3.9900761055
 31
0.0
  0
LINE
  5
183
330
140
100
AcDbEntity
  8
0
  6
Continuous
 62
     7
370
    25
100
AcDbLine
 10
-9.3397565194
 20
6.6278713811
 30
0.0
 11
-9.1429061257
 21
6.6278713811
 31
0.0
  0
LINE
  5
184
330
140
100
AcDbEntity
  8
0
  6
Continuous
 62
     8
370
    25
100
AcDbLine
 10
-9.6350321099
 20
6.1357453968
 30
0.0
 11
-9.6350321099
 21
4.4822020897
 31
0.0
  0
LINE
  5
185
330
140
100
AcDbEntity
  8
0
  6
Continuous
 62
     8
370
    25
100
AcDbLine
 10
-8.7157407713
 20
6.2420312103
 30
0.0
 11
-9.0188903776
 21
6.2420312103
 31
0.0
  0
LINE
  5
186
330
140
100
AcDbEntity
  8
0
  6
Continuous
 62
     8
370
    25
100
AcDbLine
 10
-9.0081032815
 20
6.2595904637
 30
0.0
 11
-8.7265278675
 21
6.2595904637
 31
0.0
  0
ARC
  5
187
330
140
100
AcDbEntity
  8
0
  6
Continuous
 62
     7
370
    25
100
AcDbCircle
 10
-9.6350321099
 20
4.5215721685
 30
0.0
 40
0.0393700787401592
100
AcDbArc
 50
180.0
 51
270.0
  0
ARC
  5
188
330
140
100
AcDbEntity
  8
0
  6
Continuous
 62
     7
370
    25
100
AcDbCircle
 10
-9.6350321099
 20
6.0963753181
 30
0.0
 40
0.0393700787401601
100
AcDbArc
 50
90.0
 51
180.0
  0
ARC
  5
189
330
140
100
AcDbEntity
  8
0
  6
Continuous
 62
     7
370
    25
100
AcDbCircle
 10
-8.7354258107
 20
6.2420312103
 30
0.0
 40
0.0196850393700814
100
AcDbArc
 50
0.0
 51
63.12692886
  0
ARC
  5
18A
330
140
100
AcDbEntity
  8
0
  6
Continuous
 62
     7
370
    25
100
AcDbCircle
 10
-8.9992053383
 20
6.2420312103
 30
0.0
 40
0.0196850393700778
100
AcDbArc
 50
116.8730711399
 51
180.0
  0
ARC
  5
18B
330
140
100
AcDbEntity
  8
0
  6
Continuous
 62
     7
370
    25
100
AcDbCircle
 10
-8.8673155745
 20
5.9817591763
 30
0.0
 40
0.3114665354330753
100
AcDbArc
 50
63.1269288601
 51
116.87307114
  0
ARC
  5
18C
330
140
100
AcDbEntity
  8
0
  6
Continuous
 62
     7
370
    25
100
AcDbCircle
 10
-9.2413313225
 20
3.9900761055
 30
0.0
 40
0.0984251968503944
100
AcDbArc
 50
180.0
 51
0.0
  0
ARC
  5
18D
330
140
100
AcDbEntity
  8
0
  6
Continuous
 62
     7
370
    25
100
AcDbCircle
 10
-9.2413313225
 20
6.6278713811
 30
0.0
 40
0.0984251968503944
100
AcDbArc
 50
0.0
 51
180.0
  0
ARC
  5
18E
330
140
100
AcDbEntity
  8
0
  6
Continuous
 62
     7
370
    25
100
AcDbCircle
 10
-7.9814888028
 20
3.3601548456
 30
0.0
 40
0.0196850393700778
100
AcDbArc
 50
180.0
 51
270.0
  0
ARC
  5
18F
330
140
100
AcDbEntity
  8
0
  6
Continuous
 62
     7
370
    25
100
AcDbCircle
 10
-7.9814888028
 20
7.2577926409
 30
0.0
 40
0.0196850393700796
100
AcDbArc
 50
90.0
 51
180.0
  0
ARC
  5
190
330
140
100
AcDbEntity
  8
0
  6
Continuous
 62
     7
370
    25
100
AcDbCircle
 10
-8.8673258949
 20
6.9551021691
 30
0.0
 40
0.8332570508084739
100
AcDbArc
 50
259.5198988497
 51
280.3445583362
  0
VIEWPORT
  5
2A5
330
140
100
AcDbEntity
  8
0
100
AcDbViewport
 10
0.0
 20
0.0
 30
0.0
 40
8.4
 41
6.4
 68
     1
 69
     1
 12
2.5434319678
 22
5.3089737433
 13
0.0
 23
0.0
 14
0.5
 24
0.5
 15
0.5
 25
0.5
 16
0.0
 26
0.0
 36
1.0
 17
0.0
 27
0.0
 37
0.0
 42
50.0
 43
0.0
 44
0.0
 45
6.5781777278
 50
0.0
 51
0.0
 72
   100
 90
   557152
  1

281
     0
 71
     1
 74
     0
110
0.0
120
0.0
130
0.0
111
1.0
121
0.0
131
0.0
112
0.0
122
1.0
132
0.0
 79
     0
146
0.0
  0
ENDBLK
  5
143
330
140
100
AcDbEntity
  8
0
100
AcDbBlockEnd
  0
BLOCK
  5
193
330
191
100
AcDbEntity
  8
0
100
AcDbBlockBegin
  2
*Paper_Space2
 70
     0
 10
0.0
 20
0.0
 30
0.0
  3
*Paper_Space2
  1

  0
CIRCLE
  5
1AE
330
191
100
AcDbEntity
  8
0
  6
Continuous
 62
     7
370
    25
100
AcDbCircle
 10
4.1182351174
 20
-8.8673155745
 30
0.0
 40
0.1407877070265862
  0
CIRCLE
  5
1AF
330
191
100
AcDbEntity
  8
0
  6
Continuous
 62
     7
370
    25
100
AcDbCircle
 10
4.1182351174
 20
-8.8673155745
 30
0.0
 40
0.1515748031496056
  0
CIRCLE
  5
1B1
330
191
100
AcDbEntity
  8
0
  6
Continuous
 62
     7
370
    25
100
AcDbCircle
 10
0.9686288182
 20
-9.2413313225
 30
0.0
 40
0.0984251968503935
  0
SPLINE
  5
1B2
330
191
100
AcDbEntity
  8
0
  6
Continuous
 62
     7
370
    25
100
AcDbSpline
210
0.0
220
0.0
230
1.0
 70
    11
 71
     3
 72
    70
 73
    66
 74
     0
 42
0.000000001
 43
0.00000001
 40
0.0
 40
0.0
 40
0.0
 40
0.0
 40
0.03125
 40
0.03125
 40
0.0625
 40
0.0625
 40
0.09375
 40
0.09375
 40
0.125
 40
0.125
 40
0.15625
 40
0.15625
 40
0.1875
 40
0.1875
 40
0.21875
 40
0.21875
 40
0.25
 40
0.25
 40
0.28125
 40
0.28125
 40
0.3125
 40
0.3125
 40
0.34375
 40
0.34375
 40
0.375
 40
0.375
 40
0.40625
 40
0.40625
 40
0.4375
 40
0.4375
 40
0.46875
 40
0.46875
 40
0.5
 40
0.5
 40
0.53125
 40
0.53125
 40
0.5625
 40
0.5625
 40
0.59375
 40
0.59375
 40
0.625
 40
0.625
 40
0.65625
 40
0.65625
 40
0.6875
 40
0.6875
 40
0.71875
 40
0.71875
 40
0.75
 40
0.75
 40
0.78125
 40
0.78125
 40
0.8125
 40
0.8125
 40
0.84375
 40
0.84375
 40
0.875
 40
0.875
 40
0.90625
 40
0.90625
 40
0.9375
 40
0.9375
 40
0.96875
 40
0.96875
 40
1.0
 40
1.0
 40
1.0
 40
1.0
 10
0.8720074116325296
 20
-9.146621125159443
 30
0.0
 10
0.8782919892794242
 20
-9.140287982707779
 30
0.0
 10
0.8850924871248358
 20
-9.134675316120537
 30
0.0
 10
0.8996859429122159
 20
-9.124825336530067
 30
0.0
 10
0.9075705969379553
 20
-9.120553813562863
 30
0.0
 10
0.9239203563588823
 20
-9.113677466003127
 30
0.0
 10
0.932341108741597
 20
-9.111066784282341
 30
0.0
 10
0.9496720219447626
 20
-9.107485485073765
 30
0.0
 10
0.958645635104689
 20
-9.10653104768868
 30
0.0
 10
0.9763290072084208
 20
-9.106383194459884
 30
0.0
 10
0.9851251950784506
 20
-9.107160388833005
 30
0.0
 10
1.002624732960588
 20
-9.11045377444555
 30
0.0
 10
1.011205197389327
 20
-9.11296318090582
 30
0.0
 10
1.027566669179372
 20
-9.119521700730068
 30
0.0
 10
1.035472564157885
 20
-9.123616458451204
 30
0.0
 10
1.050384313874182
 20
-9.133313498940044
 30
0.0
 10
1.057259904698859
 20
-9.138816521017594
 30
0.0
 10
1.069884832491894
 20
-9.151102589997999
 30
0.0
 10
1.075682409992584
 20
-9.157971048625415
 30
0.0
 10
1.085690445641408
 20
-9.172531221111054
 30
0.0
 10
1.089943949252794
 20
-9.18023688725722
 30
0.0
 10
1.096935773134387
 20
-9.196513212855246
 30
0.0
 10
1.099648658952135
 20
-9.205091407226085
 30
0.0
 10
1.10328246146836
 20
-9.222362503234102
 30
0.0
 10
1.104250032138706
 20
-9.231148646720197
 30
0.0
 10
1.104415426822848
 20
-9.249035268331196
 30
0.0
 10
1.103606352818712
 20
-9.25787209219766
 30
0.0
 10
1.100287028611362
 20
-9.275209723155244
 30
0.0
 10
1.097735594935083
 20
-9.283823092734941
 30
0.0
 10
1.091030882250442
 20
-9.300247520487465
 30
0.0
 10
1.08691249838445
 20
-9.308035628353165
 30
0.0
 10
1.077162576216903
 20
-9.32277960001958
 30
0.0
 10
1.071488948848891
 20
-9.329749871267268
 30
0.0
 10
1.059083118539058
 20
-9.342260969868867
 30
0.0
 10
1.052304955793811
 20
-9.347886700296165
 30
0.0
 10
1.037562647545032
 20
-9.357849623683789
 30
0.0
 10
1.029738252180108
 20
-9.362079002666164
 30
0.0
 10
1.013502325060985
 20
-9.368923944843567
 30
0.0
 10
1.004972180665736
 20
-9.371584275411333
 30
0.0
 10
0.9875324605219484
 20
-9.375188228810698
 30
0.0
 10
0.9787519218450375
 20
-9.37612118244585
 30
0.0
 10
0.9610719732155449
 20
-9.376287350083164
 30
0.0
 10
0.9520834158910063
 20
-9.375492957208412
 30
0.0
 10
0.9346840866113972
 20
-9.372218575657037
 30
0.0
 10
0.926215021999993
 20
-9.36975657796437
 30
0.0
 10
0.9097402116213936
 20
-9.363168638862117
 30
0.0
 10
0.9017818882981277
 20
-9.359037809807958
 30
0.0
 10
0.8870126193744
 20
-9.349445978662304
 30
0.0
 10
0.8801036191411714
 20
-9.343945820162002
 30
0.0
 10
0.8673190323603447
 20
-9.33151106247128
 30
0.0
 10
0.861639630081275
 20
-9.324769906082368
 30
0.0
 10
0.8516530498269179
 20
-9.310271493966033
 30
0.0
 10
0.8473099006854694
 20
-9.302419364876775
 30
0.0
 10
0.840314199782075
 20
-9.28612916704146
 30
0.0
 10
0.8376510577506552
 20
-9.27772739695801
 30
0.0
 10
0.83398914286571
 20
-9.260409707438033
 30
0.0
 10
0.8330086719898682
 20
-9.251437083522035
 30
0.0
 10
0.8328416451630666
 20
-9.233758154911
 30
0.0
 10
0.8336245293023623
 20
-9.224959051258072
 30
0.0
 10
0.8369669578785432
 20
-9.207443490954493
 30
0.0
 10
0.8395073572717173
 20
-9.198894938188388
 30
0.0
 10
0.846157496823714
 20
-9.182565611702785
 30
0.0
 10
0.8503191029449575
 20
-9.174665383123314
 30
0.0
 10
0.860130361690198
 20
-9.159830666405425
 30
0.0
 10
0.8657228339856349
 20
-9.152954267611108
 30
0.0
 10
0.8720074116325296
 20
-9.146621125159443
 30
0.0
  0
LINE
  5
1B6
330
191
100
AcDbEntity
  8
0
  6
Continuous
 62
     7
370
    25
100
AcDbLine
 10
3.2914634638
 20
-8.0011738422
 30
0.0
 11
3.2914634638
 21
-9.6350321099
 31
0.0
  0
LINE
  5
1B7
330
191
100
AcDbEntity
  8
0
  6
Continuous
 62
     7
370
    25
100
AcDbLine
 10
4.9450067709
 20
-9.6350321099
 30
0.0
 11
4.9450067709
 21
-8.0011738422
 31
0.0
  0
LINE
  5
1B8
330
191
100
AcDbEntity
  8
0
  6
Continuous
 62
     7
370
    25
100
AcDbLine
 10
0.1418571646
 20
-8.0011738422
 30
0.0
 11
0.1418571646
 21
-9.6350321099
 31
0.0
  0
LINE
  5
1B9
330
191
100
AcDbEntity
  8
0
  6
Continuous
 62
     7
370
    25
100
AcDbLine
 10
1.7954004717
 20
-9.6350321099
 30
0.0
 11
1.7954004717
 21
-8.0011738422
 31
0.0
  0
LINE
  5
1BA
330
191
100
AcDbEntity
  8
0
  6
Continuous
 62
     7
370
    25
100
AcDbLine
 10
6.7757154323
 20
-7.8436935272
 30
0.0
 11
-1.6888514968
 21
-7.8436935272
 31
0.0
  0
LINE
  5
1BB
330
191
100
AcDbEntity
  8
0
  6
Continuous
 62
     7
370
    25
100
AcDbLine
 10
6.7757154323
 20
-7.9814888028
 30
0.0
 11
6.7757154323
 21
-7.8436935272
 31
0.0
  0
LINE
  5
1BC
330
191
100
AcDbEntity
  8
0
  6
Continuous
 62
     7
370
    25
100
AcDbLine
 10
-1.6888514968
 20
-7.9814888028
 30
0.0
 11
6.7757154323
 21
-7.9814888028
 31
0.0
  0
LINE
  5
1BD
330
191
100
AcDbEntity
  8
0
  6
Continuous
 62
     7
370
    25
100
AcDbLine
 10
6.1851642512
 20
-8.0011738422
 30
0.0
 11
6.1851642512
 21
-7.8436935272
 31
0.0
  0
LINE
  5
1BE
330
191
100
AcDbEntity
  8
0
  6
Continuous
 62
     7
370
    25
100
AcDbLine
 10
6.756030393
 20
-8.0011738422
 30
0.0
 11
-1.6691664574
 21
-8.0011738422
 31
0.0
  0
LINE
  5
1BF
330
191
100
AcDbEntity
  8
0
  6
Continuous
 62
     7
370
    25
100
AcDbLine
 10
-1.0983003157
 20
-8.0011738422
 30
0.0
 11
-1.0983003157
 21
-7.8436935272
 31
0.0
  0
LINE
  5
1C0
330
191
100
AcDbEntity
  8
0
  6
Continuous
 62
     7
370
    25
100
AcDbLine
 10
-1.6888514968
 20
-7.9814888028
 30
0.0
 11
-1.6888514968
 21
-7.8436935272
 31
0.0
  0
LINE
  5
1C1
330
191
100
AcDbEntity
  8
0
  6
Continuous
 62
     7
370
    25
100
AcDbLine
 10
4.9056366914
 20
-9.6744021887
 30
0.0
 11
3.3308335426
 21
-9.6744021887
 31
0.0
  0
LINE
  5
1C2
330
191
100
AcDbEntity
  8
0
  6
Continuous
 62
     7
370
    25
100
AcDbLine
 10
1.756030393
 20
-9.6744021887
 30
0.0
 11
0.1812272441
 21
-9.6744021887
 31
0.0
  0
LINE
  5
1C3
330
191
100
AcDbEntity
  8
0
  6
Continuous
 62
     8
370
    25
100
AcDbLine
 10
3.2914634638
 20
-9.6350321099
 30
0.0
 11
4.9450067709
 21
-9.6350321099
 31
0.0
  0
LINE
  5
1C4
330
191
100
AcDbEntity
  8
0
  6
Continuous
 62
     8
370
    25
100
AcDbLine
 10
0.1418571646
 20
-9.6350321099
 30
0.0
 11
1.7954004717
 21
-9.6350321099
 31
0.0
  0
ARC
  5
1C5
330
191
100
AcDbEntity
  8
0
  6
Continuous
 62
     7
370
    25
100
AcDbCircle
 10
4.9056366922
 20
-9.6350321099
 30
0.0
 40
0.0393700787401574
100
AcDbArc
 50
270.0
 51
0.0
  0
ARC
  5
1C6
330
191
100
AcDbEntity
  8
0
  6
Continuous
 62
     7
370
    25
100
AcDbCircle
 10
3.3308335426
 20
-9.6350321099
 30
0.0
 40
0.0393700787401579
100
AcDbArc
 50
180.0
 51
270.0
  0
ARC
  5
1C7
330
191
100
AcDbEntity
  8
0
  6
Continuous
 62
     7
370
    25
100
AcDbCircle
 10
1.756030393
 20
-9.6350321099
 30
0.0
 40
0.0393700787401574
100
AcDbArc
 50
270.0
 51
0.0
  0
ARC
  5
1C8
330
191
100
AcDbEntity
  8
0
  6
Continuous
 62
     7
370
    25
100
AcDbCircle
 10
0.1812272434
 20
-9.6350321099
 30
0.0
 40
0.0393700787401562
100
AcDbArc
 50
180.0
 51
270.0
  0
ARC
  5
1C9
330
191
100
AcDbEntity
  8
0
  6
Continuous
 62
     7
370
    25
100
AcDbCircle
 10
6.756030393
 20
-7.9814888028
 30
0.0
 40
0.0196850393700787
100
AcDbArc
 50
270.0
 51
360.0
  0
ARC
  5
1CA
330
191
100
AcDbEntity
  8
0
  6
Continuous
 62
     7
370
    25
100
AcDbCircle
 10
-1.6691664574
 20
-7.9814888028
 30
0.0
 40
0.0196850393700796
100
AcDbArc
 50
180.0
 51
270.0
  0
VIEWPORT
  5
2A7
330
191
100
AcDbEntity
  8
0
100
AcDbViewport
 10
0.0
 20
0.0
 30
0.0
 40
8.4
 41
6.4
 68
     1
 69
     1
 12
2.5434319678
 22
5.3089737433
 13
0.0
 23
0.0
 14
0.5
 24
0.5
 15
0.5
 25
0.5
 16
0.0
 26
0.0
 36
1.0
 17
0.0
 27
0.0
 37
0.0
 42
50.0
 43
0.0
 44
0.0
 45
6.5781777278
 50
0.0
 51
0.0
 72
   100
 90
   557152
  1

281
     0
 71
     1
 74
     0
110
0.0
120
0.0
130
0.0
111
1.0
121
0.0
131
0.0
112
0.0
122
1.0
132
0.0
 79
     0
146
0.0
  0
ENDBLK
  5
194
330
191
100
AcDbEntity
  8
0
100
AcDbBlockEnd
  0
BLOCK
  5
1CD
330
1CB
100
AcDbEntity
  8
0
100
AcDbBlockBegin
  2
*Paper_Space3
 70
     0
 10
0.0
 20
0.0
 30
0.0
  3
*Paper_Space3
  1

  0
CIRCLE
  5
1E8
330
1CB
100
AcDbEntity
  8
0
  6
Continuous
 62
     7
370
    25
100
AcDbCircle
 10
4.1182351174
 20
9.2413313225
 30
0.0
 40
0.0984251968503935
  0
SPLINE
  5
1E9
330
1CB
100
AcDbEntity
  8
0
  6
Continuous
 62
     7
370
    25
100
AcDbSpline
210
0.0
220
0.0
230
1.0
 70
    11
 71
     3
 72
    70
 73
    66
 74
     0
 42
0.000000001
 43
0.00000001
 40
0.0
 40
0.0
 40
0.0
 40
0.0
 40
0.03125
 40
0.03125
 40
0.0625
 40
0.0625
 40
0.09375
 40
0.09375
 40
0.125
 40
0.125
 40
0.15625
 40
0.15625
 40
0.1875
 40
0.1875
 40
0.21875
 40
0.21875
 40
0.25
 40
0.25
 40
0.28125
 40
0.28125
 40
0.3125
 40
0.3125
 40
0.34375
 40
0.34375
 40
0.375
 40
0.375
 40
0.40625
 40
0.40625
 40
0.4375
 40
0.4375
 40
0.46875
 40
0.46875
 40
0.5
 40
0.5
 40
0.53125
 40
0.53125
 40
0.5625
 40
0.5625
 40
0.59375
 40
0.59375
 40
0.625
 40
0.625
 40
0.65625
 40
0.65625
 40
0.6875
 40
0.6875
 40
0.71875
 40
0.71875
 40
0.75
 40
0.75
 40
0.78125
 40
0.78125
 40
0.8125
 40
0.8125
 40
0.84375
 40
0.84375
 40
0.875
 40
0.875
 40
0.90625
 40
0.90625
 40
0.9375
 40
0.9375
 40
0.96875
 40
0.96875
 40
1.0
 40
1.0
 40
1.0
 40
1.0
 10
4.214856523897904
 20
9.146621125159516
 30
0.0
 10
4.208571946251008
 20
9.140287982707852
 30
0.0
 10
4.201771448405599
 20
9.134675316120607
 30
0.0
 10
4.187177992618217
 20
9.12482533653014
 30
0.0
 10
4.179293338592479
 20
9.120553813562937
 30
0.0
 10
4.16294357917155
 20
9.1136774660032
 30
0.0
 10
4.154522826788838
 20
9.111066784282414
 30
0.0
 10
4.137191913585671
 20
9.107485485073838
 30
0.0
 10
4.128218300425744
 20
9.106531047688753
 30
0.0
 10
4.110534928322013
 20
9.106383194459955
 30
0.0
 10
4.101738740451983
 20
9.10716038883308
 30
0.0
 10
4.084239202569845
 20
9.110453774445618
 30
0.0
 10
4.075658738141107
 20
9.11296318090589
 30
0.0
 10
4.059297266351061
 20
9.11952170073014
 30
0.0
 10
4.051391371372547
 20
9.123616458451275
 30
0.0
 10
4.036479621656252
 20
9.133313498940119
 30
0.0
 10
4.029604030831574
 20
9.138816521017667
 30
0.0
 10
4.016979103038539
 20
9.151102589998072
 30
0.0
 10
4.011181525537849
 20
9.15797104862548
 30
0.0
 10
4.001173489889024
 20
9.172531221111129
 30
0.0
 10
3.99691998627764
 20
9.18023688725729
 30
0.0
 10
3.989928162396046
 20
9.196513212855315
 30
0.0
 10
3.987215276578298
 20
9.205091407226154
 30
0.0
 10
3.983581474062072
 20
9.222362503234173
 30
0.0
 10
3.982613903391727
 20
9.231148646720264
 30
0.0
 10
3.982448508707583
 20
9.249035268331264
 30
0.0
 10
3.98325758271172
 20
9.257872092197731
 30
0.0
 10
3.98657690691907
 20
9.275209723155312
 30
0.0
 10
3.989128340595347
 20
9.283823092735004
 30
0.0
 10
3.995833053279989
 20
9.30024752048754
 30
0.0
 10
3.999951437145981
 20
9.308035628353235
 30
0.0
 10
4.009701359313528
 20
9.322779600019647
 30
0.0
 10
4.015374986681538
 20
9.329749871267339
 30
0.0
 10
4.027780816991373
 20
9.342260969868939
 30
0.0
 10
4.034558979736619
 20
9.347886700296238
 30
0.0
 10
4.049301287985397
 20
9.357849623683858
 30
0.0
 10
4.057125683350322
 20
9.362079002666233
 30
0.0
 10
4.073361610469445
 20
9.36892394484364
 30
0.0
 10
4.081891754864692
 20
9.371584275411402
 30
0.0
 10
4.099331475008481
 20
9.375188228810766
 30
0.0
 10
4.108112013685393
 20
9.376121182445926
 30
0.0
 10
4.125791962314885
 20
9.376287350083235
 30
0.0
 10
4.134780519639424
 20
9.375492957208488
 30
0.0
 10
4.152179848919032
 20
9.372218575657106
 30
0.0
 10
4.160648913530438
 20
9.369756577964445
 30
0.0
 10
4.177123723909037
 20
9.363168638862192
 30
0.0
 10
4.185082047232302
 20
9.359037809808035
 30
0.0
 10
4.199851316156029
 20
9.349445978662382
 30
0.0
 10
4.20676031638926
 20
9.343945820162078
 30
0.0
 10
4.219544903170086
 20
9.331511062471357
 30
0.0
 10
4.225224305449156
 20
9.324769906082444
 30
0.0
 10
4.235210885703513
 20
9.310271493966109
 30
0.0
 10
4.239554034844962
 20
9.30241936487685
 30
0.0
 10
4.246549735748355
 20
9.286129167041535
 30
0.0
 10
4.249212877779776
 20
9.277727396958088
 30
0.0
 10
4.25287479266472
 20
9.260409707438106
 30
0.0
 10
4.253855263540565
 20
9.25143708352211
 30
0.0
 10
4.254022290367366
 20
9.233758154911072
 30
0.0
 10
4.253239406228071
 20
9.224959051258145
 30
0.0
 10
4.249896977651887
 20
9.207443490954567
 30
0.0
 10
4.247356578258715
 20
9.198894938188467
 30
0.0
 10
4.240706438706718
 20
9.182565611702861
 30
0.0
 10
4.236544832585476
 20
9.17466538312339
 30
0.0
 10
4.226733573840235
 20
9.1598306664055
 30
0.0
 10
4.221141101544799
 20
9.152954267611179
 30
0.0
 10
4.214856523897904
 20
9.146621125159516
 30
0.0
  0
LINE
  5
1EE
330
1CB
100
AcDbEntity
  8
0
  6
Continuous
 62
     7
370
    25
100
AcDbLine
 10
4.9450067709
 20
8.0011738422
 30
0.0
 11
4.9450067709
 21
9.6350321099
 31
0.0
  0
LINE
  5
1EF
330
1CB
100
AcDbEntity
  8
0
  6
Continuous
 62
     7
370
    25
100
AcDbLine
 10
3.2914634638
 20
9.6350321099
 30
0.0
 11
3.2914634638
 21
8.0011738422
 31
0.0
  0
LINE
  5
1F0
330
1CB
100
AcDbEntity
  8
0
  6
Continuous
 62
     7
370
    25
100
AcDbLine
 10
1.7954004717
 20
8.0011738422
 30
0.0
 11
1.7954004717
 21
9.6350321099
 31
0.0
  0
LINE
  5
1F1
330
1CB
100
AcDbEntity
  8
0
  6
Continuous
 62
     7
370
    25
100
AcDbLine
 10
0.1418571646
 20
9.6350321099
 30
0.0
 11
0.1418571646
 21
8.0011738422
 31
0.0
  0
LINE
  5
1F2
330
1CB
100
AcDbEntity
  8
0
  6
Continuous
 62
     7
370
    25
100
AcDbLine
 10
-1.6691664574
 20
8.0011738422
 30
0.0
 11
6.756030393
 21
8.0011738422
 31
0.0
  0
LINE
  5
1F3
330
1CB
100
AcDbEntity
  8
0
  6
Continuous
 62
     7
370
    25
100
AcDbLine
 10
-1.0983003157
 20
8.0011738422
 30
0.0
 11
-1.0983003157
 21
7.8436935272
 31
0.0
  0
LINE
  5
1F4
330
1CB
100
AcDbEntity
  8
0
  6
Continuous
 62
     7
370
    25
100
AcDbLine
 10
6.7757154323
 20
7.9814888028
 30
0.0
 11
-1.6888514968
 21
7.9814888028
 31
0.0
  0
LINE
  5
1F5
330
1CB
100
AcDbEntity
  8
0
  6
Continuous
 62
     7
370
    25
100
AcDbLine
 10
-1.6888514968
 20
7.8436935272
 30
0.0
 11
6.7757154323
 21
7.8436935272
 31
0.0
  0
LINE
  5
1F6
330
1CB
100
AcDbEntity
  8
0
  6
Continuous
 62
     7
370
    25
100
AcDbLine
 10
-1.6888514968
 20
7.9814888028
 30
0.0
 11
-1.6888514968
 21
7.8436935272
 31
0.0
  0
LINE
  5
1F7
330
1CB
100
AcDbEntity
  8
0
  6
Continuous
 62
     7
370
    25
100
AcDbLine
 10
6.1851642512
 20
8.0011738422
 30
0.0
 11
6.1851642512
 21
7.8436935272
 31
0.0
  0
LINE
  5
1F8
330
1CB
100
AcDbEntity
  8
0
  6
Continuous
 62
     7
370
    25
100
AcDbLine
 10
6.7757154323
 20
7.9814888028
 30
0.0
 11
6.7757154323
 21
7.8436935272
 31
0.0
  0
LINE
  5
1F9
330
1CB
100
AcDbEntity
  8
0
  6
Continuous
 62
     7
370
    25
100
AcDbLine
 10
3.3308335426
 20
9.6744021887
 30
0.0
 11
4.9056366914
 21
9.6744021887
 31
0.0
  0
LINE
  5
1FA
330
1CB
100
AcDbEntity
  8
0
  6
Continuous
 62
     7
370
    25
100
AcDbLine
 10
0.1812272441
 20
9.6744021887
 30
0.0
 11
1.756030393
 21
9.6744021887
 31
0.0
  0
LINE
  5
1FB
330
1CB
100
AcDbEntity
  8
0
  6
Continuous
 62
     8
370
    25
100
AcDbLine
 10
4.9450067709
 20
9.6350321099
 30
0.0
 11
3.2914634638
 21
9.6350321099
 31
0.0
  0
LINE
  5
1FC
330
1CB
100
AcDbEntity
  8
0
  6
Continuous
 62
     8
370
    25
100
AcDbLine
 10
1.7954004717
 20
9.6350321099
 30
0.0
 11
0.1418571646
 21
9.6350321099
 31
0.0
  0
ARC
  5
1FD
330
1CB
100
AcDbEntity
  8
0
  6
Continuous
 62
     7
370
    25
100
AcDbCircle
 10
3.3308335426
 20
9.6350321099
 30
0.0
 40
0.0393700787401579
100
AcDbArc
 50
90.0
 51
180.0
  0
ARC
  5
1FE
330
1CB
100
AcDbEntity
  8
0
  6
Continuous
 62
     7
370
    25
100
AcDbCircle
 10
4.9056366922
 20
9.6350321099
 30
0.0
 40
0.0393700787401574
100
AcDbArc
 50
0.0
 51
90.0
  0
ARC
  5
1FF
330
1CB
100
AcDbEntity
  8
0
  6
Continuous
 62
     7
370
    25
100
AcDbCircle
 10
0.1812272434
 20
9.6350321099
 30
0.0
 40
0.0393700787401562
100
AcDbArc
 50
90.0
 51
180.0
  0
ARC
  5
200
330
1CB
100
AcDbEntity
  8
0
  6
Continuous
 62
     7
370
    25
100
AcDbCircle
 10
1.756030393
 20
9.6350321099
 30
0.0
 40
0.0393700787401574
100
AcDbArc
 50
360.0
 51
90.0
  0
ARC
  5
201
330
1CB
100
AcDbEntity
  8
0
  6
Continuous
 62
     7
370
    25
100
AcDbCircle
 10
-1.6691664574
 20
7.9814888028
 30
0.0
 40
0.0196850393700774
100
AcDbArc
 50
90.0
 51
180.0
  0
ARC
  5
202
330
1CB
100
AcDbEntity
  8
0
  6
Continuous
 62
     7
370
    25
100
AcDbCircle
 10
6.756030393
 20
7.9814888028
 30
0.0
 40
0.0196850393700814
100
AcDbArc
 50
0.0
 51
90.0
  0
VIEWPORT
  5
2A9
330
1CB
100
AcDbEntity
  8
0
100
AcDbViewport
 10
0.0
 20
0.0
 30
0.0
 40
8.4
 41
6.4
 68
     1
 69
     1
 12
2.5434319678
 22
5.3089737433
 13
0.0
 23
0.0
 14
0.5
 24
0.5
 15
0.5
 25
0.5
 16
0.0
 26
0.0
 36
1.0
 17
0.0
 27
0.0
 37
0.0
 42
50.0
 43
0.0
 44
0.0
 45
6.5781777278
 50
0.0
 51
0.0
 72
   100
 90
   557152
  1

281
     0
 71
     1
 74
     0
110
0.0
120
0.0
130
0.0
111
1.0
121
0.0
131
0.0
112
0.0
122
1.0
132
0.0
 79
     0
146
0.0
  0
ENDBLK
  5
1CE
330
1CB
100
AcDbEntity
  8
0
100
AcDbBlockEnd
  0
BLOCK
  5
205
330
203
100
AcDbEntity
  8
0
100
AcDbBlockBegin
  2
*Paper_Space4
 70
     0
 10
0.0
 20
0.0
 30
0.0
  3
*Paper_Space4
  1

  0
SPLINE
  5
207
330
203
100
AcDbEntity
  8
0
  6
Continuous
 62
     7
370
    25
100
AcDbSpline
210
0.0
220
0.0
230
1.0
 70
     8
 71
     3
 72
    41
 73
    37
 74
     0
 42
0.000000001
 43
0.00000001
 40
0.0
 40
0.0
 40
0.0
 40
0.0
 40
0.010963365510051
 40
0.0422044448173885
 40
0.0732706602714496
 40
0.1042019984705207
 40
0.1350441751428365
 40
0.1658358998317511
 40
0.1966052055975567
 40
0.2273693710945961
 40
0.2581370928604788
 40
0.288915320110656
 40
0.3197070241336227
 40
0.3505126695166957
 40
0.3813312114633279
 40
0.4121607347495396
 40
0.4429988447492675
 40
0.4738428953174995
 40
0.5046901134957412
 40
0.5355376620108041
 40
0.5663818153562791
 40
0.5972195832704047
 40
0.6280480873088501
 40
0.6588645160389112
 40
0.6896662401681427
 40
0.7204510260823946
 40
0.7512174061312741
 40
0.7819652887484678
 40
0.8126969179291401
 40
0.8434183043572794
 40
0.8741383121523816
 40
0.9048722917205015
 40
0.9356470983928403
 40
0.9665007747095419
 40
0.997480264270086
 40
1.0
 40
1.0
 40
1.0
 40
1.0
 10
-3.041665106478853
 20
0.1549733024893262
 30
0.0
 10
-3.036903009144325
 20
0.1557093872366373
 30
0.0
 10
-3.018570894431386
 20
0.1585430105496936
 30
0.0
 10
-2.984353644303154
 20
0.1580571433000921
 30
0.0
 10
-2.939445338556331
 20
0.1534770678323953
 30
0.0
 10
-2.892942030698665
 20
0.1433054048071269
 30
0.0
 10
-2.84534986728106
 20
0.128062793891171
 30
0.0
 10
-2.796926522013354
 20
0.1077258123322755
 30
0.0
 10
-2.748012341078605
 20
0.0824513384989028
 30
0.0
 10
-2.698942604354401
 20
0.0523902118727323
 30
0.0
 10
-2.650064725944272
 20
0.0177397975114649
 30
0.0
 10
-2.601726905677172
 20
-0.0212703690749992
 30
0.0
 10
-2.554274967799485
 20
-0.0643771631656582
 30
0.0
 10
-2.508049949928736
 20
-0.111285481653316
 30
0.0
 10
-2.463384589725582
 20
-0.1616705369208818
 30
0.0
 10
-2.42060017849962
 20
-0.2151807532824966
 30
0.0
 10
-2.380003865929659
 20
-0.2714406956012838
 30
0.0
 10
-2.34188626237713
 20
-0.3300540778473281
 30
0.0
 10
-2.306519275574222
 20
-0.3906067959763336
 30
0.0
 10
-2.274154421931617
 20
-0.452669417203948
 30
0.0
 10
-2.245020581961464
 20
-0.5158007264640442
 30
0.0
 10
-2.219322196651405
 20
-0.5795509829979362
 30
0.0
 10
-2.197237474187257
 20
-0.6434657485122455
 30
0.0
 10
-2.17891715285451
 20
-0.7070886540862106
 30
0.0
 10
-2.164483106838257
 20
-0.7699647185250316
 30
0.0
 10
-2.154027062418427
 20
-0.8316438710495025
 30
0.0
 10
-2.147609399051177
 20
-0.8916848502090173
 30
0.0
 10
-2.145258556471825
 20
-0.9496589724521186
 30
0.0
 10
-2.146969731209386
 20
-1.005156143313053
 30
0.0
 10
-2.152708748358008
 20
-1.057783064450046
 30
0.0
 10
-2.16239990742434
 20
-1.107188008530959
 30
0.0
 10
-2.17597856569242
 20
-1.152994666763359
 30
0.0
 10
-2.193213655625402
 20
-1.195082113567309
 30
0.0
 10
-2.214408331823129
 20
-1.232563492943421
 30
0.0
 10
-2.230613754171745
 20
-1.256824815974315
 30
0.0
 10
-2.240603813058106
 20
-1.267175179808899
 30
0.0
 10
-2.241355242624064
 20
-1.267953710695673
 30
0.0
  0
SPLINE
  5
208
330
203
100
AcDbEntity
  8
0
  6
Continuous
 62
     7
370
    25
100
AcDbSpline
210
0.0
220
0.0
230
1.0
 70
     8
 71
     3
 72
    13
 73
     9
 74
     0
 42
0.000000001
 43
0.00000001
 40
0.0
 40
0.0
 40
0.0
 40
0.0
 40
0.0989549126558003
 40
0.2867128961040316
 40
0.4745717816967617
 40
0.6621633493325415
 40
0.849091458847941
 40
1.0
 40
1.0
 40
1.0
 40
1.0
 10
-1.280034991454098
 20
-3.056229875593124
 30
0.0
 10
-1.272601209631141
 20
-3.06038362613118
 30
0.0
 10
-1.251062500149592
 20
-3.072418742069312
 30
0.0
 10
-1.215394623652219
 20
-3.088553712891542
 30
0.0
 10
-1.173472128902359
 20
-3.102798385229592
 30
0.0
 10
-1.132439926886844
 20
-3.111424245986126
 30
0.0
 10
-1.094990623800963
 20
-3.114931683168295
 30
0.0
 10
-1.072168622427724
 20
-3.112873840175939
 30
0.0
 10
-1.061974243201548
 20
-3.111954620537446
 30
0.0
  0
SPLINE
  5
20C
330
203
100
AcDbEntity
  8
0
  6
Continuous
 62
     7
370
    25
100
AcDbSpline
210
0.0
220
0.0
230
1.0
 70
     8
 71
     3
 72
    41
 73
    37
 74
     0
 42
0.000000001
 43
0.00000001
 40
0.0
 40
0.0
 40
0.0
 40
0.0
 40
0.0109633655100566
 40
0.0422044448173944
 40
0.073270660271449
 40
0.1042019984705259
 40
0.1350441751428412
 40
0.1658358998317606
 40
0.1966052055975654
 40
0.2273693710946042
 40
0.2581370928604806
 40
0.2889153201106568
 40
0.3197070241336232
 40
0.3505126695166957
 40
0.3813312114633334
 40
0.4121607347495435
 40
0.4429988447492643
 40
0.4738428953175026
 40
0.5046901134957452
 40
0.5355376620108055
 40
0.566381815356279
 40
0.597219583270404
 40
0.6280480873088526
 40
0.658864516038911
 40
0.6896662401681369
 40
0.7204510260823895
 40
0.751217406131272
 40
0.7819652887484717
 40
0.8126969179291378
 40
0.8434183043572785
 40
0.8741383121523861
 40
0.9048722917205059
 40
0.9356470983928497
 40
0.9665007747095534
 40
0.997480264270098
 40
1.0
 40
1.0
 40
1.0
 40
1.0
 10
-5.268773078719924
 20
1.440655368351861
 30
0.0
 10
-5.264010981385393
 20
1.441391453099173
 30
0.0
 10
-5.245678866672453
 20
1.444225076412229
 30
0.0
 10
-5.211461616544223
 20
1.443739209162631
 30
0.0
 10
-5.166553310797402
 20
1.439159133694931
 30
0.0
 10
-5.120050002939732
 20
1.428987470669666
 30
0.0
 10
-5.072457839522126
 20
1.413744859753707
 30
0.0
 10
-5.024034494254418
 20
1.393407878194812
 30
0.0
 10
-4.975120313319666
 20
1.36813340436144
 30
0.0
 10
-4.926050576595467
 20
1.33807227773527
 30
0.0
 10
-4.877172698185338
 20
1.303421863374008
 30
0.0
 10
-4.828834877918247
 20
1.264411696787547
 30
0.0
 10
-4.781382940040559
 20
1.22130490269689
 30
0.0
 10
-4.735157922169806
 20
1.174396584209233
 30
0.0
 10
-4.690492561966652
 20
1.124011528941664
 30
0.0
 10
-4.64770815074069
 20
1.070501312580051
 30
0.0
 10
-4.607111838170731
 20
1.014241370261267
 30
0.0
 10
-4.568994234618201
 20
0.9556279880152219
 30
0.0
 10
-4.533627247815288
 20
0.8950752698862164
 30
0.0
 10
-4.501262394172686
 20
0.8330126486586041
 30
0.0
 10
-4.472128554202531
 20
0.7698813393985129
 30
0.0
 10
-4.446430168892474
 20
0.7061310828646203
 30
0.0
 10
-4.424345446428323
 20
0.6422163173503089
 30
0.0
 10
-4.406025125095577
 20
0.5785934117763482
 30
0.0
 10
-4.391591079079321
 20
0.5157173473375343
 30
0.0
 10
-4.38113503465949
 20
0.4540381948130616
 30
0.0
 10
-4.374717371292241
 20
0.3939972156535411
 30
0.0
 10
-4.372366528712883
 20
0.3360230934104362
 30
0.0
 10
-4.374077703450443
 20
0.2805259225495011
 30
0.0
 10
-4.379816720599065
 20
0.2278990014125089
 30
0.0
 10
-4.389507879665397
 20
0.1784940573315908
 30
0.0
 10
-4.403086537933475
 20
0.1326873990991823
 30
0.0
 10
-4.420321627866457
 20
0.0905999522952294
 30
0.0
 10
-4.441516304064196
 20
0.0531185729191121
 30
0.0
 10
-4.457721726412788
 20
0.0288572498882268
 30
0.0
 10
-4.467711785299162
 20
0.0185068860536426
 30
0.0
 10
-4.468463214865115
 20
0.0177283551668723
 30
0.0
  0
SPLINE
  5
20D
330
203
100
AcDbEntity
  8
0
  6
Continuous
 62
     7
370
    25
100
AcDbSpline
210
0.0
220
0.0
230
1.0
 70
     8
 71
     3
 72
    14
 73
    10
 74
     0
 42
0.000000001
 43
0.00000001
 40
0.0
 40
0.0
 40
0.0
 40
0.0
 40
0.027075476002484
 40
0.2066257295638242
 40
0.3876379596506858
 40
0.5700207302976481
 40
0.7534158065011827
 40
0.9374102406200453
 40
1.0
 40
1.0
 40
1.0
 40
1.0
 10
-6.781019378171661
 20
3.102933724173383
 30
0.0
 10
-6.782209985976411
 20
3.10154326740607
 30
0.0
 10
-6.791296075774356
 20
3.090932035900966
 30
0.0
 10
-6.804754282539717
 20
3.066869804180266
 30
0.0
 10
-6.820953796535401
 20
3.030819304958288
 30
0.0
 10
-6.832817719980263
 20
2.990517979687174
 30
0.0
 10
-6.840601092203744
 20
2.946867673345271
 30
0.0
 10
-6.843478198272322
 20
2.910549321471835
 30
0.0
 10
-6.843678081104343
 20
2.888922327074049
 30
0.0
 10
-6.843728816790936
 20
2.883432809046708
 30
0.0
  0
SPLINE
  5
210
330
203
100
AcDbEntity
  8
0
  6
Continuous
 62
     7
370
    25
100
AcDbSpline
210
0.0
220
0.0
230
1.0
 70
     8
 71
     3
 72
    16
 73
    12
 74
     0
 42
0.000000001
 43
0.00000001
 40
0.0
 40
0.0
 40
0.0
 40
0.0
 40
0.0661605571772315
 40
0.1915100683899386
 40
0.3168098215508387
 40
0.4420246173900886
 40
0.5671528610887809
 40
0.6922065870756424
 40
0.8172047488227204
 40
0.9421696111401294
 40
1.0
 40
1.0
 40
1.0
 40
1.0
 10
-6.843728816790915
 20
0.6331234849521171
 30
0.0
 10
-6.843609596768956
 20
0.6244874069769237
 30
0.0
 10
-6.843264499394737
 20
0.5994891912088844
 30
0.0
 10
-6.839445748238067
 20
0.5565425792202278
 30
0.0
 10
-6.830953535206645
 20
0.5041815751398351
 30
0.0
 10
-6.818336038076509
 20
0.4507888439043082
 30
0.0
 10
-6.801792623788979
 20
0.3969387541694998
 30
0.0
 10
-6.781533662339006
 20
0.3431087297011094
 30
0.0
 10
-6.757565373104007
 20
0.2899542110921426
 30
0.0
 10
-6.73566894135668
 20
0.246895164668497
 30
0.0
 10
-6.720771810974185
 20
0.2224010902342385
 30
0.0
 10
-6.716058850230581
 20
0.2146519729011954
 30
0.0
  0
SPLINE
  5
211
330
203
100
AcDbEntity
  8
0
  6
Continuous
 62
     7
370
    25
100
AcDbSpline
210
0.0
220
0.0
230
1.0
 70
     8
 71
     3
 72
    17
 73
    13
 74
     0
 42
0.000000001
 43
0.00000001
 40
0.0
 40
0.0
 40
0.0
 40
0.0
 40
0.0553818516543779
 40
0.1612602605183162
 40
0.2673816103743845
 40
0.3741957126041602
 40
0.4819719879490462
 40
0.5907648121575032
 40
0.7004486536232662
 40
0.8107976262407143
 40
0.9215681772399612
 40
1.0
 40
1.0
 40
1.0
 40
1.0
 10
-4.32299300450208
 20
-0.5691887772218023
 30
0.0
 10
-4.329279797292487
 20
-0.5729655762275215
 30
0.0
 10
-4.347585610711873
 20
-0.5839628176232824
 30
0.0
 10
-4.37450549541247
 20
-0.6075869521787883
 30
0.0
 10
-4.403643143331647
 20
-0.6393841429429227
 30
0.0
 10
-4.429021007598867
 20
-0.675894828861678
 30
0.0
 10
-4.450686719029673
 20
-0.7166145752349513
 30
0.0
 10
-4.468419724089374
 20
-0.7614123920001603
 30
0.0
 10
-4.482102756264203
 20
-0.8099656720183521
 30
0.0
 10
-4.491519685234476
 20
-0.8619696353085899
 30
0.0
 10
-4.496388648801126
 20
-0.9114763895647765
 30
0.0
 10
-4.496899759977176
 20
-0.9441717180157293
 30
0.0
 10
-4.497111635654916
 20
-0.9577252171351894
 30
0.0
  0
SPLINE
  5
212
330
203
100
AcDbEntity
  8
0
  6
Continuous
 62
     7
370
    25
100
AcDbSpline
210
0.0
220
0.0
230
1.0
 70
     8
 71
     3
 72
    36
 73
    32
 74
     0
 42
0.000000001
 43
0.00000001
 40
0.0
 40
0.0
 40
0.0
 40
0.0
 40
0.0191505928442139
 40
0.0553532810786159
 40
0.0915342005917816
 40
0.127686211111889
 40
0.1638066460631164
 40
0.1998973851268325
 40
0.2359629306492773
 40
0.272009224974441
 40
0.3080429672003551
 40
0.3440712442200653
 40
0.3801013465897389
 40
0.4161385051062448
 40
0.4521899132543397
 40
0.4882630410263211
 40
0.5243651960098002
 40
0.5605031991229887
 40
0.5966827676827493
 40
0.6329074201626166
 40
0.6691766449934891
 40
0.7054830264589869
 40
0.7418051633185708
 40
0.7780956094468562
 40
0.8142913585551985
 40
0.8503089693405541
 40
0.8860573467174101
 40
0.9214643411166218
 40
0.9565097932991918
 40
0.9912478575020012
 40
1.0
 40
1.0
 40
1.0
 40
1.0
 10
-4.497111635654916
 20
-0.9577252171351894
 30
0.0
 10
-4.496990456513078
 20
-0.9680186213126684
 30
0.0
 10
-4.49664019774283
 20
-0.997770895789323
 30
0.0
 10
-4.492771453674649
 20
-1.048544718710727
 30
0.0
 10
-4.484173438894094
 20
-1.110229747731865
 30
0.0
 10
-4.471377698696723
 20
-1.173081755692514
 30
0.0
 10
-4.454570885476431
 20
-1.236624593475672
 30
0.0
 10
-4.433868949531646
 20
-1.300431195091998
 30
0.0
 10
-4.409435274332042
 20
-1.364061089257699
 30
0.0
 10
-4.381448037621211
 20
-1.427079163456358
 30
0.0
 10
-4.350107952428075
 20
-1.489053080900083
 30
0.0
 10
-4.315634943494723
 20
-1.549556976702719
 30
0.0
 10
-4.278268188673078
 20
-1.608172594219067
 30
0.0
 10
-4.238263940335901
 20
-1.664493287132757
 30
0.0
 10
-4.195893547361193
 20
-1.718126855651997
 30
0.0
 10
-4.151440352574714
 20
-1.768698889799299
 30
0.0
 10
-4.105198142403824
 20
-1.815853672587795
 30
0.0
 10
-4.057469122089823
 20
-1.859255535041945
 30
0.0
 10
-4.008562058814373
 20
-1.898589795021901
 30
0.0
 10
-3.958791041673599
 20
-1.933563099133639
 30
0.0
 10
-3.908475393412234
 20
-1.963903227405227
 30
0.0
 10
-3.857942670749308
 20
-1.989358220439173
 30
0.0
 10
-3.807537494718192
 20
-2.009695583333665
 30
0.0
 10
-3.757624541915545
 20
-2.024711012965454
 30
0.0
 10
-3.708596133080146
 20
-2.034234820404782
 30
0.0
 10
-3.660859108865241
 20
-2.038165201467792
 30
0.0
 10
-3.614865647744576
 20
-2.036424504768485
 30
0.0
 10
-3.570951135551235
 20
-2.029202212365973
 30
0.0
 10
-3.529815188452294
 20
-2.016109843876969
 30
0.0
 10
-3.500306128283507
 20
-2.00342625907401
 30
0.0
 10
-3.48562128105412
 20
-1.993584510848749
 30
0.0
 10
-3.482666043880907
 20
-1.991603918218101
 30
0.0
  0
SPLINE
  5
215
330
203
100
AcDbEntity
  8
0
  6
Continuous
 62
     7
370
    25
100
AcDbSpline
210
0.0
220
0.0
230
1.0
 70
     8
 71
     3
 72
    15
 73
    11
 74
     0
 42
0.000000001
 43
0.00000001
 40
0.0
 40
0.0
 40
0.0
 40
0.0
 40
0.0817239573744347
 40
0.2156263093262675
 40
0.3502007117891134
 40
0.4859123676647887
 40
0.6229922712898417
 40
0.7601971458138356
 40
0.8787029904734163
 40
1.0
 40
1.0
 40
1.0
 40
1.0
 10
-3.365177271392322
 20
-0.1085842119550538
 30
0.0
 10
-3.371255667656534
 20
-0.1087212095952365
 30
0.0
 10
-3.387293341249233
 20
-0.1090826739257482
 30
0.0
 10
-3.412505291677036
 20
-0.1136830755472333
 30
0.0
 10
-3.439551710194393
 20
-0.1218568484532122
 30
0.0
 10
-3.463641813897019
 20
-0.1335239903137153
 30
0.0
 10
-3.483867451576709
 20
-0.1483113995224433
 30
0.0
 10
-3.498396819067176
 20
-0.1653094216820571
 30
0.0
 10
-3.507754272337376
 20
-0.1838629610251089
 30
0.0
 10
-3.508942022694928
 20
-0.1966202630151479
 30
0.0
 10
-3.509542810233192
 20
-0.203073157774348
 30
0.0
  0
SPLINE
  5
216
330
203
100
AcDbEntity
  8
0
  6
Continuous
 62
     7
370
    25
100
AcDbSpline
210
0.0
220
0.0
230
1.0
 70
     8
 71
     3
 72
    16
 73
    12
 74
     0
 42
0.000000001
 43
0.00000001
 40
0.0
 40
0.0
 40
0.0
 40
0.0
 40
0.1089887362804198
 40
0.2208480108097185
 40
0.3351932996629665
 40
0.4545971360051807
 40
0.5780407906262934
 40
0.7029147749309843
 40
0.827525898400652
 40
0.9517784731640819
 40
1.0
 40
1.0
 40
1.0
 40
1.0
 10
-3.206653482023243
 20
-0.2049948743850513
 30
0.0
 10
-3.207035468872339
 20
-0.198745637917247
 30
0.0
 10
-3.207809503315323
 20
-0.1860825729979216
 30
0.0
 10
-3.216127125904601
 20
-0.1680908764324766
 30
0.0
 10
-3.22909277497982
 20
-0.151623134740532
 30
0.0
 10
-3.247006418894503
 20
-0.1370820591124602
 30
0.0
 10
-3.269369961802711
 20
-0.1249341083758242
 30
0.0
 10
-3.295389253745088
 20
-0.1156681198127796
 30
0.0
 10
-3.32384777368899
 20
-0.1099761382783831
 30
0.0
 10
-3.347592609475578
 20
-0.1075834404596635
 30
0.0
 10
-3.36133506005116
 20
-0.1083655455054089
 30
0.0
 10
-3.365177271392322
 20
-0.1085842119550538
 30
0.0
  0
SPLINE
  5
21C
330
203
100
AcDbEntity
  8
0
  6
Continuous
 62
     7
370
    25
100
AcDbSpline
210
0.0
220
0.0
230
1.0
 70
     8
 71
     3
 72
    45
 73
    41
 74
     0
 42
0.000000001
 43
0.00000001
 40
0.0
 40
0.0
 40
0.0
 40
0.0
 40
0.0193523489977287
 40
0.0452401467622626
 40
0.0712019029595794
 40
0.0973434204973606
 40
0.1237244680640455
 40
0.1503524185003411
 40
0.1771925679127794
 40
0.2041882112915423
 40
0.2312803455876567
 40
0.2584200902085595
 40
0.2855700978838212
 40
0.3127074152345007
 40
0.3398236052755056
 40
0.3669161376863843
 40
0.3939861080961571
 40
0.4210367164366846
 40
0.4480723245252577
 40
0.4750979076074313
 40
0.5021187556218523
 40
0.5291403227193305
 40
0.5561667408460316
 40
0.5832031839854664
 40
0.6102552593145265
 40
0.6373284712764575
 40
0.6644279972092377
 40
0.6915582567823967
 40
0.7187221418548869
 40
0.7459197198480273
 40
0.7731461820267391
 40
0.800387697196811
 40
0.8276098927498372
 40
0.8547675155139918
 40
0.8817994946280213
 40
0.9086373361195272
 40
0.9352239601040444
 40
0.9615384940616194
 40
0.987614687932674
 40
1.0
 40
1.0
 40
1.0
 40
1.0
 10
-6.546371056069019
 20
0.7189945168789668
 30
0.0
 10
-6.555294771458028
 20
0.7134905205912333
 30
0.0
 10
-6.576155814937078
 20
0.7006237828187148
 30
0.0
 10
-6.605247788837151
 20
0.6746150087860354
 30
0.0
 10
-6.633926656548142
 20
0.6422163386163146
 30
0.0
 10
-6.658881532361852
 20
0.6052099470100964
 30
0.0
 10
-6.680090198282493
 20
0.5639940771958858
 30
0.0
 10
-6.697355781395907
 20
0.518739003885754
 30
0.0
 10
-6.710535423691399
 20
0.4697562177532432
 30
0.0
 10
-6.719505963158475
 20
0.4174026504579216
 30
0.0
 10
-6.724193332881754
 20
0.3620883253978728
 30
0.0
 10
-6.724571098770735
 20
0.3042495360541322
 30
0.0
 10
-6.720657448837441
 20
0.2443339323672724
 30
0.0
 10
-6.712507686075029
 20
0.1827883349745201
 30
0.0
 10
-6.700206837930762
 20
0.1200543083300365
 30
0.0
 10
-6.68386473680919
 20
0.0565693473405901
 30
0.0
 10
-6.663614527162314
 20
-0.0072287163802993
 30
0.0
 10
-6.639611690572152
 20
-0.070902207447197
 30
0.0
 10
-6.612033327780569
 20
-0.1340149434327103
 30
0.0
 10
-6.581077375863844
 20
-0.196134229838841
 30
0.0
 10
-6.546961603159634
 20
-0.2568332788918965
 30
0.0
 10
-6.509922967169958
 20
-0.3156928174181824
 30
0.0
 10
-6.47021581406529
 20
-0.3723046683681939
 30
0.0
 10
-6.428109819910233
 20
-0.4262747985449108
 30
0.0
 10
-6.383887046405959
 20
-0.4772265808053822
 30
0.0
 10
-6.337840149782283
 20
-0.5248020239785797
 30
0.0
 10
-6.290270447433403
 20
-0.5686630353950212
 30
0.0
 10
-6.24148601325075
 20
-0.6084924301995255
 30
0.0
 10
-6.191800342302797
 20
-0.6439943414128032
 30
0.0
 10
-6.141532092077589
 20
-0.674894078804079
 30
0.0
 10
-6.091007202827191
 20
-0.7009375223398422
 30
0.0
 10
-6.040568285568297
 20
-0.7218894504418277
 30
0.0
 10
-5.990577378892337
 20
-0.7375416721963876
 30
0.0
 10
-5.941423510351128
 20
-0.7477200836781647
 30
0.0
 10
-5.893512787202254
 20
-0.7523122923089189
 30
0.0
 10
-5.847289067193114
 20
-0.7512431921649981
 30
0.0
 10
-5.803117507217408
 20
-0.7446472101489414
 30
0.0
 10
-5.761603248209171
 20
-0.7322904684388956
 30
0.0
 10
-5.729077495289301
 20
-0.7185485160638824
 30
0.0
 10
-5.711654590975333
 20
-0.7071054891694106
 30
0.0
 10
-5.706044095447848
 20
-0.7034206241173281
 30
0.0
  0
LWPOLYLINE
  5
22B
330
203
100
AcDbEntity
  8
0
  6
Continuous
 62
     7
370
    25
100
AcDbPolyline
 90
       15
 70
   128
 43
0.0
 10
-6.4342998823
 20
3.1085029245
 10
-6.4794958344
 20
3.1316630302
 10
-6.5241234212
 20
3.1486699596
 10
-6.5676214249
 20
3.1593098408
 10
-6.6094428329
 20
3.1634488712
 10
-6.6490617166
 20
3.1610350001
 10
-6.6859798457
 20
3.1520985832
 10
-6.7197329531
 20
3.1367520011
 10
-6.7498965741
 20
3.1151882462
 10
-6.7760913836
 20
3.087678495
 10
-6.7979879667
 20
3.0545686988
 10
-6.8153109611
 20
3.0162752323
 10
-6.82784252
 20
2.9732796581
 10
-6.835425052
 20
2.9261226706
 10
-6.8379632022
 20
2.8753972961
  0
LWPOLYLINE
  5
22E
330
203
100
AcDbEntity
  8
0
  6
Continuous
 62
     7
370
    25
100
AcDbPolyline
 90
       15
 70
   128
 43
0.0
 10
-1.2841126965
 20
-3.0472171826
 10
-1.2389167443
 20
-3.0703772882
 10
-1.1942891575
 20
-3.0873842176
 10
-1.1507911538
 20
-3.0980240988
 10
-1.1089697459
 20
-3.1021631292
 10
-1.0693508621
 20
-3.0997492581
 10
-1.0324327331
 20
-3.0908128412
 10
-0.9986796256
 20
-3.0754662592
 10
-0.9685160046
 20
-3.0539025042
 10
-0.9423211951
 20
-3.0263927531
 10
-0.9204246121
 20
-2.9932829568
 10
-0.9031016177
 20
-2.9549894903
 10
-0.8905700587
 20
-2.9119939161
 10
-0.8829875267
 20
-2.8648369286
 10
-0.8804493765
 20
-2.8141115541
  0
LWPOLYLINE
  5
239
330
203
100
AcDbEntity
  8
0
  6
Continuous
 62
     7
370
    25
100
AcDbPolyline
 90
        3
 70
   128
 43
0.0
 10
-2.2865480934
 20
-1.3110343199
 10
-2.3116157564
 20
-1.3205136435
 10
-2.3266845238
 20
-1.3249810254
  0
LWPOLYLINE
  5
23A
330
203
100
AcDbEntity
  8
0
  6
Continuous
 62
     7
370
    25
100
AcDbPolyline
 90
        3
 70
   128
 43
0.0
 10
-3.1533889878
 20
0.1070682746
 10
-3.1338677617
 20
0.1249112275
 10
-3.1212399641
 20
0.1348510735
  0
LWPOLYLINE
  5
23F
330
203
100
AcDbEntity
  8
0
  6
Continuous
 62
     7
370
    25
100
AcDbPolyline
 90
        3
 70
   128
 43
0.0
 10
-4.5136560657
 20
-0.025352254
 10
-4.5387237286
 20
-0.0348315776
 10
-4.5537924961
 20
-0.0392989596
  0
LWPOLYLINE
  5
240
330
203
100
AcDbEntity
  8
0
  6
Continuous
 62
     7
370
    25
100
AcDbPolyline
 90
        3
 70
   128
 43
0.0
 10
-5.3804969601
 20
1.3927503404
 10
-5.360975734
 20
1.4105932934
 10
-5.3483479363
 20
1.4205331393
  0
LWPOLYLINE
  5
243
330
203
100
AcDbEntity
  8
0
  6
Continuous
 62
     7
370
    25
100
AcDbPolyline
 90
       70
 70
   128
 43
0.0
 10
-4.4855804066
 20
-0.973796243
 10
-4.4832735918
 20
-1.0335941012
 10
-4.4763722625
 20
-1.0955598472
 10
-4.4649336053
 20
-1.1591800133
 10
-4.4490524045
 20
-1.2239274226
 10
-4.4288602567
 20
-1.2892655579
 10
-4.4045244804
 20
-1.3546530067
 10
-4.3762467295
 20
-1.419547948
 10
-4.3442613224
 20
-1.483412642
 10
-4.3088333002
 20
-1.5457178856
 10
-4.2702562307
 20
-1.6059473979
 10
-4.2288497756
 20
-1.6636020984
 10
-4.1849570418
 20
-1.7182042419
 10
-4.1389417384
 20
-1.7693013779
 10
-4.0911851627
 20
-1.8164700994
 10
-4.0420830407
 20
-1.8593195517
 10
-3.992042248
 20
-1.8974946705
 10
-3.9414774384
 20
-1.9306791249
 10
-3.8908076078
 20
-1.9585979379
 10
-3.8404526224
 20
-1.9810197656
 10
-3.7908297396
 20
-1.9977588137
 10
-3.74235015
 20
-2.008676377
 10
-3.6954155709
 20
-2.0136819892
 10
-3.650414917
 20
-2.0127341722
 10
-3.6077210778
 20
-2.00584078
 10
-3.567687828
 20
-1.9930589334
 10
-3.5306468956
 20
-1.9744945467
 10
-3.4969052136
 20
-1.9503014504
 10
-3.466742376
 20
-1.920680116
 10
-3.4404083218
 20
-1.8858759952
 10
-3.4181212631
 20
-1.846177486
 10
-3.4000658775
 20
-1.8019135427
 10
-3.3863917776
 20
-1.7534509503
 10
-3.3772122714
 20
-1.701191285
 10
-3.3726034231
 20
-1.645567587
 10
-3.3726034231
 20
-1.5870407717
 10
-3.3772122714
 20
-1.5260958107
 10
-3.3863917776
 20
-1.4632377132
 10
-3.4000658775
 20
-1.3989873411
 10
-3.4181212631
 20
-1.3338770933
 10
-3.4404083218
 20
-1.2684464938
 10
-3.466742376
 20
-1.2032377212
 10
-3.4969052136
 20
-1.1387911158
 10
-3.5306468956
 20
-1.0756407026
 10
-3.567687828
 20
-1.0143097658
 10
-3.6077210778
 20
-0.9553065128
 10
-3.650414917
 20
-0.8991198631
 10
-3.6954155709
 20
-0.846215397
 10
-3.74235015
 20
-0.7970314977
 10
-3.7908297396
 20
-0.7519757183
 10
-3.8404526224
 20
-0.7114214053
 10
-3.8908076078
 20
-0.6757046044
 10
-3.9414774384
 20
-0.6451212764
 10
-3.992042248
 20
-0.6199248442
 10
-4.0420830407
 20
-0.6003240936
 10
-4.0911851627
 20
-0.5864814424
 10
-4.1389417384
 20
-0.5785115953
 10
-4.1849570418
 20
-0.5764805929
 10
-4.2288497756
 20
-0.5804052647
 10
-4.2702562307
 20
-0.5902530897
 10
-4.3088333002
 20
-0.6059424657
 10
-4.3442613224
 20
-0.6273433855
 10
-4.3762467295
 20
-0.6542785145
 10
-4.4045244804
 20
-0.6865246596
 10
-4.4288602567
 20
-0.7238146191
 10
-4.4490524045
 20
-0.7658393968
 10
-4.4649336053
 20
-0.812250762
 10
-4.4763722625
 20
-0.8626641355
 10
-4.4832735918
 20
-0.9166617763
 10
-4.4855804066
 20
-0.973796243
  0
SPLINE
  5
248
330
203
100
AcDbEntity
  8
0
  6
Continuous
 62
     7
370
    25
100
AcDbSpline
210
0.0
220
0.0
230
1.0
 70
     8
 71
     3
 72
    10
 73
     6
 74
     0
 42
0.000000001
 43
0.00000001
 40
0.0
 40
0.0
 40
0.0
 40
0.0
 40
0.4247908592635243
 40
0.8494150681401405
 40
1.0
 40
1.0
 40
1.0
 40
1.0
 10
-3.465286566784824
 20
-0.3525413822380941
 30
0.0
 10
-3.475848280120625
 20
-0.3452327218118955
 30
0.0
 10
-3.496967563309436
 20
-0.3306182682318551
 30
0.0
 10
-3.510217843612216
 20
-0.3107683924265914
 30
0.0
 10
-3.508251471143192
 20
-0.2993821314217956
 30
0.0
 10
-3.507736691312191
 20
-0.2964013037260626
 30
0.0
  0
SPLINE
  5
249
330
203
100
AcDbEntity
  8
0
  6
Continuous
 62
     7
370
    25
100
AcDbSpline
210
0.0
220
0.0
230
1.0
 70
     8
 71
     3
 72
    15
 73
    11
 74
     0
 42
0.000000001
 43
0.00000001
 40
0.0
 40
0.0
 40
0.0
 40
0.0
 40
0.0394892453308324
 40
0.1834038218523961
 40
0.3266138976791428
 40
0.4676585124448064
 40
0.6084831740266045
 40
0.7513395845120137
 40
0.8953455035050145
 40
0.9999999999999999
 40
0.9999999999999999
 40
0.9999999999999999
 40
0.9999999999999999
 10
-3.208224813529053
 20
-0.2964671971898905
 30
0.0
 10
-3.207730180918198
 20
-0.2995021576163974
 30
0.0
 10
-3.205432909585628
 20
-0.3135977255799997
 30
0.0
 10
-3.218563926418147
 20
-0.3383773485922201
 30
0.0
 10
-3.246827351753773
 20
-0.3645091232846987
 30
0.0
 10
-3.288518845123414
 20
-0.3808855128315133
 30
0.0
 10
-3.337383855706486
 20
-0.3863443389203417
 30
0.0
 10
-3.388712016177649
 20
-0.38131306974007
 30
0.0
 10
-3.433386210536689
 20
-0.368916909713472
 30
0.0
 10
-3.455837444746863
 20
-0.35739193488858
 30
0.0
 10
-3.465286566784825
 20
-0.3525413822380929
 30
0.0
  0
LWPOLYLINE
  5
24A
330
203
100
AcDbEntity
  8
0
  6
Continuous
 62
     7
370
    25
100
AcDbPolyline
 90
       30
 70
   128
 43
0.0
 10
-3.457658938
 20
-0.2470134944
 10
-3.433930744
 20
-0.2580242506
 10
-3.4066571158
 20
-0.2658329174
 10
-3.377113338
 20
-0.2700743704
 10
-3.3466808447
 20
-0.2705502838
 10
-3.3167826256
 20
-0.2672384044
 10
-3.2888166881
 20
-0.2602935922
 10
-3.2640906883
 20
-0.2500405787
 10
-3.2437607865
 20
-0.2369587835
 10
-3.2287775865
 20
-0.2216598968
 10
-3.2198416858
 20
-0.2048592775
 10
-3.2173709174
 20
-0.187342504
 10
-3.2214808116
 20
-0.169928641
 10
-3.2319791942
 20
-0.1534319415
 10
-3.2483751727
 20
-0.1386237728
 10
-3.2699020893
 20
-0.1261965484
 10
-3.2955533693
 20
-0.1167313515
 10
-3.3241295873
 20
-0.1106707641
 10
-3.3542945511
 20
-0.1082981727
 10
-3.3846377807
 20
-0.109724517
 10
-3.4137404602
 20
-0.1148831026
 10
-3.4402417807
 20
-0.1235327199
 10
-3.46290257
 20
-0.1352689224
 10
-3.4806632347
 20
-0.1495429382
 10
-3.4926933058
 20
-0.1656873303
 10
-3.4984302707
 20
-0.1829472048
 10
-3.4976058752
 20
-0.2005155093
 10
-3.4902586671
 20
-0.2175707692
 10
-3.4767321937
 20
-0.2333154996
 10
-3.457658938
 20
-0.2470134944
  0
LWPOLYLINE
  5
24B
330
203
100
AcDbEntity
  8
0
  6
Continuous
 62
     7
370
    25
100
AcDbPolyline
 90
       10
 70
   128
 43
0.0
 10
-3.5529789432
 20
-2.2355467879
 10
-3.5733634689
 20
-2.2445764895
 10
-3.5971017519
 20
-2.2502527972
 10
-3.6225760673
 20
-2.25218888
 10
-3.6480503828
 20
-2.2502527972
 10
-3.6717886657
 20
-2.2445764895
 10
-3.6921731915
 20
-2.2355467879
 10
-3.7078147882
 20
-2.2237790517
 10
-3.7176475069
 20
-2.2100752326
 10
-3.7208662014
 20
-2.1983448556
  0
LWPOLYLINE
  5
24D
330
203
100
AcDbEntity
  8
0
  6
Continuous
 62
     7
370
    25
100
AcDbPolyline
 90
       70
 70
   128
 43
0.0
 10
-5.5991343927
 20
-0.33095521
 10
-5.6014412074
 20
-0.2711573518
 10
-5.6083425367
 20
-0.2091916058
 10
-5.6197811939
 20
-0.1455714397
 10
-5.6356623948
 20
-0.0808240304
 10
-5.6558545426
 20
-0.0154858951
 10
-5.6801903189
 20
0.0499015537
 10
-5.7084680698
 20
0.114796495
 10
-5.7404534769
 20
0.178661189
 10
-5.7758814991
 20
0.2409664326
 10
-5.8144585686
 20
0.3011959449
 10
-5.8558650237
 20
0.3588506454
 10
-5.8997577574
 20
0.4134527889
 10
-5.9457730608
 20
0.4645499249
 10
-5.9935296365
 20
0.5117186465
 10
-6.0426317586
 20
0.5545680987
 10
-6.0926725513
 20
0.5927432175
 10
-6.1432373609
 20
0.6259276719
 10
-6.1939071915
 20
0.6538464849
 10
-6.2442621768
 20
0.6762683127
 10
-6.2938850597
 20
0.6930073607
 10
-6.3423646493
 20
0.703924924
 10
-6.3892992283
 20
0.7089305362
 10
-6.4342998823
 20
0.7079827193
 10
-6.4769937215
 20
0.701089327
 10
-6.5170269713
 20
0.6883074804
 10
-6.5540679036
 20
0.6697430937
 10
-6.5878095857
 20
0.6455499974
 10
-6.6179724232
 20
0.615928663
 10
-6.6443064775
 20
0.5811245422
 10
-6.6665935362
 20
0.541426033
 10
-6.6846489218
 20
0.4971620897
 10
-6.6983230216
 20
0.4486994973
 10
-6.7075025278
 20
0.396439832
 10
-6.7121113761
 20
0.340816134
 10
-6.7121113761
 20
0.2822893187
 10
-6.7075025278
 20
0.2213443577
 10
-6.6983230216
 20
0.1584862602
 10
-6.6846489218
 20
0.0942358881
 10
-6.6665935362
 20
0.0291256403
 10
-6.6443064775
 20
-0.0363049592
 10
-6.6179724232
 20
-0.1015137318
 10
-6.5878095857
 20
-0.1659603371
 10
-6.5540679036
 20
-0.2291107504
 10
-6.5170269713
 20
-0.2904416872
 10
-6.4769937215
 20
-0.3494449402
 10
-6.4342998823
 20
-0.4056315899
 10
-6.3892992283
 20
-0.458536056
 10
-6.3423646493
 20
-0.5077199553
 10
-6.2938850597
 20
-0.5527757347
 10
-6.2442621768
 20
-0.5933300477
 10
-6.1939071915
 20
-0.6290468486
 10
-6.1432373609
 20
-0.6596301766
 10
-6.0926725513
 20
-0.6848266087
 10
-6.0426317586
 20
-0.7044273594
 10
-5.9935296365
 20
-0.7182700105
 10
-5.9457730608
 20
-0.7262398577
 10
-5.8997577574
 20
-0.7282708601
 10
-5.8558650237
 20
-0.7243461883
 10
-5.8144585686
 20
-0.7144983633
 10
-5.7758814991
 20
-0.6988089873
 10
-5.7404534769
 20
-0.6774080675
 10
-5.7084680698
 20
-0.6504729385
 10
-5.6801903189
 20
-0.6182267934
 10
-5.6558545426
 20
-0.5809368338
 10
-5.6356623948
 20
-0.5389120562
 10
-5.6197811939
 20
-0.492500691
 10
-5.6083425367
 20
-0.4420873175
 10
-5.6014412074
 20
-0.3880896767
 10
-5.5991343927
 20
-0.33095521
  0
SPLINE
  5
252
330
203
100
AcDbEntity
  8
0
  6
Continuous
 62
     7
370
    25
100
AcDbSpline
210
0.0
220
0.0
230
1.0
 70
     8
 71
     3
 72
    18
 73
    14
 74
     0
 42
0.000000001
 43
0.00000001
 40
0.0
 40
0.0
 40
0.0
 40
0.0
 40
0.0501274251257297
 40
0.1546503485035891
 40
0.2580816207392903
 40
0.3598569896707368
 40
0.4615578512723996
 40
0.5648270157662416
 40
0.6693111488117139
 40
0.7734352250846479
 40
0.8768141731170622
 40
0.9805228675695656
 40
1.0
 40
1.0
 40
1.0
 40
1.0
 10
-5.716532689503728
 20
0.8422749876651828
 30
0.0
 10
-5.715714207233364
 20
0.8375822209553891
 30
0.0
 10
-5.713189071181826
 20
0.8231043576840302
 30
0.0
 10
-5.725554085557434
 20
0.7993931417331603
 30
0.0
 10
-5.751451334125228
 20
0.7765767361768274
 30
0.0
 10
-5.788775531669647
 20
0.76231937781805
 30
0.0
 10
-5.832346158383747
 20
0.7575964793148553
 30
0.0
 10
-5.878168608254971
 20
0.7620265614436255
 30
0.0
 10
-5.921075576687705
 20
0.7743230482231758
 30
0.0
 10
-5.956347383618969
 20
0.7923926794208599
 30
0.0
 10
-5.978201731943924
 20
0.8138863457613026
 30
0.0
 10
-5.9873124991213
 20
0.830835213854759
 30
0.0
 10
-5.984163628516483
 20
0.8399141041565958
 30
0.0
 10
-5.983665754927219
 20
0.8413495838152958
 30
0.0
  0
LWPOLYLINE
  5
253
330
203
100
AcDbEntity
  8
0
  6
Continuous
 62
     7
370
    25
100
AcDbPolyline
 90
       14
 70
   128
 43
0.0
 10
-5.9481092364
 20
1.2441803385
 10
-5.9447554792
 20
1.2294743292
 10
-5.9349227604
 20
1.2157705101
 10
-5.9192811637
 20
1.2040027739
 10
-5.898896638
 20
1.1949730723
 10
-5.875158355
 20
1.1892967646
 10
-5.8496840396
 20
1.1873606818
 10
-5.8242097241
 20
1.1892967646
 10
-5.8004714411
 20
1.1949730723
 10
-5.7800869154
 20
1.2040027739
 10
-5.7644453187
 20
1.2157705101
 10
-5.7546126
 20
1.2294743292
 10
-5.7512588427
 20
1.2441803385
 10
-5.7512588427
 20
1.2441803385
  0
LWPOLYLINE
  5
254
330
203
100
AcDbEntity
  8
0
  6
Continuous
 62
     8
370
    25
100
AcDbPolyline
 90
       45
 70
   128
 43
0.0
 10
-3.270477684
 20
0.0394744091
 10
-3.2700263378
 20
0.0401181519
 10
-3.2416447539
 20
0.075178696
 10
-3.209488368
 20
0.1050078872
 10
-3.1738019096
 20
0.1293787072
 10
-3.1348569741
 20
0.1481056796
 10
-3.0929499561
 20
0.1610462806
 10
-3.0483997932
 20
0.1681020245
 10
-3.0015455392
 20
0.1692192128
 10
-2.9527437831
 20
0.1643893431
 10
-2.9023659358
 20
0.1536491736
 10
-2.8507954031
 20
0.1370804434
 10
-2.798424668
 20
0.1148092505
 10
-2.7456523033
 20
0.0870050923
 10
-2.6928799385
 20
0.0538795752
 10
-2.6405092034
 20
0.0156848042
 10
-2.5889386707
 20
-0.0272885352
 10
-2.5385608234
 20
-0.07471339
 10
-2.4897590673
 20
-0.1262288286
 10
-2.4429048133
 20
-0.1814427872
 10
-2.3983546504
 20
-0.2399350542
 10
-2.3564476324
 20
-0.3012604684
 10
-2.317502697
 20
-0.3649523061
 10
-2.2818162385
 20
-0.430525834
 10
-2.2496598526
 20
-0.4974819981
 10
-2.2212782688
 20
-0.5653112215
 10
-2.1968874879
 20
-0.6334972827
 10
-2.1766731387
 20
-0.7015212448
 10
-2.1607890644
 20
-0.7688654044
 10
-2.1493561526
 20
-0.8350172316
 10
-2.1424614145
 20
-0.8994732711
 10
-2.1401573233
 20
-0.9617429736
 10
-2.1424614145
 20
-1.021352429
 10
-2.1493561526
 20
-1.0778479734
 10
-2.1607890644
 20
-1.1307996416
 10
-2.1766731387
 20
-1.1798044393
 10
-2.1968874879
 20
-1.2244894106
 10
-2.2212782688
 20
-1.2645144757
 10
-2.2496598526
 20
-1.2995750198
 10
-2.2818162385
 20
-1.329404211
 10
-2.317502697
 20
-1.3537750311
 10
-2.3564476324
 20
-1.3725020034
 10
-2.3983546504
 20
-1.3854426045
 10
-2.4429048133
 20
-1.3924983484
 10
-2.44377322
 20
-1.3925748909
  0
LWPOLYLINE
  5
255
330
203
100
AcDbEntity
  8
0
  6
Continuous
 62
     8
370
    25
100
AcDbPolyline
 90
       45
 70
   128
 43
0.0
 10
-5.4975856562
 20
1.3251564749
 10
-5.49713431
 20
1.3258002177
 10
-5.4687527261
 20
1.3608607618
 10
-5.4365963402
 20
1.390689953
 10
-5.4009098818
 20
1.4150607731
 10
-5.3619649463
 20
1.4337877454
 10
-5.3200579283
 20
1.4467283465
 10
-5.2755077655
 20
1.4537840904
 10
-5.2286535114
 20
1.4549012787
 10
-5.1798517553
 20
1.450071409
 10
-5.129473908
 20
1.4393312394
 10
-5.0779033754
 20
1.4227625092
 10
-5.0255326402
 20
1.4004913164
 10
-4.9727602755
 20
1.3726871582
 10
-4.9199879108
 20
1.339561641
 10
-4.8676171756
 20
1.3013668701
 10
-4.816046643
 20
1.2583935307
 10
-4.7656687957
 20
1.2109686758
 10
-4.7168670396
 20
1.1594532373
 10
-4.6700127855
 20
1.1042392787
 10
-4.6254626227
 20
1.0457470116
 10
-4.5835556047
 20
0.9844215975
 10
-4.5446106692
 20
0.9207297598
 10
-4.5089242108
 20
0.8551562318
 10
-4.4767678249
 20
0.7882000678
 10
-4.448386241
 20
0.7203708444
 10
-4.4239954602
 20
0.6521847831
 10
-4.4037811109
 20
0.584160821
 10
-4.3878970367
 20
0.5168166615
 10
-4.3764641248
 20
0.4506648343
 10
-4.3695693867
 20
0.3862087948
 10
-4.3672652955
 20
0.3239390923
 10
-4.3695693867
 20
0.2643296369
 10
-4.3764641248
 20
0.2078340925
 10
-4.3878970367
 20
0.1548824243
 10
-4.4037811109
 20
0.1058776265
 10
-4.4239954602
 20
0.0611926553
 10
-4.448386241
 20
0.0211675901
 10
-4.4767678249
 20
-0.013892954
 10
-4.5089242108
 20
-0.0437221452
 10
-4.5446106692
 20
-0.0680929652
 10
-4.5835556047
 20
-0.0868199376
 10
-4.6254626227
 20
-0.0997605386
 10
-4.6700127855
 20
-0.1068162825
 10
-4.6708811922
 20
-0.1068928251
  0
LWPOLYLINE
  5
25E
330
203
100
AcDbEntity
  8
0
  6
Continuous
 62
     8
370
    25
100
AcDbPolyline
 90
       37
 70
   128
 43
0.0
 10
-4.3143167958
 20
-0.5631210836
 10
-4.3049707368
 20
-0.5579643279
 10
-4.2654665798
 20
-0.5409143963
 10
-4.2230276669
 20
-0.5298082693
 10
-4.1779956913
 20
-0.524735367
 10
-4.1307332239
 20
-0.5257365334
 10
-4.0816207944
 20
-0.5328037077
 10
-4.0310538272
 20
-0.5458799891
 10
-3.9794394577
 20
-0.5648600951
 10
-3.9271932545
 20
-0.5895912091
 10
-3.8747358733
 20
-0.6198742107
 10
-3.82248967
 20
-0.6554652789
 10
-3.7708753005
 20
-0.6960778555
 10
-3.7203083333
 20
-0.7413849517
 10
-3.6711959038
 20
-0.7910217816
 10
-3.6239334364
 20
-0.8445886985
 10
-3.5789014608
 20
-0.9016544132
 10
-3.5364625479
 20
-0.961759466
 10
-3.4969583909
 20
-1.0244199264
 10
-3.4607070541
 20
-1.0891312892
 10
-3.4280004119
 20
-1.1553725366
 10
-3.399101799
 20
-1.222610333
 10
-3.3742438899
 20
-1.2903033193
 10
-3.353626826
 20
-1.3579064712
 10
-3.3374166037
 20
-1.4248754879
 10
-3.3257437382
 20
-1.4906711744
 10
-3.3187022126
 20
-1.5547637824
 10
-3.3163487211
 20
-1.6166372759
 10
-3.3187022126
 20
-1.675793486
 10
-3.3257437382
 20
-1.7317561215
 10
-3.3374166037
 20
-1.7840746044
 10
-3.353626826
 20
-1.8323276969
 10
-3.3742438899
 20
-1.8761268935
 10
-3.399101799
 20
-1.9151195488
 10
-3.4280004119
 20
-1.9489917169
 10
-3.4607070541
 20
-1.977470679
 10
-3.482844668
 20
-1.9923538441
  0
LWPOLYLINE
  5
260
330
203
100
AcDbEntity
  8
0
  6
Continuous
 62
     8
370
    25
100
AcDbPolyline
 90
       13
 70
   128
 43
0.0
 10
-3.2065405305
 20
-0.2047990241
 10
-3.2067399205
 20
-0.2084607434
 10
-3.2116969786
 20
-0.2265284827
 10
-3.2230528571
 20
-0.2436064283
 10
-3.2403112495
 20
-0.258948192
 10
-3.2627178812
 20
-0.2718832652
 10
-3.289293475
 20
-0.281846323
 10
-3.3188765498
 20
-0.2884019321
 10
-3.3501741834
 20
-0.2912635809
 10
-3.3818185189
 20
-0.2903062016
 10
-3.412426547
 20
-0.2855716362
 10
-3.4406605501
 20
-0.277266808
 10
-3.4652865668
 20
-0.2657546778
  0
LWPOLYLINE
  5
261
330
203
100
AcDbEntity
  8
0
  6
Continuous
 62
     8
370
    25
100
AcDbPolyline
 90
       10
 70
   128
 43
0.0
 10
-5.5434566934
 20
-0.33095521
 10
-5.5458101849
 20
-0.3901114201
 10
-5.5528517105
 20
-0.4460740557
 10
-5.5645245759
 20
-0.4983925385
 10
-5.5807347982
 20
-0.546645631
 10
-5.6013518621
 20
-0.5904448276
 10
-5.6262097712
 20
-0.6294374829
 10
-5.6551083842
 20
-0.663309651
 10
-5.6878150264
 20
-0.6917886132
 10
-5.706449741
 20
-0.7045188537
  0
LWPOLYLINE
  5
262
330
203
100
AcDbEntity
  8
0
  6
Continuous
 62
     8
370
    25
100
AcDbPolyline
 90
       28
 70
   128
 43
0.0
 10
-6.5414247681
 20
0.7225609823
 10
-6.532078709
 20
0.7277177379
 10
-6.492574552
 20
0.7447676696
 10
-6.4501356392
 20
0.7558737965
 10
-6.4051036635
 20
0.7609466988
 10
-6.3578411962
 20
0.7599455325
 10
-6.3087287667
 20
0.7528783582
 10
-6.2581617994
 20
0.7398020768
 10
-6.2065474299
 20
0.7208219708
 10
-6.1543012267
 20
0.6960908568
 10
-6.1018438455
 20
0.6658078552
 10
-6.0495976423
 20
0.6302167869
 10
-5.9979832728
 20
0.5896042104
 10
-5.9474163055
 20
0.5442971141
 10
-5.898303876
 20
0.4946602843
 10
-5.8510414086
 20
0.4410933673
 10
-5.806009433
 20
0.3840276527
 10
-5.7635705202
 20
0.3239225999
 10
-5.7240663632
 20
0.2612621395
 10
-5.6878150264
 20
0.1965507766
 10
-5.6551083842
 20
0.1303095292
 10
-5.6262097712
 20
0.0630717328
 10
-5.6013518621
 20
-0.0046212534
 10
-5.5807347982
 20
-0.0722244053
 10
-5.5645245759
 20
-0.1391934221
 10
-5.5528517105
 20
-0.2049891085
 10
-5.5458101849
 20
-0.2690817165
 10
-5.5434566934
 20
-0.33095521
  0
LINE
  5
263
330
203
100
AcDbEntity
  8
0
  6
Continuous
 62
     7
370
    25
100
AcDbLine
 10
-0.9749416774
 20
-3.0844923454
 30
0.0
 11
-0.8775057036
 21
-3.028243755
 31
0.0
  0
LINE
  5
264
330
203
100
AcDbEntity
  8
0
  6
Continuous
 62
     7
370
    25
100
AcDbLine
 10
-5.5299356849
 20
-0.6028144277
 30
0.0
 11
-4.4578806812
 21
-1.221698608
 31
0.0
  0
LINE
  5
265
330
203
100
AcDbEntity
  8
0
  6
Continuous
 62
     7
370
    25
100
AcDbLine
 10
-3.3028277127
 20
-1.8884964935
 30
0.0
 11
-1.2800349915
 21
-3.0562298756
 31
0.0
  0
LINE
  5
266
330
203
100
AcDbEntity
  8
0
  6
Continuous
 62
     7
370
    25
100
AcDbLine
 10
-6.6181960779
 20
3.2180977036
 30
0.0
 11
-6.7156320517
 21
3.1618491132
 31
0.0
  0
LINE
  5
267
330
203
100
AcDbEntity
  8
0
  6
Continuous
 62
     7
370
    25
100
AcDbLine
 10
-6.8437288168
 20
2.883432809
 30
0.0
 11
-6.8437288168
 21
0.633123485
 31
0.0
  0
LINE
  5
268
330
203
100
AcDbEntity
  8
0
  6
Continuous
 62
     7
370
    25
100
AcDbLine
 10
-3.0894074111
 20
0.1440040526
 30
0.0
 11
-4.3143167958
 21
-0.5631210836
 31
0.0
  0
LINE
  5
269
330
203
100
AcDbEntity
  8
0
  6
Continuous
 62
     7
370
    25
100
AcDbLine
 10
-3.4876123319
 20
-1.9951703836
 30
0.0
 11
-2.2627029471
 21
-1.2880452474
 31
0.0
  0
LINE
  5
26A
330
203
100
AcDbEntity
  8
0
  6
Continuous
 62
     7
370
    25
100
AcDbLine
 10
-3.2065321925
 20
-0.2963947782
 30
0.0
 11
-3.2065321925
 21
-0.2038812284
 31
0.0
  0
LINE
  5
26B
330
203
100
AcDbEntity
  8
0
  6
Continuous
 62
     7
370
    25
100
AcDbLine
 10
-3.5096817988
 20
-0.2038812284
 30
0.0
 11
-3.5096817988
 21
-0.2963452706
 31
0.0
  0
LINE
  5
26C
330
203
100
AcDbEntity
  8
0
  6
Continuous
 62
     7
370
    25
100
AcDbLine
 10
-3.7363447032
 20
-2.0279548085
 30
0.0
 11
-3.7208662014
 21
-2.1983448556
 31
0.0
  0
LINE
  5
26D
330
203
100
AcDbEntity
  8
0
  6
Continuous
 62
     7
370
    25
100
AcDbLine
 10
-3.5242859333
 20
-2.1983448556
 30
0.0
 11
-3.506676854
 21
-2.0045010405
 31
0.0
  0
LINE
  5
26E
330
203
100
AcDbEntity
  8
0
  6
Continuous
 62
     7
370
    25
100
AcDbLine
 10
-5.3165153834
 20
1.4296861185
 30
0.0
 11
-5.7454796071
 21
1.1820503432
 31
0.0
  0
LINE
  5
26F
330
203
100
AcDbEntity
  8
0
  6
Continuous
 62
     7
370
    25
100
AcDbLine
 10
-5.9654226666
 20
1.0550799176
 30
0.0
 11
-6.5414247681
 21
0.7225609823
 31
0.0
  0
LINE
  5
270
330
203
100
AcDbEntity
  8
0
  6
Continuous
 62
     7
370
    25
100
AcDbLine
 10
-5.7147203041
 20
-0.7094883177
 30
0.0
 11
-4.4898109194
 21
-0.0023631815
 31
0.0
  0
LINE
  5
271
330
203
100
AcDbEntity
  8
0
  6
Continuous
 62
     7
370
    25
100
AcDbLine
 10
-5.7146301971
 20
0.842454658
 30
0.0
 11
-5.7512724916
 21
1.2458194257
 31
0.0
  0
LINE
  5
272
330
203
100
AcDbEntity
  8
0
  6
Continuous
 62
     7
370
    25
100
AcDbLine
 10
-5.9480955875
 20
1.2458194257
 30
0.0
 11
-5.9848221964
 21
0.8415265109
 31
0.0
  0
LINE
  5
273
330
203
100
AcDbEntity
  8
0
  6
Continuous
 62
     7
370
    25
100
AcDbLine
 10
-0.8526105268
 20
-0.56380223
 30
0.0
 11
-0.7551745531
 21
-0.5075536397
 31
0.0
  0
LINE
  5
274
330
203
100
AcDbEntity
  8
0
  6
Continuous
 62
     7
370
    25
100
AcDbLine
 10
-1.2701932716
 20
0.1594722982
 30
0.0
 11
-1.1727572979
 21
0.2157208886
 31
0.0
  0
LINE
  5
275
330
203
100
AcDbEntity
  8
0
  6
Continuous
 62
     7
370
    25
100
AcDbLine
 10
-6.8379632022
 20
2.8753972961
 30
0.0
 11
-6.8379632022
 21
0.625087972
 31
0.0
  0
LINE
  5
276
330
203
100
AcDbEntity
  8
0
  6
Continuous
 62
     7
370
    25
100
AcDbLine
 10
-1.2841126965
 20
0.1353631472
 30
0.0
 11
-6.4342998823
 21
3.1085029245
 31
0.0
  0
LINE
  5
277
330
203
100
AcDbEntity
  8
0
  6
Continuous
 62
     7
370
    25
100
AcDbLine
 10
-0.8804493765
 20
-2.8141115541
 30
0.0
 11
-0.8804493765
 21
-0.56380223
 31
0.0
  0
LINE
  5
278
330
203
100
AcDbEntity
  8
0
  6
Continuous
 62
     7
370
    25
100
AcDbLine
 10
-0.8526105268
 20
-0.56380223
 30
0.0
 11
-0.8526105268
 21
-2.8141115541
 31
0.0
  0
LINE
  5
279
330
203
100
AcDbEntity
  8
0
  6
Continuous
 62
     7
370
    25
100
AcDbLine
 10
-6.4203804575
 20
3.1326120755
 30
0.0
 11
-1.2701932716
 21
0.1594722982
 31
0.0
  0
LINE
  5
27A
330
203
100
AcDbEntity
  8
0
  6
Continuous
 62
     7
370
    25
100
AcDbLine
 10
-0.8526105268
 20
-2.8141115541
 30
0.0
 11
-0.7551745531
 21
-2.7578629638
 31
0.0
  0
LINE
  5
27B
330
203
100
AcDbEntity
  8
0
  6
Continuous
 62
     7
370
    25
100
AcDbLine
 10
-0.7551745531
 20
-2.7578629638
 30
0.0
 11
-0.7551745531
 21
-0.5075536397
 31
0.0
  0
LINE
  5
27C
330
203
100
AcDbEntity
  8
0
  6
Continuous
 62
     7
370
    25
100
AcDbLine
 10
-6.4203804575
 20
3.1326120755
 30
0.0
 11
-6.3229444837
 21
3.1888606659
 31
0.0
  0
LINE
  5
27D
330
203
100
AcDbEntity
  8
0
  6
Continuous
 62
     7
370
    25
100
AcDbLine
 10
-1.1727572979
 20
0.2157208886
 30
0.0
 11
-6.3229444837
 21
3.1888606659
 31
0.0
  0
LINE
  5
27E
330
203
100
AcDbEntity
  8
0
  6
Continuous
 62
     7
370
    25
100
AcDbLine
 10
-4.322587359
 20
-0.5680905477
 30
0.0
 11
-4.3143167958
 21
-0.5631210836
 31
0.0
  0
LINE
  5
27F
330
203
100
AcDbEntity
  8
0
  6
Continuous
 62
     7
370
    25
100
AcDbLine
 10
-3.482844668
 20
-1.9923538441
 30
0.0
 11
-3.4876123319
 21
-1.9951703836
 31
0.0
  0
LINE
  5
280
330
203
100
AcDbEntity
  8
0
  6
Continuous
 62
     7
370
    25
100
AcDbLine
 10
-2.2627029471
 20
-1.2880452474
 30
0.0
 11
-2.2538761339
 21
-1.2827272472
 31
0.0
  0
LINE
  5
281
330
203
100
AcDbEntity
  8
0
  6
Continuous
 62
     7
370
    25
100
AcDbLine
 10
-3.0803880135
 20
0.1489884506
 30
0.0
 11
-3.0894074111
 21
0.1440040526
 31
0.0
  0
LINE
  5
282
330
203
100
AcDbEntity
  8
0
  6
Continuous
 62
     7
370
    25
100
AcDbLine
 10
-5.706449741
 20
-0.7045188537
 30
0.0
 11
-5.7147203041
 21
-0.7094883177
 31
0.0
  0
LINE
  5
283
330
203
100
AcDbEntity
  8
0
  6
Continuous
 62
     7
370
    25
100
AcDbLine
 10
-6.546192432
 20
0.7197444428
 30
0.0
 11
-6.5414247681
 21
0.7225609823
 31
0.0
  0
LINE
  5
284
330
203
100
AcDbEntity
  8
0
  6
Continuous
 62
     7
370
    25
100
AcDbLine
 10
-5.3074959857
 20
1.4346705165
 30
0.0
 11
-5.3165153834
 21
1.4296861185
 31
0.0
  0
LINE
  5
285
330
203
100
AcDbEntity
  8
0
  6
Continuous
 62
     7
370
    25
100
AcDbLine
 10
-4.4898109194
 20
-0.0023631815
 30
0.0
 11
-4.4809841062
 21
0.0029548187
 31
0.0
  0
LINE
  5
286
330
203
100
AcDbEntity
  8
0
  6
Continuous
 62
     8
370
    25
100
AcDbLine
 10
-5.5241684705
 20
-0.5994850857
 30
0.0
 11
-4.4599594106
 21
-1.213839899
 31
0.0
  0
LINE
  5
287
330
203
100
AcDbEntity
  8
0
  6
Continuous
 62
     8
370
    25
100
AcDbLine
 10
-3.2970604982
 20
-1.8851671515
 30
0.0
 11
-1.2841126965
 21
-3.0472171826
 31
0.0
  0
ARC
  5
288
330
203
100
AcDbEntity
  8
0
  6
Continuous
 62
     7
370
    25
100
AcDbCircle
 10
-3.6225760673
 20
-2.1953692233
 30
0.0
 40
0.0984251968503949
100
AcDbArc
 50
180.0
 51
0.0
  0
ARC
  5
289
330
203
100
AcDbEntity
  8
0
  6
Continuous
 62
     7
370
    25
100
AcDbCircle
 10
-5.8496840396
 20
1.2441803385
 30
0.0
 40
0.0984251968503935
100
AcDbArc
 50
0.0
 51
180.0
  0
ARC
  5
28A
330
203
100
AcDbEntity
  8
0
  6
Continuous
 62
     7
370
    25
100
AcDbCircle
 10
-1.7547247241
 20
-0.6024550867
 30
0.0
 40
0.9029418963514833
100
AcDbArc
 50
2.4534496702
 51
57.5465504754
  0
ARC
  5
28B
330
203
100
AcDbEntity
  8
0
  6
Continuous
 62
     7
370
    25
100
AcDbCircle
 10
-0.8665299517
 20
-0.5369378386
 30
0.0
 40
0.0302563367699087
100
AcDbArc
 50
242.6096722366
 51
297.3903277634
  0
ARC
  5
28C
330
203
100
AcDbEntity
  8
0
  6
Continuous
 62
     7
370
    25
100
AcDbCircle
 10
-1.7524931005
 20
-0.6011666581
 30
0.0
 40
0.8728438331397693
100
AcDbArc
 50
2.4534496702
 51
57.5465504754
  0
ARC
  5
28D
330
203
100
AcDbEntity
  8
0
  6
Continuous
 62
     7
370
    25
100
AcDbCircle
 10
-1.2538919071
 20
0.1339879336
 30
0.0
 40
0.0302520631411827
100
AcDbArc
 50
122.60547834
 51
177.3945215143
  0
ARC
  5
28E
330
203
100
AcDbEntity
  8
0
  6
Continuous
 62
     7
370
    25
100
AcDbCircle
 10
-1.6572887503
 20
-0.5462064963
 30
0.0
 40
0.9029418963514844
100
AcDbArc
 50
2.4534496702
 51
57.5465504754
  0
ARC
  5
28F
330
203
100
AcDbEntity
  8
0
  6
Continuous
 62
     7
370
    25
100
AcDbCircle
 10
-0.8665299517
 20
-2.7872471627
 30
0.0
 40
0.0302563367699184
100
AcDbArc
 50
242.6096722366
 51
297.3903277634
  0
ARC
  5
290
330
203
100
AcDbEntity
  8
0
  6
Continuous
 62
     7
370
    25
100
AcDbCircle
 10
-6.4040790929
 20
3.1071277109
 30
0.0
 40
0.0302520631411835
100
AcDbArc
 50
122.60547834
 51
177.3945215143
  0
ARC
  5
291
330
203
100
AcDbEntity
  8
0
  6
Continuous
 62
     7
370
    25
100
AcDbCircle
 10
-2.4566007189
 20
-1.0806324754
 30
0.0
 40
0.2862837876074826
100
AcDbArc
 50
285.0295895232
 51
319.8248127572
  0
ARC
  5
292
330
203
100
AcDbEntity
  8
0
  6
Continuous
 62
     7
370
    25
100
AcDbCircle
 10
-3.0055777045
 20
-0.1295315525
 30
0.0
 40
0.2884627324345918
100
AcDbArc
 50
96.2730426313
 51
134.8639341292
  0
ARC
  5
293
330
203
100
AcDbEntity
  8
0
  6
Continuous
 62
     7
370
    25
100
AcDbCircle
 10
-1.0779633697
 20
-2.9060721602
 30
0.0
 40
0.2057463948285658
100
AcDbArc
 50
275.9095467267
 51
323.2384193593
  0
ARC
  5
294
330
203
100
AcDbEntity
  8
0
  6
Continuous
 62
     7
370
    25
100
AcDbCircle
 10
-1.0436638141
 20
-2.790202976
 30
0.0
 40
0.2902962799212272
100
AcDbArc
 50
304.9159547339
 51
6.3962256595
  0
ARC
  5
295
330
203
100
AcDbEntity
  8
0
  6
Continuous
 62
     7
370
    25
100
AcDbCircle
 10
-4.6837086911
 20
0.2050495904
 30
0.0
 40
0.286283787607434
100
AcDbArc
 50
285.0295895232
 51
319.8248127572
  0
ARC
  5
296
330
203
100
AcDbEntity
  8
0
  6
Continuous
 62
     7
370
    25
100
AcDbCircle
 10
-5.2326856767
 20
1.1561505134
 30
0.0
 40
0.2884627324345435
100
AcDbArc
 50
96.2730426313
 51
134.8639341292
  0
ARC
  5
297
330
203
100
AcDbEntity
  8
0
  6
Continuous
 62
     7
370
    25
100
AcDbCircle
 10
-6.6126103594
 20
2.9834289281
 30
0.0
 40
0.2057463948285566
100
AcDbArc
 50
95.9095467267
 51
143.2384193593
  0
ARC
  5
298
330
203
100
AcDbEntity
  8
0
  6
Continuous
 62
     7
370
    25
100
AcDbCircle
 10
-6.4951541042
 20
2.9552182929
 30
0.0
 40
0.2902497404485637
100
AcDbArc
 50
53.6073712523
 51
115.0821703186
  0
ARC
  5
299
330
203
100
AcDbEntity
  8
0
  6
Continuous
 62
     7
370
    25
100
AcDbCircle
 10
-3.5741352944
 20
-2.1895632708
 30
0.0
 40
0.0506169441846225
100
AcDbArc
 50
294.7064751649
 51
350.0091438703
  0
ARC
  5
29A
330
203
100
AcDbEntity
  8
0
  6
Continuous
 62
     8
370
    25
100
AcDbCircle
 10
-6.0039121618
 20
0.6563973586
 30
0.0
 40
0.834638494050378
100
AcDbArc
 50
182.1498130158
 51
211.0320829782
  0
ARC
  5
29B
330
203
100
AcDbEntity
  8
0
  6
Continuous
 62
     8
370
    25
100
AcDbCircle
 10
-1.2035660541
 20
-2.8314251798
 30
0.0
 40
0.3513823327038919
100
AcDbArc
 50
325.7453207801
 51
2.8242726562
  0
ARC
  5
29C
330
203
100
AcDbEntity
  8
0
  6
Continuous
 62
     8
370
    25
100
AcDbCircle
 10
-1.2747495419
 20
-3.0484095617
 30
0.0
 40
0.0094387727433975
100
AcDbArc
 50
172.7425601957
 51
235.9596855682
  0
ARC
  5
29D
330
203
100
AcDbEntity
  8
0
  6
Continuous
 62
     8
370
    25
100
AcDbCircle
 10
-6.613365577
 20
2.8284013206
 30
0.0
 40
0.3602602389210174
100
AcDbArc
 50
57.6097886089
 51
93.2506242754
  0
ARC
  5
29E
330
203
100
AcDbEntity
  8
0
  6
Continuous
 62
     8
370
    25
100
AcDbCircle
 10
-6.8338767348
 20
2.8844158858
 30
0.0
 40
0.0099012209535901
100
AcDbArc
 50
185.7106738963
 51
245.6239580701
  0
ARC
  5
29F
330
203
100
AcDbEntity
  8
0
  6
Continuous
 62
     8
370
    25
100
AcDbCircle
 10
-6.8338772998
 20
0.6341058939
 30
0.0
 40
0.0099003794979095
100
AcDbArc
 50
185.6947992512
 51
245.6253417064
  0
ARC
  5
2A0
330
203
100
AcDbEntity
  8
0
  6
Continuous
 62
     8
370
    25
100
AcDbCircle
 10
-3.4347729801
 20
-0.1970689024
 30
0.0
 40
0.075158597102827
100
AcDbArc
 50
184.7103101586
 51
246.0468629764
  0
VIEWPORT
  5
2AB
330
203
100
AcDbEntity
  8
0
100
AcDbViewport
 10
0.0
 20
0.0
 30
0.0
 40
8.4
 41
6.4
 68
     1
 69
     1
 12
2.5434319678
 22
5.3089737433
 13
0.0
 23
0.0
 14
0.5
 24
0.5
 15
0.5
 25
0.5
 16
0.0
 26
0.0
 36
1.0
 17
0.0
 27
0.0
 37
0.0
 42
50.0
 43
0.0
 44
0.0
 45
6.5781777278
 50
0.0
 51
0.0
 72
   100
 90
   557152
  1

281
     0
 71
     1
 74
     0
110
0.0
120
0.0
130
0.0
111
1.0
121
0.0
131
0.0
112
0.0
122
1.0
132
0.0
 79
     0
146
0.0
  0
ENDBLK
  5
206
330
203
100
AcDbEntity
  8
0
100
AcDbBlockEnd
  0
ENDSEC
  0
SECTION
  2
ENTITIES
  0
CIRCLE
  5
9A
330
1F
100
AcDbEntity
  8
0
  6
Continuous
 62
     7
370
    25
100
AcDbCircle
 10
4.1182351174
 20
5.3089737433
 30
0.0
 40
0.7874015748031518
  0
CIRCLE
  5
9B
330
1F
100
AcDbEntity
  8
0
  6
Continuous
 62
     7
370
    25
100
AcDbCircle
 10
4.1182351174
 20
5.3089737433
 30
0.0
 40
0.8267716535433092
  0
CIRCLE
  5
9D
330
1F
100
AcDbEntity
  8
0
  6
Continuous
 62
     7
370
    25
100
AcDbCircle
 10
0.9686288182
 20
5.3089737433
 30
0.0
 40
0.7874015748031491
  0
CIRCLE
  5
9E
330
1F
100
AcDbEntity
  8
0
  6
Continuous
 62
     7
370
    25
100
AcDbCircle
 10
0.9686288182
 20
5.3089737433
 30
0.0
 40
0.826771653543308
  0
LINE
  5
A8
330
1F
100
AcDbEntity
  8
0
  6
Continuous
 62
     7
370
    25
100
AcDbLine
 10
3.9825260859
 20
4.4934078731
 30
0.0
 11
4.0198099205
 21
3.9900761055
 31
0.0
  0
LINE
  5
A9
330
1F
100
AcDbEntity
  8
0
  6
Continuous
 62
     7
370
    25
100
AcDbLine
 10
4.2166603142
 20
3.9900761055
 30
0.0
 11
4.253914047
 21
4.4930014978
 31
0.0
  0
LINE
  5
AA
330
1F
100
AcDbEntity
  8
0
  6
Continuous
 62
     7
370
    25
100
AcDbLine
 10
4.2698099205
 20
6.1217988602
 30
0.0
 11
4.2698099205
 21
6.2420312103
 31
0.0
  0
LINE
  5
AB
330
1F
100
AcDbEntity
  8
0
  6
Continuous
 62
     7
370
    25
100
AcDbLine
 10
3.9666603142
 20
6.2420312103
 30
0.0
 11
3.9666603142
 21
6.1220757392
 31
0.0
  0
LINE
  5
AC
330
1F
100
AcDbEntity
  8
0
  6
Continuous
 62
     7
370
    25
100
AcDbLine
 10
1.1043378496
 20
6.1245396135
 30
0.0
 11
1.067054015
 21
6.6278713811
 31
0.0
  0
LINE
  5
AD
330
1F
100
AcDbEntity
  8
0
  6
Continuous
 62
     7
370
    25
100
AcDbLine
 10
0.8702036213
 20
6.6278713811
 30
0.0
 11
0.8329498885
 21
6.1249459888
 31
0.0
  0
LINE
  5
AE
330
1F
100
AcDbEntity
  8
0
  6
Continuous
 62
     7
370
    25
100
AcDbLine
 10
6.7757154323
 20
6.6869264992
 30
0.0
 11
6.756030393
 21
6.6869264992
 31
0.0
  0
LINE
  5
AF
330
1F
100
AcDbEntity
  8
0
  6
Continuous
 62
     7
370
    25
100
AcDbLine
 10
6.1851642512
 20
7.2774776803
 30
0.0
 11
6.1851642512
 21
7.2577926409
 31
0.0
  0
LINE
  5
B0
330
1F
100
AcDbEntity
  8
0
  6
Continuous
 62
     7
370
    25
100
AcDbLine
 10
6.756030393
 20
3.9310209874
 30
0.0
 11
6.756030393
 21
6.6869264992
 31
0.0
  0
LINE
  5
B1
330
1F
100
AcDbEntity
  8
0
  6
Continuous
 62
     7
370
    25
100
AcDbLine
 10
6.7757154323
 20
6.6869264992
 30
0.0
 11
6.7757154323
 21
3.9310209874
 31
0.0
  0
LINE
  5
B2
330
1F
100
AcDbEntity
  8
0
  6
Continuous
 62
     7
370
    25
100
AcDbLine
 10
6.756030393
 20
3.9310209874
 30
0.0
 11
6.7757154323
 21
3.9310209874
 31
0.0
  0
LINE
  5
B3
330
1F
100
AcDbEntity
  8
0
  6
Continuous
 62
     7
370
    25
100
AcDbLine
 10
-1.0983003157
 20
3.3601548456
 30
0.0
 11
6.1851642512
 21
3.3601548456
 31
0.0
  0
LINE
  5
B4
330
1F
100
AcDbEntity
  8
0
  6
Continuous
 62
     7
370
    25
100
AcDbLine
 10
-1.6691664574
 20
6.6869264992
 30
0.0
 11
-1.6691664574
 21
3.9310209874
 31
0.0
  0
LINE
  5
B5
330
1F
100
AcDbEntity
  8
0
  6
Continuous
 62
     7
370
    25
100
AcDbLine
 10
6.1851642512
 20
7.2577926409
 30
0.0
 11
-1.0983003157
 21
7.2577926409
 31
0.0
  0
LINE
  5
B6
330
1F
100
AcDbEntity
  8
0
  6
Continuous
 62
     7
370
    25
100
AcDbLine
 10
-1.0983003157
 20
7.2774776803
 30
0.0
 11
6.1851642512
 21
7.2774776803
 31
0.0
  0
LINE
  5
B7
330
1F
100
AcDbEntity
  8
0
  6
Continuous
 62
     7
370
    25
100
AcDbLine
 10
-1.0983003157
 20
7.2774776803
 30
0.0
 11
-1.0983003157
 21
7.2577926409
 31
0.0
  0
LINE
  5
B8
330
1F
100
AcDbEntity
  8
0
  6
Continuous
 62
     7
370
    25
100
AcDbLine
 10
6.1851642512
 20
3.3601548456
 30
0.0
 11
6.1851642512
 21
3.3404698063
 31
0.0
  0
LINE
  5
B9
330
1F
100
AcDbEntity
  8
0
  6
Continuous
 62
     7
370
    25
100
AcDbLine
 10
6.1851642512
 20
3.3404698063
 30
0.0
 11
-1.0983003157
 21
3.3404698063
 31
0.0
  0
LINE
  5
BA
330
1F
100
AcDbEntity
  8
0
  6
Continuous
 62
     7
370
    25
100
AcDbLine
 10
-1.0983003157
 20
3.3601548456
 30
0.0
 11
-1.0983003157
 21
3.3404698063
 31
0.0
  0
LINE
  5
BB
330
1F
100
AcDbEntity
  8
0
  6
Continuous
 62
     7
370
    25
100
AcDbLine
 10
-1.6888514968
 20
6.6869264992
 30
0.0
 11
-1.6691664574
 21
6.6869264992
 31
0.0
  0
LINE
  5
BC
330
1F
100
AcDbEntity
  8
0
  6
Continuous
 62
     7
370
    25
100
AcDbLine
 10
-1.6691664574
 20
3.9310209874
 30
0.0
 11
-1.6888514968
 21
3.9310209874
 31
0.0
  0
LINE
  5
BD
330
1F
100
AcDbEntity
  8
0
  6
Continuous
 62
     7
370
    25
100
AcDbLine
 10
-1.6888514968
 20
3.9310209874
 30
0.0
 11
-1.6888514968
 21
6.6869264992
 31
0.0
  0
LINE
  5
BE
330
1F
100
AcDbEntity
  8
0
  6
Continuous
 62
     7
370
    25
100
AcDbLine
 10
4.2166603142
 20
3.9900761055
 30
0.0
 11
4.0198099205
 21
3.9900761055
 31
0.0
  0
LINE
  5
BF
330
1F
100
AcDbEntity
  8
0
  6
Continuous
 62
     7
370
    25
100
AcDbLine
 10
0.8702036213
 20
6.6278713811
 30
0.0
 11
1.067054015
 21
6.6278713811
 31
0.0
  0
LINE
  5
C0
330
1F
100
AcDbEntity
  8
0
  6
Continuous
 62
     8
370
    25
100
AcDbLine
 10
4.2698099205
 20
6.2420312103
 30
0.0
 11
3.9666603142
 21
6.2420312103
 31
0.0
  0
LINE
  5
C1
330
1F
100
AcDbEntity
  8
0
  6
Continuous
 62
     8
370
    25
100
AcDbLine
 10
3.9774474103
 20
6.2595904637
 30
0.0
 11
4.2590228244
 21
6.2595904637
 31
0.0
  0
ARC
  5
C2
330
1F
100
AcDbEntity
  8
0
  6
Continuous
 62
     7
370
    25
100
AcDbCircle
 10
4.1182351174
 20
3.9900761055
 30
0.0
 40
0.0984251968503944
100
AcDbArc
 50
180.0
 51
0.0
  0
ARC
  5
C3
330
1F
100
AcDbEntity
  8
0
  6
Continuous
 62
     7
370
    25
100
AcDbCircle
 10
4.2501248812
 20
6.2420312103
 30
0.0
 40
0.0196850393700771
100
AcDbArc
 50
360.0
 51
63.1269288601
  0
ARC
  5
C4
330
1F
100
AcDbEntity
  8
0
  6
Continuous
 62
     7
370
    25
100
AcDbCircle
 10
3.9863453536
 20
6.2420312103
 30
0.0
 40
0.0196850393700779
100
AcDbArc
 50
116.87307114
 51
180.0
  0
ARC
  5
C5
330
1F
100
AcDbEntity
  8
0
  6
Continuous
 62
     7
370
    25
100
AcDbCircle
 10
4.1182351174
 20
5.9817591763
 30
0.0
 40
0.3114665354330705
100
AcDbArc
 50
63.12692886
 51
116.87307114
  0
ARC
  5
C6
330
1F
100
AcDbEntity
  8
0
  6
Continuous
 62
     7
370
    25
100
AcDbCircle
 10
0.9686288182
 20
6.6278713811
 30
0.0
 40
0.098425196850394
100
AcDbArc
 50
0.0
 51
180.0
  0
ARC
  5
C7
330
1F
100
AcDbEntity
  8
0
  6
Continuous
 62
     7
370
    25
100
AcDbCircle
 10
6.1851642512
 20
6.6869264992
 30
0.0
 40
0.5905511811023647
100
AcDbArc
 50
0.0
 51
90.0
  0
ARC
  5
C8
330
1F
100
AcDbEntity
  8
0
  6
Continuous
 62
     7
370
    25
100
AcDbCircle
 10
6.1851642512
 20
6.6869264992
 30
0.0
 40
0.5708661417322842
100
AcDbArc
 50
0.0
 51
90.0
  0
ARC
  5
C9
330
1F
100
AcDbEntity
  8
0
  6
Continuous
 62
     7
370
    25
100
AcDbCircle
 10
-1.0983003157
 20
3.9310209874
 30
0.0
 40
0.5708661417322833
100
AcDbArc
 50
180.0
 51
270.0
  0
ARC
  5
CA
330
1F
100
AcDbEntity
  8
0
  6
Continuous
 62
     7
370
    25
100
AcDbCircle
 10
-1.0983003157
 20
6.6869264992
 30
0.0
 40
0.5708661417322833
100
AcDbArc
 50
90.0
 51
180.0
  0
ARC
  5
CB
330
1F
100
AcDbEntity
  8
0
  6
Continuous
 62
     7
370
    25
100
AcDbCircle
 10
6.1851642512
 20
3.9310209874
 30
0.0
 40
0.5708661417322851
100
AcDbArc
 50
270.0
 51
0.0
  0
ARC
  5
CC
330
1F
100
AcDbEntity
  8
0
  6
Continuous
 62
     7
370
    25
100
AcDbCircle
 10
6.1851642512
 20
3.9310209874
 30
0.0
 40
0.5905511811023629
100
AcDbArc
 50
270.0
 51
0.0
  0
ARC
  5
CD
330
1F
100
AcDbEntity
  8
0
  6
Continuous
 62
     7
370
    25
100
AcDbCircle
 10
4.1182351174
 20
5.3089737433
 30
0.0
 40
0.8366141732283472
100
AcDbArc
 50
279.2834512159
 51
79.5617066156
  0
ARC
  5
CE
330
1F
100
AcDbEntity
  8
0
  6
Continuous
 62
     7
370
    25
100
AcDbCircle
 10
4.1182351174
 20
5.3089737433
 30
0.0
 40
0.8366141732283473
100
AcDbArc
 50
100.4382933844
 51
260.7165487841
  0
ARC
  5
CF
330
1F
100
AcDbEntity
  8
0
  6
Continuous
 62
     7
370
    25
100
AcDbCircle
 10
0.9686288182
 20
5.3089737433
 30
0.0
 40
0.8366141732283486
100
AcDbArc
 50
99.2834512159
 51
80.7165487841
  0
ARC
  5
D0
330
1F
100
AcDbEntity
  8
0
  6
Continuous
 62
     7
370
    25
100
AcDbCircle
 10
-1.0983003157
 20
6.6869264992
 30
0.0
 40
0.5905511811023614
100
AcDbArc
 50
90.0
 51
180.0
  0
ARC
  5
D1
330
1F
100
AcDbEntity
  8
0
  6
Continuous
 62
     7
370
    25
100
AcDbCircle
 10
-1.0983003157
 20
3.9310209874
 30
0.0
 40
0.5905511811023638
100
AcDbArc
 50
180.0
 51
270.0
  0
ARC
  5
D2
330
1F
100
AcDbEntity
  8
0
  6
Continuous
 62
     8
370
    25
100
AcDbCircle
 10
4.1182351174
 20
5.3089737433
 30
0.0
 40
0.8562992125984269
100
AcDbArc
 50
100.1957359468
 51
261.033041164
  0
ARC
  5
D3
330
1F
100
AcDbEntity
  8
0
  6
Continuous
 62
     8
370
    25
100
AcDbCircle
 10
4.1182351174
 20
5.3089737433
 30
0.0
 40
0.8562992125984251
100
AcDbArc
 50
278.966958836
 51
79.8042640532
  0
ARC
  5
D4
330
1F
100
AcDbEntity
  8
0
  6
Continuous
 62
     8
370
    25
100
AcDbCircle
 10
0.9686288182
 20
5.3089737433
 30
0.0
 40
0.8562992125984259
100
AcDbArc
 50
98.966958836
 51
81.033041164
  0
CIRCLE
  5
E2
330
1B
100
AcDbEntity
 67
     1
  8
0
  6
Continuous
 62
     7
370
    25
100
AcDbCircle
 10
-4.1182351174
 20
5.3089737433
 30
0.0
 40
0.9547244094488185
  0
CIRCLE
  5
E3
330
1B
100
AcDbEntity
 67
     1
  8
0
  6
Continuous
 62
     7
370
    25
100
AcDbCircle
 10
-0.9686288182
 20
5.3089737433
 30
0.0
 40
0.9547244094488168
  0
CIRCLE
  5
E5
330
1B
100
AcDbEntity
 67
     1
  8
0
  6
Continuous
 62
     7
370
    25
100
AcDbCircle
 10
-0.9686288182
 20
5.3089737433
 30
0.0
 40
0.8366141732283481
  0
CIRCLE
  5
E6
330
1B
100
AcDbEntity
 67
     1
  8
0
  6
Continuous
 62
     7
370
    25
100
AcDbCircle
 10
-4.1182351174
 20
5.3089737433
 30
0.0
 40
0.8366141732283507
  0
CIRCLE
  5
E7
330
1B
100
AcDbEntity
 67
     1
  8
0
  6
Continuous
 62
     7
370
    25
100
AcDbCircle
 10
-4.1182351174
 20
5.3089737433
 30
0.0
 40
0.8267716535433096
  0
CIRCLE
  5
E8
330
1B
100
AcDbEntity
 67
     1
  8
0
  6
Continuous
 62
     7
370
    25
100
AcDbCircle
 10
-0.9686288182
 20
5.3089737433
 30
0.0
 40
0.8267716535433082
  0
LINE
  5
E9
330
1B
100
AcDbEntity
 67
     1
  8
0
  6
Continuous
 62
     7
370
    25
100
AcDbLine
 10
-3.9666603142
 20
6.1220757392
 30
0.0
 11
-3.9666603142
 21
6.1317424555
 31
0.0
  0
LINE
  5
EA
330
1B
100
AcDbEntity
 67
     1
  8
0
  6
Continuous
 62
     7
370
    25
100
AcDbLine
 10
-4.2698099205
 20
6.1317424555
 30
0.0
 11
-4.2698099205
 21
6.1217988602
 31
0.0
  0
LINE
  5
EB
330
1B
100
AcDbEntity
 67
     1
  8
0
  6
Continuous
 62
     7
370
    25
100
AcDbLine
 10
-4.253914047
 20
4.4930014978
 30
0.0
 11
-4.2531966952
 21
4.4833172485
 31
0.0
  0
LINE
  5
EC
330
1B
100
AcDbEntity
 67
     1
  8
0
  6
Continuous
 62
     7
370
    25
100
AcDbLine
 10
-3.9832735396
 20
4.4833172485
 30
0.0
 11
-3.9825260859
 21
4.4934078731
 31
0.0
  0
LINE
  5
ED
330
1B
100
AcDbEntity
 67
     1
  8
0
  6
Continuous
 62
     7
370
    25
100
AcDbLine
 10
-0.8329498885
 20
6.1249459888
 30
0.0
 11
-0.8336672403
 21
6.134630238
 31
0.0
  0
LINE
  5
EE
330
1B
100
AcDbEntity
 67
     1
  8
0
  6
Continuous
 62
     7
370
    25
100
AcDbLine
 10
-1.103590396
 20
6.134630238
 30
0.0
 11
-1.1043378496
 21
6.1245396135
 31
0.0
  0
LINE
  5
EF
330
1B
100
AcDbEntity
 67
     1
  8
0
  6
Continuous
 62
     7
370
    25
100
AcDbLine
 10
-6.1851642512
 20
7.2774776803
 30
0.0
 11
1.0983003157
 21
7.2774776803
 31
0.0
  0
LINE
  5
F0
330
1B
100
AcDbEntity
 67
     1
  8
0
  6
Continuous
 62
     7
370
    25
100
AcDbLine
 10
1.0983003157
 20
3.3404698063
 30
0.0
 11
-6.1851642512
 21
3.3404698063
 31
0.0
  0
LINE
  5
F1
330
1B
100
AcDbEntity
 67
     1
  8
0
  6
Continuous
 62
     7
370
    25
100
AcDbLine
 10
-6.7757154323
 20
3.9310209874
 30
0.0
 11
-6.7757154323
 21
6.6869264992
 31
0.0
  0
LINE
  5
F2
330
1B
100
AcDbEntity
 67
     1
  8
0
  6
Continuous
 62
     7
370
    25
100
AcDbLine
 10
1.6888514968
 20
6.6869264992
 30
0.0
 11
1.6888514968
 21
3.9310209874
 31
0.0
  0
ARC
  5
F3
330
1B
100
AcDbEntity
 67
     1
  8
0
  6
Continuous
 62
     7
370
    25
100
AcDbCircle
 10
1.0983003157
 20
6.6869264992
 30
0.0
 40
0.5905511811023618
100
AcDbArc
 50
0.0
 51
90.0
  0
ARC
  5
F4
330
1B
100
AcDbEntity
 67
     1
  8
0
  6
Continuous
 62
     7
370
    25
100
AcDbCircle
 10
1.0983003157
 20
3.9310209874
 30
0.0
 40
0.5905511811023614
100
AcDbArc
 50
270.0
 51
0.0
  0
ARC
  5
F5
330
1B
100
AcDbEntity
 67
     1
  8
0
  6
Continuous
 62
     7
370
    25
100
AcDbCircle
 10
-6.1851642512
 20
3.9310209874
 30
0.0
 40
0.5905511811023638
100
AcDbArc
 50
180.0
 51
270.0
  0
ARC
  5
F6
330
1B
100
AcDbEntity
 67
     1
  8
0
  6
Continuous
 62
     7
370
    25
100
AcDbCircle
 10
-6.1851642512
 20
6.6869264992
 30
0.0
 40
0.5905511811023594
100
AcDbArc
 50
90.0
 51
180.0
  0
VIEWPORT
  5
2A1
330
1B
100
AcDbEntity
 67
     1
  8
0
100
AcDbViewport
 10
0.0
 20
0.0
 30
0.0
 40
8.4
 41
6.4
 68
     1
 69
     1
 12
2.5434319678
 22
5.3089737433
 13
0.0
 23
0.0
 14
0.5
 24
0.5
 15
0.5
 25
0.5
 16
0.0
 26
0.0
 36
1.0
 17
0.0
 27
0.0
 37
0.0
 42
50.0
 43
0.0
 44
0.0
 45
6.5781777278
 50
0.0
 51
0.0
 72
   100
 90
   557152
  1

281
     0
 71
     1
 74
     0
110
0.0
120
0.0
130
0.0
111
1.0
121
0.0
131
0.0
112
0.0
122
1.0
132
0.0
 79
     0
146
0.0
  0
ENDSEC
  0
SECTION
  2
OBJECTS
  0
DICTIONARY
  5
C
330
0
100
AcDbDictionary
281
     1
  3
ACAD_GROUP
350
D
  3
ACAD_LAYOUT
350
1A
  3
ACAD_MLINESTYLE
350
17
  3
ACAD_PLOTSETTINGS
350
19
  3
ACAD_PLOTSTYLENAME
350
E
  3
ACAD_SCALELIST
350
47
  0
DICTIONARY
  5
D
102
{ACAD_REACTORS
330
C
102
}
330
C
100
AcDbDictionary
281
     1
  0
DICTIONARY
  5
1A
102
{ACAD_REACTORS
330
C
102
}
330
C
100
AcDbDictionary
281
     1
  3
_Back
350
1E
  3
_Bottom
350
1CC
  3
_Isometric
350
204
  3
_Left
350
26
  3
_Right
350
141
  3
_Top
350
192
  3
Model
350
22
  0
DICTIONARY
  5
17
102
{ACAD_REACTORS
330
C
102
}
330
C
100
AcDbDictionary
281
     1
  3
Standard
350
18
  0
DICTIONARY
  5
19
102
{ACAD_REACTORS
330
C
102
}
330
C
100
AcDbDictionary
281
     1
  0
ACDBDICTIONARYWDFLT
  5
E
102
{ACAD_REACTORS
330
C
102
}
330
C
100
AcDbDictionary
281
     1
  3
Normal
350
F
100
AcDbDictionaryWithDefault
340
F
  0
DICTIONARY
  5
47
102
{ACAD_REACTORS
330
C
102
}
330
C
100
AcDbDictionary
281
     1
  3
A0
350
48
  3
A1
350
49
  3
A2
350
4A
  3
A3
350
4B
  3
A4
350
4C
  3
A5
350
4D
  3
A6
350
4E
  3
A7
350
4F
  3
A8
350
50
  3
A9
350
51
  3
B0
350
52
  3
B1
350
53
  3
B2
350
54
  3
B3
350
55
  3
B4
350
56
  3
B5
350
57
  3
B6
350
58
  3
B7
350
59
  3
B8
350
5A
  3
B9
350
5B
  3
C0
350
5C
  3
C1
350
5D
  3
C2
350
5E
  3
C3
350
5F
  3
C4
350
60
  3
C5
350
61
  3
C6
350
62
  3
C7
350
63
  3
C8
350
64
  3
C9
350
65
  3
D0
350
66
  3
D1
350
67
  3
D2
350
68
  0
LAYOUT
  5
1E
102
{ACAD_REACTORS
330
1A
102
}
330
1A
100
AcDbPlotSettings
  1

  2
none_device
  4
Letter_(8.50_x_11.00_Inches)
  6

 40
6.35
 41
6.35
 42
6.35001
 43
6.35001
 44
215.9
 45
279.4
 46
0.0
 47
0.0
 48
0.0
 49
0.0
140
0.0
141
0.0
142
1.0
143
0.8061492616
 70
   688
 72
     0
 73
     1
 74
     1
  7

 75
     0
147
1.2404650698
148
172.1031719812
149
-84.847933079
100
AcDbLayout
  1
_Back
 70
     1
 71
     1
 10
-6.9772530651
 20
3.1389324909
 11
1.8903888122
 21
9.9912012142
 12
0.0
 22
0.0
 32
0.0
 14
-6.7757154323
 24
3.3404698063
 34
0.0
 15
1.6888514968
 25
7.2774776803
 35
0.0
146
0.0
 13
0.0
 23
0.0
 33
0.0
 16
1.0
 26
0.0
 36
0.0
 17
0.0
 27
1.0
 37
0.0
 76
     0
330
1B
331
2A1
  0
LAYOUT
  5
1CC
102
{ACAD_REACTORS
330
1A
102
}
330
1A
100
AcDbPlotSettings
  1

  2
none_device
  4
Letter_(8.50_x_11.00_Inches)
  6

 40
6.35
 41
6.35
 42
6.35001
 43
6.35001
 44
215.9
 45
279.4
 46
0.0
 47
0.0
 48
0.0
 49
0.0
140
0.0
141
0.0
142
1.0
143
0.8061492616
 70
   688
 72
     0
 73
     1
 74
     1
  7

 75
     0
147
1.2404650698
148
172.1031719812
149
-84.847933079
100
AcDbLayout
  1
_Bottom
 70
     1
 71
     5
 10
0.0
 20
0.0
 11
0.0
 21
0.0
 12
0.0
 22
0.0
 32
0.0
 14
0.0
 24
0.0
 34
0.0
 15
0.0
 25
0.0
 35
0.0
146
0.0
 13
0.0
 23
0.0
 33
0.0
 16
1.0
 26
0.0
 36
0.0
 17
0.0
 27
1.0
 37
0.0
 76
     0
330
1CB
331
2A9
  0
LAYOUT
  5
204
102
{ACAD_REACTORS
330
1A
102
}
330
1A
100
AcDbPlotSettings
  1

  2
none_device
  4
Letter_(8.50_x_11.00_Inches)
  6

 40
6.35
 41
6.35
 42
6.35001
 43
6.35001
 44
215.9
 45
279.4
 46
0.0
 47
0.0
 48
0.0
 49
0.0
140
0.0
141
0.0
142
1.0
143
0.8061492616
 70
   688
 72
     0
 73
     1
 74
     1
  7

 75
     0
147
1.2404650698
148
172.1031719812
149
-84.847933079
100
AcDbLayout
  1
_Isometric
 70
     1
 71
     6
 10
0.0
 20
0.0
 11
0.0
 21
0.0
 12
0.0
 22
0.0
 32
0.0
 14
0.0
 24
0.0
 34
0.0
 15
0.0
 25
0.0
 35
0.0
146
0.0
 13
0.0
 23
0.0
 33
0.0
 16
1.0
 26
0.0
 36
0.0
 17
0.0
 27
1.0
 37
0.0
 76
     0
330
203
331
2AB
  0
LAYOUT
  5
26
102
{ACAD_REACTORS
330
1A
102
}
330
1A
100
AcDbPlotSettings
  1

  2
none_device
  4
Letter_(8.50_x_11.00_Inches)
  6

 40
6.35
 41
6.35
 42
6.35001
 43
6.35001
 44
215.9
 45
279.4
 46
0.0
 47
0.0
 48
0.0
 49
0.0
140
0.0
141
0.0
142
1.0
143
0.8061492616
 70
   688
 72
     0
 73
     1
 74
     1
  7

 75
     0
147
1.2404650698
148
172.1031719812
149
-84.847933079
100
AcDbLayout
  1
_Left
 70
     1
 71
     2
 10
0.0
 20
0.0
 11
0.0
 21
0.0
 12
0.0
 22
0.0
 32
0.0
 14
0.0
 24
0.0
 34
0.0
 15
0.0
 25
0.0
 35
0.0
146
0.0
 13
0.0
 23
0.0
 33
0.0
 16
1.0
 26
0.0
 36
0.0
 17
0.0
 27
1.0
 37
0.0
 76
     0
330
23
331
2A3
  0
LAYOUT
  5
141
102
{ACAD_REACTORS
330
1A
102
}
330
1A
100
AcDbPlotSettings
  1

  2
none_device
  4
Letter_(8.50_x_11.00_Inches)
  6

 40
6.35
 41
6.35
 42
6.35001
 43
6.35001
 44
215.9
 45
279.4
 46
0.0
 47
0.0
 48
0.0
 49
0.0
140
0.0
141
0.0
142
1.0
143
0.8061492616
 70
   688
 72
     0
 73
     1
 74
     1
  7

 75
     0
147
1.2404650698
148
172.1031719812
149
-84.847933079
100
AcDbLayout
  1
_Right
 70
     1
 71
     3
 10
0.0
 20
0.0
 11
0.0
 21
0.0
 12
0.0
 22
0.0
 32
0.0
 14
0.0
 24
0.0
 34
0.0
 15
0.0
 25
0.0
 35
0.0
146
0.0
 13
0.0
 23
0.0
 33
0.0
 16
1.0
 26
0.0
 36
0.0
 17
0.0
 27
1.0
 37
0.0
 76
     0
330
140
331
2A5
  0
LAYOUT
  5
192
102
{ACAD_REACTORS
330
1A
102
}
330
1A
100
AcDbPlotSettings
  1

  2
none_device
  4
Letter_(8.50_x_11.00_Inches)
  6

 40
6.35
 41
6.35
 42
6.35001
 43
6.35001
 44
215.9
 45
279.4
 46
0.0
 47
0.0
 48
0.0
 49
0.0
140
0.0
141
0.0
142
1.0
143
0.8061492616
 70
   688
 72
     0
 73
     1
 74
     1
  7

 75
     0
147
1.2404650698
148
172.1031719812
149
-84.847933079
100
AcDbLayout
  1
_Top
 70
     1
 71
     4
 10
0.0
 20
0.0
 11
0.0
 21
0.0
 12
0.0
 22
0.0
 32
0.0
 14
0.0
 24
0.0
 34
0.0
 15
0.0
 25
0.0
 35
0.0
146
0.0
 13
0.0
 23
0.0
 33
0.0
 16
1.0
 26
0.0
 36
0.0
 17
0.0
 27
1.0
 37
0.0
 76
     0
330
191
331
2A7
  0
LAYOUT
  5
22
102
{ACAD_REACTORS
330
1A
102
}
330
1A
100
AcDbPlotSettings
  1

  2
none_device
  4
ANSI_A_(11.00_x_8.50_Inches)
  6

 40
6.35
 41
19.05
 42
6.35000508
 43
19.05000254
 44
279.4
 45
215.9
 46
50.2354626272
 47
-84.5871983735
 48
0.0
 49
0.0
140
0.0
141
0.0
142
1.2865395349
143
1.0
 70
  1696
 72
     0
 73
     0
 74
     0
  7

 75
     0
147
0.5913241897
148
-39.4088153714
149
0.0
100
AcDbLayout
  1
Model
 70
     1
 71
     0
 10
0.0
 20
0.0
 11
12.0
 21
9.0
 12
0.0
 22
0.0
 32
0.0
 14
-1.6888514968
 24
3.3404698063
 34
0.0
 15
6.7757154323
 25
7.2774776803
 35
0.0
146
0.0
 13
0.0
 23
0.0
 33
0.0
 16
1.0
 26
0.0
 36
0.0
 17
0.0
 27
1.0
 37
0.0
 76
     0
330
1F
331
29
  0
MLINESTYLE
  5
18
102
{ACAD_REACTORS
330
17
102
}
330
17
100
AcDbMlineStyle
  2
Standard
 70
     0
  3

 62
   256
 51
90.0
 52
90.0
 71
     2
 49
0.5
 62
   256
  6
BYLAYER
 49
-0.5
 62
   256
  6
BYLAYER
  0
ACDBPLACEHOLDER
  5
F
102
{ACAD_REACTORS
330
E
102
}
330
E
  0
SCALE
  5
48
102
{ACAD_REACTORS
330
47
102
}
330
47
100
AcDbScale
 70
     0
300
1:1
140
1.0
141
1.0
290
     1
  0
SCALE
  5
49
102
{ACAD_REACTORS
330
47
102
}
330
47
100
AcDbScale
 70
     0
300
1:2
140
1.0
141
2.0
290
     0
  0
SCALE
  5
4A
102
{ACAD_REACTORS
330
47
102
}
330
47
100
AcDbScale
 70
     0
300
1:4
140
1.0
141
4.0
290
     0
  0
SCALE
  5
4B
102
{ACAD_REACTORS
330
47
102
}
330
47
100
AcDbScale
 70
     0
300
1:5
140
1.0
141
5.0
290
     0
  0
SCALE
  5
4C
102
{ACAD_REACTORS
330
47
102
}
330
47
100
AcDbScale
 70
     0
300
1:8
140
1.0
141
8.0
290
     0
  0
SCALE
  5
4D
102
{ACAD_REACTORS
330
47
102
}
330
47
100
AcDbScale
 70
     0
300
1:10
140
1.0
141
10.0
290
     0
  0
SCALE
  5
4E
102
{ACAD_REACTORS
330
47
102
}
330
47
100
AcDbScale
 70
     0
300
1:16
140
1.0
141
16.0
290
     0
  0
SCALE
  5
4F
102
{ACAD_REACTORS
330
47
102
}
330
47
100
AcDbScale
 70
     0
300
1:20
140
1.0
141
20.0
290
     0
  0
SCALE
  5
50
102
{ACAD_REACTORS
330
47
102
}
330
47
100
AcDbScale
 70
     0
300
1:30
140
1.0
141
30.0
290
     0
  0
SCALE
  5
51
102
{ACAD_REACTORS
330
47
102
}
330
47
100
AcDbScale
 70
     0
300
1:40
140
1.0
141
40.0
290
     0
  0
SCALE
  5
52
102
{ACAD_REACTORS
330
47
102
}
330
47
100
AcDbScale
 70
     0
300
1:50
140
1.0
141
50.0
290
     0
  0
SCALE
  5
53
102
{ACAD_REACTORS
330
47
102
}
330
47
100
AcDbScale
 70
     0
300
1:100
140
1.0
141
100.0
290
     0
  0
SCALE
  5
54
102
{ACAD_REACTORS
330
47
102
}
330
47
100
AcDbScale
 70
     0
300
2:1
140
2.0
141
1.0
290
     0
  0
SCALE
  5
55
102
{ACAD_REACTORS
330
47
102
}
330
47
100
AcDbScale
 70
     0
300
4:1
140
4.0
141
1.0
290
     0
  0
SCALE
  5
56
102
{ACAD_REACTORS
330
47
102
}
330
47
100
AcDbScale
 70
     0
300
8:1
140
8.0
141
1.0
290
     0
  0
SCALE
  5
57
102
{ACAD_REACTORS
330
47
102
}
330
47
100
AcDbScale
 70
     0
300
10:1
140
10.0
141
1.0
290
     0
  0
SCALE
  5
58
102
{ACAD_REACTORS
330
47
102
}
330
47
100
AcDbScale
 70
     0
300
100:1
140
100.0
141
1.0
290
     0
  0
SCALE
  5
59
102
{ACAD_REACTORS
330
47
102
}
330
47
100
AcDbScale
 70
     0
300
1/128" = 1'-0"
140
0.0078125
141
12.0
290
     0
  0
SCALE
  5
5A
102
{ACAD_REACTORS
330
47
102
}
330
47
100
AcDbScale
 70
     0
300
1/64" = 1'-0"
140
0.015625
141
12.0
290
     0
  0
SCALE
  5
5B
102
{ACAD_REACTORS
330
47
102
}
330
47
100
AcDbScale
 70
     0
300
1/32" = 1'-0"
140
0.03125
141
12.0
290
     0
  0
SCALE
  5
5C
102
{ACAD_REACTORS
330
47
102
}
330
47
100
AcDbScale
 70
     0
300
1/16" = 1'-0"
140
0.0625
141
12.0
290
     0
  0
SCALE
  5
5D
102
{ACAD_REACTORS
330
47
102
}
330
47
100
AcDbScale
 70
     0
300
3/32" = 1'-0"
140
0.09375
141
12.0
290
     0
  0
SCALE
  5
5E
102
{ACAD_REACTORS
330
47
102
}
330
47
100
AcDbScale
 70
     0
300
1/8" = 1'-0"
140
0.125
141
12.0
290
     0
  0
SCALE
  5
5F
102
{ACAD_REACTORS
330
47
102
}
330
47
100
AcDbScale
 70
     0
300
3/16" = 1'-0"
140
0.1875
141
12.0
290
     0
  0
SCALE
  5
60
102
{ACAD_REACTORS
330
47
102
}
330
47
100
AcDbScale
 70
     0
300
1/4" = 1'-0"
140
0.25
141
12.0
290
     0
  0
SCALE
  5
61
102
{ACAD_REACTORS
330
47
102
}
330
47
100
AcDbScale
 70
     0
300
3/8" = 1'-0"
140
0.375
141
12.0
290
     0
  0
SCALE
  5
62
102
{ACAD_REACTORS
330
47
102
}
330
47
100
AcDbScale
 70
     0
300
1/2" = 1'-0"
140
0.5
141
12.0
290
     0
  0
SCALE
  5
63
102
{ACAD_REACTORS
330
47
102
}
330
47
100
AcDbScale
 70
     0
300
3/4" = 1'-0"
140
0.75
141
12.0
290
     0
  0
SCALE
  5
64
102
{ACAD_REACTORS
330
47
102
}
330
47
100
AcDbScale
 70
     0
300
1" = 1'-0"
140
1.0
141
12.0
290
     0
  0
SCALE
  5
65
102
{ACAD_REACTORS
330
47
102
}
330
47
100
AcDbScale
 70
     0
300
1-1/2" = 1'-0"
140
1.5
141
12.0
290
     0
  0
SCALE
  5
66
102
{ACAD_REACTORS
330
47
102
}
330
47
100
AcDbScale
 70
     0
300
3" = 1'-0"
140
3.0
141
12.0
290
     0
  0
SCALE
  5
67
102
{ACAD_REACTORS
330
47
102
}
330
47
100
AcDbScale
 70
     0
300
6" = 1'-0"
140
6.0
141
12.0
290
     0
  0
SCALE
  5
68
102
{ACAD_REACTORS
330
47
102
}
330
47
100
AcDbScale
 70
     0
300
1'-0" = 1'-0"
140
12.0
141
12.0
290
     0
  0
ENDSEC
  0
EOF
