  0
SECTION
  2
HEADER
  9
$ACADVER
  1
AC1015
  9
$ACADMAINTVER
 70
     6
  9
$DWGCODEPAGE
  3
ANSI_1252
  9
$INSBASE
 10
0.0
 20
0.0
 30
0.0
  9
$EXTMIN
 10
-750.0
 20
-400.0
 30
0.0
  9
$EXTMAX
 10
750.0
 20
400.0
 30
0.0
  9
$LIMMIN
 10
0.0
 20
0.0
  9
$LIMMAX
 10
420.0
 20
297.0
  9
$ORTHOMODE
 70
     0
  9
$REGENMODE
 70
     1
  9
$FILLMODE
 70
     1
  9
$QTEXTMODE
 70
     0
  9
$MIRRTEXT
 70
     1
  9
$LTSCALE
 40
1.0
  9
$ATTMODE
 70
     1
  9
$TEXTSIZE
 40
3.5
  9
$TRACEWID
 40
1.0
  9
$TEXTSTYLE
  7
Standard
  9
$CLAYER
  8
0
  9
$CELTYPE
  6
ByLayer
  9
$CECOLOR
 62
   256
  9
$CELTSCALE
 40
1.0
  9
$DISPSILH
 70
     0
  9
$DIMSCALE
 40
1.0
  9
$DIMASZ
 40
3.302
  9
$DIMEXO
 40
1.0
  9
$DIMDLI
 40
3.75
  9
$DIMRND
 40
0.0
  9
$DIMDLE
 40
0.0
  9
$DIMEXE
 40
1.0
  9
$DIMTP
 40
0.0
  9
$DIMTM
 40
0.0
  9
$DIMTXT
 40
3.5
  9
$DIMCEN
 40
2.5
  9
$DIMTSZ
 40
0.0
  9
$DIMTOL
 70
     0
  9
$DIMLIM
 70
     0
  9
$DIMTIH
 70
     1
  9
$DIMTOH
 70
     1
  9
$DIMSE1
 70
     0
  9
$DIMSE2
 70
     0
  9
$DIMTAD
 70
     1
  9
$DIMZIN
 70
     1
  9
$DIMBLK
  1

  9
$DIMASO
 70
     1
  9
$DIMSHO
 70
     1
  9
$DIMPOST
  1

  9
$DIMAPOST
  1

  9
$DIMALT
 70
     0
  9
$DIMALTD
 70
     3
  9
$DIMALTF
 40
0.0393700787
  9
$DIMLFAC
 40
1.0
  9
$DIMTOFL
 70
     1
  9
$DIMTVP
 40
0.0
  9
$DIMTIX
 70
     0
  9
$DIMSOXD
 70
     0
  9
$DIMSAH
 70
     0
  9
$DIMBLK1
  1

  9
$DIMBLK2
  1

  9
$DIMSTYLE
  2
ISO-25
  9
$DIMCLRD
 70
     0
  9
$DIMCLRE
 70
     0
  9
$DIMCLRT
 70
     0
  9
$DIMTFAC
 40
1.0
  9
$DIMGAP
 40
1.524
  9
$DIMJUST
 70
     0
  9
$DIMSD1
 70
     0
  9
$DIMSD2
 70
     0
  9
$DIMTOLJ
 70
     0
  9
$DIMTZIN
 70
     1
  9
$DIMALTZ
 70
     0
  9
$DIMALTTZ
 70
     0
  9
$DIMUPT
 70
     0
  9
$DIMDEC
 70
     2
  9
$DIMTDEC
 70
     2
  9
$DIMALTU
 70
     2
  9
$DIMALTTD
 70
     3
  9
$DIMTXSTY
  7
Standard
  9
$DIMAUNIT
 70
     0
  9
$DIMADEC
 70
     2
  9
$DIMALTRND
 40
0.0
  9
$DIMAZIN
 70
     0
  9
$DIMDSEP
 70
    44
  9
$DIMATFIT
 70
     3
  9
$DIMFRAC
 70
     0
  9
$DIMLDRBLK
  1

  9
$DIMLUNIT
 70
     2
  9
$DIMLWD
 70
    -2
  9
$DIMLWE
 70
    -2
  9
$DIMTMOVE
 70
     0
  9
$LUNITS
 70
     2
  9
$LUPREC
 70
     2
  9
$SKETCHINC
 40
1.0
  9
$FILLETRAD
 40
10.0
  9
$AUNITS
 70
     0
  9
$AUPREC
 70
     2
  9
$MENU
  1
.
  9
$ELEVATION
 40
0.0
  9
$PELEVATION
 40
0.0
  9
$THICKNESS
 40
0.0
  9
$LIMCHECK
 70
     0
  9
$CHAMFERA
 40
0.0
  9
$CHAMFERB
 40
0.0
  9
$CHAMFERC
 40
0.0
  9
$CHAMFERD
 40
0.0
  9
$SKPOLY
 70
     0
  9
$TDCREATE
 40
2458852.446227928
  9
$TDUCREATE
 40
2458852.446227928
  9
$TDUPDATE
 40
2458852.44754691
  9
$TDUUPDATE
 40
2458852.44754691
  9
$TDINDWG
 40
0.0000000116
  9
$TDUSRTIMER
 40
0.0000000116
  9
$USRTIMER
 70
     1
  9
$ANGBASE
 50
0.0
  9
$ANGDIR
 70
     0
  9
$PDMODE
 70
     0
  9
$PDSIZE
 40
-1.0
  9
$PLINEWID
 40
0.0
  9
$SPLFRAME
 70
     0
  9
$SPLINETYPE
 70
     6
  9
$SPLINESEGS
 70
     8
  9
$HANDSEED
  5
148
  9
$SURFTAB1
 70
     6
  9
$SURFTAB2
 70
     6
  9
$SURFTYPE
 70
     6
  9
$SURFU
 70
     6
  9
$SURFV
 70
     6
  9
$UCSBASE
  2

  9
$UCSNAME
  2

  9
$UCSORG
 10
0.0
 20
0.0
 30
0.0
  9
$UCSXDIR
 10
1.0
 20
0.0
 30
0.0
  9
$UCSYDIR
 10
0.0
 20
1.0
 30
0.0
  9
$UCSORTHOREF
  2

  9
$UCSORTHOVIEW
 70
     0
  9
$UCSORGTOP
 10
0.0
 20
0.0
 30
0.0
  9
$UCSORGBOTTOM
 10
0.0
 20
0.0
 30
0.0
  9
$UCSORGLEFT
 10
0.0
 20
0.0
 30
0.0
  9
$UCSORGRIGHT
 10
0.0
 20
0.0
 30
0.0
  9
$UCSORGFRONT
 10
0.0
 20
0.0
 30
0.0
  9
$UCSORGBACK
 10
0.0
 20
0.0
 30
0.0
  9
$PUCSBASE
  2

  9
$PUCSNAME
  2

  9
$PUCSORG
 10
0.0
 20
0.0
 30
0.0
  9
$PUCSXDIR
 10
1.0
 20
0.0
 30
0.0
  9
$PUCSYDIR
 10
0.0
 20
1.0
 30
0.0
  9
$PUCSORTHOREF
  2

  9
$PUCSORTHOVIEW
 70
     0
  9
$PUCSORGTOP
 10
0.0
 20
0.0
 30
0.0
  9
$PUCSORGBOTTOM
 10
0.0
 20
0.0
 30
0.0
  9
$PUCSORGLEFT
 10
0.0
 20
0.0
 30
0.0
  9
$PUCSORGRIGHT
 10
0.0
 20
0.0
 30
0.0
  9
$PUCSORGFRONT
 10
0.0
 20
0.0
 30
0.0
  9
$PUCSORGBACK
 10
0.0
 20
0.0
 30
0.0
  9
$USERI1
 70
     0
  9
$USERI2
 70
     0
  9
$USERI3
 70
     0
  9
$USERI4
 70
     0
  9
$USERI5
 70
     0
  9
$USERR1
 40
0.0
  9
$USERR2
 40
0.0
  9
$USERR3
 40
0.0
  9
$USERR4
 40
0.0
  9
$USERR5
 40
0.0
  9
$WORLDVIEW
 70
     1
  9
$SHADEDGE
 70
     3
  9
$SHADEDIF
 70
    70
  9
$TILEMODE
 70
     0
  9
$MAXACTVP
 70
    64
  9
$PINSBASE
 10
0.0
 20
0.0
 30
0.0
  9
$PLIMCHECK
 70
     0
  9
$PEXTMIN
 10
-750.0
 20
-400.0
 30
0.0
  9
$PEXTMAX
 10
750.0
 20
400.0
 30
0.0
  9
$PLIMMIN
 10
-866.7315175097
 20
-43.7743190661
  9
$PLIMMAX
 10
866.7315175097
 20
1181.906614786
  9
$UNITMODE
 70
     0
  9
$VISRETAIN
 70
     1
  9
$PLINEGEN
 70
     0
  9
$PSLTSCALE
 70
     1
  9
$TREEDEPTH
 70
  3020
  9
$CMLSTYLE
  2
Standard
  9
$CMLJUST
 70
     0
  9
$CMLSCALE
 40
20.0
  9
$PROXYGRAPHICS
 70
     1
  9
$MEASUREMENT
 70
     1
  9
$CELWEIGHT
370
    -1
  9
$ENDCAPS
280
     0
  9
$JOINSTYLE
280
     0
  9
$LWDISPLAY
290
     1
  9
$INSUNITS
 70
     4
  9
$HYPERLINKBASE
  1

  9
$STYLESHEET
  1

  9
$XEDIT
290
     1
  9
$CEPSNTYPE
380
     0
  9
$PSTYLEMODE
290
     1
  9
$FINGERPRINTGUID
  2
{c5732a10-242d-40fd-b0ca-68c112e0c4e6}
  9
$VERSIONGUID
  2
{FAEB1C32-E019-11D5-929B-00C0DF256EC4}
  9
$EXTNAMES
290
     1
  9
$PSVPSCALE
 40
0.0
  9
$OLESTARTUP
290
     0
  0
ENDSEC
  0
SECTION
  2
CLASSES
  0
CLASS
  1
ACDBDICTIONARYWDFLT
  2
AcDbDictionaryWithDefault
  3
ObjectDBX Classes
 90
        0
280
     0
281
     0
  0
CLASS
  1
VISUALSTYLE
  2
AcDbVisualStyle
  3
ObjectDBX Classes
 90
     4095
280
     0
281
     0
  0
CLASS
  1
MATERIAL
  2
AcDbMaterial
  3
ObjectDBX Classes
 90
     1153
280
     0
281
     0
  0
CLASS
  1
SCALE
  2
AcDbScale
  3
ObjectDBX Classes
 90
     1153
280
     0
281
     0
  0
CLASS
  1
TABLESTYLE
  2
AcDbTableStyle
  3
ObjectDBX Classes
 90
     4095
280
     0
281
     0
  0
CLASS
  1
MLEADERSTYLE
  2
AcDbMLeaderStyle
  3
ACDB_MLEADERSTYLE_CLASS
 90
     4095
280
     0
281
     0
  0
CLASS
  1
SUN
  2
AcDbSun
  3
SCENEOE
 90
     1153
280
     0
281
     0
  0
CLASS
  1
ACDBPLACEHOLDER
  2
AcDbPlaceHolder
  3
ObjectDBX Classes
 90
        0
280
     0
281
     0
  0
CLASS
  1
LAYOUT
  2
AcDbLayout
  3
ObjectDBX Classes
 90
        0
280
     0
281
     0
  0
ENDSEC
  0
SECTION
  2
TABLES
  0
TABLE
  2
VPORT
  5
8
330
0
100
AcDbSymbolTable
 70
     1
  0
VPORT
  5
29
330
8
100
AcDbSymbolTableRecord
100
AcDbViewportTableRecord
  2
*Active
 70
     0
 10
0.0
 20
0.0
 11
1.0
 21
1.0
 12
0.0
 22
0.0
 13
0.0
 23
0.0
 14
10.0
 24
10.0
 15
10.0
 25
10.0
 16
0.0
 26
0.0
 36
1.0
 17
0.0
 27
0.0
 37
0.0
 40
816.0
 41
1.875
 42
50.0
 43
0.0
 44
0.0
 50
0.0
 51
0.0
 71
     0
 72
   100
 73
     1
 74
     3
 75
     0
 76
     0
 77
     0
 78
     0
281
     0
 65
     1
110
0.0
120
0.0
130
0.0
111
1.0
121
0.0
131
0.0
112
0.0
122
1.0
132
0.0
 79
     0
146
0.0
  0
ENDTAB
  0
TABLE
  2
LTYPE
  5
5
330
0
100
AcDbSymbolTable
 70
     6
  0
LTYPE
  5
14
330
5
100
AcDbSymbolTableRecord
100
AcDbLinetypeTableRecord
  2
ByBlock
 70
     0
  3

 72
    65
 73
     0
 40
0.0
  0
LTYPE
  5
15
330
5
100
AcDbSymbolTableRecord
100
AcDbLinetypeTableRecord
  2
ByLayer
 70
     0
  3

 72
    65
 73
     0
 40
0.0
  0
LTYPE
  5
16
330
5
100
AcDbSymbolTableRecord
100
AcDbLinetypeTableRecord
  2
Continuous
 70
     0
  3
Solid line
 72
    65
 73
     0
 40
0.0
  0
LTYPE
  5
6E
330
5
100
AcDbSymbolTableRecord
100
AcDbLinetypeTableRecord
  2
HIDDEN
 70
     0
  3
Hidden __ __ __ __ __ __ __ __ __ __ __ __ __ __
 72
    65
 73
     2
 40
1.905
 49
1.27
 74
     0
 49
-0.635
 74
     0
  0
LTYPE
  5
6F
330
5
100
AcDbSymbolTableRecord
100
AcDbLinetypeTableRecord
  2
PHANTOM
 70
     0
  3
Phantom ______  __  __  ______  __  __  ______
 72
    65
 73
     6
 40
12.7
 49
6.35
 74
     0
 49
-1.27
 74
     0
 49
1.27
 74
     0
 49
-1.27
 74
     0
 49
1.27
 74
     0
 49
-1.27
 74
     0
  0
LTYPE
  5
70
330
5
100
AcDbSymbolTableRecord
100
AcDbLinetypeTableRecord
  2
CENTER
 70
     0
  3
Center ____ _ ____ _ ____ _ ____ _ ____ _ ____
 72
    65
 73
     4
 40
10.16
 49
6.35
 74
     0
 49
-1.27
 74
     0
 49
1.27
 74
     0
 49
-1.27
 74
     0
  0
LTYPE
  5
71
330
5
100
AcDbSymbolTableRecord
100
AcDbLinetypeTableRecord
  2
CENTERX2
 70
     0
  3
Center (2x) ________  __  ________  __  _____
 72
    65
 73
     4
 40
20.32
 49
12.7
 74
     0
 49
-2.54
 74
     0
 49
2.54
 74
     0
 49
-2.54
 74
     0
  0
LTYPE
  5
72
330
5
100
AcDbSymbolTableRecord
100
AcDbLinetypeTableRecord
  2
DOT2
 70
     0
  3
Dot (.5x) ........................................
 72
    65
 73
     2
 40
0.635
 49
0.0
 74
     0
 49
-0.635
 74
     0
  0
ENDTAB
  0
TABLE
  2
LAYER
  5
2
330
0
100
AcDbSymbolTable
 70
     1
  0
LAYER
  5
10
330
2
100
AcDbSymbolTableRecord
100
AcDbLayerTableRecord
  2
0
 70
     0
 62
     7
  6
Continuous
370
    -3
390
F
  0
ENDTAB
  0
TABLE
  2
STYLE
  5
3
330
0
100
AcDbSymbolTable
 70
     1
  0
STYLE
  5
11
330
3
100
AcDbSymbolTableRecord
100
AcDbTextStyleTableRecord
  2
Standard
 70
     0
 40
0.0
 41
1.0
 50
0.0
 71
     0
 42
3.5
  3
txt
  4

  0
ENDTAB
  0
TABLE
  2
VIEW
  5
6
330
0
100
AcDbSymbolTable
 70
     0
  0
ENDTAB
  0
TABLE
  2
UCS
  5
7
330
0
100
AcDbSymbolTable
 70
     0
  0
ENDTAB
  0
TABLE
  2
APPID
  5
9
330
0
100
AcDbSymbolTable
 70
     1
  0
APPID
  5
12
330
9
100
AcDbSymbolTableRecord
100
AcDbRegAppTableRecord
  2
ACAD
 70
     0
  0
ENDTAB
  0
TABLE
  2
DIMSTYLE
  5
A
330
0
100
AcDbSymbolTable
 70
     1
100
AcDbDimStyleTable
  0
DIMSTYLE
105
27
330
A
100
AcDbSymbolTableRecord
100
AcDbDimStyleTableRecord
  2
ISO-25
 70
     0
 41
2.5
 42
0.625
 43
3.75
 44
1.25
 73
     0
 74
     0
 77
     1
 78
     8
140
2.5
141
2.5
143
0.0393700787
147
0.625
171
     3
172
     1
178
     0
271
     2
272
     2
274
     3
278
    44
283
     0
284
     8
340
11
  0
ENDTAB
  0
TABLE
  2
BLOCK_RECORD
  5
1
330
0
100
AcDbSymbolTable
 70
     1
  0
BLOCK_RECORD
  5
1F
330
1
100
AcDbSymbolTableRecord
100
AcDbBlockTableRecord
  2
*Model_Space
340
22
  0
BLOCK_RECORD
  5
1B
330
1
100
AcDbSymbolTableRecord
100
AcDbBlockTableRecord
  2
*Paper_Space
340
1E
  0
BLOCK_RECORD
  5
23
330
1
100
AcDbSymbolTableRecord
100
AcDbBlockTableRecord
  2
*Paper_Space0
340
26
  0
ENDTAB
  0
ENDSEC
  0
SECTION
  2
BLOCKS
  0
BLOCK
  5
20
330
1F
100
AcDbEntity
  8
0
100
AcDbBlockBegin
  2
*Model_Space
 70
     0
 10
0.0
 20
0.0
 30
0.0
  3
*Model_Space
  1

  0
ENDBLK
  5
21
330
1F
100
AcDbEntity
  8
0
100
AcDbBlockEnd
  0
BLOCK
  5
1C
330
1B
100
AcDbEntity
 67
     1
  8
0
100
AcDbBlockBegin
  2
*Paper_Space
 70
     0
 10
0.0
 20
0.0
 30
0.0
  3
*Paper_Space
  1

  0
ENDBLK
  5
1D
330
1B
100
AcDbEntity
 67
     1
  8
0
100
AcDbBlockEnd
  0
BLOCK
  5
24
330
23
100
AcDbEntity
  8
0
100
AcDbBlockBegin
  2
*Paper_Space0
 70
     0
 10
0.0
 20
0.0
 30
0.0
  3
*Paper_Space0
  1

  0
LINE
  5
13B
330
23
100
AcDbEntity
  8
0
  6
Continuous
 62
     7
370
    25
100
AcDbLine
 10
395.0
 20
0.0
 30
0.0
 11
395.0
 21
25.0
 31
0.0
  0
LINE
  5
13C
330
23
100
AcDbEntity
  8
0
  6
Continuous
 62
     7
370
    25
100
AcDbLine
 10
400.0
 20
20.0
 30
0.0
 11
-400.0
 21
20.0
 31
0.0
  0
LINE
  5
13D
330
23
100
AcDbEntity
  8
0
  6
Continuous
 62
     7
370
    25
100
AcDbLine
 10
400.0
 20
20.0
 30
0.0
 11
400.0
 21
0.0
 31
0.0
  0
LINE
  5
13E
330
23
100
AcDbEntity
  8
0
  6
Continuous
 62
     7
370
    25
100
AcDbLine
 10
-395.0
 20
25.0
 30
0.0
 11
395.0
 21
25.0
 31
0.0
  0
LINE
  5
13F
330
23
100
AcDbEntity
  8
0
  6
Continuous
 62
     7
370
    25
100
AcDbLine
 10
-395.0
 20
25.0
 30
0.0
 11
-395.0
 21
0.0
 31
0.0
  0
LINE
  5
140
330
23
100
AcDbEntity
  8
0
  6
Continuous
 62
     7
370
    25
100
AcDbLine
 10
-400.0
 20
0.0
 30
0.0
 11
-400.0
 21
20.0
 31
0.0
  0
LINE
  5
141
330
23
100
AcDbEntity
  8
0
  6
Continuous
 62
     7
370
    25
100
AcDbLine
 10
-400.0
 20
0.0
 30
0.0
 11
400.0
 21
0.0
 31
0.0
  0
ARC
  5
142
330
23
100
AcDbEntity
  8
0
  6
Continuous
 62
     7
370
    25
100
AcDbCircle
 10
-395.0
 20
20.0
 30
0.0
 40
5.0
100
AcDbArc
 50
90.0
 51
180.0
  0
ARC
  5
143
330
23
100
AcDbEntity
  8
0
  6
Continuous
 62
     7
370
    25
100
AcDbCircle
 10
395.0
 20
20.0
 30
0.0
 40
5.0
100
AcDbArc
 50
0.0
 51
90.0
  0
VIEWPORT
  5
146
330
23
100
AcDbEntity
  8
0
100
AcDbViewport
 10
0.0
 20
0.0
 30
0.0
 40
205.6
 41
156.0
 68
     1
 69
     1
 12
0.0
 22
0.0
 13
0.0
 23
0.0
 14
10.0
 24
10.0
 15
10.0
 25
10.0
 16
0.0
 26
0.0
 36
1.0
 17
0.0
 27
0.0
 37
0.0
 42
50.0
 43
0.0
 44
0.0
 45
1160.8949416342
 50
0.0
 51
0.0
 72
   100
 90
   557152
  1

281
     0
 71
     1
 74
     0
110
0.0
120
0.0
130
0.0
111
1.0
121
0.0
131
0.0
112
0.0
122
1.0
132
0.0
 79
     0
146
0.0
  0
ENDBLK
  5
25
330
23
100
AcDbEntity
  8
0
100
AcDbBlockEnd
  0
ENDSEC
  0
SECTION
  2
ENTITIES
  0
SPLINE
  5
9F
330
1F
100
AcDbEntity
  8
0
  6
Continuous
 62
     7
370
    25
100
AcDbSpline
210
0.0
220
0.0
230
1.0
 70
     8
 71
     3
 72
    14
 73
    10
 74
     0
 42
0.000000001
 43
0.00000001
 40
0.0
 40
0.0
 40
0.0
 40
0.0
 40
0.25
 40
0.25
 40
0.5
 40
0.5
 40
0.75
 40
0.75
 40
1.0
 40
1.0
 40
1.0
 40
1.0
 10
670.773350682342
 20
338.2593496313308
 30
0.0
 10
558.9777950182125
 20
338.2835604563514
 30
0.0
 10
447.1822425630109
 20
338.3173685773672
 30
0.0
 10
223.5911390732266
 20
338.3916800673394
 30
0.0
 10
111.7955870352928
 20
338.4295284638056
 30
0.0
 10
-111.7955413281797
 20
338.4295284730508
 30
0.0
 10
-223.5911074378185
 20
338.3916800779036
 30
0.0
 10
-447.1822262008571
 20
338.3173685827554
 30
0.0
 10
-558.9777865499558
 20
338.2835604581855
 30
0.0
 10
-670.7733506823669
 20
338.259349631331
 30
0.0
  0
LWPOLYLINE
  5
A0
330
1F
100
AcDbEntity
  8
0
  6
Continuous
 62
     7
370
    25
100
AcDbPolyline
 90
        9
 70
   128
 43
0.0
 10
-670.7733506819
 20
338.2593496313
 10
-670.7733353002
 20
338.6103752215
 10
-670.7733078515
 20
338.9416573531
 10
-670.7732692236
 20
339.2424802322
 10
-670.7732206659
 20
339.5031133129
 10
-670.7731637493
 20
339.7151260458
 10
-670.7731003146
 20
339.8716605763
 10
-670.7730324138
 20
339.9676535712
 10
-670.7729622433
 20
340.0
  0
LWPOLYLINE
  5
A1
330
1F
100
AcDbEntity
  8
0
  6
Continuous
 62
     7
370
    25
100
AcDbPolyline
 90
        9
 70
   128
 43
0.0
 10
670.7733506823
 20
338.2593496313
 10
670.7733353007
 20
338.6103752215
 10
670.7733078519
 20
338.9416573531
 10
670.773269224
 20
339.2424802322
 10
670.7732206663
 20
339.5031133129
 10
670.7731637496
 20
339.7151260458
 10
670.7731003148
 20
339.8716605763
 10
670.7730324139
 20
339.9676535712
 10
670.7729622433
 20
340.0
  0
LWPOLYLINE
  5
A2
330
1F
100
AcDbEntity
  8
0
  6
Continuous
 62
     7
370
    25
100
AcDbPolyline
 90
        9
 70
   128
 43
0.0
 10
690.0
 20
-338.0
 10
689.9623681612
 20
-338.0000006446
 10
689.8508887999
 20
-338.000001265
 10
689.6697570896
 20
-338.0000018378
 10
689.4257893496
 20
-338.0000023414
 10
689.1281665346
 20
-338.0000027569
 10
688.7880887384
 20
-338.0000030687
 10
688.4183537138
 20
-338.000003265
 10
688.0328752696
 20
-338.0000033384
  0
LWPOLYLINE
  5
A3
330
1F
100
AcDbEntity
  8
0
  6
Continuous
 62
     7
370
    25
100
AcDbPolyline
 90
        6
 70
   128
 43
0.0
 10
688.0328752696
 20
-338.0000033384
 10
688.0328820703
 20
-334.0000033384
 10
688.0329086509
 20
-318.0000033384
 10
688.0330043801
 20
-254.0000033386
 10
688.0331838951
 20
1.9999966614
 10
688.0328801865
 20
338.0000033278
  0
LWPOLYLINE
  5
A4
330
1F
100
AcDbEntity
  8
0
  6
Continuous
 62
     7
370
    25
100
AcDbPolyline
 90
        9
 70
   128
 43
0.0
 10
690.0
 20
338.0
 10
689.9623682798
 20
338.0000006426
 10
689.8508892657
 20
338.000001261
 10
689.6697581047
 20
338.000001832
 10
689.4257910739
 20
338.000002334
 10
689.1281690725
 20
338.0000027482
 10
688.7880921282
 20
338.0000030589
 10
688.4183579215
 20
338.0000032546
 10
688.0328801865
 20
338.0000033278
  0
LWPOLYLINE
  5
A5
330
1F
100
AcDbEntity
  8
0
  6
Continuous
 62
     7
370
    25
100
AcDbPolyline
 90
        6
 70
   128
 43
0.0
 10
-688.0328801865
 20
338.0000033278
 10
-688.0328869437
 20
334.0000033278
 10
-688.0329133459
 20
318.0000033278
 10
-688.0330082912
 20
254.0000033279
 10
-688.0331838618
 20
-1.999996672
 10
-688.0328752696
 20
-338.0000033384
  0
LWPOLYLINE
  5
A6
330
1F
100
AcDbEntity
  8
0
  6
Continuous
 62
     7
370
    25
100
AcDbPolyline
 90
        9
 70
   128
 43
0.0
 10
-688.0328752696
 20
-338.0000033384
 10
-688.4183537137
 20
-338.000003265
 10
-688.7880887384
 20
-338.0000030687
 10
-689.1281665346
 20
-338.0000027569
 10
-689.4257893496
 20
-338.0000023414
 10
-689.6697570896
 20
-338.0000018378
 10
-689.8508887999
 20
-338.000001265
 10
-689.9623681612
 20
-338.0000006446
 10
-690.0
 20
-338.0
  0
LWPOLYLINE
  5
A7
330
1F
100
AcDbEntity
  8
0
  6
Continuous
 62
     7
370
    25
100
AcDbPolyline
 90
        9
 70
   128
 43
0.0
 10
-688.0328801865
 20
338.0000033278
 10
-688.4183579215
 20
338.0000032546
 10
-688.7880921282
 20
338.0000030589
 10
-689.1281690725
 20
338.0000027482
 10
-689.4257910739
 20
338.000002334
 10
-689.6697581047
 20
338.000001832
 10
-689.8508892657
 20
338.000001261
 10
-689.9623682798
 20
338.0000006426
 10
-690.0
 20
338.0
  0
LWPOLYLINE
  5
AF
330
1F
100
AcDbEntity
  8
0
  6
Continuous
 62
     7
370
    25
100
AcDbPolyline
 90
        3
 70
   128
 43
0.0
 10
-679.2860915199
 20
338.0000184038
 10
-683.2855510236
 20
338.0000114531
 10
-688.0328801865
 20
338.0000033278
  0
LWPOLYLINE
  5
B2
330
1F
100
AcDbEntity
  8
0
  6
Continuous
 62
     7
370
    25
100
AcDbPolyline
 90
        3
 70
   128
 43
0.0
 10
688.0328801865
 20
338.0000033278
 10
684.0334207489
 20
338.0000101641
 10
679.2860915199
 20
338.0000184038
  0
SPLINE
  5
B4
330
1F
100
AcDbEntity
  8
0
  6
Continuous
 62
     7
370
    25
100
AcDbSpline
210
0.0
220
0.0
230
1.0
 70
     8
 71
     3
 72
     8
 73
     4
 74
     0
 42
0.000000001
 43
0.00000001
 40
0.0
 40
0.0
 40
0.0
 40
0.0
 40
0.0003439113951629
 40
0.0003439113951629
 40
0.0003439113951629
 40
0.0003439113951629
 10
-687.86944143969
 20
-338.0000036177398
 30
0.0
 10
-687.755528489038
 20
-338.0127317275549
 30
0.0
 10
-687.6415933069426
 20
-338.02546037906
 30
0.0
 10
-687.5276649806033
 20
-338.038186321824
 30
0.0
  0
LWPOLYLINE
  5
B5
330
1F
100
AcDbEntity
  8
0
  6
Continuous
 62
     7
370
    25
100
AcDbPolyline
 90
        9
 70
   128
 43
0.0
 10
-687.5276558501
 20
-340.0
 10
-687.5276576103
 20
-339.9624962519
 10
-687.5276593045
 20
-339.8513915389
 10
-687.5276608692
 20
-339.6708527039
 10
-687.5276622456
 20
-339.4276506302
 10
-687.5276633821
 20
-339.1309063068
 10
-687.5276642362
 20
-338.7917487583
 10
-687.5276647758
 20
-338.4228976638
 10
-687.5276649806
 20
-338.0381863218
  0
LWPOLYLINE
  5
B6
330
1F
100
AcDbEntity
  8
0
  6
Continuous
 62
     7
370
    25
100
AcDbPolyline
 90
        9
 70
   128
 43
0.0
 10
687.5276558501
 20
-340.0
 10
687.5276576103
 20
-339.9624962519
 10
687.5276593045
 20
-339.8513915389
 10
687.5276608692
 20
-339.6708527039
 10
687.5276622456
 20
-339.4276506302
 10
687.5276633821
 20
-339.1309063068
 10
687.5276642362
 20
-338.7917487583
 10
687.5276647758
 20
-338.4228976638
 10
687.5276649806
 20
-338.0381863218
  0
SPLINE
  5
B7
330
1F
100
AcDbEntity
  8
0
  6
Continuous
 62
     7
370
    25
100
AcDbSpline
210
0.0
220
0.0
230
1.0
 70
     8
 71
     3
 72
     8
 73
     4
 74
     0
 42
0.000000001
 43
0.00000001
 40
0.0000000000000001
 40
0.0000000000000001
 40
0.0000000000000001
 40
0.0000000000000001
 40
0.0003439113951487
 40
0.0003439113951487
 40
0.0003439113951487
 40
0.0003439113951487
 10
687.5276649806029
 20
-338.0381863218241
 30
0.0
 10
687.6415933069376
 20
-338.0254603790607
 30
0.0
 10
687.7555284890282
 20
-338.0127317275559
 30
0.0
 10
687.8694414396756
 20
-338.0000036177414
 30
0.0
  0
LWPOLYLINE
  5
B8
330
1F
100
AcDbEntity
  8
0
  6
Continuous
 62
     7
370
    25
100
AcDbPolyline
 90
        8
 70
   128
 43
0.0
 10
-687.5276649806
 20
-338.0381863218
 10
-683.5276649807
 20
-338.0382049889
 10
-667.527664981
 20
-338.0382799567
 10
-603.5276649824
 20
-338.038583442
 10
-347.5276649875
 20
-338.0397565029
 10
169.9999999858
 20
-338.0403443719
 10
266.341253028
 20
-338.0400627942
 10
687.5276649806
 20
-338.0381863218
  0
SPLINE
  5
B9
330
1F
100
AcDbEntity
  8
0
  6
Continuous
 62
     7
370
    25
100
AcDbSpline
210
0.0
220
0.0
230
1.0
 70
     8
 71
     3
 72
     8
 73
     4
 74
     0
 42
0.000000001
 43
0.00000001
 40
0.0
 40
0.0
 40
0.0
 40
0.0
 40
1.0
 40
1.0
 40
1.0
 40
1.0
 10
679.2860915199276
 20
338.0000184038358
 30
0.0
 10
676.4487468982783
 20
338.0864714073192
 30
0.0
 10
673.6110603320868
 20
338.1729185192805
 30
0.0
 10
670.7733506823421
 20
338.2593496313318
 30
0.0
  0
SPLINE
  5
BA
330
1F
100
AcDbEntity
  8
0
  6
Continuous
 62
     7
370
    25
100
AcDbSpline
210
0.0
220
0.0
230
1.0
 70
     8
 71
     3
 72
     8
 73
     4
 74
     0
 42
0.000000001
 43
0.00000001
 40
0.0
 40
0.0
 40
0.0
 40
0.0
 40
1.0
 40
1.0
 40
1.0
 40
1.0
 10
-670.7733506823668
 20
338.2593496313309
 30
0.0
 10
-673.6110596729386
 20
338.1729185393568
 30
0.0
 10
-676.4487470919049
 20
338.0864714014206
 30
0.0
 10
-679.2860915199363
 20
338.0000184038367
 30
0.0
  0
SPLINE
  5
BB
330
1F
100
AcDbEntity
  8
0
  6
Continuous
 62
     7
370
    25
100
AcDbSpline
210
0.0
220
0.0
230
1.0
 70
     8
 71
     3
 72
    56
 73
    52
 74
     0
 42
0.000000001
 43
0.00000001
 40
0.0
 40
0.0
 40
0.0
 40
0.0
 40
0.0625000000000003
 40
0.0625000000000003
 40
0.1250000000000006
 40
0.1250000000000006
 40
0.1562500000000003
 40
0.1562500000000003
 40
0.1875
 40
0.1875
 40
0.2500000000000001
 40
0.2500000000000001
 40
0.2812500000000001
 40
0.2812500000000001
 40
0.3125000000000002
 40
0.3125000000000002
 40
0.3437500000000002
 40
0.3437500000000002
 40
0.3750000000000002
 40
0.3750000000000002
 40
0.4062500000000003
 40
0.4062500000000003
 40
0.4375000000000003
 40
0.4375000000000003
 40
0.4687500000000004
 40
0.4687500000000004
 40
0.5000000000000004
 40
0.5000000000000004
 40
0.5312500000000004
 40
0.5312500000000004
 40
0.5625000000000006
 40
0.5625000000000006
 40
0.6250000000000008
 40
0.6250000000000008
 40
0.6562500000000009
 40
0.6562500000000009
 40
0.6875000000000011
 40
0.6875000000000011
 40
0.7187500000000012
 40
0.7187500000000012
 40
0.7500000000000013
 40
0.7500000000000013
 40
0.812500000000001
 40
0.812500000000001
 40
0.8750000000000007
 40
0.8750000000000007
 40
0.9375000000000003
 40
0.9375000000000003
 40
0.9687500000000002
 40
0.9687500000000002
 40
1.0
 40
1.0
 40
1.0
 40
1.0
 10
-53.41118853031208
 20
260.5668440512606
 30
0.0
 10
-52.20874943868905
 20
263.0728361245244
 30
0.0
 10
-50.84478229460431
 20
265.4643209575775
 30
0.0
 10
-47.80652075284538
 20
270.0272987247241
 30
0.0
 10
-46.13220460432333
 20
272.1987762625726
 30
0.0
 10
-43.38319497891991
 20
275.2876018699139
 30
0.0
 10
-42.42523937002409
 20
276.2908524942828
 30
0.0
 10
-40.43588359504988
 20
278.2306489114891
 30
0.0
 10
-39.40784373062544
 20
279.1642000791041
 30
0.0
 10
-36.22317738992955
 20
281.85530917533
 30
0.0
 10
-33.98512776639375
 20
283.4881378956519
 30
0.0
 10
-30.45588615912729
 20
285.693511140397
 30
0.0
 10
-29.24987200181637
 20
286.3879788365298
 30
0.0
 10
-26.79924556267656
 20
287.683224868235
 30
0.0
 10
-25.55230830659885
 20
288.2856061896509
 30
0.0
 10
-23.01503725986757
 20
289.3995717505396
 30
0.0
 10
-21.72208107247574
 20
289.9120142816889
 30
0.0
 10
-19.10615284782761
 20
290.8402728673327
 30
0.0
 10
-17.78447283794414
 20
291.2559344160526
 30
0.0
 10
-15.11438719476106
 20
291.9928503371524
 30
0.0
 10
-13.76598366390534
 20
292.3141121981315
 30
0.0
 10
-11.04304638690655
 20
292.8643961238519
 30
0.0
 10
-9.673567050866339
 20
293.092373857002
 30
0.0
 10
-6.926431098538261
 20
293.4564392021915
 30
0.0
 10
-5.547595887571891
 20
293.5927323984619
 30
0.0
 10
-2.779484831403926
 20
293.7748105007265
 30
0.0
 10
-1.388898981937155
 20
293.8204218277366
 30
0.0
 10
1.384348558269953
 20
293.8205211539186
 30
0.0
 10
2.769126431890949
 20
293.7752381987104
 30
0.0
 10
5.534985049844643
 20
293.5938134507715
 30
0.0
 10
6.91813426734726
 20
293.4574100277203
 30
0.0
 10
11.0467038745643
 20
292.9106549595448
 30
0.0
 10
13.76284963520209
 20
292.365396917572
 30
0.0
 10
17.77909842001441
 20
291.2576484001845
 30
0.0
 10
19.1052055786672
 20
290.8406088356692
 30
0.0
 10
21.72301594271572
 20
289.9116827130921
 30
0.0
 10
23.01564915930856
 20
289.3993238771264
 30
0.0
 10
25.55313497558187
 20
288.2852224610222
 30
0.0
 10
26.80004021579093
 20
287.6828245360363
 30
0.0
 10
29.25035252873065
 20
286.387705179034
 30
0.0
 10
30.45612188446909
 20
285.6933768479992
 30
0.0
 10
33.9858257073994
 20
283.4876757376284
 30
0.0
 10
36.22351356354527
 20
281.8550344204866
 30
0.0
 10
40.46929156941661
 20
278.2672453254439
 30
0.0
 10
42.44021094379307
 20
276.343404399779
 30
0.0
 10
46.08845658875932
 20
272.2516079901582
 30
0.0
 10
47.76641526602598
 20
270.0830073111474
 30
0.0
 10
50.06107959366678
 20
266.6435126797396
 30
0.0
 10
50.7900320634092
 20
265.4635763780511
 30
0.0
 10
52.1655257789633
 20
263.0496987132806
 30
0.0
 10
52.81000214090474
 20
261.8197709869411
 30
0.0
 10
53.4111885303122
 20
260.566844051261
 30
0.0
  0
SPLINE
  5
BC
330
1F
100
AcDbEntity
  8
0
  6
Continuous
 62
     7
370
    25
100
AcDbSpline
210
0.0
220
0.0
230
1.0
 70
     8
 71
     3
 72
    16
 73
    12
 74
     0
 42
0.000000001
 43
0.00000001
 40
0.0
 40
0.0
 40
0.0
 40
0.0
 40
0.5
 40
0.5
 40
0.75
 40
0.75
 40
0.875
 40
0.875
 40
0.9375
 40
0.9375
 40
1.0
 40
1.0
 40
1.0
 40
1.0
 10
-670.7733506818631
 20
338.2593496312678
 30
0.0
 10
-567.873352894241
 20
325.3608560721633
 30
0.0
 10
-464.974879761201
 20
312.4504254005487
 30
0.0
 10
-310.6321468433236
 20
293.0450458791739
 30
0.0
 10
-259.1854037096215
 20
286.5699261135753
 30
0.0
 10
-182.0174104222249
 20
276.840177830208
 30
0.0
 10
-156.2950918407897
 20
273.5941421864375
 30
0.0
 10
-117.7124891743267
 20
268.7180223772617
 30
0.0
 10
-104.8517651448474
 20
267.0914908402772
 30
0.0
 10
-79.13084756485577
 20
263.8341800757773
 30
0.0
 10
-66.27056744291485
 20
262.2040811478567
 30
0.0
 10
-53.41118853031131
 20
260.566844051267
 30
0.0
  0
SPLINE
  5
BD
330
1F
100
AcDbEntity
  8
0
  6
Continuous
 62
     7
370
    25
100
AcDbSpline
210
0.0
220
0.0
230
1.0
 70
     8
 71
     3
 72
    16
 73
    12
 74
     0
 42
0.000000001
 43
0.00000001
 40
0.0
 40
0.0
 40
0.0
 40
0.0
 40
0.0625
 40
0.0625
 40
0.1249999999999999
 40
0.1249999999999999
 40
0.2499999999999999
 40
0.2499999999999999
 40
0.4999999999999999
 40
0.4999999999999999
 40
1.0
 40
1.0
 40
1.0
 40
1.0
 10
53.411188530323
 20
260.566844051266
 30
0.0
 10
66.27057061958529
 20
262.2040815523175
 30
0.0
 10
79.1308496337916
 20
263.8341803379349
 30
0.0
 10
104.8517655592997
 20
267.0914908926157
 30
0.0
 10
117.7124883716866
 20
268.7180222757071
 30
0.0
 10
156.2950881509209
 20
273.594141720339
 30
0.0
 10
182.0174064145828
 20
276.8401773246399
 30
0.0
 10
259.1854015953426
 20
286.5699258475229
 30
0.0
 10
310.6321434244201
 20
293.0450454489953
 30
0.0
 10
464.9748760691175
 20
312.4504249369911
 30
0.0
 10
567.8733522107545
 20
325.3608559864883
 30
0.0
 10
670.7733506823423
 20
338.2593496313278
 30
0.0
  0
LWPOLYLINE
  5
BE
330
1F
100
AcDbEntity
  8
0
  6
Continuous
 62
     7
370
    25
100
AcDbPolyline
 90
        4
 70
   128
 43
0.0
 10
-687.8694414397
 20
-338.0000036178
 10
-431.7821458688
 20
-117.5917359608
 10
-111.8517755644
 20
157.7062616385
 10
-52.8989365608
 20
208.3690963683
  0
SPLINE
  5
BF
330
1F
100
AcDbEntity
  8
0
  6
Continuous
 62
     7
370
    25
100
AcDbSpline
210
0.0
220
0.0
230
1.0
 70
     8
 71
     3
 72
     8
 73
     4
 74
     0
 42
0.000000001
 43
0.00000001
 40
0.0000000000000035
 40
0.0000000000000035
 40
0.0000000000000035
 40
0.0000000000000035
 40
0.0000059237676544
 40
0.0000059237676544
 40
0.0000059237676544
 40
0.0000059237676544
 10
-52.89652016527787
 20
208.3636878524093
 30
0.0
 10
-52.89732575406004
 20
208.3654906353935
 30
0.0
 10
-52.89813121929325
 20
208.3672934741685
 30
0.0
 10
-52.89893656079103
 20
208.3690963683104
 30
0.0
  0
SPLINE
  5
C0
330
1F
100
AcDbEntity
  8
0
  6
Continuous
 62
     7
370
    25
100
AcDbSpline
210
0.0
220
0.0
230
1.0
 70
     8
 71
     3
 72
    16
 73
    12
 74
     0
 42
0.000000001
 43
0.00000001
 40
0.0
 40
0.0
 40
0.0
 40
0.0
 40
0.0625
 40
0.0625
 40
0.1249999999999999
 40
0.1249999999999999
 40
0.2499999999999999
 40
0.2499999999999999
 40
0.5
 40
0.5
 40
1.0
 40
1.0
 40
1.0
 40
1.0
 10
-52.8965201652705
 20
208.3636878524222
 30
0.0
 10
-66.10413651554106
 20
196.9642240898068
 30
0.0
 10
-79.3188839064048
 20
185.5730359225058
 30
0.0
 10
-105.751725513031
 20
162.7945407659937
 30
0.0
 10
-118.9702948639393
 20
151.4077852162357
 30
0.0
 10
-158.6285221334334
 20
117.250446366137
 30
0.0
 10
-185.0707126264253
 20
94.48280307869307
 30
0.0
 10
-264.3997531323611
 20
26.18273917690551
 30
0.0
 10
-317.2894997090922
 20
-19.34631863564165
 30
0.0
 10
-475.9602962915388
 20
-155.9316854934675
 30
0.0
 10
-581.7438662950948
 20
-246.9850685985055
 30
0.0
 10
-687.5276649806029
 20
-338.0381863218244
 30
0.0
  0
LWPOLYLINE
  5
C1
330
1F
100
AcDbEntity
  8
0
  6
Continuous
 62
     7
370
    25
100
AcDbPolyline
 90
        5
 70
   128
 43
0.0
 10
687.5276649806
 20
-338.0381863218
 10
529.6155217233
 20
-202.1144907256
 10
320.6810882794
 20
-22.2651912384
 10
111.7699455025
 20
157.6111538934
 10
52.8965201653
 20
208.3636878524
  0
SPLINE
  5
C2
330
1F
100
AcDbEntity
  8
0
  6
Continuous
 62
     7
370
    25
100
AcDbSpline
210
0.0
220
0.0
230
1.0
 70
     8
 71
     3
 72
     8
 73
     4
 74
     0
 42
0.000000001
 43
0.00000001
 40
0.0000000000000031
 40
0.0000000000000031
 40
0.0000000000000031
 40
0.0000000000000031
 40
0.000005923767647
 40
0.000005923767647
 40
0.000005923767647
 40
0.000005923767647
 10
52.8989365607903
 20
208.3690963683094
 30
0.0
 10
52.89813121929352
 20
208.3672934741697
 30
0.0
 10
52.89732575406215
 20
208.3654906353965
 30
0.0
 10
52.89652016528099
 20
208.3636878524146
 30
0.0
  0
SPLINE
  5
C3
330
1F
100
AcDbEntity
  8
0
  6
Continuous
 62
     7
370
    25
100
AcDbSpline
210
0.0
220
0.0
230
1.0
 70
     8
 71
     3
 72
    16
 73
    12
 74
     0
 42
0.000000001
 43
0.00000001
 40
0.0
 40
0.0
 40
0.0
 40
0.0
 40
0.0624999999999999
 40
0.0624999999999999
 40
0.1249999999999999
 40
0.1249999999999999
 40
0.2499999999999998
 40
0.2499999999999998
 40
0.4999999999999998
 40
0.4999999999999998
 40
1.0
 40
1.0
 40
1.0
 40
1.0
 10
52.89893656078267
 20
208.3690963683184
 30
0.0
 10
66.14134976687532
 20
197.0025319522513
 30
0.0
 10
79.37662269659437
 20
185.627659447927
 30
0.0
 10
105.843837464753
 20
162.8740370880984
 30
0.0
 10
119.075300413786
 20
151.4947299062103
 30
0.0
 10
158.767170386417
 20
117.3538828772682
 30
0.0
 10
185.2250478232313
 20
94.58940170567458
 30
0.0
 10
264.5962139549504
 20
26.29309100046085
 30
0.0
 10
317.5066088929377
 20
-19.24210259880697
 30
0.0
 10
476.2362381828251
 20
-155.8494920415704
 30
0.0
 10
582.0529541036531
 20
-246.9246149695572
 30
0.0
 10
687.8694414396758
 20
-338.0000036177414
 30
0.0
  0
SPLINE
  5
C4
330
1F
100
AcDbEntity
  8
0
  6
Continuous
 62
     7
370
    25
100
AcDbSpline
210
0.0
220
0.0
230
1.0
 70
     8
 71
     3
 72
    26
 73
    22
 74
     0
 42
0.000000001
 43
0.00000001
 40
0.0
 40
0.0
 40
0.0
 40
0.0
 40
0.124999999999999
 40
0.124999999999999
 40
0.2499999999999981
 40
0.2499999999999981
 40
0.3124999999999976
 40
0.3124999999999976
 40
0.3749999999999971
 40
0.3749999999999971
 40
0.4999999999999977
 40
0.4999999999999977
 40
0.6249999999999982
 40
0.6249999999999982
 40
0.6874999999999986
 40
0.6874999999999986
 40
0.7499999999999988
 40
0.7499999999999988
 40
0.8749999999999994
 40
0.8749999999999994
 40
1.0
 40
1.0
 40
1.0
 40
1.0
 10
53.41665706974607
 20
260.5569591017541
 30
0.0
 10
54.39616941984033
 20
258.5090037499514
 30
0.0
 10
55.2512646298682
 20
256.4198347139432
 30
0.0
 10
56.71849430182278
 20
252.1610149045467
 30
0.0
 10
57.33061526030423
 20
249.9913596580388
 30
0.0
 10
58.06371899605631
 20
246.6755690457106
 30
0.0
 10
58.27720589058003
 20
245.5586230891094
 30
0.0
 10
58.6376041075344
 20
243.3289869327191
 30
0.0
 10
58.78526338016778
 20
242.213353464633
 30
0.0
 10
59.13239225369033
 20
238.8640512556723
 30
0.0
 10
59.23630658932069
 20
236.6279880702054
 30
0.0
 10
59.19097382908026
 20
232.1495179189244
 30
0.0
 10
59.04173878350426
 20
229.9071112548499
 30
0.0
 10
58.62192188546732
 20
226.5385907323296
 30
0.0
 10
58.44894201200521
 20
225.4148042352547
 30
0.0
 10
58.04174580512293
 20
223.193936764021
 30
0.0
 10
57.80715175456051
 20
222.0932547819399
 30
0.0
 10
57.01188073680995
 20
218.8199924943025
 30
0.0
 10
56.35999884432793
 20
216.6761065162688
 30
0.0
 10
54.81361643060168
 20
212.4646657199933
 30
0.0
 10
53.91913766408484
 20
210.3971040569465
 30
0.0
 10
52.8989365607902
 20
208.3690963683094
 30
0.0
  0
SPLINE
  5
C5
330
1F
100
AcDbEntity
  8
0
  6
Continuous
 62
     7
370
    25
100
AcDbSpline
210
0.0
220
0.0
230
1.0
 70
     8
 71
     3
 72
    16
 73
    12
 74
     0
 42
0.000000001
 43
0.00000001
 40
0.0
 40
0.0
 40
0.0
 40
0.0
 40
0.5000000000000002
 40
0.5000000000000002
 40
0.7500000000000002
 40
0.7500000000000002
 40
0.8750000000000002
 40
0.8750000000000002
 40
0.9375000000000002
 40
0.9375000000000002
 40
1.0
 40
1.0
 40
1.0
 40
1.0
 10
679.2860915199276
 20
338.0000184038356
 30
0.0
 10
574.9806696177225
 20
325.0431531540322
 30
0.0
 10
470.6737911939333
 20
312.0980309864173
 30
0.0
 10
314.2086490776591
 20
292.7192514879841
 30
0.0
 10
262.0527956787793
 20
286.2661644953699
 30
0.0
 10
183.8169185092493
 20
276.6035260814202
 30
0.0
 10
157.7379502963805
 20
273.3854212638043
 30
0.0
 10
118.6186130730665
 20
268.565428093443
 30
0.0
 10
105.5786890651573
 20
266.9599379767785
 30
0.0
 10
79.49830645560604
 20
263.7533001734092
 30
0.0
 10
66.45793560346608
 20
262.1514373690082
 30
0.0
 10
53.41665706974871
 20
260.5569591017517
 30
0.0
  0
SPLINE
  5
C6
330
1F
100
AcDbEntity
  8
0
  6
Continuous
 62
     7
370
    25
100
AcDbSpline
210
0.0
220
0.0
230
1.0
 70
     8
 71
     3
 72
    16
 73
    12
 74
     0
 42
0.000000001
 43
0.00000001
 40
0.0
 40
0.0
 40
0.0
 40
0.0
 40
0.0625
 40
0.0625
 40
0.1250000000000001
 40
0.1250000000000001
 40
0.2500000000000002
 40
0.2500000000000002
 40
0.5000000000000002
 40
0.5000000000000002
 40
1.0
 40
1.0
 40
1.0
 40
1.0
 10
-53.41665706973992
 20
260.556959101748
 30
0.0
 10
-66.45793552731897
 20
262.1514373597118
 30
0.0
 10
-79.49830630333364
 20
263.7533001547133
 30
0.0
 10
-105.5786887606315
 20
266.9599379393086
 30
0.0
 10
-118.6186126924158
 20
268.5654280465723
 30
0.0
 10
-157.7379496873581
 20
273.3854211887052
 30
0.0
 10
-183.8169177479832
 20
276.6035259874688
 30
0.0
 10
-262.0527944607897
 20
286.2661643447997
 30
0.0
 10
-314.2086475551974
 20
292.7192512995841
 30
0.0
 10
-470.6737887580713
 20
312.098030684402
 30
0.0
 10
-574.9806695144574
 20
325.0431531412044
 30
0.0
 10
-679.2860915199366
 20
338.0000184038367
 30
0.0
  0
SPLINE
  5
C7
330
1F
100
AcDbEntity
  8
0
  6
Continuous
 62
     7
370
    25
100
AcDbSpline
210
0.0
220
0.0
230
1.0
 70
     8
 71
     3
 72
    26
 73
    22
 74
     0
 42
0.000000001
 43
0.00000001
 40
0.0
 40
0.0
 40
0.0
 40
0.0
 40
0.1250000000000016
 40
0.1250000000000016
 40
0.2500000000000031
 40
0.2500000000000031
 40
0.3125000000000031
 40
0.3125000000000031
 40
0.3750000000000031
 40
0.3750000000000031
 40
0.5000000000000031
 40
0.5000000000000031
 40
0.6250000000000031
 40
0.6250000000000031
 40
0.6875000000000031
 40
0.6875000000000031
 40
0.7500000000000031
 40
0.7500000000000031
 40
0.8750000000000016
 40
0.8750000000000016
 40
1.0
 40
1.0
 40
1.0
 40
1.0
 10
-52.8989365607904
 20
208.3690963683107
 30
0.0
 10
-53.919135677877
 20
210.3971001086625
 30
0.0
 10
-54.81568822971276
 20
212.4688078939947
 30
0.0
 10
-56.36732654245946
 20
216.6975721850448
 30
0.0
 10
-57.02240974703631
 20
218.8546295948551
 30
0.0
 10
-57.82111260156243
 20
222.15522466887
 30
0.0
 10
-58.05669219405365
 20
223.2677285401937
 30
0.0
 10
-58.46117714568766
 20
225.4897971121497
 30
0.0
 10
-58.63088879636369
 20
226.6022901127481
 30
0.0
 10
-59.04421042464806
 20
229.9440654792655
 30
0.0
 10
-59.19231439845608
 20
232.1776304309104
 30
0.0
 10
-59.23552185443682
 20
236.6561051377451
 30
0.0
 10
-59.13065311663883
 20
238.9010136476048
 30
0.0
 10
-58.77756622530058
 20
242.2771555651798
 30
0.0
 10
-58.62686513629267
 20
243.4041448003516
 30
0.0
 10
-58.26373283725081
 20
245.6326511768669
 30
0.0
 10
-58.05099540592012
 20
246.7377735073614
 30
0.0
 10
-57.32077883144985
 20
250.0261901153527
 30
0.0
 10
-56.71159497786008
 20
252.1826217610065
 30
0.0
 10
-55.2492732078487
 20
256.4240247298917
 30
0.0
 10
-54.39616845485564
 20
258.5090057675306
 30
0.0
 10
-53.41665706975052
 20
260.5569591017439
 30
0.0
  0
SPLINE
  5
C8
330
1F
100
AcDbEntity
  8
0
  6
Continuous
 62
     7
370
    25
100
AcDbSpline
210
0.0
220
0.0
230
1.0
 70
     8
 71
     3
 72
    58
 73
    54
 74
     0
 42
0.000000001
 43
0.00000001
 40
0.0
 40
0.0
 40
0.0
 40
0.0
 40
0.0624999999999983
 40
0.0624999999999983
 40
0.1249999999999966
 40
0.1249999999999966
 40
0.1406249999999965
 40
0.1406249999999965
 40
0.1562499999999963
 40
0.1562499999999963
 40
0.1874999999999961
 40
0.1874999999999961
 40
0.2499999999999962
 40
0.2499999999999962
 40
0.2812499999999964
 40
0.2812499999999964
 40
0.2968749999999965
 40
0.2968749999999965
 40
0.3124999999999966
 40
0.3124999999999966
 40
0.3749999999999967
 40
0.3749999999999967
 40
0.4374999999999968
 40
0.4374999999999968
 40
0.4531249999999969
 40
0.4531249999999969
 40
0.4687499999999969
 40
0.4687499999999969
 40
0.4999999999999971
 40
0.4999999999999971
 40
0.5624999999999974
 40
0.5624999999999974
 40
0.5937499999999976
 40
0.5937499999999976
 40
0.6249999999999978
 40
0.6249999999999978
 40
0.6874999999999982
 40
0.6874999999999982
 40
0.7499999999999986
 40
0.7499999999999986
 40
0.7812499999999988
 40
0.7812499999999988
 40
0.8124999999999989
 40
0.8124999999999989
 40
0.8749999999999989
 40
0.8749999999999989
 40
0.906249999999999
 40
0.906249999999999
 40
0.9218749999999989
 40
0.9218749999999989
 40
0.9374999999999988
 40
0.9374999999999988
 40
1.0
 40
1.0
 40
1.0
 40
1.0
 10
52.896520165281
 20
208.3636878524146
 30
0.0
 10
51.65937540937425
 20
205.9084904218963
 30
0.0
 10
50.26669680459054
 20
203.5680002472451
 30
0.0
 10
47.18291618871138
 20
199.1071091603548
 30
0.0
 10
45.49177709255426
 20
196.9867355980665
 30
0.0
 10
43.18833179791088
 20
194.4760419639666
 30
0.0
 10
42.71812447793313
 20
193.9809230182782
 30
0.0
 10
41.75842532827069
 20
193.0049075815431
 30
0.0
 10
41.26806247384221
 20
192.5231937168457
 30
0.0
 10
39.7740462780444
 20
191.1058417946202
 30
0.0
 10
38.7508398685675
 20
190.2008657622302
 30
0.0
 10
35.60176333423954
 20
187.6025870919769
 30
0.0
 10
33.39680066251893
 20
186.0253983859813
 30
0.0
 10
29.93251380303423
 20
183.8898726687598
 30
0.0
 10
28.75151905911805
 20
183.2165420219401
 30
0.0
 10
26.94002366977368
 20
182.2652739234293
 30
0.0
 10
26.32951868771496
 20
181.95798130531
 30
0.0
 10
25.0949778153509
 20
181.3632604802111
 30
0.0
 10
24.4698049609046
 20
181.0753617226984
 30
0.0
 10
21.33151311201949
 20
179.6957798138215
 30
0.0
 10
18.7714438371181
 20
178.7774128713824
 30
0.0
 10
13.55585688989795
 20
177.2984451071003
 30
0.0
 10
10.90033314317985
 20
176.7378670375327
 30
0.0
 10
7.519945043206498
 20
176.2657265909429
 30
0.0
 10
6.840804576374741
 20
176.1827788698406
 30
0.0
 10
5.476308146302486
 20
176.0401807671375
 30
0.0
 10
4.790851902892875
 20
175.9805841188396
 30
0.0
 10
2.741271550926877
 20
175.8381522055661
 30
0.0
 10
1.378545866704552
 20
175.7909999055124
 30
0.0
 10
-2.698899127760477
 20
175.7896650473912
 30
0.0
 10
-5.402935778250987
 20
175.9749595567748
 30
0.0
 10
-9.437671276543924
 20
176.5312569211744
 30
0.0
 10
-10.77901746808911
 20
176.7632438146843
 30
0.0
 10
-13.45443618966336
 20
177.3221854314648
 30
0.0
 10
-14.79318200900324
 20
177.6506797391555
 30
0.0
 10
-18.7431230525905
 20
178.7667239831609
 30
0.0
 10
-21.29985352804599
 20
179.6851750059987
 30
0.0
 10
-26.26450944627188
 20
181.8610738705502
 30
0.0
 10
-28.67243456758074
 20
183.118522455359
 30
0.0
 10
-32.16949928883129
 20
185.2662766883412
 30
0.0
 10
-33.31841931127282
 20
186.0280999667638
 30
0.0
 10
-35.54289877627173
 20
187.6168607521637
 30
0.0
 10
-36.6226166517492
 20
188.4460849975664
 30
0.0
 10
-39.76613013339214
 20
191.0362263949119
 30
0.0
 10
-41.73472833803117
 20
192.8991378572743
 30
0.0
 10
-44.4964490708869
 20
195.8983312630899
 30
0.0
 10
-45.38504938040265
 20
196.9323184962339
 30
0.0
 10
-46.66887636457201
 20
198.5358765789037
 30
0.0
 10
-47.0892483084213
 20
199.0800115824665
 30
0.0
 10
-47.90978204945644
 20
200.1812832624992
 30
0.0
 10
-48.30989194537257
 20
200.7382722972762
 30
0.0
 10
-50.25999445456841
 20
203.5547720868167
 30
0.0
 10
-51.65937545496559
 20
205.9084905123768
 30
0.0
 10
-52.89652016527786
 20
208.3636878524092
 30
0.0
  0
SPLINE
  5
C9
330
1F
100
AcDbEntity
  8
0
  6
Continuous
 62
     7
370
    25
100
AcDbSpline
210
0.0
220
0.0
230
1.0
 70
     8
 71
     3
 72
     8
 73
     4
 74
     0
 42
0.000000001
 43
0.00000001
 40
0.0000000000000008
 40
0.0000000000000008
 40
0.0000000000000008
 40
0.0000000000000008
 40
0.0000112967784623
 40
0.0000112967784623
 40
0.0000112967784623
 40
0.0000112967784623
 10
53.41118853031411
 20
260.5668440512621
 30
0.0
 10
53.41301179603741
 20
260.5635492992197
 30
0.0
 10
53.41483464298141
 20
260.5602543152299
 30
0.0
 10
53.41665706974607
 20
260.5569591017541
 30
0.0
  0
SPLINE
  5
CA
330
1F
100
AcDbEntity
  8
0
  6
Continuous
 62
     7
370
    25
100
AcDbSpline
210
0.0
220
0.0
230
1.0
 70
     8
 71
     3
 72
     8
 73
     4
 74
     0
 42
0.000000001
 43
0.00000001
 40
0.0000000000000095
 40
0.0000000000000095
 40
0.0000000000000095
 40
0.0000000000000095
 40
0.0000112967784731
 40
0.0000112967784731
 40
0.0000112967784731
 40
0.0000112967784731
 10
-53.41665706975259
 20
260.556959101745
 30
0.0
 10
-53.41483464298619
 20
260.5602543152241
 30
0.0
 10
-53.41301179603741
 20
260.5635492992153
 30
0.0
 10
-53.41118853031237
 20
260.5668440512608
 30
0.0
  0
SPLINE
  5
CB
330
1F
100
AcDbEntity
  8
0
  6
Continuous
 62
     7
370
    25
100
AcDbSpline
210
0.0
220
0.0
230
1.0
 70
     8
 71
     3
 72
    54
 73
    50
 74
     0
 42
0.000000001
 43
0.00000001
 40
0.0
 40
0.0
 40
0.0
 40
0.0
 40
0.03125
 40
0.03125
 40
0.0625000000000001
 40
0.0625000000000001
 40
0.1250000000000003
 40
0.1250000000000003
 40
0.1875000000000005
 40
0.1875000000000005
 40
0.2500000000000007
 40
0.2500000000000007
 40
0.2812500000000004
 40
0.2812500000000004
 40
0.3125000000000002
 40
0.3125000000000002
 40
0.3750000000000002
 40
0.3750000000000002
 40
0.4375000000000001
 40
0.4375000000000001
 40
0.46875
 40
0.46875
 40
0.4999999999999999
 40
0.4999999999999999
 40
0.5312499999999998
 40
0.5312499999999998
 40
0.5624999999999998
 40
0.5624999999999998
 40
0.5937499999999997
 40
0.5937499999999997
 40
0.6249999999999996
 40
0.6249999999999996
 40
0.6562499999999996
 40
0.6562499999999996
 40
0.6874999999999996
 40
0.6874999999999996
 40
0.7187499999999997
 40
0.7187499999999997
 40
0.7499999999999997
 40
0.7499999999999997
 40
0.8125000000000004
 40
0.8125000000000004
 40
0.8437500000000003
 40
0.8437500000000003
 40
0.8750000000000002
 40
0.8750000000000002
 40
0.9375000000000001
 40
0.9375000000000001
 40
1.0
 40
1.0
 40
1.0
 40
1.0
 10
51.63803954059694
 20
259.7199387621365
 30
0.0
 10
51.05651985636154
 20
260.9346883914591
 30
0.0
 10
50.43302740610667
 20
262.127192868119
 30
0.0
 10
49.1021966440741
 20
264.4677642683648
 30
0.0
 10
48.39688629572459
 20
265.6118932403169
 30
0.0
 10
46.1764332994083
 20
268.9475470580222
 30
0.0
 10
44.55253373475755
 20
271.0512494410047
 30
0.0
 10
41.02224202660525
 20
275.0224500443799
 30
0.0
 10
39.11481015428084
 20
276.8908901164818
 30
0.0
 10
35.00967076794016
 20
280.3777258231066
 30
0.0
 10
32.84636444867876
 20
281.9671169806889
 30
0.0
 10
29.43604012548335
 20
284.1211751739943
 30
0.0
 10
28.27159467682741
 20
284.8004311804583
 30
0.0
 10
25.90538407591553
 20
286.0712941603175
 30
0.0
 10
24.70142265706223
 20
286.664355735899
 30
0.0
 10
21.02697816974541
 20
288.3164367583055
 30
0.0
 10
18.49030300171617
 20
289.2486249181144
 30
0.0
 10
13.31994876249843
 20
290.7439106590662
 30
0.0
 10
10.69548997707767
 20
291.3063721644021
 30
0.0
 10
6.699717807959924
 20
291.8725409959428
 30
0.0
 10
5.36029835215573
 20
292.0143160539568
 30
0.0
 10
2.681760412976757
 20
292.2029124661672
 30
0.0
 10
1.340426193988805
 20
292.2500698253189
 30
0.0
 10
-1.346384093716915
 20
292.2499300196745
 30
0.0
 10
-2.694223088320444
 20
292.202357975705
 30
0.0
 10
-5.375361062885169
 20
292.0129291430808
 30
0.0
 10
-6.710117325368835
 20
291.8712452319782
 30
0.0
 10
-9.368073397622503
 20
291.4942776710418
 30
0.0
 10
-10.6924038093919
 20
291.2587484993776
 30
0.0
 10
-13.32456530588827
 20
290.6940772555614
 30
0.0
 10
-14.62711065275888
 20
290.3661560272009
 30
0.0
 10
-17.2053968548902
 20
289.6199406658607
 30
0.0
 10
-18.48113754139548
 20
289.2016460519235
 30
0.0
 10
-21.00566381699875
 20
288.2741303745937
 30
0.0
 10
-22.25347026079433
 20
287.7650317712772
 30
0.0
 10
-24.70278369088077
 20
286.6637009358939
 30
0.0
 10
-25.90671485108011
 20
286.070622185452
 30
0.0
 10
-28.27309539152225
 20
284.7995823452992
 30
0.0
 10
-29.4377256679321
 20
284.1201590970534
 30
0.0
 10
-32.84743090706122
 20
281.9663461607028
 30
0.0
 10
-35.0107553443141
 20
280.3769164433867
 30
0.0
 10
-38.0900550382375
 20
277.761243739003
 30
0.0
 10
-39.08426449272054
 20
276.854449855989
 30
0.0
 10
-41.00831820610492
 20
274.9711463632367
 30
0.0
 10
-41.93516296524999
 20
273.9972949447399
 30
0.0
 10
-44.59499889289037
 20
270.9998082975395
 30
0.0
 10
-46.21530634699484
 20
268.8934274905766
 30
0.0
 10
-49.15528866833881
 20
264.468229735392
 30
0.0
 10
-50.47499994770342
 20
262.1494384895825
 30
0.0
 10
-51.63803954059674
 20
259.7199387621359
 30
0.0
  0
SPLINE
  5
CF
330
1F
100
AcDbEntity
  8
0
  6
Continuous
 62
     7
370
    25
100
AcDbSpline
210
0.0
220
0.0
230
1.0
 70
     8
 71
     3
 72
    56
 73
    52
 74
     0
 42
0.000000001
 43
0.00000001
 40
0.0
 40
0.0
 40
0.0
 40
0.0
 40
0.0624999999999993
 40
0.0624999999999993
 40
0.093749999999999
 40
0.093749999999999
 40
0.1249999999999986
 40
0.1249999999999986
 40
0.1874999999999984
 40
0.1874999999999984
 40
0.2187499999999983
 40
0.2187499999999983
 40
0.2499999999999982
 40
0.2499999999999982
 40
0.3124999999999982
 40
0.3124999999999982
 40
0.3749999999999983
 40
0.3749999999999983
 40
0.4062499999999984
 40
0.4062499999999984
 40
0.4374999999999984
 40
0.4374999999999984
 40
0.4999999999999986
 40
0.4999999999999986
 40
0.5312499999999986
 40
0.5312499999999986
 40
0.5468749999999987
 40
0.5468749999999987
 40
0.5624999999999987
 40
0.5624999999999987
 40
0.6249999999999986
 40
0.6249999999999986
 40
0.6874999999999984
 40
0.6874999999999984
 40
0.7031249999999986
 40
0.7031249999999986
 40
0.7187499999999986
 40
0.7187499999999986
 40
0.749999999999999
 40
0.749999999999999
 40
0.8124999999999994
 40
0.8124999999999994
 40
0.8437499999999994
 40
0.8437499999999994
 40
0.8593749999999994
 40
0.8593749999999994
 40
0.8749999999999996
 40
0.8749999999999996
 40
0.9374999999999998
 40
0.9374999999999998
 40
1.0
 40
1.0
 40
1.0
 40
1.0
 10
-51.13281295813928
 20
209.2512536424018
 30
0.0
 10
-49.93734988512313
 20
206.8772588520551
 30
0.0
 10
-48.58501471860485
 20
204.6013287510949
 30
0.0
 10
-46.32342922481494
 20
201.3331394828674
 30
0.0
 10
-45.52797900049306
 20
200.2650241677291
 30
0.0
 10
-43.87358514389236
 20
198.1975008381305
 30
0.0
 10
-43.01474957137533
 20
197.1976173014459
 30
0.0
 10
-40.3454792318411
 20
194.2972964158715
 30
0.0
 10
-38.44270790941924
 20
192.4957314950187
 30
0.0
 10
-35.40419179566677
 20
189.9907927593281
 30
0.0
 10
-34.360519455771
 20
189.1888293162251
 30
0.0
 10
-32.21026192598052
 20
187.6522684455937
 30
0.0
 10
-31.09966011777633
 20
186.915461979039
 30
0.0
 10
-27.71920850997546
 20
184.8382157005723
 30
0.0
 10
-25.39151525668359
 20
183.6219958741545
 30
0.0
 10
-20.59214438996991
 20
181.5173678246066
 30
0.0
 10
-18.12046711628882
 20
180.6289588166431
 30
0.0
 10
-14.30180810606771
 20
179.549386641211
 30
0.0
 10
-13.00754147023968
 20
179.2316220883615
 30
0.0
 10
-10.42101860619643
 20
178.6909378411908
 30
0.0
 10
-9.124236952136105
 20
178.4665268851333
 30
0.0
 10
-5.223537806844286
 20
177.9283933787315
 30
0.0
 10
-2.609314120200564
 20
177.7491440355273
 30
0.0
 10
1.332727005373301
 20
177.7504325698454
 30
0.0
 10
2.650203598184838
 20
177.7960451183553
 30
0.0
 10
4.631734682698764
 20
177.9338286098292
 30
0.0
 10
5.294435491645402
 20
177.9914806469762
 30
0.0
 10
6.613630380409813
 20
178.1294257177703
 30
0.0
 10
7.270219630874314
 20
178.2096665290734
 30
0.0
 10
10.53834274598267
 20
178.6663959994467
 30
0.0
 10
13.10561898238961
 20
179.2086675911427
 30
0.0
 10
18.14778450617839
 20
180.6392794530417
 30
0.0
 10
20.62267960333161
 20
181.5275979777298
 30
0.0
 10
23.65650026107786
 20
182.8619919597905
 30
0.0
 10
24.26086361985564
 20
183.1404609022311
 30
0.0
 10
25.45430374359206
 20
183.7156971389567
 30
0.0
 10
26.04447829254534
 20
184.0129189002692
 30
0.0
 10
27.79563399079681
 20
184.9330010340623
 30
0.0
 10
28.93727038076402
 20
185.584244232551
 30
0.0
 10
32.28605020885399
 20
187.6496715688078
 30
0.0
 10
34.41742044876673
 20
189.1750309161449
 30
0.0
 10
37.46129416565806
 20
191.6878196126665
 30
0.0
 10
38.45030038773363
 20
192.5630033508836
 30
0.0
 10
39.89435353443686
 20
193.9336694822219
 30
0.0
 10
40.36832014640829
 20
194.3995190226899
 30
0.0
 10
41.29591700021019
 20
195.3433792899145
 30
0.0
 10
41.75039106766157
 20
195.8221822221866
 30
0.0
 10
43.97673999366285
 20
198.2501183447178
 30
0.0
 10
45.61120350710024
 20
200.3005346887715
 30
0.0
 10
48.59149060505359
 20
204.6141180968817
 30
0.0
 10
49.93734988473872
 20
206.8772588512902
 30
0.0
 10
51.13281295814232
 20
209.251253642407
 30
0.0
  0
SPLINE
  5
D2
330
1F
100
AcDbEntity
  8
0
  6
Continuous
 62
     7
370
    25
100
AcDbSpline
210
0.0
220
0.0
230
1.0
 70
     8
 71
     3
 72
    26
 73
    22
 74
     0
 42
0.000000001
 43
0.00000001
 40
0.0
 40
0.0
 40
0.0
 40
0.0
 40
0.1250000000000009
 40
0.1250000000000009
 40
0.2500000000000018
 40
0.2500000000000018
 40
0.3125000000000016
 40
0.3125000000000016
 40
0.3750000000000013
 40
0.3750000000000013
 40
0.5000000000000007
 40
0.5000000000000007
 40
0.6250000000000001
 40
0.6250000000000001
 40
0.6875000000000006
 40
0.6875000000000006
 40
0.750000000000001
 40
0.750000000000001
 40
0.8750000000000006
 40
0.8750000000000006
 40
1.0
 40
1.0
 40
1.0
 40
1.0
 10
51.13586296194079
 20
209.2573113459833
 30
0.0
 10
52.12271542011757
 20
211.2176175417819
 30
0.0
 10
52.98803037845632
 20
213.2161982779581
 30
0.0
 10
54.4841492362314
 20
217.2872118835709
 30
0.0
 10
55.11492805357306
 20
219.359652652365
 30
0.0
 10
55.88459268998885
 20
222.523898255049
 30
0.0
 10
56.11166025809518
 20
223.5879329228313
 30
0.0
 10
56.50585137630835
 20
225.7348798101564
 30
0.0
 10
56.67334120129301
 20
226.8212755230531
 30
0.0
 10
57.07994542885564
 20
230.0777162017293
 30
0.0
 10
57.22466357535567
 20
232.2455315093542
 30
0.0
 10
57.26926208698598
 20
236.575067614647
 30
0.0
 10
57.16912304240282
 20
238.7367879294251
 30
0.0
 10
56.83390368345906
 20
241.9747631118231
 30
0.0
 10
56.69125567125546
 20
243.0533188046089
 30
0.0
 10
56.34299894530238
 20
245.2088629730238
 30
0.0
 10
56.136666290242
 20
246.2887001308688
 30
0.0
 10
55.42804486017926
 20
249.494293852566
 30
0.0
 10
54.83625842869598
 20
251.5918093765135
 30
0.0
 10
53.41762007549247
 20
255.7089652642432
 30
0.0
 10
52.59077455553302
 20
257.7286077489106
 30
0.0
 10
51.64357264818594
 20
259.7083772055465
 30
0.0
  0
SPLINE
  5
D5
330
1F
100
AcDbEntity
  8
0
  6
Continuous
 62
     7
370
    25
100
AcDbSpline
210
0.0
220
0.0
230
1.0
 70
     8
 71
     3
 72
    26
 73
    22
 74
     0
 42
0.000000001
 43
0.00000001
 40
0.0
 40
0.0
 40
0.0
 40
0.0
 40
0.1250000000000011
 40
0.1250000000000011
 40
0.2500000000000023
 40
0.2500000000000023
 40
0.3125000000000021
 40
0.3125000000000021
 40
0.3750000000000018
 40
0.3750000000000018
 40
0.5000000000000014
 40
0.5000000000000014
 40
0.6250000000000011
 40
0.6250000000000011
 40
0.6875000000000009
 40
0.6875000000000009
 40
0.7500000000000007
 40
0.7500000000000007
 40
0.8750000000000004
 40
0.8750000000000004
 40
1.0
 40
1.0
 40
1.0
 40
1.0
 10
-51.64357264819021
 20
259.7083772055366
 30
0.0
 10
-52.59077455596186
 20
257.7286077480125
 30
0.0
 10
-53.41569330253628
 20
255.7130174110501
 30
0.0
 10
-54.82958095281285
 20
251.6127190369315
 30
0.0
 10
-55.41852462033528
 20
249.5280036072436
 30
0.0
 10
-56.12435363691105
 20
246.3489093667908
 30
0.0
 10
-56.32996175284019
 20
245.2805204593316
 30
0.0
 10
-56.68086619451714
 20
243.1260752784121
 30
0.0
 10
-56.82645861616396
 20
242.0365288446091
 30
0.0
 10
-57.16744530851049
 20
238.7725647828715
 30
0.0
 10
-57.26850730855004
 20
236.6022760695405
 30
0.0
 10
-57.22596576560199
 20
232.2727192761615
 30
0.0
 10
-57.08234282645638
 20
230.1134520693829
 30
0.0
 10
-56.68202778873421
 20
226.8828789545816
 30
0.0
 10
-56.51770296210645
 20
225.807412488568
 30
0.0
 10
-56.1261369049059
 20
223.6593135392961
 30
0.0
 10
-55.89811455100324
 20
222.5838475214933
 30
0.0
 10
-55.12512477041582
 20
219.3931639993053
 30
0.0
 10
-54.49124616564531
 20
217.3079829369044
 30
0.0
 10
-52.99003831226672
 20
213.2202108341167
 30
0.0
 10
-52.12271542122591
 20
211.2176175439845
 30
0.0
 10
-51.13586296194097
 20
209.2573113459846
 30
0.0
  0
SPLINE
  5
D7
330
1F
100
AcDbEntity
  8
0
  6
Continuous
 62
     7
370
    25
100
AcDbSpline
210
0.0
220
0.0
230
1.0
 70
     8
 71
     3
 72
     8
 73
     4
 74
     0
 42
0.000000001
 43
0.00000001
 40
0.0
 40
0.0
 40
0.0
 40
0.0
 40
0.0000128173669441
 40
0.0000128173669441
 40
0.0000128173669441
 40
0.0000128173669441
 10
-51.63803954059669
 20
259.719938762136
 30
0.0
 10
-51.63988434058214
 20
259.716085117695
 30
0.0
 10
-51.64172871028754
 20
259.7122312644351
 30
0.0
 10
-51.64357264819021
 20
259.7083772055366
 30
0.0
  0
SPLINE
  5
D8
330
1F
100
AcDbEntity
  8
0
  6
Continuous
 62
     7
370
    25
100
AcDbSpline
210
0.0
220
0.0
230
1.0
 70
     8
 71
     3
 72
     8
 73
     4
 74
     0
 42
0.000000001
 43
0.00000001
 40
0.0
 40
0.0
 40
0.0
 40
0.0
 40
0.0000128173669336
 40
0.0000128173669336
 40
0.0000128173669336
 40
0.0000128173669336
 10
51.64357264818593
 20
259.7083772055465
 30
0.0
 10
51.64172871028475
 20
259.7122312644418
 30
0.0
 10
51.63988434058086
 20
259.7160851176986
 30
0.0
 10
51.63803954059693
 20
259.7199387621365
 30
0.0
  0
SPLINE
  5
D9
330
1F
100
AcDbEntity
  8
0
  6
Continuous
 62
     7
370
    25
100
AcDbSpline
210
0.0
220
0.0
230
1.0
 70
     8
 71
     3
 72
     8
 73
     4
 74
     0
 42
0.000000001
 43
0.00000001
 40
0.0
 40
0.0
 40
0.0
 40
0.0
 40
0.0000067822043469
 40
0.0000067822043469
 40
0.0000067822043469
 40
0.0000067822043469
 10
51.13281295814232
 20
209.251253642407
 30
0.0
 10
51.13382974564311
 20
209.2532728166368
 30
0.0
 10
51.13484641366166
 20
209.2552920513325
 30
0.0
 10
51.13586296194079
 20
209.2573113459833
 30
0.0
  0
SPLINE
  5
DA
330
1F
100
AcDbEntity
  8
0
  6
Continuous
 62
     7
370
    25
100
AcDbSpline
210
0.0
220
0.0
230
1.0
 70
     8
 71
     3
 72
     8
 73
     4
 74
     0
 42
0.000000001
 43
0.00000001
 40
0.0
 40
0.0
 40
0.0
 40
0.0
 40
0.0000067822043541
 40
0.0000067822043541
 40
0.0000067822043541
 40
0.0000067822043541
 10
-51.13586296194097
 20
209.2573113459846
 30
0.0
 10
-51.13484641366076
 20
209.2552920513317
 30
0.0
 10
-51.13382974564113
 20
209.2532728166338
 30
0.0
 10
-51.13281295813928
 20
209.2512536424018
 30
0.0
  0
CIRCLE
  5
DB
330
1F
100
AcDbEntity
  8
0
  6
Continuous
 62
     7
370
    25
100
AcDbCircle
 10
0.0
 20
235.0
 30
0.0
 40
55.25000000000014
  0
CIRCLE
  5
DC
330
1F
100
AcDbEntity
  8
0
  6
Continuous
 62
     7
370
    25
100
AcDbCircle
 10
0.0
 20
235.0
 30
0.0
 40
46.9999999999998
  0
CIRCLE
  5
DD
330
1F
100
AcDbEntity
  8
0
  6
Continuous
 62
     7
370
    25
100
AcDbCircle
 10
0.0
 20
235.0
 30
0.0
 40
44.99999999999994
  0
LINE
  5
DE
330
1F
100
AcDbEntity
  8
0
  6
Continuous
 62
     7
370
    25
100
AcDbLine
 10
-692.0
 20
-338.0
 30
0.0
 11
-692.0
 21
338.0
 31
0.0
  0
LINE
  5
DF
330
1F
100
AcDbEntity
  8
0
  6
Continuous
 62
     7
370
    25
100
AcDbLine
 10
688.0
 20
-342.0
 30
0.0
 11
-688.0
 21
-342.0
 31
0.0
  0
LINE
  5
E0
330
1F
100
AcDbEntity
  8
0
  6
Continuous
 62
     7
370
    25
100
AcDbLine
 10
692.0
 20
338.0
 30
0.0
 11
692.0
 21
-338.0
 31
0.0
  0
LINE
  5
E1
330
1F
100
AcDbEntity
  8
0
  6
Continuous
 62
     7
370
    25
100
AcDbLine
 10
-688.0
 20
342.0
 30
0.0
 11
688.0
 21
342.0
 31
0.0
  0
LINE
  5
E2
330
1F
100
AcDbEntity
  8
0
  6
Continuous
 62
     7
370
    25
100
AcDbLine
 10
-745.0
 20
400.0
 30
0.0
 11
-745.0
 21
-400.0
 31
0.0
  0
LINE
  5
E3
330
1F
100
AcDbEntity
  8
0
  6
Continuous
 62
     7
370
    25
100
AcDbLine
 10
750.0
 20
395.0
 30
0.0
 11
-750.0
 21
395.0
 31
0.0
  0
LINE
  5
E4
330
1F
100
AcDbEntity
  8
0
  6
Continuous
 62
     7
370
    25
100
AcDbLine
 10
745.0
 20
-400.0
 30
0.0
 11
745.0
 21
400.0
 31
0.0
  0
LINE
  5
E5
330
1F
100
AcDbEntity
  8
0
  6
Continuous
 62
     7
370
    25
100
AcDbLine
 10
-750.0
 20
-395.0
 30
0.0
 11
750.0
 21
-395.0
 31
0.0
  0
LINE
  5
E6
330
1F
100
AcDbEntity
  8
0
  6
Continuous
 62
     7
370
    25
100
AcDbLine
 10
750.0
 20
395.0
 30
0.0
 11
750.0
 21
-395.0
 31
0.0
  0
LINE
  5
E7
330
1F
100
AcDbEntity
  8
0
  6
Continuous
 62
     7
370
    25
100
AcDbLine
 10
-688.0
 20
-340.0
 30
0.0
 11
688.0
 21
-340.0
 31
0.0
  0
LINE
  5
E8
330
1F
100
AcDbEntity
  8
0
  6
Continuous
 62
     7
370
    25
100
AcDbLine
 10
688.0
 20
-340.0
 30
0.0
 11
688.0
 21
-342.0
 31
0.0
  0
LINE
  5
E9
330
1F
100
AcDbEntity
  8
0
  6
Continuous
 62
     7
370
    25
100
AcDbLine
 10
-688.0
 20
-342.0
 30
0.0
 11
-688.0
 21
-340.0
 31
0.0
  0
LINE
  5
EA
330
1F
100
AcDbEntity
  8
0
  6
Continuous
 62
     7
370
    25
100
AcDbLine
 10
690.0
 20
-338.0
 30
0.0
 11
692.0
 21
-338.0
 31
0.0
  0
LINE
  5
EB
330
1F
100
AcDbEntity
  8
0
  6
Continuous
 62
     7
370
    25
100
AcDbLine
 10
-692.0
 20
-338.0
 30
0.0
 11
-690.0
 21
-338.0
 31
0.0
  0
LINE
  5
EC
330
1F
100
AcDbEntity
  8
0
  6
Continuous
 62
     7
370
    25
100
AcDbLine
 10
690.0
 20
-338.0
 30
0.0
 11
690.0
 21
338.0
 31
0.0
  0
LINE
  5
ED
330
1F
100
AcDbEntity
  8
0
  6
Continuous
 62
     7
370
    25
100
AcDbLine
 10
690.0
 20
338.0
 30
0.0
 11
692.0
 21
338.0
 31
0.0
  0
LINE
  5
EE
330
1F
100
AcDbEntity
  8
0
  6
Continuous
 62
     7
370
    25
100
AcDbLine
 10
-745.0
 20
400.0
 30
0.0
 11
745.0
 21
400.0
 31
0.0
  0
LINE
  5
EF
330
1F
100
AcDbEntity
  8
0
  6
Continuous
 62
     7
370
    25
100
AcDbLine
 10
688.0
 20
340.0
 30
0.0
 11
-688.0
 21
340.0
 31
0.0
  0
LINE
  5
F0
330
1F
100
AcDbEntity
  8
0
  6
Continuous
 62
     7
370
    25
100
AcDbLine
 10
-688.0
 20
342.0
 30
0.0
 11
-688.0
 21
340.0
 31
0.0
  0
LINE
  5
F1
330
1F
100
AcDbEntity
  8
0
  6
Continuous
 62
     7
370
    25
100
AcDbLine
 10
688.0
 20
340.0
 30
0.0
 11
688.0
 21
342.0
 31
0.0
  0
LINE
  5
F2
330
1F
100
AcDbEntity
  8
0
  6
Continuous
 62
     7
370
    25
100
AcDbLine
 10
-692.0
 20
338.0
 30
0.0
 11
-690.0
 21
338.0
 31
0.0
  0
LINE
  5
F3
330
1F
100
AcDbEntity
  8
0
  6
Continuous
 62
     7
370
    25
100
AcDbLine
 10
-690.0
 20
338.0
 30
0.0
 11
-690.0
 21
-338.0
 31
0.0
  0
LINE
  5
F4
330
1F
100
AcDbEntity
  8
0
  6
Continuous
 62
     7
370
    25
100
AcDbLine
 10
745.0
 20
-400.0
 30
0.0
 11
-745.0
 21
-400.0
 31
0.0
  0
LINE
  5
F5
330
1F
100
AcDbEntity
  8
0
  6
Continuous
 62
     7
370
    25
100
AcDbLine
 10
-750.0
 20
-395.0
 30
0.0
 11
-750.0
 21
395.0
 31
0.0
  0
LINE
  5
F6
330
1F
100
AcDbEntity
  8
0
  6
Continuous
 62
     7
370
    25
100
AcDbLine
 10
687.8694414397
 20
-338.0000036177
 30
0.0
 11
688.0328752696
 21
-338.0000033384
 31
0.0
  0
LINE
  5
F7
330
1F
100
AcDbEntity
  8
0
  6
Continuous
 62
     7
370
    25
100
AcDbLine
 10
-688.0328752696
 20
-338.0000033384
 30
0.0
 11
-687.8694414397
 21
-338.0000036178
 31
0.0
  0
LINE
  5
F8
330
1F
100
AcDbEntity
  8
0
  6
Continuous
 62
     7
370
    25
100
AcDbLine
 10
-53.4111885303
 20
260.5668440513
 30
0.0
 11
-51.6380395406
 21
259.7199387621
 31
0.0
  0
LINE
  5
F9
330
1F
100
AcDbEntity
  8
0
  6
Continuous
 62
     7
370
    25
100
AcDbLine
 10
51.6380395406
 20
259.7199387621
 30
0.0
 11
53.4111885303
 21
260.5668440513
 31
0.0
  0
LINE
  5
FA
330
1F
100
AcDbEntity
  8
0
  6
Continuous
 62
     7
370
    25
100
AcDbLine
 10
-51.1328129581
 20
209.2512536424
 30
0.0
 11
-52.8965201653
 21
208.3636878524
 31
0.0
  0
LINE
  5
FB
330
1F
100
AcDbEntity
  8
0
  6
Continuous
 62
     7
370
    25
100
AcDbLine
 10
52.8965201653
 20
208.3636878524
 30
0.0
 11
51.1328129581
 21
209.2512536424
 31
0.0
  0
LINE
  5
FC
330
1F
100
AcDbEntity
  8
0
  6
Continuous
 62
     7
370
    25
100
AcDbLine
 10
51.1358629619
 20
209.257311346
 30
0.0
 11
52.8989365608
 21
208.3690963683
 31
0.0
  0
LINE
  5
FD
330
1F
100
AcDbEntity
  8
0
  6
Continuous
 62
     7
370
    25
100
AcDbLine
 10
53.4166570697
 20
260.5569591017
 30
0.0
 11
51.6435726482
 21
259.7083772055
 31
0.0
  0
LINE
  5
FE
330
1F
100
AcDbEntity
  8
0
  6
Continuous
 62
     7
370
    25
100
AcDbLine
 10
-51.6435726482
 20
259.7083772055
 30
0.0
 11
-53.4166570697
 21
260.5569591017
 31
0.0
  0
LINE
  5
FF
330
1F
100
AcDbEntity
  8
0
  6
Continuous
 62
     7
370
    25
100
AcDbLine
 10
-52.8989365608
 20
208.3690963683
 30
0.0
 11
-51.1358629619
 21
209.257311346
 31
0.0
  0
ARC
  5
100
330
1F
100
AcDbEntity
  8
0
  6
Continuous
 62
     7
370
    25
100
AcDbCircle
 10
-688.0
 20
-338.0
 30
0.0
 40
4.000000000000227
100
AcDbArc
 50
180.0
 51
270.0
  0
ARC
  5
101
330
1F
100
AcDbEntity
  8
0
  6
Continuous
 62
     7
370
    25
100
AcDbCircle
 10
688.0
 20
-338.0
 30
0.0
 40
4.000000000000171
100
AcDbArc
 50
270.0
 51
360.0
  0
ARC
  5
102
330
1F
100
AcDbEntity
  8
0
  6
Continuous
 62
     7
370
    25
100
AcDbCircle
 10
688.0
 20
338.0
 30
0.0
 40
4.000000000000171
100
AcDbArc
 50
0.0
 51
90.0
  0
ARC
  5
103
330
1F
100
AcDbEntity
  8
0
  6
Continuous
 62
     7
370
    25
100
AcDbCircle
 10
-688.0
 20
338.0
 30
0.0
 40
4.000000000000114
100
AcDbArc
 50
90.0
 51
180.0
  0
ARC
  5
104
330
1F
100
AcDbEntity
  8
0
  6
Continuous
 62
     7
370
    25
100
AcDbCircle
 10
688.0
 20
-338.0
 30
0.0
 40
2.000000000000114
100
AcDbArc
 50
270.0
 51
360.0
  0
ARC
  5
105
330
1F
100
AcDbEntity
  8
0
  6
Continuous
 62
     7
370
    25
100
AcDbCircle
 10
-688.0
 20
-338.0
 30
0.0
 40
2.000000000000114
100
AcDbArc
 50
180.0
 51
270.0
  0
ARC
  5
106
330
1F
100
AcDbEntity
  8
0
  6
Continuous
 62
     7
370
    25
100
AcDbCircle
 10
688.0
 20
338.0
 30
0.0
 40
2.000000000000114
100
AcDbArc
 50
0.0
 51
90.0
  0
ARC
  5
107
330
1F
100
AcDbEntity
  8
0
  6
Continuous
 62
     7
370
    25
100
AcDbCircle
 10
-688.0
 20
338.0
 30
0.0
 40
2.000000000000227
100
AcDbArc
 50
90.0
 51
180.0
  0
ARC
  5
108
330
1F
100
AcDbEntity
  8
0
  6
Continuous
 62
     7
370
    25
100
AcDbCircle
 10
-745.0
 20
395.0
 30
0.0
 40
5.0
100
AcDbArc
 50
90.0
 51
180.0
  0
ARC
  5
109
330
1F
100
AcDbEntity
  8
0
  6
Continuous
 62
     7
370
    25
100
AcDbCircle
 10
745.0
 20
395.0
 30
0.0
 40
5.0
100
AcDbArc
 50
0.0
 51
90.0
  0
ARC
  5
10A
330
1F
100
AcDbEntity
  8
0
  6
Continuous
 62
     7
370
    25
100
AcDbCircle
 10
745.0
 20
-395.0
 30
0.0
 40
5.0
100
AcDbArc
 50
270.0
 51
0.0
  0
ARC
  5
10B
330
1F
100
AcDbEntity
  8
0
  6
Continuous
 62
     7
370
    25
100
AcDbCircle
 10
-745.0
 20
-395.0
 30
0.0
 40
5.0
100
AcDbArc
 50
180.0
 51
270.0
  0
ARC
  5
10C
330
1F
100
AcDbEntity
  8
0
  6
Continuous
 62
     7
370
    25
100
AcDbCircle
 10
657.5902854364
 20
-338.4998668566
 30
0.0
 40
30.44669340480178
100
AcDbArc
 50
357.1758472816
 51
0.9407049989
  0
ARC
  5
10D
330
1F
100
AcDbEntity
  8
0
  6
Continuous
 62
     7
370
    25
100
AcDbCircle
 10
657.4264138983
 20
-338.499867024
 30
0.0
 40
30.44713105224736
100
AcDbArc
 50
357.1758882245
 51
0.9406912654
  0
ARC
  5
10E
330
1F
100
AcDbEntity
  8
0
  6
Continuous
 62
     7
370
    25
100
AcDbCircle
 10
-657.4264139002
 20
-338.4998670241
 30
0.0
 40
30.4471310502707
100
AcDbArc
 50
179.0593087345
 51
182.8241117757
  0
ARC
  5
10F
330
1F
100
AcDbEntity
  8
0
  6
Continuous
 62
     7
370
    25
100
AcDbCircle
 10
-657.5902854367
 20
-338.4998668566
 30
0.0
 40
30.44669340449023
100
AcDbArc
 50
179.0592950011
 51
182.8241527184
  0
ARC
  5
110
330
1F
100
AcDbEntity
  8
0
  6
Continuous
 62
     7
370
    25
100
AcDbCircle
 10
-657.5948351891
 20
338.4998668099
 30
0.0
 40
30.44214918109282
100
AcDbArc
 50
177.1754252791
 51
180.9408453666
  0
ARC
  5
111
330
1F
100
AcDbEntity
  8
0
  6
Continuous
 62
     7
370
    25
100
AcDbCircle
 10
-648.8449295719
 20
338.4998756667
 30
0.0
 40
30.44526560943098
100
AcDbArc
 50
177.1757313299
 51
180.9407373457
  0
ARC
  5
112
330
1F
100
AcDbEntity
  8
0
  6
Continuous
 62
     7
370
    25
100
AcDbCircle
 10
657.5948351894
 20
338.4998668099
 30
0.0
 40
30.442149180863
100
AcDbArc
 50
359.0591546334
 51
2.8245747209
  0
ARC
  5
113
330
1F
100
AcDbEntity
  8
0
  6
Continuous
 62
     7
370
    25
100
AcDbCircle
 10
648.8449295641
 20
338.4998756667
 30
0.0
 40
30.44526561719066
100
AcDbArc
 50
359.0592626546
 51
2.8242686694
  0
LINE
  5
123
330
1B
100
AcDbEntity
 67
     1
  8
0
  6
Continuous
 62
     7
370
    25
100
AcDbLine
 10
745.0
 20
0.0
 30
0.0
 11
745.0
 21
25.0
 31
0.0
  0
LINE
  5
124
330
1B
100
AcDbEntity
 67
     1
  8
0
  6
Continuous
 62
     7
370
    25
100
AcDbLine
 10
-745.0
 20
25.0
 30
0.0
 11
-745.0
 21
0.0
 31
0.0
  0
LINE
  5
125
330
1B
100
AcDbEntity
 67
     1
  8
0
  6
Continuous
 62
     7
370
    25
100
AcDbLine
 10
750.0
 20
20.0
 30
0.0
 11
-750.0
 21
20.0
 31
0.0
  0
LINE
  5
126
330
1B
100
AcDbEntity
 67
     1
  8
0
  6
Continuous
 62
     7
370
    25
100
AcDbLine
 10
-750.0
 20
0.0
 30
0.0
 11
-750.0
 21
20.0
 31
0.0
  0
LINE
  5
127
330
1B
100
AcDbEntity
 67
     1
  8
0
  6
Continuous
 62
     7
370
    25
100
AcDbLine
 10
-750.0
 20
0.0
 30
0.0
 11
750.0
 21
0.0
 31
0.0
  0
LINE
  5
128
330
1B
100
AcDbEntity
 67
     1
  8
0
  6
Continuous
 62
     7
370
    25
100
AcDbLine
 10
-745.0
 20
25.0
 30
0.0
 11
745.0
 21
25.0
 31
0.0
  0
LINE
  5
129
330
1B
100
AcDbEntity
 67
     1
  8
0
  6
Continuous
 62
     7
370
    25
100
AcDbLine
 10
750.0
 20
20.0
 30
0.0
 11
750.0
 21
0.0
 31
0.0
  0
ARC
  5
12A
330
1B
100
AcDbEntity
 67
     1
  8
0
  6
Continuous
 62
     7
370
    25
100
AcDbCircle
 10
745.0
 20
20.0
 30
0.0
 40
5.0
100
AcDbArc
 50
0.0
 51
90.0
  0
ARC
  5
12B
330
1B
100
AcDbEntity
 67
     1
  8
0
  6
Continuous
 62
     7
370
    25
100
AcDbCircle
 10
-745.0
 20
20.0
 30
0.0
 40
4.999999999999929
100
AcDbArc
 50
90.0
 51
180.0
  0
VIEWPORT
  5
144
330
1B
100
AcDbEntity
 67
     1
  8
0
100
AcDbViewport
 10
0.0
 20
0.0
 30
0.0
 40
205.6
 41
156.0
 68
     1
 69
     1
 12
0.0
 22
0.0
 13
0.0
 23
0.0
 14
10.0
 24
10.0
 15
10.0
 25
10.0
 16
0.0
 26
0.0
 36
1.0
 17
0.0
 27
0.0
 37
0.0
 42
50.0
 43
0.0
 44
0.0
 45
1160.8949416342
 50
0.0
 51
0.0
 72
   100
 90
   557152
  1

281
     0
 71
     1
 74
     0
110
0.0
120
0.0
130
0.0
111
1.0
121
0.0
131
0.0
112
0.0
122
1.0
132
0.0
 79
     0
146
0.0
  0
ENDSEC
  0
SECTION
  2
OBJECTS
  0
DICTIONARY
  5
C
330
0
100
AcDbDictionary
281
     1
  3
ACAD_GROUP
350
D
  3
ACAD_LAYOUT
350
1A
  3
ACAD_MLINESTYLE
350
17
  3
ACAD_PLOTSETTINGS
350
19
  3
ACAD_PLOTSTYLENAME
350
E
  3
ACAD_SCALELIST
350
47
  0
DICTIONARY
  5
D
102
{ACAD_REACTORS
330
C
102
}
330
C
100
AcDbDictionary
281
     1
  0
DICTIONARY
  5
1A
102
{ACAD_REACTORS
330
C
102
}
330
C
100
AcDbDictionary
281
     1
  3
_Front
350
1E
  3
_Right
350
26
  3
Model
350
22
  0
DICTIONARY
  5
17
102
{ACAD_REACTORS
330
C
102
}
330
C
100
AcDbDictionary
281
     1
  3
Standard
350
18
  0
DICTIONARY
  5
19
102
{ACAD_REACTORS
330
C
102
}
330
C
100
AcDbDictionary
281
     1
  0
ACDBDICTIONARYWDFLT
  5
E
102
{ACAD_REACTORS
330
C
102
}
330
C
100
AcDbDictionary
281
     1
  3
Normal
350
F
100
AcDbDictionaryWithDefault
340
F
  0
DICTIONARY
  5
47
102
{ACAD_REACTORS
330
C
102
}
330
C
100
AcDbDictionary
281
     1
  3
A0
350
48
  3
A1
350
49
  3
A2
350
4A
  3
A3
350
4B
  3
A4
350
4C
  3
A5
350
4D
  3
A6
350
4E
  3
A7
350
4F
  3
A8
350
50
  3
A9
350
51
  3
B0
350
52
  3
B1
350
53
  3
B2
350
54
  3
B3
350
55
  3
B4
350
56
  3
B5
350
57
  3
B6
350
58
  3
B7
350
59
  3
B8
350
5A
  3
B9
350
5B
  3
C0
350
5C
  3
C1
350
5D
  3
C2
350
5E
  3
C3
350
5F
  3
C4
350
60
  3
C5
350
61
  3
C6
350
62
  3
C7
350
63
  3
C8
350
64
  3
C9
350
65
  3
D0
350
66
  3
D1
350
67
  3
D2
350
68
  0
LAYOUT
  5
1E
102
{ACAD_REACTORS
330
1A
102
}
330
1A
100
AcDbPlotSettings
  1

  2
none_device
  4
ANSI_A_(11.00_x_8.50_Inches)
  6

 40
6.35
 41
19.05
 42
6.35000508
 43
19.05000254
 44
279.4
 45
215.9
 46
133.34999746
 47
88.89999873
 48
0.0
 49
0.0
140
0.0
141
0.0
142
0.00726
143
1.0
 70
  1696
 72
     0
 73
     0
 74
     1
  7

 75
     0
147
0.0069999999
148
19050.0
149
10160.0
100
AcDbLayout
  1
_Front
 70
     1
 71
     1
 10
-866.7315175097
 20
-43.7743190661
 11
866.7315175097
 21
1181.906614786
 12
0.0
 22
0.0
 32
0.0
 14
-750.0
 24
-400.0
 34
0.0
 15
750.0
 25
400.0
 35
0.0
146
0.0
 13
0.0
 23
0.0
 33
0.0
 16
1.0
 26
0.0
 36
0.0
 17
0.0
 27
1.0
 37
0.0
 76
     0
330
1B
331
144
  0
LAYOUT
  5
26
102
{ACAD_REACTORS
330
1A
102
}
330
1A
100
AcDbPlotSettings
  1

  2
none_device
  4
ISO_A4_(210.00_x_297.00_MM)
  6

 40
7.5
 41
20.0
 42
7.5
 43
20.0
 44
210.0
 45
297.0
 46
0.0
 47
0.0
 48
0.0
 49
0.0
140
0.0
141
0.0
142
1.0
143
5.8365758755
 70
   688
 72
     1
 73
     1
 74
     1
  7

 75
     0
147
0.1713333333
148
750.0
149
0.0
100
AcDbLayout
  1
_Right
 70
     1
 71
     2
 10
0.0
 20
0.0
 11
0.0
 21
0.0
 12
0.0
 22
0.0
 32
0.0
 14
0.0
 24
0.0
 34
0.0
 15
0.0
 25
0.0
 35
0.0
146
0.0
 13
0.0
 23
0.0
 33
0.0
 16
1.0
 26
0.0
 36
0.0
 17
0.0
 27
1.0
 37
0.0
 76
     0
330
23
331
146
  0
LAYOUT
  5
22
102
{ACAD_REACTORS
330
1A
102
}
330
1A
100
AcDbPlotSettings
  1

  2
none_device
  4
Letter_(8.50_x_11.00_Inches)
  6

 40
6.35
 41
6.35
 42
6.35000508
 43
6.35000508
 44
215.9
 45
279.4
 46
0.0
 47
0.0
 48
0.0
 49
0.0
140
0.0
141
0.0
142
1.0
143
1.0
 70
  1712
 72
     1
 73
     0
 74
     0
  7

 75
     0
147
1.0
148
0.0
149
0.0
100
AcDbLayout
  1
Model
 70
     1
 71
     0
 10
0.0
 20
0.0
 11
420.0
 21
297.0
 12
0.0
 22
0.0
 32
0.0
 14
-750.0
 24
-400.0
 34
0.0
 15
750.0
 25
400.0
 35
0.0
146
0.0
 13
0.0
 23
0.0
 33
0.0
 16
1.0
 26
0.0
 36
0.0
 17
0.0
 27
1.0
 37
0.0
 76
     0
330
1F
331
29
  0
MLINESTYLE
  5
18
102
{ACAD_REACTORS
330
17
102
}
330
17
100
AcDbMlineStyle
  2
Standard
 70
     0
  3

 62
   256
 51
90.0
 52
90.0
 71
     2
 49
0.5
 62
   256
  6
BYLAYER
 49
-0.5
 62
   256
  6
BYLAYER
  0
ACDBPLACEHOLDER
  5
F
102
{ACAD_REACTORS
330
E
102
}
330
E
  0
SCALE
  5
48
102
{ACAD_REACTORS
330
47
102
}
330
47
100
AcDbScale
 70
     0
300
1:1
140
1.0
141
1.0
290
     1
  0
SCALE
  5
49
102
{ACAD_REACTORS
330
47
102
}
330
47
100
AcDbScale
 70
     0
300
1:2
140
1.0
141
2.0
290
     0
  0
SCALE
  5
4A
102
{ACAD_REACTORS
330
47
102
}
330
47
100
AcDbScale
 70
     0
300
1:4
140
1.0
141
4.0
290
     0
  0
SCALE
  5
4B
102
{ACAD_REACTORS
330
47
102
}
330
47
100
AcDbScale
 70
     0
300
1:5
140
1.0
141
5.0
290
     0
  0
SCALE
  5
4C
102
{ACAD_REACTORS
330
47
102
}
330
47
100
AcDbScale
 70
     0
300
1:8
140
1.0
141
8.0
290
     0
  0
SCALE
  5
4D
102
{ACAD_REACTORS
330
47
102
}
330
47
100
AcDbScale
 70
     0
300
1:10
140
1.0
141
10.0
290
     0
  0
SCALE
  5
4E
102
{ACAD_REACTORS
330
47
102
}
330
47
100
AcDbScale
 70
     0
300
1:16
140
1.0
141
16.0
290
     0
  0
SCALE
  5
4F
102
{ACAD_REACTORS
330
47
102
}
330
47
100
AcDbScale
 70
     0
300
1:20
140
1.0
141
20.0
290
     0
  0
SCALE
  5
50
102
{ACAD_REACTORS
330
47
102
}
330
47
100
AcDbScale
 70
     0
300
1:30
140
1.0
141
30.0
290
     0
  0
SCALE
  5
51
102
{ACAD_REACTORS
330
47
102
}
330
47
100
AcDbScale
 70
     0
300
1:40
140
1.0
141
40.0
290
     0
  0
SCALE
  5
52
102
{ACAD_REACTORS
330
47
102
}
330
47
100
AcDbScale
 70
     0
300
1:50
140
1.0
141
50.0
290
     0
  0
SCALE
  5
53
102
{ACAD_REACTORS
330
47
102
}
330
47
100
AcDbScale
 70
     0
300
1:100
140
1.0
141
100.0
290
     0
  0
SCALE
  5
54
102
{ACAD_REACTORS
330
47
102
}
330
47
100
AcDbScale
 70
     0
300
2:1
140
2.0
141
1.0
290
     0
  0
SCALE
  5
55
102
{ACAD_REACTORS
330
47
102
}
330
47
100
AcDbScale
 70
     0
300
4:1
140
4.0
141
1.0
290
     0
  0
SCALE
  5
56
102
{ACAD_REACTORS
330
47
102
}
330
47
100
AcDbScale
 70
     0
300
8:1
140
8.0
141
1.0
290
     0
  0
SCALE
  5
57
102
{ACAD_REACTORS
330
47
102
}
330
47
100
AcDbScale
 70
     0
300
10:1
140
10.0
141
1.0
290
     0
  0
SCALE
  5
58
102
{ACAD_REACTORS
330
47
102
}
330
47
100
AcDbScale
 70
     0
300
100:1
140
100.0
141
1.0
290
     0
  0
SCALE
  5
59
102
{ACAD_REACTORS
330
47
102
}
330
47
100
AcDbScale
 70
     0
300
1/128" = 1'-0"
140
0.0078125
141
12.0
290
     0
  0
SCALE
  5
5A
102
{ACAD_REACTORS
330
47
102
}
330
47
100
AcDbScale
 70
     0
300
1/64" = 1'-0"
140
0.015625
141
12.0
290
     0
  0
SCALE
  5
5B
102
{ACAD_REACTORS
330
47
102
}
330
47
100
AcDbScale
 70
     0
300
1/32" = 1'-0"
140
0.03125
141
12.0
290
     0
  0
SCALE
  5
5C
102
{ACAD_REACTORS
330
47
102
}
330
47
100
AcDbScale
 70
     0
300
1/16" = 1'-0"
140
0.0625
141
12.0
290
     0
  0
SCALE
  5
5D
102
{ACAD_REACTORS
330
47
102
}
330
47
100
AcDbScale
 70
     0
300
3/32" = 1'-0"
140
0.09375
141
12.0
290
     0
  0
SCALE
  5
5E
102
{ACAD_REACTORS
330
47
102
}
330
47
100
AcDbScale
 70
     0
300
1/8" = 1'-0"
140
0.125
141
12.0
290
     0
  0
SCALE
  5
5F
102
{ACAD_REACTORS
330
47
102
}
330
47
100
AcDbScale
 70
     0
300
3/16" = 1'-0"
140
0.1875
141
12.0
290
     0
  0
SCALE
  5
60
102
{ACAD_REACTORS
330
47
102
}
330
47
100
AcDbScale
 70
     0
300
1/4" = 1'-0"
140
0.25
141
12.0
290
     0
  0
SCALE
  5
61
102
{ACAD_REACTORS
330
47
102
}
330
47
100
AcDbScale
 70
     0
300
3/8" = 1'-0"
140
0.375
141
12.0
290
     0
  0
SCALE
  5
62
102
{ACAD_REACTORS
330
47
102
}
330
47
100
AcDbScale
 70
     0
300
1/2" = 1'-0"
140
0.5
141
12.0
290
     0
  0
SCALE
  5
63
102
{ACAD_REACTORS
330
47
102
}
330
47
100
AcDbScale
 70
     0
300
3/4" = 1'-0"
140
0.75
141
12.0
290
     0
  0
SCALE
  5
64
102
{ACAD_REACTORS
330
47
102
}
330
47
100
AcDbScale
 70
     0
300
1" = 1'-0"
140
1.0
141
12.0
290
     0
  0
SCALE
  5
65
102
{ACAD_REACTORS
330
47
102
}
330
47
100
AcDbScale
 70
     0
300
1-1/2" = 1'-0"
140
1.5
141
12.0
290
     0
  0
SCALE
  5
66
102
{ACAD_REACTORS
330
47
102
}
330
47
100
AcDbScale
 70
     0
300
3" = 1'-0"
140
3.0
141
12.0
290
     0
  0
SCALE
  5
67
102
{ACAD_REACTORS
330
47
102
}
330
47
100
AcDbScale
 70
     0
300
6" = 1'-0"
140
6.0
141
12.0
290
     0
  0
SCALE
  5
68
102
{ACAD_REACTORS
330
47
102
}
330
47
100
AcDbScale
 70
     0
300
1'-0" = 1'-0"
140
12.0
141
12.0
290
     0
  0
ENDSEC
  0
EOF
