  0
SECTION
  2
HEADER
  9
$ACADVER
  1
AC1015
  9
$ACADMAINTVER
 70
     6
  9
$DWGCODEPAGE
  3
ANSI_1252
  9
$INSBASE
 10
0.0
 20
0.0
 30
0.0
  9
$EXTMIN
 10
-1.2401574803
 20
-2.0275590551
 30
0.0
  9
$EXTMAX
 10
1.2401574803
 20
0.8464566929
 30
0.0
  9
$LIMMIN
 10
0.0
 20
0.0
  9
$LIMMAX
 10
12.0
 20
9.0
  9
$ORTHOMODE
 70
     0
  9
$REGENMODE
 70
     1
  9
$FILLMODE
 70
     1
  9
$QTEXTMODE
 70
     0
  9
$MIRRTEXT
 70
     1
  9
$LTSCALE
 40
1.0
  9
$ATTMODE
 70
     1
  9
$TEXTSIZE
 40
0.1377952756
  9
$TRACEWID
 40
0.05
  9
$TEXTSTYLE
  7
Standard
  9
$CLAYER
  8
0
  9
$CELTYPE
  6
ByLayer
  9
$CECOLOR
 62
   256
  9
$CELTSCALE
 40
1.0
  9
$DISPSILH
 70
     0
  9
$DIMSCALE
 40
1.0
  9
$DIMASZ
 40
0.13
  9
$DIMEXO
 40
0.0393700787
  9
$DIMDLI
 40
0.38
  9
$DIMRND
 40
0.0
  9
$DIMDLE
 40
0.0
  9
$DIMEXE
 40
0.0393700787
  9
$DIMTP
 40
0.0
  9
$DIMTM
 40
0.0
  9
$DIMTXT
 40
0.1377952756
  9
$DIMCEN
 40
0.09
  9
$DIMTSZ
 40
0.0
  9
$DIMTOL
 70
     0
  9
$DIMLIM
 70
     0
  9
$DIMTIH
 70
     1
  9
$DIMTOH
 70
     1
  9
$DIMSE1
 70
     0
  9
$DIMSE2
 70
     0
  9
$DIMTAD
 70
     1
  9
$DIMZIN
 70
     1
  9
$DIMBLK
  1

  9
$DIMASO
 70
     1
  9
$DIMSHO
 70
     1
  9
$DIMPOST
  1

  9
$DIMAPOST
  1

  9
$DIMALT
 70
     0
  9
$DIMALTD
 70
     2
  9
$DIMALTF
 40
25.4
  9
$DIMLFAC
 40
1.0
  9
$DIMTOFL
 70
     0
  9
$DIMTVP
 40
0.0
  9
$DIMTIX
 70
     0
  9
$DIMSOXD
 70
     0
  9
$DIMSAH
 70
     0
  9
$DIMBLK1
  1

  9
$DIMBLK2
  1

  9
$DIMSTYLE
  2
Standard
  9
$DIMCLRD
 70
     0
  9
$DIMCLRE
 70
     0
  9
$DIMCLRT
 70
     0
  9
$DIMTFAC
 40
1.0
  9
$DIMGAP
 40
0.06
  9
$DIMJUST
 70
     0
  9
$DIMSD1
 70
     0
  9
$DIMSD2
 70
     0
  9
$DIMTOLJ
 70
     1
  9
$DIMTZIN
 70
     1
  9
$DIMALTZ
 70
     0
  9
$DIMALTTZ
 70
     0
  9
$DIMUPT
 70
     0
  9
$DIMDEC
 70
     2
  9
$DIMTDEC
 70
     2
  9
$DIMALTU
 70
     2
  9
$DIMALTTD
 70
     2
  9
$DIMTXSTY
  7
Standard
  9
$DIMAUNIT
 70
     0
  9
$DIMADEC
 70
     2
  9
$DIMALTRND
 40
0.0
  9
$DIMAZIN
 70
     0
  9
$DIMDSEP
 70
    46
  9
$DIMATFIT
 70
     3
  9
$DIMFRAC
 70
     0
  9
$DIMLDRBLK
  1

  9
$DIMLUNIT
 70
     2
  9
$DIMLWD
 70
    -2
  9
$DIMLWE
 70
    -2
  9
$DIMTMOVE
 70
     0
  9
$LUNITS
 70
     2
  9
$LUPREC
 70
     2
  9
$SKETCHINC
 40
0.1
  9
$FILLETRAD
 40
0.5
  9
$AUNITS
 70
     0
  9
$AUPREC
 70
     2
  9
$MENU
  1
.
  9
$ELEVATION
 40
0.0
  9
$PELEVATION
 40
0.0
  9
$THICKNESS
 40
0.0
  9
$LIMCHECK
 70
     0
  9
$CHAMFERA
 40
0.0
  9
$CHAMFERB
 40
0.0
  9
$CHAMFERC
 40
0.0
  9
$CHAMFERD
 40
0.0
  9
$SKPOLY
 70
     0
  9
$TDCREATE
 40
2460333.486733727
  9
$TDUCREATE
 40
2460333.486733727
  9
$TDUPDATE
 40
2460333.486766724
  9
$TDUUPDATE
 40
2460333.486766724
  9
$TDINDWG
 40
0.0000000116
  9
$TDUSRTIMER
 40
0.0000000116
  9
$USRTIMER
 70
     1
  9
$ANGBASE
 50
0.0
  9
$ANGDIR
 70
     0
  9
$PDMODE
 70
     0
  9
$PDSIZE
 40
-1.0
  9
$PLINEWID
 40
0.0
  9
$SPLFRAME
 70
     0
  9
$SPLINETYPE
 70
     6
  9
$SPLINESEGS
 70
     8
  9
$HANDSEED
  5
2DC
  9
$SURFTAB1
 70
     6
  9
$SURFTAB2
 70
     6
  9
$SURFTYPE
 70
     6
  9
$SURFU
 70
     6
  9
$SURFV
 70
     6
  9
$UCSBASE
  2

  9
$UCSNAME
  2

  9
$UCSORG
 10
0.0
 20
0.0
 30
0.0
  9
$UCSXDIR
 10
1.0
 20
0.0
 30
0.0
  9
$UCSYDIR
 10
0.0
 20
1.0
 30
0.0
  9
$UCSORTHOREF
  2

  9
$UCSORTHOVIEW
 70
     0
  9
$UCSORGTOP
 10
0.0
 20
0.0
 30
0.0
  9
$UCSORGBOTTOM
 10
0.0
 20
0.0
 30
0.0
  9
$UCSORGLEFT
 10
0.0
 20
0.0
 30
0.0
  9
$UCSORGRIGHT
 10
0.0
 20
0.0
 30
0.0
  9
$UCSORGFRONT
 10
0.0
 20
0.0
 30
0.0
  9
$UCSORGBACK
 10
0.0
 20
0.0
 30
0.0
  9
$PUCSBASE
  2

  9
$PUCSNAME
  2

  9
$PUCSORG
 10
0.0
 20
0.0
 30
0.0
  9
$PUCSXDIR
 10
1.0
 20
0.0
 30
0.0
  9
$PUCSYDIR
 10
0.0
 20
1.0
 30
0.0
  9
$PUCSORTHOREF
  2

  9
$PUCSORTHOVIEW
 70
     0
  9
$PUCSORGTOP
 10
0.0
 20
0.0
 30
0.0
  9
$PUCSORGBOTTOM
 10
0.0
 20
0.0
 30
0.0
  9
$PUCSORGLEFT
 10
0.0
 20
0.0
 30
0.0
  9
$PUCSORGRIGHT
 10
0.0
 20
0.0
 30
0.0
  9
$PUCSORGFRONT
 10
0.0
 20
0.0
 30
0.0
  9
$PUCSORGBACK
 10
0.0
 20
0.0
 30
0.0
  9
$USERI1
 70
     0
  9
$USERI2
 70
     0
  9
$USERI3
 70
     0
  9
$USERI4
 70
     0
  9
$USERI5
 70
     0
  9
$USERR1
 40
0.0
  9
$USERR2
 40
0.0
  9
$USERR3
 40
0.0
  9
$USERR4
 40
0.0
  9
$USERR5
 40
0.0
  9
$WORLDVIEW
 70
     1
  9
$SHADEDGE
 70
     3
  9
$SHADEDIF
 70
    70
  9
$TILEMODE
 70
     1
  9
$MAXACTVP
 70
    64
  9
$PINSBASE
 10
0.0
 20
0.0
 30
0.0
  9
$PLIMCHECK
 70
     0
  9
$PEXTMIN
 10
-1.2401574803
 20
-1.2401574803
 30
0.0
  9
$PEXTMAX
 10
1.233954011
 20
1.2401574803
 30
0.0
  9
$PLIMMIN
 10
-1.3176674487
 20
-1.3176673266
  9
$PLIMMAX
 10
2.09276579
 20
1.3176674487
  9
$UNITMODE
 70
     0
  9
$VISRETAIN
 70
     1
  9
$PLINEGEN
 70
     0
  9
$PSLTSCALE
 70
     1
  9
$TREEDEPTH
 70
  3020
  9
$CMLSTYLE
  2
Standard
  9
$CMLJUST
 70
     0
  9
$CMLSCALE
 40
1.0
  9
$PROXYGRAPHICS
 70
     1
  9
$MEASUREMENT
 70
     0
  9
$CELWEIGHT
370
    -1
  9
$ENDCAPS
280
     0
  9
$JOINSTYLE
280
     0
  9
$LWDISPLAY
290
     1
  9
$INSUNITS
 70
     1
  9
$HYPERLINKBASE
  1

  9
$STYLESHEET
  1

  9
$XEDIT
290
     1
  9
$CEPSNTYPE
380
     0
  9
$PSTYLEMODE
290
     1
  9
$FINGERPRINTGUID
  2
{472d1d1a-8aa5-4fd8-8c1b-bb3b14cdea33}
  9
$VERSIONGUID
  2
{FAEB1C32-E019-11D5-929B-00C0DF256EC4}
  9
$EXTNAMES
290
     1
  9
$PSVPSCALE
 40
0.0
  9
$OLESTARTUP
290
     0
  0
ENDSEC
  0
SECTION
  2
CLASSES
  0
CLASS
  1
ACDBDICTIONARYWDFLT
  2
AcDbDictionaryWithDefault
  3
ObjectDBX Classes
 90
        0
280
     0
281
     0
  0
CLASS
  1
VISUALSTYLE
  2
AcDbVisualStyle
  3
ObjectDBX Classes
 90
     4095
280
     0
281
     0
  0
CLASS
  1
MATERIAL
  2
AcDbMaterial
  3
ObjectDBX Classes
 90
     1153
280
     0
281
     0
  0
CLASS
  1
SCALE
  2
AcDbScale
  3
ObjectDBX Classes
 90
     1153
280
     0
281
     0
  0
CLASS
  1
TABLESTYLE
  2
AcDbTableStyle
  3
ObjectDBX Classes
 90
     4095
280
     0
281
     0
  0
CLASS
  1
MLEADERSTYLE
  2
AcDbMLeaderStyle
  3
ACDB_MLEADERSTYLE_CLASS
 90
     4095
280
     0
281
     0
  0
CLASS
  1
SUN
  2
AcDbSun
  3
SCENEOE
 90
     1153
280
     0
281
     0
  0
CLASS
  1
ACDBPLACEHOLDER
  2
AcDbPlaceHolder
  3
ObjectDBX Classes
 90
        0
280
     0
281
     0
  0
CLASS
  1
LAYOUT
  2
AcDbLayout
  3
ObjectDBX Classes
 90
        0
280
     0
281
     0
  0
ENDSEC
  0
SECTION
  2
TABLES
  0
TABLE
  2
VPORT
  5
8
330
0
100
AcDbSymbolTable
 70
     1
  0
VPORT
  5
29
330
8
100
AcDbSymbolTableRecord
100
AcDbViewportTableRecord
  2
*Active
 70
     0
 10
0.0
 20
0.0
 11
1.0
 21
1.0
 12
0.0
 22
-0.5905511811
 13
0.0
 23
0.0
 14
0.5
 24
0.5
 15
0.5
 25
0.5
 16
0.0
 26
0.0
 36
1.0
 17
0.0
 27
0.0
 37
0.0
 40
2.931496063
 41
0.8630136986
 42
50.0
 43
0.0
 44
0.0
 50
0.0
 51
0.0
 71
     0
 72
   100
 73
     1
 74
     3
 75
     0
 76
     0
 77
     0
 78
     0
281
     0
 65
     1
110
0.0
120
0.0
130
0.0
111
1.0
121
0.0
131
0.0
112
0.0
122
1.0
132
0.0
 79
     0
146
0.0
  0
ENDTAB
  0
TABLE
  2
LTYPE
  5
5
330
0
100
AcDbSymbolTable
 70
     6
  0
LTYPE
  5
14
330
5
100
AcDbSymbolTableRecord
100
AcDbLinetypeTableRecord
  2
ByBlock
 70
     0
  3

 72
    65
 73
     0
 40
0.0
  0
LTYPE
  5
15
330
5
100
AcDbSymbolTableRecord
100
AcDbLinetypeTableRecord
  2
ByLayer
 70
     0
  3

 72
    65
 73
     0
 40
0.0
  0
LTYPE
  5
16
330
5
100
AcDbSymbolTableRecord
100
AcDbLinetypeTableRecord
  2
Continuous
 70
     0
  3
Solid line
 72
    65
 73
     0
 40
0.0
  0
LTYPE
  5
6E
330
5
100
AcDbSymbolTableRecord
100
AcDbLinetypeTableRecord
  2
HIDDEN
 70
     0
  3
Hidden __ __ __ __ __ __ __ __ __ __ __ __ __ __
 72
    65
 73
     2
 40
0.075
 49
0.05
 74
     0
 49
-0.025
 74
     0
  0
LTYPE
  5
6F
330
5
100
AcDbSymbolTableRecord
100
AcDbLinetypeTableRecord
  2
PHANTOM
 70
     0
  3
Phantom ______  __  __  ______  __  __  ______
 72
    65
 73
     6
 40
0.5
 49
0.25
 74
     0
 49
-0.05
 74
     0
 49
0.05
 74
     0
 49
-0.05
 74
     0
 49
0.05
 74
     0
 49
-0.05
 74
     0
  0
LTYPE
  5
70
330
5
100
AcDbSymbolTableRecord
100
AcDbLinetypeTableRecord
  2
CENTER
 70
     0
  3
Center ____ _ ____ _ ____ _ ____ _ ____ _ ____
 72
    65
 73
     4
 40
0.4
 49
0.25
 74
     0
 49
-0.05
 74
     0
 49
0.05
 74
     0
 49
-0.05
 74
     0
  0
LTYPE
  5
71
330
5
100
AcDbSymbolTableRecord
100
AcDbLinetypeTableRecord
  2
CENTERX2
 70
     0
  3
Center (2x) ________  __  ________  __  _____
 72
    65
 73
     4
 40
0.8
 49
0.5
 74
     0
 49
-0.1
 74
     0
 49
0.1
 74
     0
 49
-0.1
 74
     0
  0
LTYPE
  5
72
330
5
100
AcDbSymbolTableRecord
100
AcDbLinetypeTableRecord
  2
DOT2
 70
     0
  3
Dot (.5x) ........................................
 72
    65
 73
     2
 40
0.025
 49
0.0
 74
     0
 49
-0.025
 74
     0
  0
ENDTAB
  0
TABLE
  2
LAYER
  5
2
330
0
100
AcDbSymbolTable
 70
     1
  0
LAYER
  5
10
330
2
100
AcDbSymbolTableRecord
100
AcDbLayerTableRecord
  2
0
 70
     0
 62
     7
  6
Continuous
370
    -3
390
F
  0
ENDTAB
  0
TABLE
  2
STYLE
  5
3
330
0
100
AcDbSymbolTable
 70
     1
  0
STYLE
  5
11
330
3
100
AcDbSymbolTableRecord
100
AcDbTextStyleTableRecord
  2
Standard
 70
     0
 40
0.0
 41
1.0
 50
0.0
 71
     0
 42
0.1377952756
  3
txt
  4

  0
ENDTAB
  0
TABLE
  2
VIEW
  5
6
330
0
100
AcDbSymbolTable
 70
     0
  0
ENDTAB
  0
TABLE
  2
UCS
  5
7
330
0
100
AcDbSymbolTable
 70
     0
  0
ENDTAB
  0
TABLE
  2
APPID
  5
9
330
0
100
AcDbSymbolTable
 70
     1
  0
APPID
  5
12
330
9
100
AcDbSymbolTableRecord
100
AcDbRegAppTableRecord
  2
ACAD
 70
     0
  0
ENDTAB
  0
TABLE
  2
DIMSTYLE
  5
A
330
0
100
AcDbSymbolTable
 70
     1
100
AcDbDimStyleTable
  0
DIMSTYLE
105
27
330
A
100
AcDbSymbolTableRecord
100
AcDbDimStyleTableRecord
  2
Standard
 70
     0
178
     0
340
11
  0
ENDTAB
  0
TABLE
  2
BLOCK_RECORD
  5
1
330
0
100
AcDbSymbolTable
 70
     2
  0
BLOCK_RECORD
  5
1F
330
1
100
AcDbSymbolTableRecord
100
AcDbBlockTableRecord
  2
*Model_Space
340
22
  0
BLOCK_RECORD
  5
1B
330
1
100
AcDbSymbolTableRecord
100
AcDbBlockTableRecord
  2
*Paper_Space
340
1E
  0
BLOCK_RECORD
  5
23
330
1
100
AcDbSymbolTableRecord
100
AcDbBlockTableRecord
  2
*Paper_Space0
340
26
  0
BLOCK_RECORD
  5
218
330
1
100
AcDbSymbolTableRecord
100
AcDbBlockTableRecord
  2
*Paper_Space1
340
219
  0
ENDTAB
  0
ENDSEC
  0
SECTION
  2
BLOCKS
  0
BLOCK
  5
20
330
1F
100
AcDbEntity
  8
0
100
AcDbBlockBegin
  2
*Model_Space
 70
     0
 10
0.0
 20
0.0
 30
0.0
  3
*Model_Space
  1

  0
ENDBLK
  5
21
330
1F
100
AcDbEntity
  8
0
100
AcDbBlockEnd
  0
BLOCK
  5
1C
330
1B
100
AcDbEntity
 67
     1
  8
0
100
AcDbBlockBegin
  2
*Paper_Space
 70
     0
 10
0.0
 20
0.0
 30
0.0
  3
*Paper_Space
  1

  0
ENDBLK
  5
1D
330
1B
100
AcDbEntity
 67
     1
  8
0
100
AcDbBlockEnd
  0
BLOCK
  5
24
330
23
100
AcDbEntity
  8
0
100
AcDbBlockBegin
  2
*Paper_Space0
 70
     0
 10
0.0
 20
0.0
 30
0.0
  3
*Paper_Space0
  1

  0
SPLINE
  5
1C0
330
23
100
AcDbEntity
  8
0
  6
Continuous
 62
     7
370
    25
100
AcDbSpline
210
0.0
220
0.0
230
1.0
 70
     8
 71
     3
 72
    11
 73
     7
 74
     0
 42
0.000000001
 43
0.00000001
 40
0.0
 40
0.0
 40
0.0
 40
0.0
 40
0.249972227643501
 40
0.499893130928348
 40
0.7498674855413168
 40
1.0
 40
1.0
 40
1.0
 40
1.0
 10
-0.0000000000067769
 20
-0.7677165354330711
 30
0.0
 10
0.0052384847404553
 20
-0.7678501590747923
 30
0.0
 10
0.0157143786679559
 20
-0.7681173789225963
 30
0.0
 10
0.031434716427985
 20
-0.7681045330411826
 30
0.0
 10
0.0471557609932276
 20
-0.7678155753514281
 30
0.0
 10
0.0576290840628403
 20
-0.7673474127165958
 30
0.0
 10
0.0628674017028347
 20
-0.7671132573704725
 30
0.0
  0
SPLINE
  5
1C1
330
23
100
AcDbEntity
  8
0
  6
Continuous
 62
     7
370
    25
100
AcDbSpline
210
0.0
220
0.0
230
1.0
 70
     8
 71
     3
 72
    17
 73
    13
 74
     0
 42
0.000000001
 43
0.00000001
 40
0.0
 40
0.0
 40
0.0
 40
0.0
 40
0.125
 40
0.125
 40
0.25
 40
0.375
 40
0.375
 40
0.5
 40
0.5
 40
0.75
 40
0.75
 40
1.0
 40
1.0
 40
1.0
 40
1.0
 10
-0.8071020192437627
 20
0.1259890745989983
 30
0.0
 10
-0.8147136674532877
 20
0.0648835879865743
 30
0.0
 10
-0.8154695688121444
 20
0.0031761713875806
 30
0.0
 10
-0.8028600237367506
 20
-0.1183373525475946
 30
0.0
 10
-0.7761610646880595
 20
-0.237951718789197
 30
0.0
 10
-0.7241059412548578
 20
-0.3479797560510665
 30
0.0
 10
-0.6607514718543324
 20
-0.4504068843097876
 30
0.0
 10
-0.6233537577504991
 20
-0.4977656819918575
 30
0.0
 10
-0.4968033736837078
 20
-0.6247976741262224
 30
0.0
 10
-0.3937442575458741
 20
-0.6897166173362319
 30
0.0
 10
-0.1716243913099267
 20
-0.7677208838358321
 30
0.0
 10
-0.0524039197368009
 20
-0.7803073336914226
 30
0.0
 10
0.0628655179357308
 20
-0.767074905254476
 30
0.0
  0
SPLINE
  5
1C2
330
23
100
AcDbEntity
  8
0
  6
Continuous
 62
     7
370
    25
100
AcDbSpline
210
0.0
220
0.0
230
1.0
 70
     8
 71
     3
 72
    14
 73
    10
 74
     0
 42
0.000000001
 43
0.00000001
 40
0.0
 40
0.0
 40
0.0
 40
0.0
 40
0.25
 40
0.25
 40
0.5
 40
0.5
 40
0.75
 40
0.75
 40
1.0
 40
1.0
 40
1.0
 40
1.0
 10
-0.8071539560147521
 20
0.1259988136299507
 30
0.0
 10
-0.7922866892885682
 20
0.2212391798480756
 30
0.0
 10
-0.7603925931155687
 20
0.3137962349338673
 30
0.0
 10
-0.6664735383149449
 20
0.4821597198539579
 30
0.0
 10
-0.6044730113941397
 20
0.5579223523213512
 30
0.0
 10
-0.45801567848499
 20
0.6832910148579623
 30
0.0
 10
-0.373596971289555
 20
0.7328644320520413
 30
0.0
 10
-0.1927625068775706
 20
0.7996921836969297
 30
0.0
 10
-0.0963937911759364
 20
0.8169291338582679
 30
0.0
 10
0.0
 20
0.8169291338582678
 30
0.0
  0
SPLINE
  5
1C3
330
23
100
AcDbEntity
  8
0
  6
Continuous
 62
     7
370
    25
100
AcDbSpline
210
0.0
220
0.0
230
1.0
 70
     8
 71
     3
 72
    35
 73
    31
 74
     0
 42
0.000000001
 43
0.00000001
 40
0.0
 40
0.0
 40
0.0
 40
0.0
 40
0.0368575535312392
 40
0.0737151070624798
 40
0.1105726605937207
 40
0.1474302141249612
 40
0.1842877676562021
 40
0.2211453211874423
 40
0.2580028747186832
 40
0.2948604282499237
 40
0.3317179817811646
 40
0.3685755353124055
 40
0.405433088843646
 40
0.4422906423748866
 40
0.4791481959061275
 40
0.5160057494373681
 40
0.552863302968609
 40
0.5897208564998496
 40
0.6265784100310904
 40
0.663435963562331
 40
0.700293517093572
 40
0.7371510706248126
 40
0.7740086241560532
 40
0.810866177687294
 40
0.8477237312185346
 40
0.8845812847497755
 40
0.9214388382810159
 40
0.9582963918122567
 40
0.9951539453434975
 40
0.9999999999999999
 40
0.9999999999999999
 40
0.9999999999999999
 40
0.9999999999999999
 10
0.0000000000000002
 20
0.8169291338582678
 30
0.0
 10
0.0267339295769096
 20
0.816170868721741
 30
0.0
 10
0.0802017887307293
 20
0.8146543384486878
 30
0.0
 10
0.1596311903932253
 20
0.802425893082751
 30
0.0
 10
0.2375232564289504
 20
0.7830345069448089
 30
0.0
 10
0.3131278436618448
 20
0.7559507168805392
 30
0.0
 10
0.3857168385871846
 20
0.7216272632360023
 30
0.0
 10
0.4545911695026568
 20
0.6803432778672
 30
0.0
 10
0.5190875389510107
 20
0.6325101265419367
 30
0.0
 10
0.5785848116371373
 20
0.5785847767391104
 30
0.0
 10
0.632509996300631
 20
0.5190875483018395
 30
0.0
 10
0.6803437639343737
 20
0.4545911669973999
 30
0.0
 10
0.7216254492085923
 20
0.3857168392574132
 30
0.0
 10
0.7559574869229893
 20
0.3131278434862186
 30
0.0
 10
0.783009240802405
 20
0.237523256461259
 30
0.0
 10
0.8025201876099057
 20
0.1596311904396505
 30
0.0
 10
0.8143024264824649
 20
0.0802017885127523
 30
0.0
 10
0.8182424871960032
 20
0.0000000008255094
 30
0.0
 10
0.8143024278831293
 20
-0.0802017918147737
 30
0.0
 10
0.8025201820072501
 20
-0.159631178882554
 30
0.0
 10
0.7830092618123682
 20
-0.2375232993875935
 30
0.0
 10
0.7559574084858011
 20
-0.3131276833379467
 30
0.0
 10
0.7216257419473944
 20
-0.3857174369241375
 30
0.0
 10
0.6803426714163696
 20
-0.4545889364787459
 30
0.0
 10
0.6325140736338641
 20
-0.5190958727097054
 30
0.0
 10
0.5785695948222288
 20
-0.5785537096262748
 30
0.0
 10
0.5191443288774347
 20
-0.6326260705853896
 30
0.0
 10
0.4543792266118954
 20
-0.6799105688062035
 30
0.0
 10
0.4061570304133333
 20
-0.7106973814461943
 30
0.0
 10
0.3787533678784055
 20
-0.7234876670243275
 30
0.0
 10
0.3755689996137996
 20
-0.7249739274626298
 30
0.0
  0
SPLINE
  5
1C8
330
23
100
AcDbEntity
  8
0
  6
Continuous
 62
     7
370
    25
100
AcDbSpline
210
0.0
220
0.0
230
1.0
 70
     8
 71
     3
 72
    22
 73
    18
 74
     0
 42
0.000000001
 43
0.00000001
 40
0.0
 40
0.0
 40
0.0
 40
0.0
 40
0.125
 40
0.125
 40
0.2500000000000001
 40
0.2500000000000001
 40
0.3750000000000001
 40
0.3750000000000001
 40
0.5
 40
0.5
 40
0.625
 40
0.625
 40
0.75
 40
0.75
 40
0.875
 40
0.875
 40
1.0
 40
1.0
 40
1.0
 40
1.0
 10
0.369256282204055
 20
-0.7287132548535445
 30
0.0
 10
0.4499891518357933
 20
-0.6867751315001283
 30
0.0
 10
0.5234955876576342
 20
-0.6313081901942784
 30
0.0
 10
0.6481063556936764
 20
-0.4995667444449873
 30
0.0
 10
0.6991860447086427
 20
-0.4233204936611248
 30
0.0
 10
0.7734529138267945
 20
-0.2585598231830159
 30
0.0
 10
0.7966261305190713
 20
-0.1700800605748898
 30
0.0
 10
0.8127022928438642
 20
0.0093132218007943
 30
0.0
 10
0.8056034234428693
 20
0.1001895479923495
 30
0.0
 10
0.7621114674247756
 20
0.2743398879724518
 30
0.0
 10
0.7257288322156802
 20
0.3575782924566132
 30
0.0
 10
0.627868800385309
 20
0.5073232614729953
 30
0.0
 10
0.5664128852341743
 20
0.5737997190120118
 30
0.0
 10
0.4253440571955582
 20
0.6827984794577474
 30
0.0
 10
0.3457612106544443
 20
0.7252994619143782
 30
0.0
 10
0.1773307495690259
 20
0.7818156390146511
 30
0.0
 10
0.0885184103567896
 20
0.7958205919804241
 30
0.0
 10
0.000000000068399
 20
0.7949028292980311
 30
0.0
  0
SPLINE
  5
1D2
330
23
100
AcDbEntity
  8
0
  6
Continuous
 62
     7
370
    25
100
AcDbSpline
210
0.0
220
0.0
230
1.0
 70
     8
 71
     3
 72
    11
 73
     7
 74
     0
 42
0.000000001
 43
0.00000001
 40
0.0
 40
0.0
 40
0.0
 40
0.0
 40
0.2501325145112943
 40
0.5001068691418105
 40
0.7500277724091149
 40
1.0
 40
1.0
 40
1.0
 40
1.0
 10
-0.062867401716378
 20
-0.7671132573692914
 30
0.0
 10
-0.0576290840752844
 20
-0.7673474127155182
 30
0.0
 10
-0.0471557610042075
 20
-0.7678155753505245
 30
0.0
 10
-0.031434716437869
 20
-0.7681045330406112
 30
0.0
 10
-0.015714378678942
 20
-0.7681173789223426
 30
0.0
 10
-0.0052384847529083
 20
-0.7678501590747014
 30
0.0
 10
-0.0000000000067769
 20
-0.7677165354330708
 30
0.0
  0
SPLINE
  5
1D3
330
23
100
AcDbEntity
  8
0
  6
Continuous
 62
     7
370
    25
100
AcDbSpline
210
0.0
220
0.0
230
1.0
 70
     8
 71
     3
 72
    38
 73
    34
 74
     0
 42
0.000000001
 43
0.00000001
 40
0.0
 40
0.0
 40
0.0
 40
0.0
 40
0.0625
 40
0.0625
 40
0.125
 40
0.125
 40
0.1875000000000001
 40
0.1875000000000001
 40
0.2500000000000001
 40
0.2500000000000001
 40
0.3125
 40
0.3125
 40
0.3749999999999999
 40
0.3749999999999999
 40
0.4374999999999999
 40
0.4374999999999999
 40
0.4999999999999999
 40
0.4999999999999999
 40
0.5624999999999999
 40
0.5624999999999999
 40
0.6249999999999999
 40
0.6249999999999999
 40
0.6874999999999999
 40
0.6874999999999999
 40
0.7499999999999999
 40
0.7499999999999999
 40
0.8125
 40
0.8125
 40
0.875
 40
0.875
 40
0.9375
 40
0.9375
 40
1.0
 40
1.0
 40
1.0
 40
1.0
 10
0.000000000068399
 20
0.7949028292980294
 30
0.0
 10
-0.0506721103927587
 20
0.7943774586788919
 30
0.0
 10
-0.1012420128764146
 20
0.7889921946508103
 30
0.0
 10
-0.2003416793834574
 20
0.7687357658417466
 30
0.0
 10
-0.248869255860754
 20
0.753865143581323
 30
0.0
 10
-0.3421256159557576
 20
0.7152165924314697
 30
0.0
 10
-0.3868523591757513
 20
0.6914396103018339
 30
0.0
 10
-0.4708937037407515
 20
0.635878969935186
 30
0.0
 10
-0.5102064855968945
 20
0.6040966266003329
 30
0.0
 10
-0.5820100447391021
 20
0.5337138506200196
 30
0.0
 10
-0.6144992888628756
 20
0.4951150516487197
 30
0.0
 10
-0.6714999333985379
 20
0.4125314731086362
 30
0.0
 10
-0.6960101416981245
 20
0.3685485851943094
 30
0.0
 10
-0.7361919815281905
 20
0.2768193309322867
 30
0.0
 10
-0.7518628040731171
 20
0.2290750442675354
 30
0.0
 10
-0.7738304140082344
 20
0.1315760359299711
 30
0.0
 10
-0.7801268034862068
 20
0.0818235054429285
 30
0.0
 10
-0.7831535625247876
 20
-0.0178727741873139
 30
0.0
 10
-0.7798839581004692
 20
-0.0678143009257663
 30
0.0
 10
-0.7639358322474771
 20
-0.1660697048958822
 30
0.0
 10
-0.7512577581141476
 20
-0.2143814096043714
 30
0.0
 10
-0.7169917584230612
 20
-0.3076248910587528
 30
0.0
 10
-0.6954046834513629
 20
-0.3525546241207562
 30
0.0
 10
-0.644142156976849
 20
-0.4374120230018655
 30
0.0
 10
-0.6144679267359112
 20
-0.4773378479216497
 30
0.0
 10
-0.5481437546408182
 20
-0.5507539831646493
 30
0.0
 10
-0.511495358731695
 20
-0.5842427216306055
 30
0.0
 10
-0.4325850095191801
 20
-0.6435913712683358
 30
0.0
 10
-0.3903248692038683
 20
-0.6694500358102947
 30
0.0
 10
-0.3017520542590418
 20
-0.712627846590868
 30
0.0
 10
-0.2554413925211517
 20
-0.7299461155328613
 30
0.0
 10
-0.1604697670057458
 20
-0.7554470852840406
 30
0.0
 10
-0.1118109418702515
 20
-0.7636293085969138
 30
0.0
 10
-0.0628674017163735
 20
-0.7671132573692372
 30
0.0
  0
LINE
  5
1E8
330
23
100
AcDbEntity
  8
0
  6
Continuous
 62
     7
370
    25
100
AcDbLine
 10
-0.2809155479
 20
0.275838295
 30
0.0
 11
-0.5413385827
 21
0.4261936042
 31
0.0
  0
LINE
  5
1E9
330
23
100
AcDbEntity
  8
0
  6
Continuous
 62
     7
370
    25
100
AcDbLine
 10
0.5413385827
 20
0.4261936042
 30
0.0
 11
0.2809155479
 21
0.275838295
 31
0.0
  0
LINE
  5
1EA
330
23
100
AcDbEntity
  8
0
  6
Continuous
 62
     7
370
    25
100
AcDbLine
 10
0.3793407447
 20
0.1053608533
 30
0.0
 11
0.6397637795
 21
0.2557161625
 31
0.0
  0
LINE
  5
1EB
330
23
100
AcDbEntity
  8
0
  6
Continuous
 62
     7
370
    25
100
AcDbLine
 10
-0.6397637795
 20
0.2557161625
 30
0.0
 11
-0.3793407447
 21
0.1053608533
 31
0.0
  0
LINE
  5
1EC
330
23
100
AcDbEntity
  8
0
  6
Continuous
 62
     7
370
    25
100
AcDbLine
 10
-0.3631720653
 20
0.7312270352
 30
0.0
 11
-0.35478256
 21
0.735868565
 31
0.0
  0
LINE
  5
1ED
330
23
100
AcDbEntity
  8
0
  6
Continuous
 62
     7
370
    25
100
AcDbLine
 10
0.0000000001
 20
0.7949028293
 30
0.0
 11
0.0
 21
0.7696850394
 31
0.0
  0
LINE
  5
1EE
330
23
100
AcDbEntity
  8
0
  6
Continuous
 62
     7
370
    25
100
AcDbLine
 10
-0.1181102362
 20
0.2270189487
 30
0.0
 11
-0.1181102362
 21
0.6787771516
 31
0.0
  0
LINE
  5
1EF
330
23
100
AcDbEntity
  8
0
  6
Continuous
 62
     7
370
    25
100
AcDbLine
 10
-0.1181102362
 20
-0.6787771516
 30
0.0
 11
-0.1181102362
 21
-0.2270189487
 31
0.0
  0
LINE
  5
1F0
330
23
100
AcDbEntity
  8
0
  6
Continuous
 62
     7
370
    25
100
AcDbLine
 10
0.1181102362
 20
0.6787771516
 30
0.0
 11
0.1181102362
 21
0.2270189487
 31
0.0
  0
LINE
  5
1F1
330
23
100
AcDbEntity
  8
0
  6
Continuous
 62
     7
370
    25
100
AcDbLine
 10
0.1181102362
 20
-0.2270189487
 30
0.0
 11
0.1181102362
 21
-0.6787771516
 31
0.0
  0
LINE
  5
1F2
330
23
100
AcDbEntity
  8
0
  6
Continuous
 62
     7
370
    25
100
AcDbLine
 10
0.0
 20
-0.9842519685
 30
0.0
 11
0.0
 21
-0.9448818898
 31
0.0
  0
LINE
  5
1F3
330
23
100
AcDbEntity
  8
0
  6
Continuous
 62
     7
370
    25
100
AcDbLine
 10
0.0
 20
0.9842519685
 30
0.0
 11
0.0
 21
0.9448818898
 31
0.0
  0
LINE
  5
1F4
330
23
100
AcDbEntity
  8
0
  6
Continuous
 62
     7
370
    25
100
AcDbLine
 10
0.0
 20
-1.2401574803
 30
0.0
 11
0.0
 21
-1.2106299213
 31
0.0
  0
LINE
  5
1F5
330
23
100
AcDbEntity
  8
0
  6
Continuous
 62
     7
370
    25
100
AcDbLine
 10
0.0
 20
1.2401574803
 30
0.0
 11
0.0
 21
1.2106299213
 31
0.0
  0
LINE
  5
1F6
330
23
100
AcDbEntity
  8
0
  6
Continuous
 62
     8
370
    25
100
AcDbLine
 10
0.0
 20
-0.1456692913
 30
0.0
 11
0.0000000023
 21
-0.1122047244
 31
0.0
  0
LINE
  5
1F7
330
23
100
AcDbEntity
  8
0
  6
Continuous
 62
     8
370
    25
100
AcDbLine
 10
0.0
 20
0.1456692913
 30
0.0
 11
-0.0000000023
 21
0.1122047244
 31
0.0
  0
LINE
  5
1F8
330
23
100
AcDbEntity
  8
0
  6
Continuous
 62
     8
370
    25
100
AcDbLine
 10
0.1122047244
 20
0.0
 30
0.0
 11
0.0984251969
 21
0.0
 31
0.0
  0
LINE
  5
1F9
330
23
100
AcDbEntity
  8
0
  6
Continuous
 62
     8
370
    25
100
AcDbLine
 10
-0.1122047244
 20
0.0
 30
0.0
 11
-0.0984251969
 21
0.0
 31
0.0
  0
ARC
  5
1FA
330
23
100
AcDbEntity
  8
0
  6
Continuous
 62
     7
370
    25
100
AcDbCircle
 10
0.0
 20
0.0
 30
0.0
 40
0.5905511811023625
100
AcDbArc
 50
159.5940682269
 51
258.4630409672
  0
ARC
  5
1FB
330
23
100
AcDbEntity
  8
0
  6
Continuous
 62
     7
370
    25
100
AcDbCircle
 10
0.0
 20
0.0
 30
0.0
 40
0.5905511811023693
100
AcDbArc
 50
101.5369590328
 51
140.4059317731
  0
ARC
  5
1FC
330
23
100
AcDbEntity
  8
0
  6
Continuous
 62
     7
370
    25
100
AcDbCircle
 10
0.0
 20
0.0
 30
0.0
 40
0.6811023622047258
100
AcDbArc
 50
279.9861667397
 51
21.691171571
  0
ARC
  5
1FD
330
23
100
AcDbEntity
  8
0
  6
Continuous
 62
     7
370
    25
100
AcDbCircle
 10
0.0
 20
0.0
 30
0.0
 40
0.6811023622047478
100
AcDbArc
 50
38.308828429
 51
80.0138332603
  0
ARC
  5
1FE
330
23
100
AcDbEntity
  8
0
  6
Continuous
 62
     7
370
    25
100
AcDbCircle
 10
0.0
 20
0.0
 30
0.0
 40
0.6811023622047258
100
AcDbArc
 50
158.308828429
 51
260.0138332603
  0
ARC
  5
1FF
330
23
100
AcDbEntity
  8
0
  6
Continuous
 62
     7
370
    25
100
AcDbCircle
 10
0.0
 20
0.0
 30
0.0
 40
0.6811023622047488
100
AcDbArc
 50
99.9861667397
 51
141.691171571
  0
ARC
  5
200
330
23
100
AcDbEntity
  8
0
  6
Continuous
 62
     7
370
    25
100
AcDbCircle
 10
0.0
 20
0.0
 30
0.0
 40
0.5905511811023639
100
AcDbArc
 50
39.5940682269
 51
78.4630409672
  0
ARC
  5
201
330
23
100
AcDbEntity
  8
0
  6
Continuous
 62
     7
370
    25
100
AcDbCircle
 10
0.0
 20
0.0
 30
0.0
 40
0.5905511811023627
100
AcDbArc
 50
281.5369590328
 51
20.4059317731
  0
ARC
  5
202
330
23
100
AcDbEntity
  8
0
  6
Continuous
 62
     7
370
    25
100
AcDbCircle
 10
0.0
 20
0.0
 30
0.0
 40
1.240157480314961
100
AcDbArc
 50
270.0
 51
90.0
  0
ARC
  5
203
330
23
100
AcDbEntity
  8
0
  6
Continuous
 62
     7
370
    25
100
AcDbCircle
 10
0.0
 20
0.0
 30
0.0
 40
0.3346456692913379
100
AcDbArc
 50
290.6673164935
 51
69.3326835065
  0
ARC
  5
204
330
23
100
AcDbEntity
  8
0
  6
Continuous
 62
     7
370
    25
100
AcDbCircle
 10
0.0
 20
0.0
 30
0.0
 40
0.3346456692913397
100
AcDbArc
 50
110.6673164935
 51
249.3326835065
  0
ARC
  5
205
330
23
100
AcDbEntity
  8
0
  6
Continuous
 62
     7
370
    25
100
AcDbCircle
 10
0.0
 20
0.0
 30
0.0
 40
0.3543307086614172
100
AcDbArc
 50
289.4712206345
 51
70.5287793655
  0
ARC
  5
206
330
23
100
AcDbEntity
  8
0
  6
Continuous
 62
     7
370
    25
100
AcDbCircle
 10
0.0
 20
0.0
 30
0.0
 40
0.3543307086614172
100
AcDbArc
 50
109.4712206345
 51
250.5287793655
  0
ARC
  5
207
330
23
100
AcDbEntity
  8
0
  6
Continuous
 62
     7
370
    25
100
AcDbCircle
 10
0.0
 20
0.0
 30
0.0
 40
0.3937007874026714
100
AcDbArc
 50
44.477512186
 51
72.5423968762
  0
ARC
  5
208
330
23
100
AcDbEntity
  8
0
  6
Continuous
 62
     7
370
    25
100
AcDbCircle
 10
0.0
 20
0.0
 30
0.0
 40
0.3937007874026671
100
AcDbArc
 50
107.4576031238
 51
135.522487814
  0
ARC
  5
209
330
23
100
AcDbEntity
  8
0
  6
Continuous
 62
     7
370
    25
100
AcDbCircle
 10
0.0
 20
0.0
 30
0.0
 40
0.3937007874014957
100
AcDbArc
 50
287.4576031237
 51
15.5224878141
  0
ARC
  5
20A
330
23
100
AcDbEntity
  8
0
  6
Continuous
 62
     7
370
    25
100
AcDbCircle
 10
0.0
 20
0.0
 30
0.0
 40
0.3937007874015876
100
AcDbArc
 50
164.4775121859
 51
252.5423968763
  0
ARC
  5
20B
330
23
100
AcDbEntity
  8
0
  6
Continuous
 62
     7
370
    25
100
AcDbCircle
 10
0.0
 20
0.0
 30
0.0
 40
0.1456692913385827
100
AcDbArc
 50
270.0
 51
90.0
  0
ARC
  5
20C
330
23
100
AcDbEntity
  8
0
  6
Continuous
 62
     7
370
    25
100
AcDbCircle
 10
0.0
 20
0.0
 30
0.0
 40
0.2362204724409449
100
AcDbArc
 50
270.0
 51
90.0
  0
ARC
  5
20D
330
23
100
AcDbEntity
  8
0
  6
Continuous
 62
     7
370
    25
100
AcDbCircle
 10
0.0
 20
0.0
 30
0.0
 40
0.8169291338582668
100
AcDbArc
 50
171.1275863731
 51
296.8724136246
  0
ARC
  5
20E
330
23
100
AcDbEntity
  8
0
  6
Continuous
 62
     7
370
    25
100
AcDbCircle
 10
0.0
 20
0.0
 30
0.0
 40
0.7696850393700787
100
AcDbArc
 50
274.6851034545
 51
265.3148965445
  0
ARC
  5
20F
330
23
100
AcDbEntity
  8
0
  6
Continuous
 62
     7
370
    25
100
AcDbCircle
 10
0.0
 20
0.0
 30
0.0
 40
0.2559055118110096
100
AcDbArc
 50
117.4864262504
 51
242.5135737496
  0
ARC
  5
210
330
23
100
AcDbEntity
  8
0
  6
Continuous
 62
     7
370
    25
100
AcDbCircle
 10
0.0
 20
0.0
 30
0.0
 40
0.6889763779528855
100
AcDbArc
 50
99.8708896061
 51
260.1291103939
  0
ARC
  5
211
330
23
100
AcDbEntity
  8
0
  6
Continuous
 62
     7
370
    25
100
AcDbCircle
 10
0.0
 20
0.0
 30
0.0
 40
0.6889763779528855
100
AcDbArc
 50
279.8708896061
 51
80.1291103939
  0
ARC
  5
212
330
23
100
AcDbEntity
  8
0
  6
Continuous
 62
     7
370
    25
100
AcDbCircle
 10
0.0
 20
0.0
 30
0.0
 40
0.2559055118110096
100
AcDbArc
 50
297.4864262504
 51
62.5135737496
  0
ARC
  5
213
330
23
100
AcDbEntity
  8
0
  6
Continuous
 62
     7
370
    25
100
AcDbCircle
 10
0.0
 20
0.0
 30
0.0
 40
0.9842519685039371
100
AcDbArc
 50
270.0
 51
90.0
  0
ARC
  5
214
330
23
100
AcDbEntity
  8
0
  6
Continuous
 62
     7
370
    25
100
AcDbCircle
 10
0.0
 20
0.0
 30
0.0
 40
0.9448818897594488
100
AcDbArc
 50
269.9999999974
 51
89.9999999974
  0
ARC
  5
215
330
23
100
AcDbEntity
  8
0
  6
Continuous
 62
     7
370
    25
100
AcDbCircle
 10
0.0
 20
0.0
 30
0.0
 40
1.230314960629921
100
AcDbArc
 50
270.0
 51
90.0
  0
ARC
  5
216
330
23
100
AcDbEntity
  8
0
  6
Continuous
 62
     7
370
    25
100
AcDbCircle
 10
0.0
 20
0.0
 30
0.0
 40
1.210629921259843
100
AcDbArc
 50
270.0
 51
90.0
  0
ARC
  5
217
330
23
100
AcDbEntity
  8
0
  6
Continuous
 62
     7
370
    25
100
AcDbCircle
 10
0.0
 20
0.0
 30
0.0
 40
0.0984251968503937
100
AcDbArc
 50
180.0
 51
0.0
  0
VIEWPORT
  5
2D8
330
23
100
AcDbEntity
  8
0
100
AcDbViewport
 10
0.0
 20
0.0
 30
0.0
 40
8.4
 41
6.4
 68
     1
 69
     1
 12
0.0
 22
-0.5905511811
 13
0.0
 23
0.0
 14
0.5
 24
0.5
 15
0.5
 25
0.5
 16
0.0
 26
0.0
 36
1.0
 17
0.0
 27
0.0
 37
0.0
 42
50.0
 43
0.0
 44
0.0
 45
2.931496063
 50
0.0
 51
0.0
 72
   100
 90
   557152
  1

281
     0
 71
     1
 74
     0
110
0.0
120
0.0
130
0.0
111
1.0
121
0.0
131
0.0
112
0.0
122
1.0
132
0.0
 79
     0
146
0.0
  0
ENDBLK
  5
25
330
23
100
AcDbEntity
  8
0
100
AcDbBlockEnd
  0
BLOCK
  5
21A
330
218
100
AcDbEntity
  8
0
100
AcDbBlockBegin
  2
*Paper_Space1
 70
     0
 10
0.0
 20
0.0
 30
0.0
  3
*Paper_Space1
  1

  0
SPLINE
  5
21C
330
218
100
AcDbEntity
  8
0
  6
Continuous
 62
     7
370
    25
100
AcDbSpline
210
0.0
220
0.0
230
1.0
 70
     8
 71
     3
 72
    21
 73
    17
 74
     0
 42
0.000000001
 43
0.00000001
 40
0.0
 40
0.0
 40
0.0
 40
0.0
 40
0.0091704526946905
 40
0.0874461486206561
 40
0.1658127510234914
 40
0.2442766818537631
 40
0.3228366507987793
 40
0.4014853629729546
 40
0.4802115788628212
 40
0.5590020913790774
 40
0.6378433418962031
 40
0.7167225630931795
 40
0.7956284626650184
 40
0.8745515328643828
 40
0.9534840940344177
 40
1.0
 40
1.0
 40
1.0
 40
1.0
 10
1.219031096667358
 20
0.5605938325190782
 30
0.0
 10
1.218655947217933
 20
0.5619158556834682
 30
0.0
 10
1.215078656586638
 20
0.5745221945373958
 30
0.0
 10
1.205692656655593
 20
0.5981208998943608
 30
0.0
 10
1.19071249801791
 20
0.6312804774490438
 30
0.0
 10
1.172763404454392
 20
0.6639548425332933
 30
0.0
 10
1.152234955634011
 20
0.696109076241683
 30
0.0
 10
1.129076948616781
 20
0.727657932792741
 30
0.0
 10
1.10336645953344
 20
0.7585304464734229
 30
0.0
 10
1.07515515341308
 20
0.7886533354112717
 30
0.0
 10
1.044510823728409
 20
0.8179568559171835
 30
0.0
 10
1.011501810974974
 20
0.8463714873393152
 30
0.0
 10
0.9762148447633399
 20
0.8738378691115035
 30
0.0
 10
0.9386962921488461
 20
0.9002719630075353
 30
0.0
 10
0.9045788408916807
 20
0.9222145451449354
 30
0.0
 10
0.8826195708760558
 20
0.9351063740830978
 30
0.0
 10
0.8744771410605089
 20
0.9398866246218598
 30
0.0
  0
SPLINE
  5
21E
330
218
100
AcDbEntity
  8
0
  6
Continuous
 62
     7
370
    25
100
AcDbSpline
210
0.0
220
0.0
230
1.0
 70
     8
 71
     3
 72
    54
 73
    50
 74
     0
 42
0.000000001
 43
0.00000001
 40
0.0
 40
0.0
 40
0.0
 40
0.0
 40
0.0115650504701708
 40
0.0335232749418573
 40
0.0554808894757653
 40
0.0774365413605256
 40
0.0993899339667551
 40
0.1213409266721493
 40
0.1432894967797885
 40
0.1652357093514997
 40
0.1871796937216902
 40
0.2091216255346831
 40
0.2310617132333367
 40
0.253000188065701
 40
0.2749372968284647
 40
0.296873296708955
 40
0.3188084517121024
 40
0.3407430302613305
 40
0.3626773036432947
 40
0.384611545027106
 40
0.4065459790705016
 40
0.4284808393457745
 40
0.4504164015312856
 40
0.4723529410684138
 40
0.4942907321113374
 40
0.5162300458738869
 40
0.5381711480848813
 40
0.5601142952057637
 40
0.5820597289780479
 40
0.6040076687587194
 40
0.6259583009694637
 40
0.6479117648333536
 40
0.6698681334108909
 40
0.6918273887986267
 40
0.7137893902612353
 40
0.7357538341079891
 40
0.7577202044211736
 40
0.7796877144871858
 40
0.8016548501716428
 40
0.8236198642825967
 40
0.8455805824068143
 40
0.8675342957166254
 40
0.8894777655194746
 40
0.911407302019298
 40
0.9333189492042108
 40
0.9552088020998546
 40
0.9770734630213957
 40
0.9989106071118209
 40
1.0
 40
1.0
 40
1.0
 40
1.0
 10
-0.8744771410615608
 20
-0.1084984483682874
 30
0.0
 10
-0.8670844006100275
 20
-0.1127020379462079
 30
0.0
 10
-0.8456552791920314
 20
-0.1248868606174805
 30
0.0
 10
-0.808713746704493
 20
-0.1441484023824784
 30
0.0
 10
-0.76313480377497
 20
-0.1658356026170808
 30
0.0
 10
-0.7158141792376136
 20
-0.1862191444706104
 30
0.0
 10
-0.6668940091640998
 20
-0.2052740918139048
 30
0.0
 10
-0.6164755434850201
 20
-0.2229537810444802
 30
0.0
 10
-0.5646748668167544
 20
-0.2392212531511313
 30
0.0
 10
-0.5116078618441386
 20
-0.2540408315612382
 30
0.0
 10
-0.4573939563994353
 20
-0.2673804578654662
 30
0.0
 10
-0.4021548232923954
 20
-0.279211146839227
 30
0.0
 10
-0.3460144179739318
 20
-0.2895072113897904
 30
0.0
 10
-0.289098644591776
 20
-0.298246276797129
 30
0.0
 10
-0.2315351098757089
 20
-0.3054093449180206
 30
0.0
 10
-0.1734528433727577
 20
-0.3109808369424164
 30
0.0
 10
-0.1149820182305159
 20
-0.3149486326451084
 30
0.0
 10
-0.0562536650061366
 20
-0.3173041004439832
 30
0.0
 10
0.0026006178717379
 20
-0.318042119149667
 30
0.0
 10
0.0614489119157249
 20
-0.3171610913853533
 30
0.0
 10
0.1201592800635098
 20
-0.3146629536512773
 30
0.0
 10
0.178600100150985
 20
-0.3105531736534514
 30
0.0
 10
0.2366404037846139
 20
-0.3048407290256789
 30
0.0
 10
0.2941501597489402
 20
-0.2975380774549065
 30
0.0
 10
0.3510005247171915
 20
-0.2886611247791663
 30
0.0
 10
0.4070641266974834
 20
-0.2782291825884394
 30
0.0
 10
0.4622153427604918
 20
-0.2662649172581246
 30
0.0
 10
0.5163305696857248
 20
-0.2527942909318691
 30
0.0
 10
0.5692884861166407
 20
-0.2378464951887308
 30
0.0
 10
0.620970304765342
 20
-0.2214538784177588
 30
0.0
 10
0.6712600131915029
 20
-0.2036518682996021
 30
0.0
 10
0.7200446017353287
 20
-0.1844788912796803
 30
0.0
 10
0.7672142773429109
 20
-0.1639762915240235
 30
0.0
 10
0.8126626624411566
 20
-0.1421882525877983
 30
0.0
 10
0.8562869785138207
 20
-0.1191617258445686
 30
0.0
 10
0.897988215842196
 20
-0.0949463706541746
 30
0.0
 10
0.9376712900783847
 20
-0.0695945117216029
 30
0.0
 10
0.9752449759898173
 20
-0.04316127678268
 30
0.0
 10
1.010622209293386
 20
-0.0157045646496344
 30
0.0
 10
1.043720391500226
 20
0.0127149149502013
 30
0.0
 10
1.07446155041433
 20
0.0420337694442573
 30
0.0
 10
1.102773388367128
 20
0.0721856754003254
 30
0.0
 10
1.128586286001017
 20
0.1031016718127072
 30
0.0
 10
1.151846138555019
 20
0.1347087627300088
 30
0.0
 10
1.172468708723366
 20
0.1669352700256342
 30
0.0
 10
1.19051231808525
 20
0.1996916355675067
 30
0.0
 10
1.205537020273515
 20
0.2329435906473981
 30
0.0
 10
1.214738173205761
 20
0.2558473784415542
 30
0.0
 10
1.218139491384951
 20
0.2677243585115184
 30
0.0
 10
1.218301110727563
 20
0.2682887131558042
 30
0.0
  0
SPLINE
  5
21F
330
218
100
AcDbEntity
  8
0
  6
Continuous
 62
     7
370
    25
100
AcDbSpline
210
0.0
220
0.0
230
1.0
 70
     8
 71
     3
 72
    22
 73
    18
 74
     0
 42
0.000000001
 43
0.00000001
 40
0.0
 40
0.0
 40
0.0
 40
0.0
 40
0.0674183382184828
 40
0.138986745697977
 40
0.2105614303286609
 40
0.2821398287021255
 40
0.3537170071998675
 40
0.4252872728143243
 40
0.4968435404904878
 40
0.5683769838504533
 40
0.6398770500174714
 40
0.711331716250133
 40
0.7827280923759421
 40
0.8540534545217914
 40
0.9252967317543843
 40
0.9964503488164008
 40
1.0
 40
1.0
 40
1.0
 40
1.0
 10
-0.814880045257014
 20
0.9720390417775582
 30
0.0
 10
-0.8286977705867149
 20
0.9648875954769364
 30
0.0
 10
-0.8571837986804353
 20
0.950144481442649
 30
0.0
 10
-0.8979628575629239
 20
0.9263175843635723
 30
0.0
 10
-0.937678085460136
 20
0.9009872335084241
 30
0.0
 10
-0.9752431551617408
 20
0.8745482350544987
 30
0.0
 10
-1.010622697131536
 20
0.8470930672237411
 30
0.0
 10
-1.043720260817671
 20
0.8186731738859281
 30
0.0
 10
-1.074461585416852
 20
0.7893544302211821
 30
0.0
 10
-1.102773378995031
 20
0.7592024945822697
 30
0.0
 10
-1.128586288510876
 20
0.7282865061179349
 30
0.0
 10
-1.151846137883977
 20
0.6966794130729071
 30
0.0
 10
-1.172468708903609
 20
0.6644529063467499
 30
0.0
 10
-1.190512318037382
 20
0.6316965406523215
 30
0.0
 10
-1.205537020287541
 20
0.5984445856138709
 30
0.0
 10
-1.214738173205876
 20
0.5755407978106886
 30
0.0
 10
-1.218139491385105
 20
0.5636638177410069
 30
0.0
 10
-1.218301110727662
 20
0.5630994630969327
 30
0.0
  0
SPLINE
  5
220
330
218
100
AcDbEntity
  8
0
  6
Continuous
 62
     7
370
    25
100
AcDbSpline
210
0.0
220
0.0
230
1.0
 70
     8
 71
     3
 72
    10
 73
     6
 74
     0
 42
0.000000001
 43
0.00000001
 40
0.0
 40
0.0
 40
0.0
 40
0.0
 40
0.2762748907402357
 40
0.8008299787108133
 40
1.0
 40
1.0
 40
1.0
 40
1.0
 10
0.8744771410605084
 20
0.9398866246218603
 30
0.0
 10
0.867076352422283
 20
0.9440844687352409
 30
0.0
 10
0.8456239019599421
 20
0.9562526371957993
 30
0.0
 10
0.817975486990892
 20
0.9709456338751017
 30
0.0
 10
0.7969143644578467
 20
0.9808432468900231
 30
0.0
 10
0.7911183181833554
 20
0.9835670819064845
 30
0.0
  0
SPLINE
  5
222
330
218
100
AcDbEntity
  8
0
  6
Continuous
 62
     7
370
    25
100
AcDbSpline
210
0.0
220
0.0
230
1.0
 70
     8
 71
     3
 72
    21
 73
    17
 74
     0
 42
0.000000001
 43
0.00000001
 40
0.0
 40
0.0
 40
0.0
 40
0.0
 40
0.0091704526933275
 40
0.0874461486193988
 40
0.1658127510223421
 40
0.2442766818527248
 40
0.3228366507978473
 40
0.4014853629721234
 40
0.4802115788620997
 40
0.559002091378473
 40
0.6378433418956975
 40
0.7167225630927874
 40
0.7956284626647296
 40
0.8745515328642098
 40
0.9534840940343471
 40
1.0
 40
1.0
 40
1.0
 40
1.0
 10
-1.219031096667459
 20
0.270794343734143
 30
0.0
 10
-1.218655947218092
 20
0.2694723205699511
 30
0.0
 10
-1.215078656586875
 20
0.2568659817162197
 30
0.0
 10
-1.205692656655935
 20
0.233267276359447
 30
0.0
 10
-1.190712498018329
 20
0.2001076988047511
 30
0.0
 10
-1.172763404454875
 20
0.1674333337204891
 30
0.0
 10
-1.152234955634562
 20
0.1352791000120855
 30
0.0
 10
-1.129076948617397
 20
0.1037302434610117
 30
0.0
 10
-1.10336645953412
 20
0.0728577297803109
 30
0.0
 10
-1.075155153413821
 20
0.0427348408424424
 30
0.0
 10
-1.044510823729211
 20
0.0134313203365087
 30
0.0
 10
-1.011501810975836
 20
-0.0149833110856455
 30
0.0
 10
-0.9762148447642576
 20
-0.0424496928578587
 30
0.0
 10
-0.9386962921498185
 20
-0.0688837867539163
 30
0.0
 10
-0.9045788408926984
 20
-0.0908263688913412
 30
0.0
 10
-0.8826195708770993
 20
-0.1037181978295186
 30
0.0
 10
-0.8744771410615613
 20
-0.1084984483682872
 30
0.0
  0
SPLINE
  5
225
330
218
100
AcDbEntity
  8
0
  6
Continuous
 62
     7
370
    25
100
AcDbSpline
210
0.0
220
0.0
230
1.0
 70
     8
 71
     3
 72
    11
 73
     7
 74
     0
 42
0.000000001
 43
0.00000001
 40
0.0
 40
0.0
 40
0.0
 40
0.0
 40
0.1069218715628225
 40
0.4408859366152427
 40
0.7752586057966813
 40
1.0
 40
1.0
 40
1.0
 40
1.0
 10
1.201882440674611
 20
0.0444809260539722
 30
0.0
 10
1.200782159913989
 20
0.0480637598719655
 30
0.0
 10
1.196245218064803
 20
0.0628373606375916
 30
0.0
 10
1.185405751259522
 20
0.0884429571384034
 30
0.0
 10
1.171524460476779
 20
0.1176980751946544
 30
0.0
 10
1.160832983478428
 20
0.1356164244438871
 30
0.0
 10
1.156535439195324
 20
0.1428188810727116
 30
0.0
  0
SPLINE
  5
227
330
218
100
AcDbEntity
  8
0
  6
Continuous
 62
     7
370
    25
100
AcDbSpline
210
0.0
220
0.0
230
1.0
 70
     8
 71
     3
 72
    53
 73
    49
 74
     0
 42
0.000000001
 43
0.00000001
 40
0.0
 40
0.0
 40
0.0
 40
0.0
 40
0.0116331488810487
 40
0.0337204483555982
 40
0.0558071123570088
 40
0.0778917620381617
 40
0.0999740935787728
 40
0.122053964490879
 40
0.1441313539842603
 40
0.1662063316283347
 40
0.1882790330055161
 40
0.2103496411332699
 40
0.232418372524987
 40
0.2544854669089084
 40
0.276551179786019
 40
0.2986157771593814
 40
0.3206795318986961
 40
0.3427427213116169
 40
0.3648056255779499
 40
0.3868685267658895
 40
0.4089316468523436
 40
0.4309952369628348
 40
0.4530595816369402
 40
0.4751249650669687
 40
0.4971916699367442
 40
0.5192599755897729
 40
0.5413301552152135
 40
0.5634024716739509
 40
0.5854771714915132
 40
0.607554476424652
 40
0.629634571863554
 40
0.6517175911670644
 40
0.6738035948560815
 40
0.6958925434383306
 40
0.7179842625578452
 40
0.7400783992446354
 40
0.762174368430526
 40
0.7842712665367302
 40
0.8063673667380108
 40
0.8284608233381778
 40
0.8505492653066202
 40
0.8726297626154357
 40
0.894698846938994
 40
0.9167526186197061
 40
0.9387869732039381
 40
0.9607979714947509
 40
0.9827823516187792
 40
1.0
 40
1.0
 40
1.0
 40
1.0
 10
-0.8633416012007232
 20
-0.6249107818800098
 30
0.0
 10
-0.855995132837579
 20
-0.6290876514829528
 30
0.0
 10
-0.834700278833003
 20
-0.6411949422237736
 30
0.0
 10
-0.7979812654669931
 20
-0.6603278174945043
 30
0.0
 10
-0.7526677228806757
 20
-0.6818614703728338
 30
0.0
 10
-0.7056143323279206
 20
-0.702090470111307
 30
0.0
 10
-0.6569640008509521
 20
-0.720989673334762
 30
0.0
 10
-0.6068187801771902
 20
-0.7385122453424386
 30
0.0
 10
-0.5552955880990277
 20
-0.7546210973670031
 30
0.0
 10
-0.5025111671503782
 20
-0.769280463990823
 30
0.0
 10
-0.4485858275843606
 20
-0.7824582401617873
 30
0.0
 10
-0.3936421425038372
 20
-0.7941254371058235
 30
0.0
 10
-0.3378049805714485
 20
-0.8042564082036879
 30
0.0
 10
-0.2812011668290902
 20
-0.8128288639960636
 30
0.0
 10
-0.2239592311366728
 20
-0.819823936975699
 30
0.0
 10
-0.1662091227983221
 20
-0.8252262247132561
 30
0.0
 10
-0.1080819256264449
 20
-0.8290238292404878
 30
0.0
 10
-0.0497095659687456
 20
-0.8312083869873773
 30
0.0
 10
0.0087754826259078
 20
-0.8317750901503269
 30
0.0
 10
0.0672404433128637
 20
-0.8307226997751157
 30
0.0
 10
0.1255525610683893
 20
-0.8280535555925493
 30
0.0
 10
0.1835794338899184
 20
-0.8237735714265015
 30
0.0
 10
0.2411893664470928
 20
-0.8178922109293578
 30
0.0
 10
0.2982516410011146
 20
-0.8104224575676096
 30
0.0
 10
0.3546367811708646
 20
-0.8013807805627668
 30
0.0
 10
0.4102168400448409
 20
-0.7907870903807935
 30
0.0
 10
0.4648656822032527
 20
-0.7786646854851452
 30
0.0
 10
0.5184592582279488
 20
-0.7650401909205762
 30
0.0
 10
0.5708758702247797
 20
-0.749943489533856
 30
0.0
 10
0.6219964268340507
 20
-0.7334076469532846
 30
0.0
 10
0.6717046861976548
 20
-0.7154688318618972
 30
0.0
 10
0.7198874854180508
 20
-0.6961662336291726
 30
0.0
 10
0.7664349552663868
 20
-0.6755419800306932
 30
0.0
 10
0.8112407192851717
 20
-0.6536410585733305
 30
0.0
 10
0.8542020773984589
 20
-0.6305112458624474
 30
0.0
 10
0.8952201747667262
 20
-0.6062030502509319
 30
0.0
 10
0.9342001474463457
 20
-0.5807696830000701
 30
0.0
 10
0.9710510209903044
 20
-0.5542672300244256
 30
0.0
 10
1.005686142348028
 20
-0.5267545793624058
 30
0.0
 10
1.038023332952889
 20
-0.4982934676203208
 30
0.0
 10
1.067985566230302
 20
-0.4689483863159216
 30
0.0
 10
1.095500175566277
 20
-0.4387866830741494
 30
0.0
 10
1.120502633284253
 20
-0.4078790309138036
 30
0.0
 10
1.142924408834559
 20
-0.3762978303197692
 30
0.0
 10
1.162740605457663
 20
-0.3441228966054249
 30
0.0
 10
1.179795112476482
 20
-0.3114192870455156
 30
0.0
 10
1.193401614639581
 20
-0.2806960690713994
 30
0.0
 10
1.200033431703404
 20
-0.2607301258892101
 30
0.0
 10
1.202946145628862
 20
-0.251961023819292
 30
0.0
  0
SPLINE
  5
228
330
218
100
AcDbEntity
  8
0
  6
Continuous
 62
     7
370
    25
100
AcDbSpline
210
0.0
220
0.0
230
1.0
 70
     8
 71
     3
 72
    11
 73
     7
 74
     0
 42
0.000000001
 43
0.00000001
 40
0.0
 40
0.0
 40
0.0
 40
0.0
 40
0.0944864306511017
 40
0.4200912679057435
 40
0.7453023472876447
 40
1.0
 40
1.0
 40
1.0
 40
1.0
 10
-1.156553138454442
 20
0.1428231514252021
 30
0.0
 10
-1.158491366333221
 20
0.1397204467958135
 30
0.0
 10
-1.167108821786617
 20
0.125925671051666
 30
0.0
 10
-1.17966971728566
 20
0.100872693914892
 30
0.0
 10
-1.193425159002125
 20
0.0701821248459566
 30
0.0
 10
-1.20004061675961
 20
0.0502125955560108
 30
0.0
 10
-1.202946145628549
 20
0.041441918457303
 30
0.0
  0
SPLINE
  5
22A
330
218
100
AcDbEntity
  8
0
  6
Continuous
 62
     7
370
    25
100
AcDbSpline
210
0.0
220
0.0
230
1.0
 70
     8
 71
     3
 72
    21
 73
    17
 74
     0
 42
0.000000001
 43
0.00000001
 40
0.0
 40
0.0
 40
0.0
 40
0.0
 40
0.0255066434067114
 40
0.1051751171690128
 40
0.1849410650931681
 40
0.2648082608375082
 40
0.3447729344766833
 40
0.4248257632553933
 40
0.5049540588894205
 40
0.5851437406029487
 40
0.6653808629970358
 40
0.7456526346045106
 40
0.8259479770333268
 40
0.9062577298344364
 40
0.9823653840850837
 40
0.9999999999999999
 40
0.9999999999999999
 40
0.9999999999999999
 40
0.9999999999999999
 10
-1.201882440674699
 20
-0.2550000314165426
 30
0.0
 10
-1.200781301222431
 20
-0.2585826822673552
 30
0.0
 10
-1.196240818609134
 20
-0.2733555285804352
 30
0.0
 10
-1.185472144764567
 20
-0.2989762093639137
 30
0.0
 10
-1.169572963431475
 20
-0.3317710181525444
 30
0.0
 10
-1.150799125782122
 20
-0.3640614683093122
 30
0.0
 10
-1.129439157031555
 20
-0.3958025600601748
 30
0.0
 10
-1.1054736595692
 20
-0.4269112966069484
 30
0.0
 10
-1.078975194559518
 20
-0.4573159734803935
 30
0.0
 10
-1.050000486526752
 20
-0.486943762391824
 30
0.0
 10
-1.018619317038783
 20
-0.5157250933418074
 30
0.0
 10
-0.9849042255162187
 20
-0.5435917939093539
 30
0.0
 10
-0.9489397311975947
 20
-0.5704823807022791
 30
0.0
 10
-0.9114592565221245
 20
-0.5958725954090404
 30
0.0
 10
-0.8824772184463614
 20
-0.6137903457070895
 30
0.0
 10
-0.8663713973487127
 20
-0.6231500519151397
 30
0.0
 10
-0.8633416012007236
 20
-0.6249107818800095
 30
0.0
  0
SPLINE
  5
22C
330
218
100
AcDbEntity
  8
0
  6
Continuous
 62
     7
370
    25
100
AcDbSpline
210
0.0
220
0.0
230
1.0
 70
     8
 71
     3
 72
    55
 73
    51
 74
     0
 42
0.000000001
 43
0.00000001
 40
0.0
 40
0.0
 40
0.0
 40
0.0
 40
0.0112423824941801
 40
0.0325730737813751
 40
0.0539018223650653
 40
0.0752273997476168
 40
0.0965493044955794
 40
0.1178672969001677
 40
0.1391813351024212
 40
0.1604915243187503
 40
0.181798077317834
 40
0.2031012842227267
 40
0.2244014898325364
 40
0.2456990768837776
 40
0.2669944539258212
 40
0.2882880467272642
 40
0.3095802923417117
 40
0.3308716351361514
 40
0.3521625242224537
 40
0.3734534118352465
 40
0.3947446532685135
 40
0.4160366518718776
 40
0.4373298639259953
 40
0.458624745111492
 40
0.4799217485977633
 40
0.5012213220400697
 40
0.5225239029778908
 40
0.5438299120191247
 40
0.5651397430393524
 40
0.5864537494302381
 40
0.6077722251972227
 40
0.6290953794423372
 40
0.6504233024963958
 40
0.6717559217343954
 40
0.6930929450095251
 40
0.7144337898304473
 40
0.7357774971333209
 40
0.7571225495102806
 40
0.7784661830539924
 40
0.7998054114259708
 40
0.8211364158163619
 40
0.8424545035839374
 40
0.8637541591557741
 40
0.8850292364877155
 40
0.9062733409113809
 40
0.9274804284250029
 40
0.9486456062330523
 40
0.9697660513375631
 40
0.9908418899260427
 40
1.0
 40
1.0
 40
1.0
 40
1.0
 10
-0.865886346639916
 20
-1.122030495129482
 30
0.0
 10
-0.8584962140134579
 20
-1.126232139205152
 30
0.0
 10
-0.8370844416048614
 20
-1.138405756545669
 30
0.0
 10
-0.8001791746263389
 20
-1.157634499694993
 30
0.0
 10
-0.754656730231094
 20
-1.179265776720299
 30
0.0
 10
-0.7074017264034222
 20
-1.199579296697432
 30
0.0
 10
-0.6585570203343754
 20
-1.218551396944397
 30
0.0
 10
-0.6082248010036059
 20
-1.236136224393762
 30
0.0
 10
-0.5565219052561213
 20
-1.252297722758807
 30
0.0
 10
-0.5035648421323523
 20
-1.267001072709062
 30
0.0
 10
-0.4494735547492217
 20
-1.280215044676353
 30
0.0
 10
-0.3943701429476864
 20
-1.291911437593873
 30
0.0
 10
-0.3383789164166401
 20
-1.302065301933335
 30
0.0
 10
-0.2816260734450334
 20
-1.310654951905275
 30
0.0
 10
-0.2242394639828642
 20
-1.31766202993322
 30
0.0
 10
-0.1663483163709281
 20
-1.32307155027351
 30
0.0
 10
-0.1080829623582709
 20
-1.326871939390304
 30
0.0
 10
-0.0495745534018658
 20
-1.329055066912708
 30
0.0
 10
0.0090452276593414
 20
-1.32961626778169
 30
0.0
 10
0.0676443677506103
 20
-1.328554356337949
 30
0.0
 10
0.1260908613733767
 20
-1.325871640679022
 30
0.0
 10
0.1842530568336879
 20
-1.321573918588335
 30
0.0
 10
0.2420000415535895
 20
-1.315670446328313
 30
0.0
 10
0.2992018888599448
 20
-1.30817390372184
 30
0.0
 10
0.355729896070935
 20
-1.29910035798504
 30
0.0
 10
0.4114568644455636
 20
-1.288469215759446
 30
0.0
 10
0.466257371342044
 20
-1.276303166132794
 30
0.0
 10
0.5200080326555536
 20
-1.262628115541023
 30
0.0
 10
0.5725877535089516
 20
-1.247473115838766
 30
0.0
 10
0.6238779650821328
 20
-1.230870287351482
 30
0.0
 10
0.6737628454479759
 20
-1.212854739413365
 30
0.0
 10
0.7221295224010792
 20
-1.193464491784536
 30
0.0
 10
0.7688682566285066
 20
-1.172740401452153
 30
0.0
 10
0.8138726043244998
 20
-1.15072610064417
 30
0.0
 10
0.8570395597438364
 20
-1.127467953362408
 30
0.0
 10
0.8982696803645914
 20
-1.103015039166207
 30
0.0
 10
0.937467151748794
 20
-1.077419206282935
 30
0.0
 10
0.9745395358477023
 20
-1.050735420196136
 30
0.0
 10
1.00939830922304
 20
-1.023021741795404
 30
0.0
 10
1.041959117131108
 20
-0.9943394900825128
 30
0.0
 10
1.072142382535088
 20
-0.9647531613660568
 30
0.0
 10
1.099873293511647
 20
-0.9343308496814073
 30
0.0
 10
1.125082836104166
 20
-0.90314444205585
 30
0.0
 10
1.147706765806964
 20
-0.871269510558304
 30
0.0
 10
1.167692969586242
 20
-0.8387855973359428
 30
0.0
 10
1.184978077641534
 20
-0.8057738493782731
 30
0.0
 10
1.199578546152989
 20
-0.7723229469366639
 30
0.0
 10
1.211255013416057
 20
-0.7385024515128882
 30
0.0
 10
1.218976863817665
 20
-0.7108509446928409
 30
0.0
 10
1.221784540171556
 20
-0.6944252173549519
 30
0.0
 10
1.222635008279049
 20
-0.6894497303391889
 30
0.0
  0
SPLINE
  5
230
330
218
100
AcDbEntity
  8
0
  6
Continuous
 62
     7
370
    25
100
AcDbSpline
210
0.0
220
0.0
230
1.0
 70
     8
 71
     3
 72
    23
 73
    19
 74
     0
 42
0.000000001
 43
0.00000001
 40
0.0
 40
0.0
 40
0.0
 40
0.0
 40
0.0052616482735409
 40
0.0742327047008264
 40
0.1432893203501617
 40
0.2124621679829096
 40
0.281770273793965
 40
0.351220710376977
 40
0.4208099461503513
 40
0.4905262927189747
 40
0.5603527910049217
 40
0.6302699635706476
 40
0.7002580588292578
 40
0.770298631767886
 40
0.8403754787948313
 40
0.9104750449585984
 40
0.9805864564834404
 40
1.0
 40
1.0
 40
1.0
 40
1.0
 10
-1.223476822084179
 20
-0.6862085613662656
 30
0.0
 10
-1.223353176168573
 20
-0.6870798041833255
 30
0.0
 10
-1.221608747376792
 20
-0.6993715248380065
 30
0.0
 10
-1.215645305471276
 20
-0.7229182955916122
 30
0.0
 10
-1.205396997661944
 20
-0.7567401537320622
 30
0.0
 10
-1.192105986910287
 20
-0.7902124446115666
 30
0.0
 10
-1.176179014290192
 20
-0.8232872735633555
 30
0.0
 10
-1.157543333432683
 20
-0.8558834603527082
 30
0.0
 10
-1.136264144449553
 20
-0.8879267976010281
 30
0.0
 10
-1.112379614512996
 20
-0.9193402848226384
 30
0.0
 10
-1.085945532452628
 20
-0.9500481183911564
 30
0.0
 10
-1.057022842987563
 20
-0.9799758399845037
 30
0.0
 10
-1.025680879676065
 20
-1.009051783641669
 30
0.0
 10
-0.9919933701778786
 20
-1.03720602589637
 30
0.0
 10
-0.9560468751802108
 20
-1.064376515361879
 30
0.0
 10
-0.917906716105089
 20
-1.09048750498452
 30
0.0
 10
-0.8874234392125309
 20
-1.109493606765768
 30
0.0
 10
-0.8697243955336795
 20
-1.119796340711779
 30
0.0
 10
-0.865886346639916
 20
-1.122030495129482
 30
0.0
  0
LWPOLYLINE
  5
236
330
218
100
AcDbEntity
  8
0
  6
Continuous
 62
     7
370
    25
100
AcDbPolyline
 90
       63
 70
   128
 43
0.0
 10
-0.8725372489
 20
-0.0669754112
 10
-0.8272240671
 20
-0.0918411506
 10
-0.7797874131
 20
-0.1153500564
 10
-0.7303490559
 20
-0.1374417816
 10
-0.6790359032
 20
-0.1580596171
 10
-0.6259796751
 20
-0.1771506371
 10
-0.5713165661
 20
-0.1946658353
 10
-0.5151868957
 20
-0.2105602504
 10
-0.4577347479
 20
-0.2247930817
 10
-0.3991076016
 20
-0.2373277937
 10
-0.3394559517
 20
-0.24813221
 10
-0.2789329234
 20
-0.2571785958
 10
-0.2176938782
 20
-0.2644437292
 10
-0.155896016
 20
-0.2699089606
 10
-0.0936979709
 20
-0.2735602609
 10
-0.0312594044
 20
-0.2753882573
 10
0.0312594044
 20
-0.2753882573
 10
0.0936979709
 20
-0.2735602609
 10
0.155896016
 20
-0.2699089606
 10
0.2176938782
 20
-0.2644437292
 10
0.2789329234
 20
-0.2571785958
 10
0.3394559517
 20
-0.24813221
 10
0.3991076016
 20
-0.2373277937
 10
0.4577347479
 20
-0.2247930817
 10
0.5151868957
 20
-0.2105602504
 10
0.5713165661
 20
-0.1946658353
 10
0.6259796751
 20
-0.1771506371
 10
0.6790359032
 20
-0.1580596171
 10
0.7303490559
 20
-0.1374417816
 10
0.7797874131
 20
-0.1153500564
 10
0.8272240671
 20
-0.0918411506
 10
0.8725372489
 20
-0.0669754112
 10
0.91561064
 20
-0.0408166681
 10
0.9563336717
 20
-0.0134320707
 10
0.9946018087
 20
0.0151080854
 10
1.030316817
 20
0.044730538
 10
1.0633870169
 20
0.0753592465
 10
1.0937275175
 20
0.1069155876
 10
1.1212604353
 20
0.1393185566
 10
1.1459150937
 20
0.1724849756
 10
1.1676282044
 20
0.2063297068
 10
1.1863440303
 20
0.2407658712
 10
1.202014528
 20
0.2757050718
 10
1.2145994717
 20
0.3110576201
 10
1.224066556
 20
0.3467327666
 10
1.230391479
 20
0.3826389337
 10
1.2335580047
 20
0.4186839509
 10
1.2335580047
 20
0.454775291
 10
1.230391479
 20
0.4908203082
 10
1.224066556
 20
0.5267264753
 10
1.2145994717
 20
0.5624016218
 10
1.202014528
 20
0.5977541701
 10
1.1863440303
 20
0.6326933707
 10
1.1676282044
 20
0.6671295351
 10
1.1459150937
 20
0.7009742663
 10
1.1212604353
 20
0.7341406852
 10
1.0937275175
 20
0.7665436543
 10
1.0633870169
 20
0.7980999954
 10
1.030316817
 20
0.8287287039
 10
0.9946018087
 20
0.8583511565
 10
0.9563336717
 20
0.8868913125
 10
0.91561064
 20
0.91427591
 10
0.8725372489
 20
0.940434653
  0
LWPOLYLINE
  5
242
330
218
100
AcDbEntity
  8
0
  6
Continuous
 62
     7
370
    25
100
AcDbPolyline
 90
        3
 70
   128
 43
0.0
 10
-0.5241225592
 20
-0.2511008917
 10
-0.513355722
 20
-0.2584072449
 10
-0.481612099
 20
-0.2780287467
  0
LWPOLYLINE
  5
248
330
218
100
AcDbEntity
  8
0
  6
Continuous
 62
     7
370
    25
100
AcDbPolyline
 90
       35
 70
   128
 43
0.0
 10
0.7285527082
 20
-0.1811469787
 10
0.7240048822
 20
-0.1956527046
 10
0.713035797
 20
-0.2228105359
 10
0.699013383
 20
-0.2494960667
 10
0.6819976864
 20
-0.2755950256
 10
0.662061571
 20
-0.3009956528
 10
0.6392904063
 20
-0.3255891788
 10
0.613781702
 20
-0.3492702906
 10
0.5856446902
 20
-0.3719375818
 10
0.5549998579
 20
-0.3934939877
 10
0.521978431
 20
-0.4138472004
 10
0.4867218123
 20
-0.4329100644
 10
0.4493809761
 20
-0.4506009495
 10
0.4101158216
 20
-0.4668441007
 10
0.3690944882
 20
-0.4815699622
 10
0.3264926355
 20
-0.4947154758
 10
0.2824926912
 20
-0.5062243502
 10
0.2372830699
 20
-0.5160473028
 10
0.191057366
 20
-0.5241422701
 10
0.1440135251
 20
-0.5304745882
 10
0.0963529962
 20
-0.5350171412
 10
0.048279869
 20
-0.5377504771
 10
0.0
 20
-0.5386628915
 10
-0.048279869
 20
-0.5377504771
 10
-0.0963529962
 20
-0.5350171412
 10
-0.1440135251
 20
-0.5304745882
 10
-0.191057366
 20
-0.5241422701
 10
-0.2372830699
 20
-0.5160473028
 10
-0.2824926912
 20
-0.5062243502
 10
-0.3264926355
 20
-0.4947154758
 10
-0.3690944882
 20
-0.4815699622
 10
-0.4101158216
 20
-0.4668441007
 10
-0.4493809761
 20
-0.4506009495
 10
-0.4867218123
 20
-0.4329100644
 10
-0.521978431
 20
-0.4138472004
  0
LWPOLYLINE
  5
251
330
218
100
AcDbEntity
  8
0
  6
Continuous
 62
     7
370
    25
100
AcDbPolyline
 90
        3
 70
   128
 43
0.0
 10
0.2981591094
 20
-0.4869086302
 10
0.2893854034
 20
-0.4845209983
 10
0.2755905512
 20
-0.4809408314
  0
LWPOLYLINE
  5
252
330
218
100
AcDbEntity
  8
0
  6
Continuous
 62
     7
370
    25
100
AcDbPolyline
 90
        3
 70
   128
 43
0.0
 10
-0.2755905512
 20
-0.4809408314
 10
-0.3122614463
 20
-0.4909316344
 10
-0.3256269511
 20
-0.4949615188
  0
LWPOLYLINE
  5
255
330
218
100
AcDbEntity
  8
0
  6
Continuous
 62
     7
370
    25
100
AcDbPolyline
 90
       53
 70
   128
 43
0.0
 10
1.1976251262
 20
-0.2713518626
 10
1.1984696703
 20
-0.2734385547
 10
1.2110174998
 20
-0.3086868449
 10
1.2204566647
 20
-0.3442567819
 10
1.2267629349
 20
-0.3800570583
 10
1.2299201222
 20
-0.4159957752
 10
1.2299201222
 20
-0.4519806784
 10
1.2267629349
 20
-0.4879193953
 10
1.2204566647
 20
-0.5237196717
 10
1.2110174998
 20
-0.5592896087
 10
1.1984696703
 20
-0.5945378989
 10
1.1828453863
 20
-0.6293740604
 10
1.1641847553
 20
-0.6637086692
 10
1.1425356786
 20
-0.697453589
 10
1.1179537293
 20
-0.7305221969
 10
1.0905020087
 20
-0.7628296064
 10
1.0602509852
 20
-0.7942928848
 10
1.0272783125
 20
-0.8248312664
 10
0.9916686312
 20
-0.8543663594
 10
0.9535133507
 20
-0.8828223478
 10
0.9129104152
 20
-0.9101261854
 10
0.8699640517
 20
-0.9362077838
 10
0.8247845029
 20
-0.9610001917
 10
0.7774877442
 20
-0.9844397675
 10
0.7281951855
 20
-1.0064663421
 10
0.6770333603
 20
-1.0270233735
 10
0.6241336001
 20
-1.0460580923
 10
0.569631698
 20
-1.0635216364
 10
0.5136675594
 20
-1.0793691774
 10
0.4563848436
 20
-1.0935600347
 10
0.3979305944
 20
-1.1060577806
 10
0.3384548631
 20
-1.1168303336
 10
0.2781103231
 20
-1.1258500407
 10
0.2170518778
 20
-1.1330937485
 10
0.1554362634
 20
-1.1385428624
 10
0.0934216464
 20
-1.1421833947
 10
0.0311672174
 20
-1.1440060002
 10
-0.0311672174
 20
-1.1440060002
 10
-0.0934216464
 20
-1.1421833947
 10
-0.1554362634
 20
-1.1385428624
 10
-0.2170518778
 20
-1.1330937485
 10
-0.2781103231
 20
-1.1258500407
 10
-0.3384548631
 20
-1.1168303336
 10
-0.3979305944
 20
-1.1060577806
 10
-0.4563848436
 20
-1.0935600347
 10
-0.5136675594
 20
-1.0793691774
 10
-0.569631698
 20
-1.0635216364
 10
-0.6241336001
 20
-1.0460580923
 10
-0.6770333603
 20
-1.0270233735
 10
-0.7281951855
 20
-1.0064663421
 10
-0.7774877442
 20
-0.9844397675
 10
-0.8247845029
 20
-0.9610001917
 10
-0.8699640517
 20
-0.9362077838
  0
LWPOLYLINE
  5
256
330
218
100
AcDbEntity
  8
0
  6
Continuous
 62
     7
370
    25
100
AcDbPolyline
 90
       46
 70
   128
 43
0.0
 10
1.1672571747
 20
-0.4737872746
 10
1.1645454787
 20
-0.4947436445
 10
1.157583624
 20
-0.529271112
 10
1.1475520656
 20
-0.5635459065
 10
1.1344774055
 20
-0.5974771372
 10
1.1183943152
 20
-0.6309748248
 10
1.0993454442
 20
-0.6639501393
 10
1.0773813067
 20
-0.6963156362
 10
1.0525601477
 20
-0.7279854879
 10
1.0249477884
 20
-0.7588757118
 10
0.9946174518
 20
-0.7889043924
 10
0.9616495686
 20
-0.8179918992
 10
0.9261315635
 20
-0.8460610973
 10
0.8881576241
 20
-0.8730375522
 10
0.8478284503
 20
-0.8988497272
 10
0.8052509878
 20
-0.9234291731
 10
0.7605381445
 20
-0.9467107096
 10
0.7138084908
 20
-0.9686325982
 10
0.6651859452
 20
-0.9891367061
 10
0.6147994461
 20
-1.00816866
 10
0.5627826094
 20
-1.0256779906
 10
0.5092733744
 20
-1.0416182663
 10
0.454413638
 20
-1.0559472164
 10
0.3983488783
 20
-1.0686268431
 10
0.3412277689
 20
-1.0796235222
 10
0.2832017849
 20
-1.0889080926
 10
0.2244248006
 20
-1.0964559333
 10
0.1650526821
 20
-1.1022470286
 10
0.1052428736
 20
-1.1062660218
 10
0.0451539799
 20
-1.1085022551
 10
-0.015054654
 20
-1.1089497985
 10
-0.0752233658
 20
-1.1076074651
 10
-0.1351925986
 20
-1.1044788146
 10
-0.194803325
 20
-1.0995721436
 10
-0.253897468
 20
-1.0929004637
 10
-0.3123183206
 20
-1.084481467
 10
-0.3699109611
 20
-1.0743374792
 10
-0.4265226642
 20
-1.0624954003
 10
-0.482003306
 20
-1.0489866333
 10
-0.5362057616
 20
-1.0338470011
 10
-0.5889862959
 20
-1.0171166513
 10
-0.6402049444
 20
-0.9988399497
 10
-0.6897258845
 20
-0.9790653629
 10
-0.7374177956
 20
-0.9578453295
 10
-0.7831542072
 20
-0.9352361213
 10
-0.8268138347
 20
-0.9112976937
  0
LWPOLYLINE
  5
257
330
218
100
AcDbEntity
  8
0
  6
Continuous
 62
     7
370
    25
100
AcDbPolyline
 90
       16
 70
   128
 43
0.0
 10
-0.8268138347
 20
-0.9112976937
 10
-0.8682809005
 20
-0.8860935273
 10
-0.9074454415
 20
-0.8596904589
 10
-0.9442036002
 20
-0.8321585046
 10
-0.9784579008
 20
-0.8035706744
 10
-1.0101175069
 20
-0.774002778
 10
-1.039098463
 20
-0.7435332241
 10
-1.0653239167
 20
-0.7122428125
 10
-1.0887243229
 20
-0.6802145198
 10
-1.109237628
 20
-0.6475332792
 10
-1.1268094343
 20
-0.6142857555
 10
-1.1413931445
 20
-0.5805601152
 10
-1.1529500852
 20
-0.5464457926
 10
-1.1614496097
 20
-0.5120332527
 10
-1.1668691785
 20
-0.4774137515
 10
-1.1672571747
 20
-0.4737872746
  0
LWPOLYLINE
  5
258
330
218
100
AcDbEntity
  8
0
  6
Continuous
 62
     7
370
    25
100
AcDbPolyline
 90
       22
 70
   128
 43
0.0
 10
-1.1973363742
 20
-0.2706448658
 10
-1.1984696703
 20
-0.2734385547
 10
-1.2110174998
 20
-0.3086868449
 10
-1.2204566647
 20
-0.3442567819
 10
-1.2267629349
 20
-0.3800570583
 10
-1.2299201222
 20
-0.4159957752
 10
-1.2299201222
 20
-0.4519806784
 10
-1.2267629349
 20
-0.4879193953
 10
-1.2204566647
 20
-0.5237196717
 10
-1.2110174998
 20
-0.5592896087
 10
-1.1984696703
 20
-0.5945378989
 10
-1.1828453863
 20
-0.6293740604
 10
-1.1641847553
 20
-0.6637086692
 10
-1.1425356786
 20
-0.697453589
 10
-1.1179537293
 20
-0.7305221969
 10
-1.0905020087
 20
-0.7628296064
 10
-1.0602509852
 20
-0.7942928848
 10
-1.0272783125
 20
-0.8248312664
 10
-0.9916686312
 20
-0.8543663594
 10
-0.9535133507
 20
-0.8828223478
 10
-0.9129104152
 20
-0.9101261854
 10
-0.8699640517
 20
-0.9362077838
  0
LWPOLYLINE
  5
259
330
218
100
AcDbEntity
  8
0
  6
Continuous
 62
     7
370
    25
100
AcDbPolyline
 90
       43
 70
   128
 43
0.0
 10
-0.6959712413
 20
-1.5590775837
 10
-0.6558529311
 20
-1.5809732564
 10
-0.6136710648
 20
-1.6015359024
 10
-0.5695583624
 20
-1.620700824
 10
-0.5236536186
 20
-1.6384077213
 10
-0.4761012668
 20
-1.6546008818
 10
-0.4270509243
 20
-1.6692293558
 10
-0.3766569216
 20
-1.6822471168
 10
-0.3250778169
 20
-1.693613206
 10
-0.2724758971
 20
-1.7032918616
 10
-0.2190166673
 20
-1.7112526309
 10
-0.16486833
 20
-1.7174704663
 10
-0.110201256
 20
-1.7219258044
 10
-0.0551874481
 20
-1.7246046268
 10
0.0
 20
-1.7254985051
 10
0.0551874481
 20
-1.7246046268
 10
0.110201256
 20
-1.7219258044
 10
0.16486833
 20
-1.7174704663
 10
0.2190166673
 20
-1.7112526309
 10
0.2724758971
 20
-1.7032918616
 10
0.3250778169
 20
-1.693613206
 10
0.3766569216
 20
-1.6822471168
 10
0.4270509243
 20
-1.6692293558
 10
0.4761012668
 20
-1.6546008818
 10
0.5236536186
 20
-1.6384077213
 10
0.5695583624
 20
-1.620700824
 10
0.6136710648
 20
-1.6015359024
 10
0.6558529311
 20
-1.5809732564
 10
0.6959712413
 20
-1.5590775837
 10
0.7338997686
 20
-1.5359177761
 10
0.7695191757
 20
-1.5115667031
 10
0.8027173907
 20
-1.486100982
 10
0.8333899599
 20
-1.4596007375
 10
0.8614403759
 20
-1.4321493492
 10
0.8867803818
 20
-1.4038331892
 10
0.9093302485
 20
-1.3747413506
 10
0.9290190259
 20
-1.3449653673
 10
0.9457847657
 20
-1.3145989253
 10
0.9595747167
 20
-1.2837375689
 10
0.9703454907
 20
-1.2524783991
 10
0.9780631987
 20
-1.2209197691
 10
0.9827035581
 20
-1.1891609737
 10
0.9842519685
 20
-1.1573019381
  0
LWPOLYLINE
  5
25D
330
218
100
AcDbEntity
  8
0
  6
Continuous
 62
     7
370
    25
100
AcDbPolyline
 90
       15
 70
   128
 43
0.0
 10
-0.9842519685
 20
-1.1573019381
 10
-0.9827035581
 20
-1.1891609737
 10
-0.9780631987
 20
-1.2209197691
 10
-0.9703454907
 20
-1.2524783991
 10
-0.9595747167
 20
-1.2837375689
 10
-0.9457847657
 20
-1.3145989253
 10
-0.9290190259
 20
-1.3449653673
 10
-0.9093302485
 20
-1.3747413506
 10
-0.8867803818
 20
-1.4038331892
 10
-0.8614403759
 20
-1.4321493492
 10
-0.8333899599
 20
-1.4596007375
 10
-0.8027173907
 20
-1.486100982
 10
-0.7695191757
 20
-1.5115667031
 10
-0.7338997686
 20
-1.5359177761
 10
-0.6959712413
 20
-1.5590775837
  0
SPLINE
  5
25E
330
218
100
AcDbEntity
  8
0
  6
Continuous
 62
     7
370
    25
100
AcDbSpline
210
0.0
220
0.0
230
1.0
 70
     8
 71
     3
 72
    19
 73
    15
 74
     0
 42
0.000000001
 43
0.00000001
 40
0.0
 40
0.0
 40
0.0
 40
0.0
 40
0.0631895000641184
 40
0.1555792692252252
 40
0.247969038386332
 40
0.3403588075474389
 40
0.432748576708544
 40
0.5251383458696507
 40
0.6175281150307576
 40
0.7099178841918644
 40
0.8023076533529704
 40
0.8946974225140772
 40
0.9870871916751839
 40
1.0
 40
1.0
 40
1.0
 40
1.0
 10
-0.4979026605696973
 20
-1.652991709492068
 30
0.0
 10
-0.4834011588349794
 20
-1.659195843843218
 30
0.0
 10
-0.4476969193605978
 20
-1.674471082412089
 30
0.0
 10
-0.3856049592295713
 20
-1.694532752120111
 30
0.0
 10
-0.3131578034523255
 20
-1.713455551154261
 30
0.0
 10
-0.2375152966246785
 20
-1.728038563284977
 30
0.0
 10
-0.1596330698198709
 20
-1.738305575233298
 30
0.0
 10
-0.0802022308284576
 20
-1.744099007247764
 30
0.0
 10
0.0000036478175256
 20
-1.745375598346467
 30
0.0
 10
0.0801876395583344
 20
-1.742073576111186
 30
0.0
 10
0.1596841392652713
 20
-1.734352071257682
 30
0.0
 10
0.23732561011316
 20
-1.721767553280152
 30
0.0
 10
0.2919180418576754
 20
-1.710754796248365
 30
0.0
 10
0.3193860399855558
 20
-1.702768714978389
 30
0.0
 10
0.3227543240614053
 20
-1.701789415713664
 30
0.0
  0
SPLINE
  5
25F
330
218
100
AcDbEntity
  8
0
  6
Continuous
 62
     7
370
    25
100
AcDbSpline
210
0.0
220
0.0
230
1.0
 70
     8
 71
     3
 72
    25
 73
    21
 74
     0
 42
0.000000001
 43
0.00000001
 40
0.0
 40
0.0
 40
0.0
 40
0.0
 40
0.0459359758249621
 40
0.1020573890117295
 40
0.1581788021984963
 40
0.2143002153852636
 40
0.2704216285720305
 40
0.3265430417587979
 40
0.3826644549455647
 40
0.4387858681323316
 40
0.4949072813190989
 40
0.5510286945058662
 40
0.6071501076926331
 40
0.6632715208794003
 40
0.7193929340661667
 40
0.7755143472529341
 40
0.8316357604397009
 40
0.8877571736264683
 40
0.9438785868132352
 40
1.0
 40
1.0
 40
1.0
 40
1.0
 10
0.670584366344572
 20
-1.573737889145842
 30
0.0
 10
0.6578780312241214
 20
-1.58430110921769
 30
0.0
 10
0.6296479705143515
 20
-1.607769744437218
 30
0.0
 10
0.5784686532769568
 20
-1.640772074233459
 30
0.0
 10
0.5191186634875434
 20
-1.672967106276089
 30
0.0
 10
0.4545828297167042
 20
-1.701569455682926
 30
0.0
 10
0.3857190731944578
 20
-1.726409781505942
 30
0.0
 10
0.313127245018699
 20
-1.747232691421057
 30
0.0
 10
0.2375234163942532
 20
-1.763854248959999
 30
0.0
 10
0.1596311491751517
 20
-1.776122196916381
 30
0.0
 10
0.0802017936377123
 20
-1.783928568012314
 30
0.0
 10
0.000000021590126
 20
-1.787207695299022
 30
0.0
 10
-0.080201879998244
 20
-1.785937817752182
 30
0.0
 10
-0.1596308469133312
 20
-1.780140426478841
 30
0.0
 10
-0.2375245390810557
 20
-1.769882538014148
 30
0.0
 10
-0.3131230565333604
 20
-1.755266991207796
 30
0.0
 10
-0.3857347044490569
 20
-1.736465207392568
 30
0.0
 10
-0.4545244931836919
 20
-1.713589594959347
 30
0.0
 10
-0.5193363783650353
 20
-1.687162494415376
 30
0.0
 10
-0.5582162129883687
 20
-1.666625486174071
 30
0.0
 10
-0.5776561303000349
 20
-1.656356982053419
 30
0.0
  0
SPLINE
  5
260
330
218
100
AcDbEntity
  8
0
  6
Continuous
 62
     7
370
    25
100
AcDbSpline
210
0.0
220
0.0
230
1.0
 70
     8
 71
     3
 72
    11
 73
     7
 74
     0
 42
0.000000001
 43
0.00000001
 40
0.0
 40
0.0
 40
0.0
 40
0.0
 40
0.3062907028974631
 40
0.612581405794926
 40
0.9188721086923892
 40
1.0
 40
1.0
 40
1.0
 40
1.0
 10
-0.577656130300035
 20
-1.656356982053419
 30
0.0
 10
-0.5960525466108026
 20
-1.645477554851438
 30
0.0
 10
-0.632845379232338
 20
-1.623718700447476
 30
0.0
 10
-0.6799309135446646
 20
-1.587186237006164
 30
0.0
 10
-0.7124020497376109
 20
-1.55831406453849
 30
0.0
 10
-0.7265777086348304
 20
-1.541016017208216
 30
0.0
 10
-0.7295461808027375
 20
-1.537393697256011
 30
0.0
  0
SPLINE
  5
261
330
218
100
AcDbEntity
  8
0
  6
Continuous
 62
     7
370
    25
100
AcDbSpline
210
0.0
220
0.0
230
1.0
 70
     8
 71
     3
 72
    29
 73
    25
 74
     0
 42
0.000000001
 43
0.00000001
 40
0.0
 40
0.0
 40
0.0
 40
0.0
 40
0.002186083533801
 40
0.0497010319369533
 40
0.0972159803401055
 40
0.1447309287432582
 40
0.1922458771464104
 40
0.2397608255495631
 40
0.2872757739527154
 40
0.334790722355868
 40
0.3823056707590203
 40
0.429820619162173
 40
0.4773355675653252
 40
0.5248505159684775
 40
0.5723654643716302
 40
0.6198804127747829
 40
0.6673953611779351
 40
0.7149103095810878
 40
0.7624252579842397
 40
0.8099402063873923
 40
0.8574551547905446
 40
0.9049701031936972
 40
0.9524850515968495
 40
1.0
 40
1.0
 40
1.0
 40
1.0
 10
0.7826486649131004
 20
-1.500868550584881
 30
0.0
 10
0.7823522357882098
 20
-1.501572830933238
 30
0.0
 10
0.7756128623034247
 20
-1.517584780863341
 30
0.0
 10
0.7554160154672165
 20
-1.547767143513052
 30
0.0
 10
0.7217705360478789
 20
-1.590782245084617
 30
0.0
 10
0.6803048880329977
 20
-1.631518812893684
 30
0.0
 10
0.6325204130668459
 20
-1.669763970368979
 30
0.0
 10
0.5785820204736501
 20
-1.705113582486278
 30
0.0
 10
0.5190882868387413
 20
-1.73724907653481
 30
0.0
 10
0.4545909691152193
 20
-1.765867379099084
 30
0.0
 10
0.3857168922491988
 20
-1.790703430286448
 30
0.0
 10
0.3131278294012198
 20
-1.811527485586734
 30
0.0
 10
0.2375232598094287
 20
-1.828148736220645
 30
0.0
 10
0.159631191131929
 20
-1.84041676641198
 30
0.0
 10
0.0802017823954277
 20
-1.848223115473125
 30
0.0
 10
0.0000000246024873
 20
-1.851502248664037
 30
0.0
 10
-0.0802018808054041
 20
-1.850232369535171
 30
0.0
 10
-0.1596308466970533
 20
-1.844434978685733
 30
0.0
 10
-0.2375245391390069
 20
-1.834177090107455
 30
0.0
 10
-0.313123056517833
 20
-1.819561543331537
 30
0.0
 10
-0.3857347044532161
 20
-1.800759759508155
 30
0.0
 10
-0.4545244931825828
 20
-1.777884147077116
 30
0.0
 10
-0.5193363783653129
 20
-1.751457046532572
 30
0.0
 10
-0.5582162129884611
 20
-1.730920038291343
 30
0.0
 10
-0.5776561303000349
 20
-1.720651534170728
 30
0.0
  0
SPLINE
  5
262
330
218
100
AcDbEntity
  8
0
  6
Continuous
 62
     7
370
    25
100
AcDbSpline
210
0.0
220
0.0
230
1.0
 70
     8
 71
     3
 72
    13
 73
     9
 74
     0
 42
0.000000001
 43
0.00000001
 40
0.0
 40
0.0
 40
0.0
 40
0.0
 40
0.1672197142967724
 40
0.3344394285935448
 40
0.5016591428903173
 40
0.66887885718709
 40
0.8360985714838622
 40
1.0
 40
1.0
 40
1.0
 40
1.0
 10
-0.577656130300035
 20
-1.720651534170728
 30
0.0
 10
-0.5960242765850086
 20
-1.709764043832295
 30
0.0
 10
-0.6327605691549556
 20
-1.687989063155426
 30
0.0
 10
-0.6802701538541935
 20
-1.651577546760787
 30
0.0
 10
-0.7216693166750038
 20
-1.612874502048979
 30
0.0
 10
-0.7558556271375372
 20
-1.571946895529595
 30
0.0
 10
-0.7831907966885423
 20
-1.529644812744557
 30
0.0
 10
-0.7950000594950156
 20
-1.500505270020149
 30
0.0
 10
-0.8008455184326744
 20
-1.486081507652502
 30
0.0
  0
SPLINE
  5
263
330
218
100
AcDbEntity
  8
0
  6
Continuous
 62
     7
370
    25
100
AcDbSpline
210
0.0
220
0.0
230
1.0
 70
     8
 71
     3
 72
    30
 73
    26
 74
     0
 42
0.000000001
 43
0.00000001
 40
0.0
 40
0.0
 40
0.0
 40
0.0
 40
0.0416719077465219
 40
0.0852322755762257
 40
0.1287926434059292
 40
0.1723530112356327
 40
0.2159133790653365
 40
0.25947374689504
 40
0.3030341147247438
 40
0.3465944825544473
 40
0.3901548503841511
 40
0.4337152182138546
 40
0.4772755860435585
 40
0.5208359538732619
 40
0.5643963217029654
 40
0.6079566895326692
 40
0.6515170573623731
 40
0.6950774251920766
 40
0.7386377930217803
 40
0.7821981608514834
 40
0.8257585286811873
 40
0.8693188965108908
 40
0.9128792643405947
 40
0.9564396321702981
 40
1.0
 40
1.0
 40
1.0
 40
1.0
 10
0.8124854246538421
 20
-1.476619878171027
 30
0.0
 10
0.8092459812550247
 20
-1.491591086311207
 30
0.0
 10
0.8026202914939251
 20
-1.522211957946711
 30
0.0
 10
0.7829049587925876
 20
-1.567488502640374
 30
0.0
 10
0.7559854292033078
 20
-1.612146825636106
 30
0.0
 10
0.7216179620971339
 20
-1.65505398668482
 30
0.0
 10
0.6803457700998858
 20
-1.695819477069817
 30
0.0
 10
0.6325094587500383
 20
-1.734056884764248
 30
0.0
 10
0.5785849556739923
 20
-1.769408573429071
 30
0.0
 10
0.5190875003541799
 20
-1.80154351106837
 30
0.0
 10
0.4545911798531226
 20
-1.830161962722049
 30
0.0
 10
0.3857168357821475
 20
-1.854997973961027
 30
0.0
 10
0.3131278445315208
 20
-1.875822039965451
 30
0.0
 10
0.2375232557552768
 20
-1.892443287731197
 30
0.0
 10
0.1596311922182357
 20
-1.904711318691055
 30
0.0
 10
0.0802017821043527
 20
-1.912517667546274
 30
0.0
 10
0.0000000246804802
 20
-1.915796800792365
 30
0.0
 10
-0.0802018808263019
 20
-1.914526921648712
 30
0.0
 10
-0.1596308466914538
 20
-1.908729530803236
 30
0.0
 10
-0.2375245391405074
 20
-1.898471642223898
 30
0.0
 10
-0.313123056517431
 20
-1.883856095448263
 30
0.0
 10
-0.3857347044533238
 20
-1.865054311624805
 30
0.0
 10
-0.4545244931825538
 20
-1.842178699193786
 30
0.0
 10
-0.51933637836532
 20
-1.815751598649238
 30
0.0
 10
-0.5582162129884636
 20
-1.79521459040801
 30
0.0
 10
-0.5776561303000349
 20
-1.784946086287395
 30
0.0
  0
SPLINE
  5
264
330
218
100
AcDbEntity
  8
0
  6
Continuous
 62
     7
370
    25
100
AcDbSpline
210
0.0
220
0.0
230
1.0
 70
     8
 71
     3
 72
    10
 73
     6
 74
     0
 42
0.000000001
 43
0.00000001
 40
0.0
 40
0.0
 40
0.0
 40
0.0
 40
0.5
 40
0.5
 40
1.0
 40
1.0
 40
1.0
 40
1.0
 10
-0.577656130300035
 20
-1.784946086287395
 30
0.0
 10
-0.6209079163835359
 20
-1.760743538401699
 30
0.0
 10
-0.6592798577839803
 20
-1.733726029901
 30
0.0
 10
-0.7243425033792698
 20
-1.675452412473565
 30
0.0
 10
-0.7510304535958583
 20
-1.644198835020027
 30
0.0
 10
-0.7712068063357067
 20
-1.611630213827508
 30
0.0
  0
SPLINE
  5
266
330
218
100
AcDbEntity
  8
0
  6
Continuous
 62
     7
370
    25
100
AcDbSpline
210
0.0
220
0.0
230
1.0
 70
     8
 71
     3
 72
    27
 73
    23
 74
     0
 42
0.000000001
 43
0.00000001
 40
0.0
 40
0.0
 40
0.0
 40
0.0
 40
0.0519300324296969
 40
0.1038600648593957
 40
0.155790097289095
 40
0.2077201297187938
 40
0.2596501621484931
 40
0.3115801945781914
 40
0.3635102270078906
 40
0.4154402594375894
 40
0.4673702918672887
 40
0.5193003242969879
 40
0.5712303567266868
 40
0.6231603891563855
 40
0.6750904215860848
 40
0.7270204540157836
 40
0.7789504864454828
 40
0.8308805188751817
 40
0.8828105513048808
 40
0.9347405837345797
 40
0.9866706161642791
 40
1.0
 40
1.0
 40
1.0
 40
1.0
 10
-0.5776561303000349
 20
-1.678814502468101
 30
0.0
 10
-0.5582162129884428
 20
-1.68908300658872
 30
0.0
 10
-0.519336378365258
 20
-1.70962001482996
 30
0.0
 10
-0.4545244931828015
 20
-1.736047115374423
 30
0.0
 10
-0.3857347044523958
 20
-1.758922727805769
 30
0.0
 10
-0.3131230565208951
 20
-1.777724511628003
 30
0.0
 10
-0.2375245391275781
 20
-1.792340058408205
 30
0.0
 10
-0.1596308467397064
 20
-1.802597946970498
 30
0.0
 10
-0.0802018806462206
 20
-1.808395337879591
 30
0.0
 10
0.0000000240084067
 20
-1.80966521678582
 30
0.0
 10
0.0802017846125655
 20
-1.806386084425807
 30
0.0
 10
0.1596311828574583
 20
-1.798579732263703
 30
0.0
 10
0.237523290690174
 20
-1.786311713645307
 30
0.0
 10
0.3131277141527093
 20
-1.769690419820592
 30
0.0
 10
0.3857173223624957
 20
-1.748866525710585
 30
0.0
 10
0.4545893639105421
 20
-1.724029872952908
 30
0.0
 10
0.5190942775441528
 20
-1.695413815479608
 30
0.0
 10
0.5785596628566809
 20
-1.663269942637491
 30
0.0
 10
0.6326038528293101
 20
-1.627951600603561
 30
0.0
 10
0.6799934866001096
 20
-1.589589741588377
 30
0.0
 10
0.7122935048276144
 20
-1.559274235193537
 30
0.0
 10
0.7263867823742849
 20
-1.541250214643657
 30
0.0
 10
0.7292653662886567
 20
-1.537568767552633
 30
0.0
  0
SPLINE
  5
268
330
218
100
AcDbEntity
  8
0
  6
Continuous
 62
     7
370
    25
100
AcDbSpline
210
0.0
220
0.0
230
1.0
 70
     8
 71
     3
 72
    29
 73
    25
 74
     0
 42
0.000000001
 43
0.00000001
 40
0.0
 40
0.0
 40
0.0
 40
0.0
 40
0.0458864660779132
 40
0.091772932155828
 40
0.1376593982337432
 40
0.1835458643116581
 40
0.2294323303895733
 40
0.2753187964674877
 40
0.3212052625454029
 40
0.3670917286233177
 40
0.412978194701233
 40
0.4588646607791482
 40
0.504751126857063
 40
0.5506375929349779
 40
0.5965240590128931
 40
0.642410525090808
 40
0.6882969911687231
 40
0.7341834572466379
 40
0.7800699233245532
 40
0.8259563894024681
 40
0.8718428554803833
 40
0.9177293215582981
 40
0.963615787636213
 40
1.0
 40
1.0
 40
1.0
 40
1.0
 10
-0.5776561303000349
 20
-1.743109054584767
 30
0.0
 10
-0.5582162129884627
 20
-1.753377558705384
 30
0.0
 10
-0.5193363783653179
 20
-1.77391456694662
 30
0.0
 10
-0.4545244931825627
 20
-1.800341667491178
 30
0.0
 10
-0.385734704453291
 20
-1.823217279922212
 30
0.0
 10
-0.3131230565175538
 20
-1.842019063745661
 30
0.0
 10
-0.2375245391400489
 20
-1.856634610521375
 30
0.0
 10
-0.1596308466931648
 20
-1.866892499100463
 30
0.0
 10
-0.080201880819916
 20
-1.872689889946926
 30
0.0
 10
0.0000000246566466
 20
-1.873959769086938
 30
0.0
 10
0.0802017821933019
 20
-1.870680635854484
 30
0.0
 10
0.1596311918862728
 20
-1.86287428694842
 30
0.0
 10
0.2375232569941784
 20
-1.850606256178361
 30
0.0
 10
0.3131278399078778
 20
-1.833985007704324
 30
0.0
 10
0.3857168530378164
 20
-1.813160944343325
 30
0.0
 10
0.4545911154540909
 20
-1.788324923239002
 30
0.0
 10
0.5190877406946368
 20
-1.759706508403334
 30
0.0
 10
0.5785840587111969
 20
-1.727571433357396
 30
0.0
 10
0.6325128062607627
 20
-1.692220257501178
 30
0.0
 10
0.6803332770197837
 20
-1.653980935979028
 30
0.0
 10
0.7216645869068179
 20
-1.613222588096364
 30
0.0
 10
0.7558114230446742
 20
-1.570288770866097
 30
0.0
 10
0.7816393392582839
 20
-1.528805705636357
 30
0.0
 10
0.7924272416021625
 20
-1.501236477800034
 30
0.0
 10
0.7971981920461605
 20
-1.489043985173232
 30
0.0
  0
SPLINE
  5
269
330
218
100
AcDbEntity
  8
0
  6
Continuous
 62
     7
370
    25
100
AcDbSpline
210
0.0
220
0.0
230
1.0
 70
     8
 71
     3
 72
    11
 73
     7
 74
     0
 42
0.000000001
 43
0.00000001
 40
0.0
 40
0.0
 40
0.0
 40
0.0
 40
0.0304816250830201
 40
0.3536544167220139
 40
0.6768272083610073
 40
1.0
 40
1.0
 40
1.0
 40
1.0
 10
-0.8162098445242585
 20
-1.473557247530697
 30
0.0
 10
-0.8162440838809367
 20
-1.474989746276461
 30
0.0
 10
-0.8166413363135762
 20
-1.491609907012921
 30
0.0
 10
-0.8098026837528143
 20
-1.523315692905047
 30
0.0
 10
-0.79578446585729
 20
-1.56821993531273
 30
0.0
 10
-0.7793993595095677
 20
-1.597160120989248
 30
0.0
 10
-0.7712068063357066
 20
-1.611630213827508
 30
0.0
  0
SPLINE
  5
26A
330
218
100
AcDbEntity
  8
0
  6
Continuous
 62
     7
370
    25
100
AcDbSpline
210
0.0
220
0.0
230
1.0
 70
     8
 71
     3
 72
    29
 73
    25
 74
     0
 42
0.000000001
 43
0.00000001
 40
0.0
 40
0.0
 40
0.0
 40
0.0
 40
0.0083527396811198
 40
0.0561125930455165
 40
0.1038185908041501
 40
0.1514707329695165
 40
0.1990690195541536
 40
0.2466134505706417
 40
0.2941040260316041
 40
0.3415407459497073
 40
0.3889236103376597
 40
0.4362526192082154
 40
0.4835277725741698
 40
0.5307490704483635
 40
0.5779165128436805
 40
0.6250300997730492
 40
0.6720898312494422
 40
0.7190957072858771
 40
0.7660477278954158
 40
0.812945893091165
 40
0.8597902028862777
 40
0.9065806572939512
 40
0.9533172563274289
 40
0.9999999999999999
 40
0.9999999999999999
 40
0.9999999999999999
 40
0.9999999999999999
 10
0.8136068460062712
 20
-1.489707889673351
 30
0.0
 10
0.8137930442225135
 20
-1.492798525626027
 30
0.0
 10
0.8150438990477179
 20
-1.513561006450888
 30
0.0
 10
0.807594447857591
 20
-1.551952119087867
 30
0.0
 10
0.7907695361948763
 20
-1.604040169677082
 30
0.0
 10
0.7632789110319436
 20
-1.654635351374695
 30
0.0
 10
0.7266491638351934
 20
-1.703114383012141
 30
0.0
 10
0.6810434986252354
 20
-1.748893787090695
 30
0.0
 10
0.6271299292885272
 20
-1.79142156794739
 30
0.0
 10
0.5655724159904395
 20
-1.830188111262699
 30
0.0
 10
0.4971562516795492
 20
-1.864731293190198
 30
0.0
 10
0.4227423256183952
 20
-1.894642391209327
 30
0.0
 10
0.3432658481599647
 20
-1.919570946572525
 30
0.0
 10
0.2597220508064065
 20
-1.939228988993398
 30
0.0
 10
0.1731543810381242
 20
-1.953394470864932
 30
0.0
 10
0.0846413913649408
 20
-1.961913809908297
 30
0.0
 10
-0.0047170349384388
 20
-1.964703853217625
 30
0.0
 10
-0.0938119265634256
 20
-1.961751932407041
 30
0.0
 10
-0.1815443394817841
 20
-1.953118892389216
 30
0.0
 10
-0.2668189576509212
 20
-1.93892687033939
 30
0.0
 10
-0.3486321114085739
 20
-1.919399740445161
 30
0.0
 10
-0.4258065775639416
 20
-1.89470326863486
 30
0.0
 10
-0.4980401136511921
 20
-1.865527517061226
 30
0.0
 10
-0.5407423643190326
 20
-1.842429278461937
 30
0.0
 10
-0.562081180932646
 20
-1.830886817119522
 30
0.0
  0
SPLINE
  5
26B
330
218
100
AcDbEntity
  8
0
  6
Continuous
 62
     7
370
    25
100
AcDbSpline
210
0.0
220
0.0
230
1.0
 70
     8
 71
     3
 72
    11
 73
     7
 74
     0
 42
0.000000001
 43
0.00000001
 40
0.0
 40
0.0
 40
0.0
 40
0.0
 40
0.2644892024292025
 40
0.528716120244266
 40
0.7926807535013128
 40
0.9999999999999999
 40
0.9999999999999999
 40
0.9999999999999999
 40
0.9999999999999999
 10
-0.5620811809326447
 20
-1.83088681711952
 30
0.0
 10
-0.5793130425765317
 20
-1.82037722657541
 30
0.0
 10
-0.6137596776348406
 20
-1.799368467477483
 30
0.0
 10
-0.6581723273587792
 20
-1.764401578334972
 30
0.0
 10
-0.6948129117912726
 20
-1.730191531987875
 30
0.0
 10
-0.7133095398584263
 20
-1.706803185541146
 30
0.0
 10
-0.72144626415215
 20
-1.696514579097192
 30
0.0
  0
SPLINE
  5
26D
330
218
100
AcDbEntity
  8
0
  6
Continuous
 62
     7
370
    25
100
AcDbSpline
210
0.0
220
0.0
230
1.0
 70
     8
 71
     3
 72
    31
 73
    27
 74
     0
 42
0.000000001
 43
0.00000001
 40
0.0
 40
0.0
 40
0.0
 40
0.0
 40
0.042601469874679
 40
0.0852029397493595
 40
0.1278044096240404
 40
0.170405879498721
 40
0.2130073493734018
 40
0.255608819248082
 40
0.2982102891227629
 40
0.3408117589974434
 40
0.3834132288721243
 40
0.4260146987468051
 40
0.4686161686214857
 40
0.5112176384961662
 40
0.5538191083708471
 40
0.5964205782455277
 40
0.6390220481202086
 40
0.6816235179948892
 40
0.72422498786957
 40
0.7668264577442506
 40
0.8094279276189316
 40
0.8520293974936122
 40
0.8946308673682928
 40
0.9372323372429736
 40
0.9798338071176541
 40
1.0
 40
1.0
 40
1.0
 40
1.0
 10
-0.5776561303000349
 20
-1.807403606702077
 30
0.0
 10
-0.5582162129884631
 20
-1.817672110822691
 30
0.0
 10
-0.5193363783653192
 20
-1.838209119063919
 30
0.0
 10
-0.4545244931825564
 20
-1.864636219608468
 30
0.0
 10
-0.3857347044533147
 20
-1.887511832039487
 30
0.0
 10
-0.3131230565174644
 20
-1.906313615862944
 30
0.0
 10
-0.2375245391403828
 20
-1.920929162638585
 30
0.0
 10
-0.1596308466919183
 20
-1.931187051217896
 30
0.0
 10
-0.0802018808245677
 20
-1.936984442063477
 30
0.0
 10
0.0000000246740072
 20
-1.938254321206734
 30
0.0
 10
0.0802017821285116
 20
-1.934975187962121
 30
0.0
 10
0.1596311921280734
 20
-1.92716883910139
 30
0.0
 10
0.2375232560917669
 20
-1.9149008081621
 30
0.0
 10
0.313127843275723
 20
-1.898279560319592
 30
0.0
 10
0.3857168404688478
 20
-1.877455494601649
 30
0.0
 10
0.4545911623621193
 20
-1.852619482293509
 30
0.0
 10
0.5190875656314924
 20
-1.824001034629997
 30
0.0
 10
0.5785847120557456
 20
-1.791866082099191
 30
0.0
 10
0.6325103679457117
 20
-1.756514449010229
 30
0.0
 10
0.6803423769354392
 20
-1.718276833903865
 30
0.0
 10
0.7216306255592468
 20
-1.677512117590739
 30
0.0
 10
0.7559381685193026
 20
-1.634602067666475
 30
0.0
 10
0.7830813380664952
 20
-1.589954526101075
 30
0.0
 10
0.8022511169572301
 20
-1.543973863884154
 30
0.0
 10
0.8130148001100329
 20
-1.505371861143527
 30
0.0
 10
0.8144094321321004
 20
-1.482152161063522
 30
0.0
 10
0.8148575039117649
 20
-1.474692062504551
 30
0.0
  0
SPLINE
  5
270
330
218
100
AcDbEntity
  8
0
  6
Continuous
 62
     7
370
    25
100
AcDbSpline
210
0.0
220
0.0
230
1.0
 70
     8
 71
     3
 72
    14
 73
    10
 74
     0
 42
0.000000001
 43
0.00000001
 40
0.0
 40
0.0
 40
0.0
 40
0.0
 40
0.0985934507576792
 40
0.2488278756313992
 40
0.3990623005051196
 40
0.5492967253788396
 40
0.6995311502525597
 40
0.84976557512628
 40
1.0
 40
1.0
 40
1.0
 40
1.0
 10
-0.8156467309394899
 20
-1.481953093998256
 30
0.0
 10
-0.815680694739007
 20
-1.493865640485883
 30
0.0
 10
-0.8157664117923938
 20
-1.523930250387424
 30
0.0
 10
-0.8029618407434617
 20
-1.571755549757259
 30
0.0
 10
-0.7790068292120854
 20
-1.624494053350274
 30
0.0
 10
-0.7438085048924861
 20
-1.675227835201823
 30
0.0
 10
-0.6982325606669308
 20
-1.723123893127817
 30
0.0
 10
-0.6434910082066626
 20
-1.767920877685198
 30
0.0
 10
-0.5996010896022441
 20
-1.794242697029784
 30
0.0
 10
-0.577656130300035
 20
-1.807403606702077
 30
0.0
  0
SPLINE
  5
271
330
218
100
AcDbEntity
  8
0
  6
Continuous
 62
     7
370
    25
100
AcDbSpline
210
0.0
220
0.0
230
1.0
 70
     8
 71
     3
 72
    12
 73
     8
 74
     0
 42
0.000000001
 43
0.00000001
 40
0.0
 40
0.0
 40
0.0
 40
0.0
 40
0.0801734583007544
 40
0.3101300937255658
 40
0.5400867291503773
 40
0.7700433645751885
 40
1.0
 40
1.0
 40
1.0
 40
1.0
 10
-0.7641604533390072
 20
-1.514991650535647
 30
0.0
 10
-0.7611178815725967
 20
-1.519960617379215
 30
0.0
 10
-0.749348486973902
 20
-1.539181768438136
 30
0.0
 10
-0.7213310148901584
 20
-1.570968804791261
 30
0.0
 10
-0.6803603676634857
 20
-1.609758825872879
 30
0.0
 10
-0.6327380157026328
 20
-1.646147453749134
 30
0.0
 10
-0.5960167587675677
 20
-1.667925486228445
 30
0.0
 10
-0.577656130300035
 20
-1.678814502468101
 30
0.0
  0
SPLINE
  5
272
330
218
100
AcDbEntity
  8
0
  6
Continuous
 62
     7
370
    25
100
AcDbSpline
210
0.0
220
0.0
230
1.0
 70
     8
 71
     3
 72
     9
 73
     5
 74
     0
 42
0.000000001
 43
0.00000001
 40
0.0
 40
0.0
 40
0.0
 40
0.0
 40
0.4421324432204879
 40
1.0
 40
1.0
 40
1.0
 40
1.0
 10
-0.8086548657871344
 20
-1.479715703056466
 30
0.0
 10
-0.8051964164943735
 20
-1.493262059493555
 30
0.0
 10
-0.7973742144691844
 20
-1.523900743998172
 30
0.0
 10
-0.780577274305945
 20
-1.553359241883306
 30
0.0
 10
-0.7712068063357066
 20
-1.56979318212488
 30
0.0
  0
SPLINE
  5
273
330
218
100
AcDbEntity
  8
0
  6
Continuous
 62
     7
370
    25
100
AcDbSpline
210
0.0
220
0.0
230
1.0
 70
     8
 71
     3
 72
    10
 73
     6
 74
     0
 42
0.000000001
 43
0.00000001
 40
0.0
 40
0.0
 40
0.0
 40
0.0
 40
0.5
 40
0.5
 40
1.0
 40
1.0
 40
1.0
 40
1.0
 10
-0.7712068063357067
 20
-1.569793182124879
 30
0.0
 10
-0.7510304535958583
 20
-1.602361803317399
 30
0.0
 10
-0.7243425033792698
 20
-1.633615380770938
 30
0.0
 10
-0.6592798577839801
 20
-1.691888998198372
 30
0.0
 10
-0.6209079163835359
 20
-1.718906506699071
 30
0.0
 10
-0.577656130300035
 20
-1.743109054584767
 30
0.0
  0
LWPOLYLINE
  5
275
330
218
100
AcDbEntity
  8
0
  6
Continuous
 62
     7
370
    25
100
AcDbPolyline
 90
       37
 70
   128
 43
0.0
 10
1.0176247208
 20
-0.516484993
 10
1.0046640928
 20
-0.5288817405
 10
0.9713632006
 20
-0.5582630605
 10
0.9354864278
 20
-0.5866157858
 10
0.8971289132
 20
-0.6138647302
 10
0.856392374
 20
-0.6399376342
 10
0.8133848362
 20
-0.6647653574
 10
0.768220348
 20
-0.6882820609
 10
0.7210186775
 20
-0.7104253827
 10
0.6719049952
 20
-0.7311366028
 10
0.6210095416
 20
-0.7503607986
 10
0.5684672823
 20
-0.7680469912
 10
0.5144175499
 20
-0.7841482798
 10
0.4590036747
 20
-0.7986219668
 10
0.4023726043
 20
-0.8114296705
 10
0.3446745141
 20
-0.8225374272
 10
0.286062409
 20
-0.8319157811
 10
0.2266917178
 20
-0.8395398626
 10
0.166719881
 20
-0.8453894539
 10
0.1063059329
 20
-0.8494490429
 10
0.0456100807
 20
-0.8517078645
 10
-0.0152067213
 20
-0.8521599285
 10
-0.0759831977
 20
-0.8508040362
 10
-0.1365581804
 20
-0.8476437832
 10
-0.1967710354
 20
-0.8426875498
 10
-0.2564620889
 20
-0.8359484792
 10
-0.3154730511
 20
-0.8274444422
 10
-0.3736474355
 20
-0.8171979898
 10
-0.430830974
 20
-0.8052362939
 10
-0.4868720262
 20
-0.7915910747
 10
-0.5416219814
 20
-0.776298517
 10
-0.5949356524
 20
-0.7593991737
 10
-0.646671661
 20
-0.740937859
 10
-0.6966928127
 20
-0.7209635289
 10
-0.7448664602
 20
-0.6995291517
 10
-0.7910648558
 20
-0.6766915677
 10
-0.8351654896
 20
-0.6525113378
  0
LWPOLYLINE
  5
276
330
218
100
AcDbEntity
  8
0
  6
Continuous
 62
     7
370
    25
100
AcDbPolyline
 90
       47
 70
   128
 43
0.0
 10
1.1811023622
 20
-0.3696936747
 10
1.180221382
 20
-0.3960238138
 10
1.1763085644
 20
-0.4310627835
 10
1.1692763879
 20
-0.4659390133
 10
1.1591435006
 20
-0.5005600178
 10
1.1459367732
 20
-0.5348339883
 10
1.1296912274
 20
-0.5686700363
 10
1.1104499436
 20
-0.6019784348
 10
1.0882639462
 20
-0.6346708559
 10
1.0631920684
 20
-0.6666606051
 10
1.0353007964
 20
-0.6978628514
 10
1.0046640928
 20
-0.7281948521
 10
0.9713632006
 20
-0.7575761721
 10
0.9354864278
 20
-0.7859288974
 10
0.8971289132
 20
-0.8131778417
 10
0.856392374
 20
-0.8392507458
 10
0.8133848362
 20
-0.8640784689
 10
0.768220348
 20
-0.8875951724
 10
0.7210186775
 20
-0.9097384943
 10
0.6719049952
 20
-0.9304497143
 10
0.6210095416
 20
-0.9496739102
 10
0.5684672823
 20
-0.9673601027
 10
0.5144175499
 20
-0.9834613914
 10
0.4590036747
 20
-0.9979350783
 10
0.4023726043
 20
-1.010742782
 10
0.3446745141
 20
-1.0218505387
 10
0.286062409
 20
-1.0312288927
 10
0.2266917178
 20
-1.0388529741
 10
0.166719881
 20
-1.0447025654
 10
0.1063059329
 20
-1.0487621545
 10
0.0456100807
 20
-1.051020976
 10
-0.0152067213
 20
-1.0514730401
 10
-0.0759831977
 20
-1.0501171478
 10
-0.1365581804
 20
-1.0469568947
 10
-0.1967710354
 20
-1.0420006614
 10
-0.2564620889
 20
-1.0352615908
 10
-0.3154730511
 20
-1.0267575537
 10
-0.3736474355
 20
-1.0165111014
 10
-0.430830974
 20
-1.0045494055
 10
-0.4868720262
 20
-0.9909041863
 10
-0.5416219814
 20
-0.9756116285
 10
-0.5949356524
 20
-0.9587122853
 10
-0.646671661
 20
-0.9402509706
 10
-0.6966928127
 20
-0.9202766405
 10
-0.7448664602
 20
-0.8988422633
 10
-0.7910648558
 20
-0.8760046792
 10
-0.8351654896
 20
-0.8518244494
  0
LWPOLYLINE
  5
278
330
218
100
AcDbEntity
  8
0
  6
Continuous
 62
     7
370
    25
100
AcDbPolyline
 90
       17
 70
   128
 43
0.0
 10
-1.1811023622
 20
-0.3696936747
 10
-1.1810044647
 20
-0.378472328
 10
-1.1786557359
 20
-0.413557841
 10
-1.1731814239
 20
-0.4485270342
 10
-1.1645960457
 20
-0.4832871755
 10
-1.1529223681
 20
-0.5177460872
 10
-1.1381913477
 20
-0.5518123906
 10
-1.1204420485
 20
-0.5853957478
 10
-1.0997215383
 20
-0.6184071019
 10
-1.0760847644
 20
-0.6507589128
 10
-1.049594407
 20
-0.6823653891
 10
-1.020320714
 20
-0.7131427163
 10
-0.9883413139
 20
-0.7430092783
 10
-0.9537410103
 20
-0.7718858745
 10
-0.916611557
 20
-0.7996959293
 10
-0.8770514147
 20
-0.8263656954
 10
-0.8351654896
 20
-0.8518244494
  0
LWPOLYLINE
  5
27A
330
218
100
AcDbEntity
  8
0
  6
Continuous
 62
     8
370
    25
100
AcDbPolyline
 90
       44
 70
   128
 43
0.0
 10
-0.8769237641
 20
-0.0779956181
 10
-0.8313827789
 20
-0.1029863653
 10
-0.7837076461
 20
-0.1266134577
 10
-0.734020747
 20
-0.1488162448
 10
-0.6824496272
 20
-0.1695377325
 10
-0.6291266689
 20
-0.188724729
 10
-0.5741887515
 20
-0.2063279816
 10
-0.5177768999
 20
-0.2223023028
 10
-0.4600359223
 20
-0.236606687
 10
-0.4011140392
 20
-0.2492044149
 10
-0.341162502
 20
-0.2600631483
 10
-0.2803352056
 20
-0.2691550131
 10
-0.2187882928
 20
-0.2764566705
 10
-0.1566797535
 20
-0.2819493774
 10
-0.0941690196
 20
-0.2856190339
 10
-0.0314165552
 20
-0.2874562202
 10
0.0314165552
 20
-0.2874562202
 10
0.0941690196
 20
-0.2856190339
 10
0.1566797535
 20
-0.2819493774
 10
0.2187882928
 20
-0.2764566705
 10
0.2803352056
 20
-0.2691550131
 10
0.341162502
 20
-0.2600631483
 10
0.4011140392
 20
-0.2492044149
 10
0.4600359223
 20
-0.236606687
 10
0.5177768999
 20
-0.2223023028
 10
0.5741887515
 20
-0.2063279816
 10
0.6291266689
 20
-0.188724729
 10
0.6824496272
 20
-0.1695377325
 10
0.734020747
 20
-0.1488162448
 10
0.7837076461
 20
-0.1266134577
 10
0.8313827789
 20
-0.1029863653
 10
0.8769237641
 20
-0.0779956181
 10
0.9202136985
 20
-0.0517053669
 10
0.9611414575
 20
-0.0241830986
 10
0.9996019803
 20
0.0045005377
 10
1.035496539
 20
0.0342719115
 10
1.068732993
 20
0.0650546
 10
1.0992260248
 20
0.0967695847
 10
1.1268973591
 20
0.1293354535
 10
1.151675964
 20
0.1626686103
 10
1.1734982333
 20
0.1966834894
 10
1.1923081494
 20
0.2312927751
 10
1.2080574276
 20
0.2664076259
 10
1.2187444078
 20
0.29577631
  0
LWPOLYLINE
  5
27B
330
218
100
AcDbEntity
  8
0
  6
Continuous
 62
     8
370
    25
100
AcDbPolyline
 90
       44
 70
   128
 43
0.0
 10
-0.8769237641
 20
-0.1030908325
 10
-0.8313827789
 20
-0.1280815797
 10
-0.7837076461
 20
-0.1517086721
 10
-0.734020747
 20
-0.1739114593
 10
-0.6824496272
 20
-0.194632947
 10
-0.6291266689
 20
-0.2138199435
 10
-0.5741887515
 20
-0.231423196
 10
-0.5177768999
 20
-0.2473975173
 10
-0.4600359223
 20
-0.2617019015
 10
-0.4011140392
 20
-0.2742996293
 10
-0.341162502
 20
-0.2851583628
 10
-0.2803352056
 20
-0.2942502276
 10
-0.2187882928
 20
-0.301551885
 10
-0.1566797535
 20
-0.3070445918
 10
-0.0941690196
 20
-0.3107142484
 10
-0.0314165552
 20
-0.3125514347
 10
0.0314165552
 20
-0.3125514347
 10
0.0941690196
 20
-0.3107142484
 10
0.1566797535
 20
-0.3070445918
 10
0.2187882928
 20
-0.301551885
 10
0.2803352056
 20
-0.2942502276
 10
0.341162502
 20
-0.2851583628
 10
0.4011140392
 20
-0.2742996293
 10
0.4600359223
 20
-0.2617019015
 10
0.5177768999
 20
-0.2473975173
 10
0.5741887515
 20
-0.231423196
 10
0.6291266689
 20
-0.2138199435
 10
0.6824496272
 20
-0.194632947
 10
0.734020747
 20
-0.1739114593
 10
0.7837076461
 20
-0.1517086721
 10
0.8313827789
 20
-0.1280815797
 10
0.8769237641
 20
-0.1030908325
 10
0.9202136985
 20
-0.0768005814
 10
0.9611414575
 20
-0.0492783131
 10
0.9996019803
 20
-0.0205946768
 10
1.035496539
 20
0.009176697
 10
1.068732993
 20
0.0399593856
 10
1.0992260248
 20
0.0716743702
 10
1.1268973591
 20
0.104240239
 10
1.151675964
 20
0.1375733958
 10
1.1734982333
 20
0.1715882749
 10
1.1923081494
 20
0.2061975606
 10
1.2080574276
 20
0.2413124114
 10
1.2187444078
 20
0.2706810955
  0
LWPOLYLINE
  5
27D
330
218
100
AcDbEntity
  8
0
  6
Continuous
 62
     8
370
    25
100
AcDbPolyline
 90
        3
 70
   128
 43
0.0
 10
0.8725372489
 20
0.940434653
 10
0.8272240671
 20
0.9653003925
 10
0.789729148
 20
0.9840794707
  0
LWPOLYLINE
  5
27E
330
218
100
AcDbEntity
  8
0
  6
Continuous
 62
     8
370
    25
100
AcDbPolyline
 90
       34
 70
   128
 43
0.0
 10
-0.8126547327
 20
0.9727793534
 10
-0.8272240671
 20
0.9653003925
 10
-0.8725372489
 20
0.940434653
 10
-0.91561064
 20
0.91427591
 10
-0.9563336717
 20
0.8868913125
 10
-0.9946018087
 20
0.8583511565
 10
-1.030316817
 20
0.8287287039
 10
-1.0633870169
 20
0.7980999954
 10
-1.0937275175
 20
0.7665436543
 10
-1.1212604353
 20
0.7341406852
 10
-1.1459150937
 20
0.7009742663
 10
-1.1676282044
 20
0.6671295351
 10
-1.1863440303
 20
0.6326933707
 10
-1.202014528
 20
0.5977541701
 10
-1.2145994717
 20
0.5624016218
 10
-1.224066556
 20
0.5267264753
 10
-1.230391479
 20
0.4908203082
 10
-1.2335580047
 20
0.454775291
 10
-1.2335580047
 20
0.4186839509
 10
-1.230391479
 20
0.3826389337
 10
-1.224066556
 20
0.3467327666
 10
-1.2145994717
 20
0.3110576201
 10
-1.202014528
 20
0.2757050718
 10
-1.1863440303
 20
0.2407658712
 10
-1.1676282044
 20
0.2063297068
 10
-1.1459150937
 20
0.1724849756
 10
-1.1212604353
 20
0.1393185566
 10
-1.0937275175
 20
0.1069155876
 10
-1.0633870169
 20
0.0753592465
 10
-1.030316817
 20
0.044730538
 10
-0.9946018087
 20
0.0151080854
 10
-0.9563336717
 20
-0.0134320707
 10
-0.91561064
 20
-0.0408166681
 10
-0.8725372489
 20
-0.0669754112
  0
LWPOLYLINE
  5
283
330
218
100
AcDbEntity
  8
0
  6
Continuous
 62
     8
370
    25
100
AcDbPolyline
 90
       54
 70
   128
 43
0.0
 10
-0.856762528
 20
-0.5758106002
 10
-0.8122685695
 20
-0.6002267885
 10
-0.7656895292
 20
-0.6233106736
 10
-0.7171449749
 20
-0.6450029994
 10
-0.6667595198
 20
-0.6652480822
 10
-0.6146625025
 20
-0.683993953
 10
-0.5609876553
 20
-0.7011924916
 10
-0.505872761
 20
-0.7167995494
 10
-0.4494592984
 20
-0.7307750634
 10
-0.3918920804
 20
-0.7430831586
 10
-0.3333188809
 20
-0.7536922404
 10
-0.2738900567
 20
-0.7625750753
 10
-0.2137581606
 20
-0.7697088613
 10
-0.1530775504
 20
-0.7750752861
 10
-0.0920039924
 20
-0.778660574
 10
-0.0306942614
 20
-0.7804555218
 10
0.0306942614
 20
-0.7804555218
 10
0.0920039924
 20
-0.778660574
 10
0.1530775504
 20
-0.7750752861
 10
0.2137581606
 20
-0.7697088613
 10
0.2738900567
 20
-0.7625750753
 10
0.3333188809
 20
-0.7536922404
 10
0.3918920804
 20
-0.7430831586
 10
0.4494592984
 20
-0.7307750634
 10
0.505872761
 20
-0.7167995494
 10
0.5609876553
 20
-0.7011924916
 10
0.6146625025
 20
-0.683993953
 10
0.6667595198
 20
-0.6652480822
 10
0.7171449749
 20
-0.6450029994
 10
0.7656895292
 20
-0.6233106736
 10
0.8122685695
 20
-0.6002267885
 10
0.856762528
 20
-0.5758106002
 10
0.8990571894
 20
-0.5501247847
 10
0.9390439838
 20
-0.5232352771
 10
0.9766202659
 20
-0.4952111024
 10
1.0116895777
 20
-0.4661241983
 10
1.0441618968
 20
-0.4360492303
 10
1.0739538674
 20
-0.4050634006
 10
1.1009890138
 20
-0.3732462494
 10
1.1251979372
 20
-0.3406794507
 10
1.1465184936
 20
-0.307446603
 10
1.1648959534
 20
-0.2736330147
 10
1.1802831421
 20
-0.2393254848
 10
1.1926405609
 20
-0.2046120801
 10
1.2019364885
 20
-0.1695819094
 10
1.2081470623
 20
-0.1343248948
 10
1.2112563399
 20
-0.0989315405
 10
1.2112563399
 20
-0.0634927007
 10
1.2081470623
 20
-0.0280993463
 10
1.2019364885
 20
0.0071576683
 10
1.1926405609
 20
0.0421878389
 10
1.1802831421
 20
0.0769012436
 10
1.1648959534
 20
0.1112087736
 10
1.1525059255
 20
0.1346457445
  0
LWPOLYLINE
  5
284
330
218
100
AcDbEntity
  8
0
  6
Continuous
 62
     8
370
    25
100
AcDbPolyline
 90
       44
 70
   128
 43
0.0
 10
-0.8657882242
 20
-0.5906337455
 10
-0.8208255373
 20
-0.6153071499
 10
-0.773755803
 20
-0.6386342157
 10
-0.7246998486
 20
-0.6605550627
 10
-0.6737836002
 20
-0.6810134204
 10
-0.6211377588
 20
-0.6999567725
 10
-0.5668974658
 20
-0.7173364917
 10
-0.5112019551
 20
-0.7331079644
 10
-0.4541941963
 20
-0.7472307056
 10
-0.3960205276
 20
-0.7596684624
 10
-0.3368302798
 20
-0.7703893071
 10
-0.2767753935
 20
-0.7793657197
 10
-0.2160100288
 20
-0.7865746576
 10
-0.1546901694
 20
-0.7919976158
 10
-0.0929732225
 20
-0.7956206735
 10
-0.0310176148
 20
-0.7974345305
 10
0.0310176148
 20
-0.7974345305
 10
0.0929732225
 20
-0.7956206735
 10
0.1546901694
 20
-0.7919976158
 10
0.2160100288
 20
-0.7865746576
 10
0.2767753935
 20
-0.7793657197
 10
0.3368302798
 20
-0.7703893071
 10
0.3960205276
 20
-0.7596684624
 10
0.4541941963
 20
-0.7472307056
 10
0.5112019551
 20
-0.7331079644
 10
0.5668974658
 20
-0.7173364917
 10
0.6211377588
 20
-0.6999567725
 10
0.6737836002
 20
-0.6810134204
 10
0.7246998486
 20
-0.6605550627
 10
0.773755803
 20
-0.6386342157
 10
0.8208255373
 20
-0.6153071499
 10
0.8657882242
 20
-0.5906337455
 10
0.9085284452
 20
-0.5646773389
 10
0.9489364867
 20
-0.5375045596
 10
0.9869086218
 20
-0.50918516
 10
1.0223473766
 20
-0.4797918354
 10
1.0551617804
 20
-0.4494000381
 10
1.0852675991
 20
-0.4180877834
 10
1.1125875514
 20
-0.3859354495
 10
1.1370515074
 20
-0.3530255709
 10
1.1585966684
 20
-0.3194426267
 10
1.1771677285
 20
-0.285272824
 10
1.1927170159
 20
-0.2506038761
 10
1.2035523658
 20
-0.220734077
  0
LWPOLYLINE
  5
285
330
218
100
AcDbEntity
  8
0
  6
Continuous
 62
     8
370
    25
100
AcDbPolyline
 90
       44
 70
   128
 43
0.0
 10
-0.8657882242
 20
-0.6195031661
 10
-0.8208255373
 20
-0.6441765704
 10
-0.773755803
 20
-0.6675036363
 10
-0.7246998486
 20
-0.6894244833
 10
-0.6737836002
 20
-0.709882841
 10
-0.6211377588
 20
-0.7288261931
 10
-0.5668974658
 20
-0.7462059122
 10
-0.5112019551
 20
-0.761977385
 10
-0.4541941963
 20
-0.7761001262
 10
-0.3960205276
 20
-0.7885378829
 10
-0.3368302798
 20
-0.7992587277
 10
-0.2767753935
 20
-0.8082351402
 10
-0.2160100288
 20
-0.8154440782
 10
-0.1546901694
 20
-0.8208670364
 10
-0.0929732225
 20
-0.8244900941
 10
-0.0310176148
 20
-0.826303951
 10
0.0310176148
 20
-0.826303951
 10
0.0929732225
 20
-0.8244900941
 10
0.1546901694
 20
-0.8208670364
 10
0.2160100288
 20
-0.8154440782
 10
0.2767753935
 20
-0.8082351402
 10
0.3368302798
 20
-0.7992587277
 10
0.3960205276
 20
-0.7885378829
 10
0.4541941963
 20
-0.7761001262
 10
0.5112019551
 20
-0.761977385
 10
0.5668974658
 20
-0.7462059122
 10
0.6211377588
 20
-0.7288261931
 10
0.6737836002
 20
-0.709882841
 10
0.7246998486
 20
-0.6894244833
 10
0.773755803
 20
-0.6675036363
 10
0.8208255373
 20
-0.6441765704
 10
0.8657882242
 20
-0.6195031661
 10
0.9085284452
 20
-0.5935467594
 10
0.9489364867
 20
-0.5663739802
 10
0.9869086218
 20
-0.5380545805
 10
1.0223473766
 20
-0.5086612559
 10
1.0551617804
 20
-0.4782694586
 10
1.0852675991
 20
-0.446957204
 10
1.1125875514
 20
-0.41480487
 10
1.1370515074
 20
-0.3818949914
 10
1.1585966684
 20
-0.3483120473
 10
1.1771677285
 20
-0.3141422445
 10
1.1927170159
 20
-0.2794732966
 10
1.2035523658
 20
-0.2496034976
  0
LWPOLYLINE
  5
288
330
218
100
AcDbEntity
  8
0
  6
Continuous
 62
     8
370
    25
100
AcDbPolyline
 90
       23
 70
   128
 43
0.0
 10
-1.1523215161
 20
0.134973597
 10
-1.1648959534
 20
0.1112087736
 10
-1.1802831421
 20
0.0769012436
 10
-1.1926405609
 20
0.0421878389
 10
-1.2019364885
 20
0.0071576683
 10
-1.2081470623
 20
-0.0280993463
 10
-1.2112563399
 20
-0.0634927007
 10
-1.2112563399
 20
-0.0989315405
 10
-1.2081470623
 20
-0.1343248948
 10
-1.2019364885
 20
-0.1695819094
 10
-1.1926405609
 20
-0.2046120801
 10
-1.1802831421
 20
-0.2393254848
 10
-1.1648959534
 20
-0.2736330147
 10
-1.1465184936
 20
-0.307446603
 10
-1.1251979372
 20
-0.3406794507
 10
-1.1009890138
 20
-0.3732462494
 10
-1.0739538674
 20
-0.4050634006
 10
-1.0441618968
 20
-0.4360492303
 10
-1.0116895777
 20
-0.4661241983
 10
-0.9766202659
 20
-0.4952111024
 10
-0.9390439838
 20
-0.5232352771
 10
-0.8990571894
 20
-0.5501247847
 10
-0.856762528
 20
-0.5758106002
  0
LWPOLYLINE
  5
28B
330
218
100
AcDbEntity
  8
0
  6
Continuous
 62
     8
370
    25
100
AcDbPolyline
 90
       46
 70
   128
 43
0.0
 10
-0.8699640517
 20
-1.1130178021
 10
-0.8247845029
 20
-1.13781021
 10
-0.7774877442
 20
-1.1612497858
 10
-0.7281951855
 20
-1.1832763604
 10
-0.6770333603
 20
-1.2038333918
 10
-0.6241336001
 20
-1.2228681106
 10
-0.569631698
 20
-1.2403316548
 10
-0.5136675594
 20
-1.2561791957
 10
-0.4563848436
 20
-1.270370053
 10
-0.3979305944
 20
-1.2828677989
 10
-0.3384548631
 20
-1.2936403519
 10
-0.2781103231
 20
-1.3026600591
 10
-0.2170518778
 20
-1.3099037668
 10
-0.1554362634
 20
-1.3153528808
 10
-0.0934216464
 20
-1.318993413
 10
-0.0311672174
 20
-1.3208160185
 10
0.0311672174
 20
-1.3208160185
 10
0.0934216464
 20
-1.318993413
 10
0.1554362634
 20
-1.3153528808
 10
0.2170518778
 20
-1.3099037668
 10
0.2781103231
 20
-1.3026600591
 10
0.3384548631
 20
-1.2936403519
 10
0.3979305944
 20
-1.2828677989
 10
0.4563848436
 20
-1.270370053
 10
0.5136675594
 20
-1.2561791957
 10
0.569631698
 20
-1.2403316548
 10
0.6241336001
 20
-1.2228681106
 10
0.6770333603
 20
-1.2038333918
 10
0.7281951855
 20
-1.1832763604
 10
0.7774877442
 20
-1.1612497858
 10
0.8247845029
 20
-1.13781021
 10
0.8699640517
 20
-1.1130178021
 10
0.9129104152
 20
-1.0869362038
 10
0.9535133507
 20
-1.0596323661
 10
0.9916686312
 20
-1.0311763777
 10
1.0272783125
 20
-1.0016412847
 10
1.0602509852
 20
-0.9711029032
 10
1.0905020087
 20
-0.9396396248
 10
1.1179537293
 20
-0.9073322153
 10
1.1425356786
 20
-0.8742636073
 10
1.1641847553
 20
-0.8405186875
 10
1.1828453863
 20
-0.8061840787
 10
1.1984696703
 20
-0.7713479172
 10
1.2110174998
 20
-0.736099627
 10
1.2204566647
 20
-0.70052969
 10
1.2231993875
 20
-0.6870748859
  0
LWPOLYLINE
  5
28E
330
218
100
AcDbEntity
  8
0
  6
Continuous
 62
     8
370
    25
100
AcDbPolyline
 90
       15
 70
   128
 43
0.0
 10
-1.2237788258
 20
-0.6839118828
 10
-1.2204566647
 20
-0.70052969
 10
-1.2110174998
 20
-0.736099627
 10
-1.1984696703
 20
-0.7713479172
 10
-1.1828453863
 20
-0.8061840787
 10
-1.1641847553
 20
-0.8405186875
 10
-1.1425356786
 20
-0.8742636073
 10
-1.1179537293
 20
-0.9073322153
 10
-1.0905020087
 20
-0.9396396248
 10
-1.0602509852
 20
-0.9711029032
 10
-1.0272783125
 20
-1.0016412847
 10
-0.9916686312
 20
-1.0311763777
 10
-0.9535133507
 20
-1.0596323661
 10
-0.9129104152
 20
-1.0869362038
 10
-0.8699640517
 20
-1.1130178021
  0
LWPOLYLINE
  5
290
330
218
100
AcDbEntity
  8
0
  6
Continuous
 62
     8
370
    25
100
AcDbPolyline
 90
       44
 70
   128
 43
0.0
 10
-0.8282057772
 20
-0.879953969
 10
-0.7844726487
 20
-0.9039326969
 10
-0.7386592397
 20
-0.9265799678
 10
-0.6908870392
 20
-0.9478357251
 10
-0.6412827305
 20
-0.9676436025
 10
-0.5899778553
 20
-0.9859510729
 10
-0.5371084649
 20
-1.0027095883
 10
-0.4828147593
 20
-1.0178747081
 10
-0.4272407159
 20
-1.0314062171
 10
-0.3705337068
 20
-1.0432682322
 10
-0.312844109
 20
-1.0534292975
 10
-0.2543249048
 20
-1.0618624675
 10
-0.1951312767
 20
-1.0685453792
 10
-0.1354201956
 20
-1.0734603106
 10
-0.0753500044
 20
-1.0765942282
 10
-0.0150799986
 20
-1.0779388214
 10
0.0452299967
 20
-1.0774905246
 10
0.1054200502
 20
-1.0752505266
 10
0.1653305486
 20
-1.0712247674
 10
0.2248026202
 20
-1.0654239227
 10
0.2836785556
 20
-1.0578633752
 10
0.3418022265
 20
-1.0485631743
 10
0.3990194993
 20
-1.0375479822
 10
0.4551786441
 20
-1.0248470093
 10
0.510130737
 20
-1.0104939364
 10
0.5637300549
 20
-0.9945268252
 10
0.615834462
 20
-0.9769880176
 10
0.6663057869
 20
-0.9579240234
 10
0.7150101886
 20
-0.9373853968
 10
0.7618185118
 20
-0.9154266027
 10
0.8066066292
 20
-0.8921058717
 10
0.8492557709
 20
-0.8674850463
 10
0.8896528389
 20
-0.8416294164
 10
0.9276907076
 20
-0.8146075466
 10
0.9632685073
 20
-0.786491094
 10
0.996291892
 20
-0.7573546183
 10
1.0266732898
 20
-0.7272753844
 10
1.0543321345
 20
-0.6963331568
 10
1.07919508
 20
-0.6646099888
 10
1.1011961941
 20
-0.6321900045
 10
1.1202771339
 20
-0.599159176
 10
1.1363873001
 20
-0.565605095
 10
1.1494839715
 20
-0.531616741
 10
1.1573390554
 20
-0.5057782801
  0
SPLINE
  5
291
330
218
100
AcDbEntity
  8
0
  6
Continuous
 62
     8
370
    25
100
AcDbSpline
210
0.0
220
0.0
230
1.0
 70
     8
 71
     3
 72
    12
 73
     8
 74
     0
 42
0.000000001
 43
0.00000001
 40
0.0
 40
0.0
 40
0.0
 40
0.0
 40
0.1027118083608061
 40
0.3544793058229944
 40
0.5798467257647248
 40
0.7903516561884715
 40
1.0
 40
1.0
 40
1.0
 40
1.0
 10
-0.8197869627396982
 20
-0.8601027254035594
 30
0.0
 10
-0.820282222693326
 20
-0.8606817194909029
 30
0.0
 10
-0.8219914653535972
 20
-0.862679945648466
 30
0.0
 10
-0.8242684728551591
 20
-0.8665739382188926
 30
0.0
 10
-0.8265486778821329
 20
-0.8712835734662684
 30
0.0
 10
-0.8279575942140845
 20
-0.8758691041520646
 30
0.0
 10
-0.828123191473172
 20
-0.8785942162898269
 30
0.0
 10
-0.8282058212971826
 20
-0.8799539944503624
 30
0.0
  0
LINE
  5
294
330
218
100
AcDbEntity
  8
0
  6
Continuous
 62
     7
370
    25
100
AcDbLine
 10
1.2401574803
 20
0.4031464809
 30
0.0
 11
1.2401574803
 21
0.4282416954
 31
0.0
  0
LINE
  5
295
330
218
100
AcDbEntity
  8
0
  6
Continuous
 62
     7
370
    25
100
AcDbLine
 10
-1.2401574803
 20
0.4282416954
 30
0.0
 11
-1.2401574803
 21
0.4031464809
 31
0.0
  0
LINE
  5
296
330
218
100
AcDbEntity
  8
0
  6
Continuous
 62
     7
370
    25
100
AcDbLine
 10
0.2755905512
 20
-0.5078512687
 30
0.0
 11
0.2755905512
 21
-0.3595674299
 31
0.0
  0
LINE
  5
297
330
218
100
AcDbEntity
  8
0
  6
Continuous
 62
     7
370
    25
100
AcDbLine
 10
-0.2755905512
 20
-0.3595674299
 30
0.0
 11
-0.2755905512
 21
-0.5078512687
 31
0.0
  0
LINE
  5
298
330
218
100
AcDbEntity
  8
0
  6
Continuous
 62
     7
370
    25
100
AcDbLine
 10
1.2244094488
 20
-0.119694263
 30
0.0
 11
1.2244094488
 21
-0.0908248424
 31
0.0
  0
LINE
  5
299
330
218
100
AcDbEntity
  8
0
  6
Continuous
 62
     7
370
    25
100
AcDbLine
 10
-1.2244094488
 20
-0.0908248424
 30
0.0
 11
-1.2244094488
 21
-0.119694263
 31
0.0
  0
LINE
  5
29A
330
218
100
AcDbEntity
  8
0
  6
Continuous
 62
     7
370
    25
100
AcDbLine
 10
1.2303149606
 20
-0.6107982451
 30
0.0
 11
1.2303149606
 21
-0.4339882268
 31
0.0
  0
LINE
  5
29B
330
218
100
AcDbEntity
  8
0
  6
Continuous
 62
     7
370
    25
100
AcDbLine
 10
0.9842519685
 20
-1.1573019381
 30
0.0
 11
0.9842519685
 21
-1.0425485002
 31
0.0
  0
LINE
  5
29C
330
218
100
AcDbEntity
  8
0
  6
Continuous
 62
     7
370
    25
100
AcDbLine
 10
-1.2303149606
 20
-0.4339882268
 30
0.0
 11
-1.2303149606
 21
-0.6107982451
 31
0.0
  0
LINE
  5
29D
330
218
100
AcDbEntity
  8
0
  6
Continuous
 62
     7
370
    25
100
AcDbLine
 10
0.6682409555
 20
-1.5750911512
 30
0.0
 11
0.6960843287
 21
-1.5590122892
 31
0.0
  0
LINE
  5
29E
330
218
100
AcDbEntity
  8
0
  6
Continuous
 62
     7
370
    25
100
AcDbLine
 10
-0.9842519685
 20
-1.0426077317
 30
0.0
 11
-0.9842519685
 21
-1.1573019381
 31
0.0
  0
LINE
  5
29F
330
218
100
AcDbEntity
  8
0
  6
Continuous
 62
     7
370
    25
100
AcDbLine
 10
0.544337945
 20
-1.8411331073
 30
0.0
 11
0.5711593571
 21
-1.8256444026
 31
0.0
  0
LINE
  5
2A0
330
218
100
AcDbEntity
  8
0
  6
Continuous
 62
     7
370
    25
100
AcDbLine
 10
-0.8169291339
 20
-1.4742211819
 30
0.0
 11
-0.8169291339
 21
-1.4819667386
 31
0.0
  0
LINE
  5
2A1
330
218
100
AcDbEntity
  8
0
  6
Continuous
 62
     7
370
    25
100
AcDbLine
 10
1.1811023622
 20
-0.3696936747
 30
0.0
 11
1.1811023622
 21
-0.3074305626
 31
0.0
  0
LINE
  5
2A2
330
218
100
AcDbEntity
  8
0
  6
Continuous
 62
     7
370
    25
100
AcDbLine
 10
-1.1811023622
 20
-0.3071696841
 30
0.0
 11
-1.1811023622
 21
-0.3696936747
 31
0.0
  0
LINE
  5
2A3
330
218
100
AcDbEntity
  8
0
  6
Continuous
 62
     7
370
    25
100
AcDbLine
 10
-0.8769237641
 20
-0.1030908325
 30
0.0
 11
-0.8769237641
 21
-0.0779956181
 31
0.0
  0
LINE
  5
2A4
330
218
100
AcDbEntity
  8
0
  6
Continuous
 62
     7
370
    25
100
AcDbLine
 10
-0.8657882242
 20
-0.6195031661
 30
0.0
 11
-0.8657882242
 21
-0.5906337455
 31
0.0
  0
LINE
  5
2A5
330
218
100
AcDbEntity
  8
0
  6
Continuous
 62
     7
370
    25
100
AcDbLine
 10
-0.856762528
 20
-0.5758106002
 30
0.0
 11
-0.521978431
 21
-0.4138472004
 31
0.0
  0
LINE
  5
2A6
330
218
100
AcDbEntity
  8
0
  6
Continuous
 62
     7
370
    25
100
AcDbLine
 10
0.2755905512
 20
-0.4999371815
 30
0.0
 11
0.4125858961
 21
-0.4208514522
 31
0.0
  0
LINE
  5
2A7
330
218
100
AcDbEntity
  8
0
  6
Continuous
 62
     7
370
    25
100
AcDbLine
 10
-0.8699640517
 20
-1.1130178021
 30
0.0
 11
-0.8699640517
 21
-0.9362077838
 31
0.0
  0
LINE
  5
2A8
330
218
100
AcDbEntity
  8
0
  6
Continuous
 62
     7
370
    25
100
AcDbLine
 10
-0.6959712413
 20
-1.5590775837
 30
0.0
 11
-0.6681323916
 21
-1.5751538339
 31
0.0
  0
LINE
  5
2A9
330
218
100
AcDbEntity
  8
0
  6
Continuous
 62
     7
370
    25
100
AcDbLine
 10
-0.5776561303
 20
-1.6788145025
 30
0.0
 11
-0.5776561303
 21
-1.6563569821
 31
0.0
  0
LINE
  5
2AA
330
218
100
AcDbEntity
  8
0
  6
Continuous
 62
     7
370
    25
100
AcDbLine
 10
-0.5776561303
 20
-1.7431090546
 30
0.0
 11
-0.5776561303
 21
-1.7206515342
 31
0.0
  0
LINE
  5
2AB
330
218
100
AcDbEntity
  8
0
  6
Continuous
 62
     7
370
    25
100
AcDbLine
 10
-0.5776561303
 20
-1.8074036067
 30
0.0
 11
-0.5776561303
 21
-1.7849460863
 31
0.0
  0
LINE
  5
2AC
330
218
100
AcDbEntity
  8
0
  6
Continuous
 62
     7
370
    25
100
AcDbLine
 10
-0.5620811809
 20
-1.8308868171
 30
0.0
 11
-0.5442495107
 21
-1.8411841676
 31
0.0
  0
LINE
  5
2AD
330
218
100
AcDbEntity
  8
0
  6
Continuous
 62
     7
370
    25
100
AcDbLine
 10
-0.8351654896
 20
-0.6525113378
 30
0.0
 11
-0.8351654896
 21
-0.8518244494
 31
0.0
  0
LINE
  5
2AE
330
218
100
AcDbEntity
  8
0
  6
Continuous
 62
     8
370
    25
100
AcDbLine
 10
-0.481612099
 20
-0.2780287467
 30
0.0
 11
-0.481612099
 21
-0.2611278456
 31
0.0
  0
LINE
  5
2AF
330
218
100
AcDbEntity
  8
0
  6
Continuous
 62
     8
370
    25
100
AcDbLine
 10
-0.1948719476
 20
-0.5235458938
 30
0.0
 11
-0.1948719476
 21
-0.3767550296
 31
0.0
  0
LINE
  5
2B0
330
218
100
AcDbEntity
  8
0
  6
Continuous
 62
     8
370
    25
100
AcDbLine
 10
0.521978431
 20
-0.2525849441
 30
0.0
 11
0.521978431
 21
-0.4138472004
 31
0.0
  0
LINE
  5
2B1
330
218
100
AcDbEntity
  8
0
  6
Continuous
 62
     8
370
    25
100
AcDbLine
 10
-0.6959712413
 20
-1.5590775837
 30
0.0
 11
-0.6959712413
 21
-1.2036924148
 31
0.0
  0
LINE
  5
2B2
330
218
100
AcDbEntity
  8
0
  6
Continuous
 62
     8
370
    25
100
AcDbLine
 10
-0.7504351818
 20
-1.5980937973
 30
0.0
 11
-0.7712038005
 21
-1.6116346077
 31
0.0
  0
LINE
  5
2B3
330
218
100
AcDbEntity
  8
0
  6
Continuous
 62
     8
370
    25
100
AcDbLine
 10
-0.8282057929
 20
-0.9121012541
 30
0.0
 11
-0.8282057968
 21
-0.8799539803
 31
0.0
  0
ARC
  5
2B4
330
218
100
AcDbEntity
  8
0
  6
Continuous
 62
     7
370
    25
100
AcDbCircle
 10
1.7184333493
 20
-2.1677276782
 30
0.0
 40
3.335609198940462
100
AcDbArc
 50
121.0093709993
 51
140.9649501392
  0
ARC
  5
2B5
330
218
100
AcDbEntity
  8
0
  6
Continuous
 62
     7
370
    25
100
AcDbCircle
 10
0.8675252333
 20
-0.6937679778
 30
0.0
 40
1.634210316610273
100
AcDbArc
 50
89.8242773386
 51
122.0630978042
  0
ARC
  5
2B6
330
218
100
AcDbEntity
  8
0
  6
Continuous
 62
     7
370
    25
100
AcDbCircle
 10
0.81760716
 20
0.4282273089
 30
0.0
 40
0.4224385857394604
100
AcDbArc
 50
341.7273590475
 51
17.9261817229
  0
ARC
  5
2B7
330
218
100
AcDbEntity
  8
0
  6
Continuous
 62
     7
370
    25
100
AcDbCircle
 10
-0.8587368494
 20
-0.0788516764
 30
0.0
 40
0.018207050892718
100
AcDbArc
 50
139.2855683659
 51
177.3050759503
  0
ARC
  5
2B8
330
218
100
AcDbEntity
  8
0
  6
Continuous
 62
     7
370
    25
100
AcDbCircle
 10
0.8136013152
 20
0.4041360155
 30
0.0
 40
0.4265573128901775
100
AcDbArc
 50
341.7680168189
 51
359.8670841904
  0
ARC
  5
2B9
330
218
100
AcDbEntity
  8
0
  6
Continuous
 62
     7
370
    25
100
AcDbCircle
 10
0.0009630137
 20
-0.7835798471
 30
0.0
 40
1.935657892895509
100
AcDbArc
 50
65.9525834382
 51
114.855510434
  0
ARC
  5
2BA
330
218
100
AcDbEntity
  8
0
  6
Continuous
 62
     7
370
    25
100
AcDbCircle
 10
-0.81760716
 20
0.4282560818
 30
0.0
 40
0.4224385857394611
100
AcDbArc
 50
161.7273590475
 51
197.9261817229
  0
ARC
  5
2BB
330
218
100
AcDbEntity
  8
0
  6
Continuous
 62
     7
370
    25
100
AcDbCircle
 10
-0.8125994761
 20
0.4043182007
 30
0.0
 40
0.4275596097936133
100
AcDbArc
 50
180.1570183079
 51
197.8671956813
  0
ARC
  5
2BC
330
218
100
AcDbEntity
  8
0
  6
Continuous
 62
     7
370
    25
100
AcDbCircle
 10
-0.0028089531
 20
0.6295913157
 30
0.0
 40
1.026170858229937
100
AcDbArc
 50
242.1866956305
 51
300.9902513273
  0
ARC
  5
2BD
330
218
100
AcDbEntity
  8
0
  6
Continuous
 62
     7
370
    25
100
AcDbCircle
 10
-0.0000022462
 20
0.7672416307
 30
0.0
 40
1.112826544694506
100
AcDbArc
 50
251.7732996566
 51
288.2327009067
  0
ARC
  5
2BE
330
218
100
AcDbEntity
  8
0
  6
Continuous
 62
     7
370
    25
100
AcDbCircle
 10
0.8070109341
 20
-0.0908065712
 30
0.0
 40
0.4172843920296775
100
AcDbArc
 50
341.858524973
 51
18.5702019906
  0
ARC
  5
2BF
330
218
100
AcDbEntity
  8
0
  6
Continuous
 62
     7
370
    25
100
AcDbCircle
 10
-0.847905951
 20
-0.5913627103
 30
0.0
 40
0.01789712506572
100
AcDbArc
 50
119.6605400127
 51
177.6656495531
  0
ARC
  5
2C0
330
218
100
AcDbEntity
  8
0
  6
Continuous
 62
     7
370
    25
100
AcDbCircle
 10
0.8033876344
 20
-0.1187276392
 30
0.0
 40
0.4210229240220666
100
AcDbArc
 50
341.8894107594
 51
359.868454886
  0
ARC
  5
2C1
330
218
100
AcDbEntity
  8
0
  6
Continuous
 62
     7
370
    25
100
AcDbCircle
 10
-0.8070109341
 20
-0.0908431136
 30
0.0
 40
0.4172843920296794
100
AcDbArc
 50
161.858524973
 51
198.5702019906
  0
ARC
  5
2C2
330
218
100
AcDbEntity
  8
0
  6
Continuous
 62
     7
370
    25
100
AcDbCircle
 10
-0.8016447094
 20
-0.118472375
 30
0.0
 40
0.4227665052061255
100
AcDbArc
 50
180.1655976037
 51
198.4979161784
  0
ARC
  5
2C3
330
218
100
AcDbEntity
  8
0
  6
Continuous
 62
     7
370
    25
100
AcDbCircle
 10
-0.3373812243
 20
-0.0419285231
 30
0.0
 40
0.4152103457995261
100
AcDbArc
 50
199.5975163753
 51
243.6030687743
  0
ARC
  5
2C4
330
218
100
AcDbEntity
  8
0
  6
Continuous
 62
     7
370
    25
100
AcDbCircle
 10
0.0820902546
 20
-1.2265408492
 30
0.0
 40
0.9031627889879191
100
AcDbArc
 50
62.4278569678
 51
75.6814438397
  0
ARC
  5
2C5
330
218
100
AcDbEntity
  8
0
  6
Continuous
 62
     7
370
    25
100
AcDbCircle
 10
-0.0820902546
 20
-1.2265408492
 30
0.0
 40
0.9031627889879935
100
AcDbArc
 50
104.3185561603
 51
117.5721430322
  0
ARC
  5
2C6
330
218
100
AcDbEntity
  8
0
  6
Continuous
 62
     7
370
    25
100
AcDbCircle
 10
-0.0708139662
 20
-1.2091137597
 30
0.0
 40
0.8590235313559887
100
AcDbArc
 50
103.7911218704
 51
117.1322852785
  0
ARC
  5
2C7
330
218
100
AcDbEntity
  8
0
  6
Continuous
 62
     7
370
    25
100
AcDbCircle
 10
0.0553339665
 20
-1.2578723922
 30
0.0
 40
0.9100730713335684
100
AcDbArc
 50
66.8865508851
 51
75.9941614637
  0
ARC
  5
2C8
330
218
100
AcDbEntity
  8
0
  6
Continuous
 62
     7
370
    25
100
AcDbCircle
 10
0.8161556098
 20
-0.6106330241
 30
0.0
 40
0.4141593837754644
100
AcDbArc
 50
349.3638711315
 51
359.9771429359
  0
ARC
  5
2C9
330
218
100
AcDbEntity
  8
0
  6
Continuous
 62
     7
370
    25
100
AcDbCircle
 10
-0.8163948639
 20
-0.6106440328
 30
0.0
 40
0.4139201254874954
100
AcDbArc
 50
180.0213464213
 51
190.1956276617
  0
ARC
  5
2CA
330
218
100
AcDbEntity
  8
0
  6
Continuous
 62
     7
370
    25
100
AcDbCircle
 10
-0.0000060919
 20
-0.2879740194
 30
0.0
 40
1.450249849990365
100
AcDbArc
 50
242.567882972
 51
297.4374919607
  0
ARC
  5
2CB
330
218
100
AcDbEntity
  8
0
  6
Continuous
 62
     7
370
    25
100
AcDbCircle
 10
-0.0000049239
 20
-0.7934885795
 30
0.0
 40
1.180621961337627
100
AcDbArc
 50
242.549556126
 51
297.4558188051
  0
ARC
  5
2CC
330
218
100
AcDbEntity
  8
0
  6
Continuous
 62
     7
370
    25
100
AcDbCircle
 10
-0.3815883963
 20
0.1468845346
 30
0.0
 40
0.9191114950616631
100
AcDbArc
 50
226.7848273208
 51
240.4294302863
  0
ARC
  5
2CD
330
218
100
AcDbEntity
  8
0
  6
Continuous
 62
     8
370
    25
100
AcDbCircle
 10
0.8724054236
 20
0.9362607386
 30
0.0
 40
0.0041759956224136
100
AcDbArc
 50
60.2125726704
 51
88.191021718
  0
ARC
  5
2CE
330
218
100
AcDbEntity
  8
0
  6
Continuous
 62
     8
370
    25
100
AcDbCircle
 10
-0.8710379141
 20
-0.1036849843
 30
0.0
 40
0.0059157625264313
100
AcDbArc
 50
174.2357588656
 51
234.4665374107
  0
ARC
  5
2CF
330
218
100
AcDbEntity
  8
0
  6
Continuous
 62
     8
370
    25
100
AcDbCircle
 10
-0.5561084669
 20
0.558272012
 30
0.0
 40
0.71257206787263
100
AcDbArc
 50
201.4032730495
 51
243.2421010815
  0
ARC
  5
2D0
330
218
100
AcDbEntity
  8
0
  6
Continuous
 62
     8
370
    25
100
AcDbCircle
 10
-0.5561084669
 20
0.5331767975
 30
0.0
 40
0.7125720678724877
100
AcDbArc
 50
201.4032730495
 51
243.2421010815
  0
ARC
  5
2D1
330
218
100
AcDbEntity
  8
0
  6
Continuous
 62
     8
370
    25
100
AcDbCircle
 10
-0.8601134483
 20
-0.6201928483
 30
0.0
 40
0.0057165324589123
100
AcDbArc
 50
173.0705579325
 51
235.6317388291
  0
ARC
  5
2D2
330
218
100
AcDbEntity
  8
0
  6
Continuous
 62
     8
370
    25
100
AcDbCircle
 10
-0.547481893
 20
0.0395599149
 30
0.0
 40
0.7060191004128099
100
AcDbArc
 50
201.8962889021
 51
243.2019842465
  0
ARC
  5
2D3
330
218
100
AcDbEntity
  8
0
  6
Continuous
 62
     8
370
    25
100
AcDbCircle
 10
-0.547481893
 20
0.0106904944
 30
0.0
 40
0.7060191004127006
100
AcDbArc
 50
201.896288902
 51
243.2019842465
  0
ARC
  5
2D4
330
218
100
AcDbEntity
  8
0
  6
Continuous
 62
     8
370
    25
100
AcDbCircle
 10
-0.8606009002
 20
-1.114210182
 30
0.0
 40
0.0094387697458242
100
AcDbArc
 50
172.7425533655
 51
235.9597536469
  0
ARC
  5
2D5
330
218
100
AcDbEntity
  8
0
  6
Continuous
 62
     8
370
    25
100
AcDbCircle
 10
-0.5370575504
 20
-0.2920091683
 30
0.0
 40
0.6560841245760782
100
AcDbArc
 50
199.0156112042
 51
243.6555463059
  0
VIEWPORT
  5
2DA
330
218
100
AcDbEntity
  8
0
100
AcDbViewport
 10
0.0
 20
0.0
 30
0.0
 40
8.4
 41
6.4
 68
     1
 69
     1
 12
0.0
 22
-0.5905511811
 13
0.0
 23
0.0
 14
0.5
 24
0.5
 15
0.5
 25
0.5
 16
0.0
 26
0.0
 36
1.0
 17
0.0
 27
0.0
 37
0.0
 42
50.0
 43
0.0
 44
0.0
 45
2.931496063
 50
0.0
 51
0.0
 72
   100
 90
   557152
  1

281
     0
 71
     1
 74
     0
110
0.0
120
0.0
130
0.0
111
1.0
121
0.0
131
0.0
112
0.0
122
1.0
132
0.0
 79
     0
146
0.0
  0
ENDBLK
  5
21B
330
218
100
AcDbEntity
  8
0
100
AcDbBlockEnd
  0
ENDSEC
  0
SECTION
  2
ENTITIES
  0
SPLINE
  5
A3
330
1F
100
AcDbEntity
  8
0
  6
Continuous
 62
     7
370
    25
100
AcDbSpline
210
0.0
220
0.0
230
1.0
 70
     8
 71
     3
 72
     9
 73
     5
 74
     0
 42
0.000000001
 43
0.00000001
 40
0.0
 40
0.0
 40
0.0
 40
0.0
 40
0.5109646265450516
 40
1.0
 40
1.0
 40
1.0
 40
1.0
 10
-0.816835082340521
 20
-1.667515277664189
 30
0.0
 10
-0.8085290120957833
 20
-1.671841201037786
 30
0.0
 10
-0.7922733462175013
 20
-1.680307390571977
 30
0.0
 10
-0.7760178917601896
 20
-1.688773867092488
 30
0.0
 10
-0.7680683995189784
 20
-1.692914273599543
 30
0.0
  0
SPLINE
  5
A4
330
1F
100
AcDbEntity
  8
0
  6
Continuous
 62
     7
370
    25
100
AcDbSpline
210
0.0
220
0.0
230
1.0
 70
     8
 71
     3
 72
     9
 73
     5
 74
     0
 42
0.000000001
 43
0.00000001
 40
0.0
 40
0.0
 40
0.0
 40
0.0
 40
0.5105721620218837
 40
1.0
 40
1.0
 40
1.0
 40
1.0
 10
-0.8168873495094574
 20
-1.588758893282734
 30
0.0
 10
-0.8085817790403296
 20
-1.59308439510336
 30
0.0
 10
-0.792314596677238
 20
-1.601556266745354
 30
0.0
 10
-0.7760476688785604
 20
-1.610028373446319
 30
0.0
 10
-0.7680861815755075
 20
-1.614174858312093
 30
0.0
  0
SPLINE
  5
A5
330
1F
100
AcDbEntity
  8
0
  6
Continuous
 62
     7
370
    25
100
AcDbSpline
210
0.0
220
0.0
230
1.0
 70
     8
 71
     3
 72
     9
 73
     5
 74
     0
 42
0.000000001
 43
0.00000001
 40
0.0
 40
0.0
 40
0.0
 40
0.0
 40
0.5103461143904781
 40
1.0
 40
1.0
 40
1.0
 40
1.0
 10
-0.816893573102666
 20
-1.510003013996088
 30
0.0
 10
-0.8085875465160487
 20
-1.514328933714213
 30
0.0
 10
-0.7923122651875381
 20
-1.522805376653904
 30
0.0
 10
-0.7760370785496794
 20
-1.531282108341297
 30
0.0
 10
-0.7680678701734319
 20
-1.535432772949298
 30
0.0
  0
SPLINE
  5
A6
330
1F
100
AcDbEntity
  8
0
  6
Continuous
 62
     7
370
    25
100
AcDbSpline
210
0.0
220
0.0
230
1.0
 70
     8
 71
     3
 72
     9
 73
     5
 74
     0
 42
0.000000001
 43
0.00000001
 40
0.0
 40
0.0
 40
0.0
 40
0.0
 40
0.4999989546009357
 40
1.0
 40
1.0
 40
1.0
 40
1.0
 10
0.763988402457129
 20
-1.497393937072338
 30
0.0
 10
0.7722635445765798
 20
-1.493070271762478
 30
0.0
 10
0.7888138634188567
 20
-1.484422923062897
 30
0.0
 10
0.8053658557253238
 20
-1.475775628602733
 30
0.0
 10
0.8136418691819948
 20
-1.471451972332778
 30
0.0
  0
SPLINE
  5
A7
330
1F
100
AcDbEntity
  8
0
  6
Continuous
 62
     7
370
    25
100
AcDbSpline
210
0.0
220
0.0
230
1.0
 70
     8
 71
     3
 72
     9
 73
     5
 74
     0
 42
0.000000001
 43
0.00000001
 40
0.0
 40
0.0
 40
0.0
 40
0.0
 40
0.4999945235471794
 40
1.0
 40
1.0
 40
1.0
 40
1.0
 10
0.7670285543663588
 20
-1.5753541524387
 30
0.0
 10
0.7753344164388213
 20
-1.571028218947636
 30
0.0
 10
0.7919463225323858
 20
-1.562376257201385
 30
0.0
 10
0.8085584290202458
 20
-1.553724579742601
 30
0.0
 10
0.816864573239593
 20
-1.549398693632706
 30
0.0
  0
SPLINE
  5
A8
330
1F
100
AcDbEntity
  8
0
  6
Continuous
 62
     7
370
    25
100
AcDbSpline
210
0.0
220
0.0
230
1.0
 70
     8
 71
     3
 72
     9
 73
     5
 74
     0
 42
0.000000001
 43
0.00000001
 40
0.0
 40
0.0
 40
0.0
 40
0.0
 40
0.4999943113556918
 40
0.9999999999999999
 40
0.9999999999999999
 40
0.9999999999999999
 40
0.9999999999999999
 10
0.7670431882004887
 20
-1.654077908558255
 30
0.0
 10
0.7753490028728115
 20
-1.64975197713106
 30
0.0
 10
0.7919608212149088
 20
-1.64110001584081
 30
0.0
 10
0.8085727847187789
 20
-1.632448349853327
 30
0.0
 10
0.8168788609702656
 20
-1.628122467643334
 30
0.0
  0
SPLINE
  5
A9
330
1F
100
AcDbEntity
  8
0
  6
Continuous
 62
     7
370
    25
100
AcDbSpline
210
0.0
220
0.0
230
1.0
 70
     8
 71
     3
 72
     9
 73
     5
 74
     0
 42
0.000000001
 43
0.00000001
 40
0.0
 40
0.0
 40
0.0
 40
0.0
 40
0.4999941605065662
 40
1.0
 40
1.0
 40
1.0
 40
1.0
 10
0.7670720019292492
 20
-1.732813638329093
 30
0.0
 10
0.7753781738190269
 20
-1.728487578537025
 30
0.0
 10
0.7919907116161925
 20
-1.719835357903717
 30
0.0
 10
0.8086033328154163
 20
-1.711183440412388
 30
0.0
 10
0.8169097404243205
 20
-1.706857431143909
 30
0.0
  0
SPLINE
  5
AA
330
1F
100
AcDbEntity
  8
0
  6
Continuous
 62
     7
370
    25
100
AcDbSpline
210
0.0
220
0.0
230
1.0
 70
     8
 71
     3
 72
     9
 73
     5
 74
     0
 42
0.000000001
 43
0.00000001
 40
0.0
 40
0.0
 40
0.0
 40
0.0
 40
0.4999940154380786
 40
1.0
 40
1.0
 40
1.0
 40
1.0
 10
-0.7670397029489912
 20
-1.692378493114889
 30
0.0
 10
-0.7753456760822828
 20
-1.696704559374634
 30
0.0
 10
-0.7919578211816882
 20
-1.705356795453811
 30
0.0
 10
-0.8085700688699393
 20
-1.714008720859731
 30
0.0
 10
-0.8168762921310899
 20
-1.718334735340674
 30
0.0
  0
SPLINE
  5
AB
330
1F
100
AcDbEntity
  8
0
  6
Continuous
 62
     7
370
    25
100
AcDbSpline
210
0.0
220
0.0
230
1.0
 70
     8
 71
     3
 72
     9
 73
     5
 74
     0
 42
0.000000001
 43
0.00000001
 40
0.0
 40
0.0
 40
0.0
 40
0.0
 40
0.4999949207680179
 40
1.0
 40
1.0
 40
1.0
 40
1.0
 10
-0.7671635091115394
 20
-1.613694318486848
 30
0.0
 10
-0.7754692028800895
 20
-1.618020053750208
 30
0.0
 10
-0.7920807591650859
 20
-1.626671612163472
 30
0.0
 10
-0.8086923132015855
 20
-1.635322906921343
 30
0.0
 10
-0.816998174593772
 20
-1.639648598242212
 30
0.0
  0
SPLINE
  5
AC
330
1F
100
AcDbEntity
  8
0
  6
Continuous
 62
     7
370
    25
100
AcDbSpline
210
0.0
220
0.0
230
1.0
 70
     8
 71
     3
 72
     9
 73
     5
 74
     0
 42
0.000000001
 43
0.00000001
 40
0.0
 40
0.0
 40
0.0
 40
0.0
 40
0.4999947071738971
 40
1.0
 40
1.0
 40
1.0
 40
1.0
 10
-0.7670246990360026
 20
-1.534889453173616
 30
0.0
 10
-0.7753302147660038
 20
-1.53921528604078
 30
0.0
 10
-0.7919414220664698
 20
-1.547867043359601
 30
0.0
 10
-0.8085528318005762
 20
-1.5565185259293
 30
0.0
 10
-0.8168586245889327
 20
-1.560844313004942
 30
0.0
  0
SPLINE
  5
AD
330
1F
100
AcDbEntity
  8
0
  6
Continuous
 62
     7
370
    25
100
AcDbSpline
210
0.0
220
0.0
230
1.0
 70
     8
 71
     3
 72
     9
 73
     5
 74
     0
 42
0.000000001
 43
0.00000001
 40
0.0
 40
0.0
 40
0.0
 40
0.0
 40
0.5105399007375344
 40
1.0
 40
1.0
 40
1.0
 40
1.0
 10
0.8168877774213769
 20
-1.600227225049487
 30
0.0
 10
0.8085815249954917
 20
-1.595901270623121
 30
0.0
 10
0.7923119789445638
 20
-1.587427977115372
 30
0.0
 10
0.7760425428803643
 20
-1.578954382590367
 30
0.0
 10
0.7680793030894368
 20
-1.574806896173049
 30
0.0
  0
SPLINE
  5
AE
330
1F
100
AcDbEntity
  8
0
  6
Continuous
 62
     7
370
    25
100
AcDbSpline
210
0.0
220
0.0
230
1.0
 70
     8
 71
     3
 72
     9
 73
     5
 74
     0
 42
0.000000001
 43
0.00000001
 40
0.0
 40
0.0
 40
0.0
 40
0.0
 40
0.5103300408432475
 40
1.0
 40
1.0
 40
1.0
 40
1.0
 10
0.8169025392920899
 20
-1.678969784708297
 30
0.0
 10
0.8085966241098423
 20
-1.674643987947644
 30
0.0
 10
0.7923210484676108
 20
-1.666167518967876
 30
0.0
 10
0.7760456116911562
 20
-1.657690783828807
 30
0.0
 10
0.7680760192295711
 20
-1.653539981279476
 30
0.0
  0
SPLINE
  5
AF
330
1F
100
AcDbEntity
  8
0
  6
Continuous
 62
     7
370
    25
100
AcDbSpline
210
0.0
220
0.0
230
1.0
 70
     8
 71
     3
 72
     9
 73
     5
 74
     0
 42
0.000000001
 43
0.00000001
 40
0.0
 40
0.0
 40
0.0
 40
0.0
 40
0.5111166407391914
 40
1.0
 40
1.0
 40
1.0
 40
1.0
 10
0.8168354980999362
 20
-1.757678768134973
 30
0.0
 10
0.8085292662280842
 20
-1.753352859664479
 30
0.0
 10
0.7922781188190713
 20
-1.744889217267243
 30
0.0
 10
0.7760272010009199
 20
-1.736425280544467
 30
0.0
 10
0.7680823977069106
 20
-1.732287402726865
 30
0.0
  0
SPLINE
  5
C3
330
1F
100
AcDbEntity
  8
0
  6
Continuous
 62
     7
370
    25
100
AcDbSpline
210
0.0
220
0.0
230
1.0
 70
     8
 71
     3
 72
    17
 73
    13
 74
     0
 42
0.000000001
 43
0.00000001
 40
0.0
 40
0.0
 40
0.0
 40
0.0
 40
0.2119727863008629
 40
0.3821658407657296
 40
0.517123301581584
 40
0.6227759887474347
 40
0.7048234569944803
 40
0.7970039815088682
 40
0.8997238228555268
 40
0.9489202099948939
 40
0.9737144800607185
 40
1.0
 40
1.0
 40
1.0
 40
1.0
 10
-1.013779527503573
 20
-0.4527559055118111
 30
0.0
 10
-1.025891584959568
 20
-0.4528529016216878
 30
0.0
 10
-1.047728419309157
 20
-0.4530277759559311
 30
0.0
 10
-1.07724246661504
 20
-0.4545998053328147
 30
0.0
 10
-1.100615101021058
 20
-0.456860554344467
 30
0.0
 10
-1.118847125916432
 20
-0.4596288764658726
 30
0.0
 10
-1.13449788953698
 20
-0.4630362251622349
 30
0.0
 10
-1.149560958458714
 20
-0.4677981310664381
 30
0.0
 10
-1.1622502374434
 20
-0.4743576385735923
 30
0.0
 10
-1.168838839342653
 20
-0.4822851332392132
 30
0.0
 10
-1.170960016006683
 20
-0.4876926757533894
 30
0.0
 10
-1.171157973877782
 20
-0.4906197301049852
 30
0.0
 10
-1.171259842455695
 20
-0.4921259842519686
 30
0.0
  0
SPLINE
  5
C4
330
1F
100
AcDbEntity
  8
0
  6
Continuous
 62
     7
370
    25
100
AcDbSpline
210
0.0
220
0.0
230
1.0
 70
     8
 71
     3
 72
    17
 73
    13
 74
     0
 42
0.000000001
 43
0.00000001
 40
0.0
 40
0.0
 40
0.0
 40
0.0
 40
0.0262855199392809
 40
0.051079790005105
 40
0.1002761771444728
 40
0.2029960184911314
 40
0.2951765430055194
 40
0.3772240112525651
 40
0.4828766984184157
 40
0.6178341592342702
 40
0.7880272136991379
 40
1.0
 40
1.0
 40
1.0
 40
1.0
 10
1.171259842455695
 20
-0.4921259842519687
 30
0.0
 10
1.171157973877782
 20
-0.4906197301049854
 30
0.0
 10
1.170960016006683
 20
-0.4876926757533898
 30
0.0
 10
1.168838839342653
 20
-0.4822851332392131
 30
0.0
 10
1.1622502374434
 20
-0.4743576385735925
 30
0.0
 10
1.149560958458714
 20
-0.4677981310664381
 30
0.0
 10
1.13449788953698
 20
-0.4630362251622347
 30
0.0
 10
1.118847125916432
 20
-0.4596288764658727
 30
0.0
 10
1.100615101021058
 20
-0.4568605543444671
 30
0.0
 10
1.07724246661504
 20
-0.4545998053328147
 30
0.0
 10
1.047728419309158
 20
-0.4530277759559314
 30
0.0
 10
1.025891584959568
 20
-0.4528529016216878
 30
0.0
 10
1.013779527503573
 20
-0.4527559055118111
 30
0.0
  0
SPLINE
  5
E5
330
1F
100
AcDbEntity
  8
0
  6
Continuous
 62
     7
370
    25
100
AcDbSpline
210
0.0
220
0.0
230
1.0
 70
     8
 71
     3
 72
     9
 73
     5
 74
     0
 42
0.000000001
 43
0.00000001
 40
0.0
 40
0.0
 40
0.0
 40
0.0
 40
0.7297370716776518
 40
0.9999999999999999
 40
0.9999999999999999
 40
0.9999999999999999
 40
0.9999999999999999
 10
-0.8071539560146557
 20
-1.822834645669382
 30
0.0
 10
-0.8104562114066247
 20
-1.823817595218223
 30
0.0
 10
-0.8149814788216093
 20
-1.825164586603189
 30
0.0
 10
-0.8123738537590636
 20
-1.826518915340567
 30
0.0
 10
-0.8116691093736935
 20
-1.826884940191043
 30
0.0
  0
SPLINE
  5
E6
330
1F
100
AcDbEntity
  8
0
  6
Continuous
 62
     7
370
    25
100
AcDbSpline
210
0.0
220
0.0
230
1.0
 70
     8
 71
     3
 72
    14
 73
    10
 74
     0
 42
0.000000001
 43
0.00000001
 40
0.0
 40
0.0
 40
0.0
 40
0.0
 40
0.25
 40
0.25
 40
0.5
 40
0.5
 40
0.75
 40
0.75
 40
1.0
 40
1.0
 40
1.0
 40
1.0
 10
-0.8071539560147521
 20
-1.822834645669291
 30
0.0
 10
-0.7922866892885682
 20
-1.821355942213976
 30
0.0
 10
-0.7603925931155687
 20
-1.819877238758662
 30
0.0
 10
-0.6664735383149449
 20
-1.816919831848031
 30
0.0
 10
-0.6044730113941397
 20
-1.815441128392717
 30
0.0
 10
-0.45801567848499
 20
-1.812483721482087
 30
0.0
 10
-0.373596971289555
 20
-1.811005018026772
 30
0.0
 10
-0.1927625068775706
 20
-1.808047611116142
 30
0.0
 10
-0.0963937911759364
 20
-1.806568907660827
 30
0.0
 10
0.0
 20
-1.805090204205512
 30
0.0
  0
SPLINE
  5
E7
330
1F
100
AcDbEntity
  8
0
  6
Continuous
 62
     7
370
    25
100
AcDbSpline
210
0.0
220
0.0
230
1.0
 70
     8
 71
     3
 72
    22
 73
    18
 74
     0
 42
0.000000001
 43
0.00000001
 40
0.0
 40
0.0
 40
0.0
 40
0.0
 40
0.125
 40
0.125
 40
0.2500000000000001
 40
0.2500000000000001
 40
0.3750000000000001
 40
0.3750000000000001
 40
0.5000000000000001
 40
0.5000000000000001
 40
0.6250000000000001
 40
0.6250000000000001
 40
0.7500000000000002
 40
0.7500000000000002
 40
0.8750000000000001
 40
0.8750000000000001
 40
1.0
 40
1.0
 40
1.0
 40
1.0
 10
-0.0000000000000034
 20
-1.805090204205512
 30
0.0
 10
0.0534678867798434
 20
-1.804269994231758
 30
0.0
 10
0.1069344514608249
 20
-1.803449784258005
 30
0.0
 10
0.2118154841167054
 20
-1.801809364310499
 30
0.0
 10
0.2632273587013925
 20
-1.800989154336746
 30
0.0
 10
0.362023131186455
 20
-1.799348734389239
 30
0.0
 10
0.4094045861666678
 20
-1.798528524415486
 30
0.0
 10
0.4983184323496187
 20
-1.796888104467979
 30
0.0
 10
0.5398486249822948
 20
-1.796067894494226
 30
0.0
 10
0.6154636356177826
 20
-1.794427474546719
 30
0.0
 10
0.6495465838904484
 20
-1.793607264572966
 30
0.0
 10
0.7089569165251379
 20
-1.791966844625459
 30
0.0
 10
0.734282831849612
 20
-1.791146634651706
 30
0.0
 10
0.7752053807180506
 20
-1.7895062147042
 30
0.0
 10
0.7908010023713511
 20
-1.788686004730446
 30
0.0
 10
0.8116631368701533
 20
-1.787045584782941
 30
0.0
 10
0.8169291338582689
 20
-1.786225374809187
 30
0.0
 10
0.8169291338582678
 20
-1.785405164835433
 30
0.0
  0
SPLINE
  5
E8
330
1F
100
AcDbEntity
  8
0
  6
Continuous
 62
     7
370
    25
100
AcDbSpline
210
0.0
220
0.0
230
1.0
 70
     8
 71
     3
 72
    17
 73
    13
 74
     0
 42
0.000000001
 43
0.00000001
 40
0.0
 40
0.0
 40
0.0
 40
0.0
 40
0.0997901348419058
 40
0.1998134531928053
 40
0.2998367715437045
 40
0.3998600898946039
 40
0.4998834082455032
 40
0.5999067265964025
 40
0.6999300449473023
 40
0.7999533632982014
 40
0.8999766816491006
 40
0.9999999999999999
 40
0.9999999999999999
 40
0.9999999999999999
 40
0.9999999999999999
 10
-0.816917190570244
 20
-1.746035089512384
 30
0.0
 10
-0.8159363999780987
 20
-1.745567568688227
 30
0.0
 10
-0.813972526942091
 20
-1.744631434565726
 30
0.0
 10
-0.7980498336363457
 20
-1.743226687144882
 30
0.0
 10
-0.7728239683238364
 20
-1.741820847249852
 30
0.0
 10
-0.737683451376175
 20
-1.740415007354823
 30
0.0
 10
-0.6933241274418833
 20
-1.739009167459793
 30
0.0
 10
-0.6402283244348115
 20
-1.737603327564764
 30
0.0
 10
-0.5791107735100363
 20
-1.736197487669733
 30
0.0
 10
-0.5106261662362689
 20
-1.734791647774705
 30
0.0
 10
-0.4360427713462025
 20
-1.733385807879675
 30
0.0
 10
-0.3818692970829566
 20
-1.732448581282989
 30
0.0
 10
-0.3547825599513335
 20
-1.731979967984646
 30
0.0
  0
SPLINE
  5
EA
330
1F
100
AcDbEntity
  8
0
  6
Continuous
 62
     7
370
    25
100
AcDbSpline
210
0.0
220
0.0
230
1.0
 70
     8
 71
     3
 72
    19
 73
    15
 74
     0
 42
0.000000001
 43
0.00000001
 40
0.0
 40
0.0
 40
0.0
 40
0.0
 40
0.085948646289751
 40
0.1718912853318628
 40
0.2578047346195019
 40
0.3436815288024319
 40
0.4295491412693385
 40
0.5154515726662636
 40
0.6013940493779174
 40
0.6873527639594966
 40
0.7732952921425014
 40
0.8592008940647504
 40
0.9450809052546282
 40
1.0
 40
1.0
 40
1.0
 40
1.0
 10
-0.3333930050767209
 20
-1.757669284650514
 30
0.0
 10
-0.3546581188008104
 20
-1.758059841429301
 30
0.0
 10
-0.3971868599567704
 20
-1.758840927689513
 30
0.0
 10
-0.4567762603556201
 20
-1.760012421941481
 30
0.0
 10
-0.5126216408299422
 20
-1.761184036195355
 30
0.0
 10
-0.563938051722566
 20
-1.762355899547843
 30
0.0
 10
-0.6102267279425544
 20
-1.763527905533072
 30
0.0
 10
-0.6511074341501355
 20
-1.7646996008011
 30
0.0
 10
-0.6863542188668346
 20
-1.765871104422553
 30
0.0
 10
-0.7156775793498609
 20
-1.767042546502583
 30
0.0
 10
-0.7389101647209888
 20
-1.768214073984869
 30
0.0
 10
-0.7554452230743314
 20
-1.769385799218273
 30
0.0
 10
-0.7649879715214524
 20
-1.770416961148808
 30
0.0
 10
-0.7661249219365968
 20
-1.771057094246385
 30
0.0
 10
-0.7665683927040804
 20
-1.771306779995467
 30
0.0
  0
SPLINE
  5
EB
330
1F
100
AcDbEntity
  8
0
  6
Continuous
 62
     7
370
    25
100
AcDbSpline
210
0.0
220
0.0
230
1.0
 70
     8
 71
     3
 72
    41
 73
    37
 74
     0
 42
0.000000001
 43
0.00000001
 40
0.0
 40
0.0
 40
0.0
 40
0.0
 40
0.0032017850445271
 40
0.0335153312293742
 40
0.0638164742853421
 40
0.0941176170165632
 40
0.1244311626306838
 40
0.1547555834398958
 40
0.1850813466422964
 40
0.2153980624890033
 40
0.2457016290616522
 40
0.2760011120869547
 40
0.3063113692222544
 40
0.3366338680767783
 40
0.3669603435179526
 40
0.3972799592275365
 40
0.4275864506447337
 40
0.457885276444273
 40
0.488192283309299
 40
0.5185123390282529
 40
0.5488388628819991
 40
0.5791609884055775
 40
0.6094707059877418
 40
0.6397700280256203
 40
0.6700740876593921
 40
0.7003913426812998
 40
0.7307172909879956
 40
0.7610414306558475
 40
0.7913544048183173
 40
0.8216551511509216
 40
0.8519565684098168
 40
0.8822705736812073
 40
0.9125952053625784
 40
0.9429207727137856
 40
0.9732370023637537
 40
1.0
 40
1.0
 40
1.0
 40
1.0
 10
0.7670421578058234
 20
-1.811442495352688
 30
0.0
 10
0.7670772596020309
 20
-1.811483731539288
 30
0.0
 10
0.76744469473908
 20
-1.811915379645988
 30
0.0
 10
0.7618767896875701
 20
-1.81273763791725
 30
0.0
 10
0.7497991716639297
 20
-1.813909544535317
 30
0.0
 10
0.7303042361554837
 20
-1.815081484025362
 30
0.0
 10
0.7045800021069195
 20
-1.816253111606988
 30
0.0
 10
0.6727090966318195
 20
-1.817424593674773
 30
0.0
 10
0.6350657863827366
 20
-1.818596057878103
 30
0.0
 10
0.5919407510605926
 20
-1.819767639792463
 30
0.0
 10
0.5436506317828299
 20
-1.82093949368994
 30
0.0
 10
0.4904868773964293
 20
-1.822111485537041
 30
0.0
 10
0.4329864937110591
 20
-1.823283173585728
 30
0.0
 10
0.3717264482720797
 20
-1.824454679559856
 30
0.0
 10
0.3072643800783622
 20
-1.825626134642568
 30
0.0
 10
0.2401598360346106
 20
-1.826797677413128
 30
0.0
 10
0.1709722223465396
 20
-1.827969449892198
 30
0.0
 10
0.1002601470607523
 20
-1.829141465871136
 30
0.0
 10
0.0286554103584532
 20
-1.830313225433578
 30
0.0
 10
-0.043204565626991
 20
-1.831484762471813
 30
0.0
 10
-0.1146980788167807
 20
-1.83265621691663
 30
0.0
 10
-0.1852004315230692
 20
-1.833827727681134
 30
0.0
 10
-0.2540895092293275
 20
-1.83499942684836
 30
0.0
 10
-0.3207291762794303
 20
-1.836171425424067
 30
0.0
 10
-0.3844957342120187
 20
-1.837343265344397
 30
0.0
 10
-0.4449112216371633
 20
-1.838514839956853
 30
0.0
 10
-0.5014930110679721
 20
-1.839686301997963
 30
0.0
 10
-0.5537605758073841
 20
-1.840857787031561
 30
0.0
 10
-0.6012311229295271
 20
-1.842029425297861
 30
0.0
 10
-0.6434157719799662
 20
-1.8432013697027
 30
0.0
 10
-0.6798239878214243
 20
-1.844373290452862
 30
0.0
 10
-0.710258577985183
 20
-1.845544912127773
 30
0.0
 10
-0.7346013356546941
 20
-1.846716389136903
 30
0.0
 10
-0.7524542043637845
 20
-1.847887861170597
 30
0.0
 10
-0.7639877330084127
 20
-1.849013825046315
 30
0.0
 10
-0.7661461495363865
 20
-1.849749546071086
 30
0.0
 10
-0.767158176138403
 20
-1.850094506943596
 30
0.0
  0
SPLINE
  5
ED
330
1F
100
AcDbEntity
  8
0
  6
Continuous
 62
     7
370
    25
100
AcDbSpline
210
0.0
220
0.0
230
1.0
 70
     8
 71
     3
 72
    19
 73
    15
 74
     0
 42
0.000000001
 43
0.00000001
 40
0.0
 40
0.0
 40
0.0
 40
0.0
 40
0.0030447152032488
 40
0.0936770138211353
 40
0.1843093124390217
 40
0.2749416110569082
 40
0.3655739096747947
 40
0.4562062082926813
 40
0.5468385069105678
 40
0.6374708055284545
 40
0.7281031041463409
 40
0.8187354027642274
 40
0.9093677013821139
 40
1.0
 40
1.0
 40
1.0
 40
1.0
 10
-0.8163941341540557
 20
-1.796877079940866
 30
0.0
 10
-0.8164086053329117
 20
-1.796863216137164
 30
0.0
 10
-0.8168538413340561
 20
-1.796436667299502
 30
0.0
 10
-0.8103844875868499
 20
-1.795597433427879
 30
0.0
 10
-0.7964136543434419
 20
-1.794359378325997
 30
0.0
 10
-0.7737448409933884
 20
-1.793121323224115
 30
0.0
 10
-0.7437801048531162
 20
-1.791883268122232
 30
0.0
 10
-0.7064948127776974
 20
-1.790645213020349
 30
0.0
 10
-0.6623389776272897
 20
-1.789407157918468
 30
0.0
 10
-0.6117144305013178
 20
-1.788169102816584
 30
0.0
 10
-0.5551435627903138
 20
-1.786931047714703
 30
0.0
 10
-0.4930920282100855
 20
-1.785692992612819
 30
0.0
 10
-0.4264803554458553
 20
-1.784454937510938
 30
0.0
 10
-0.3786818251161741
 20
-1.783629567443016
 30
0.0
 10
-0.3547825599513335
 20
-1.783216882409055
 30
0.0
  0
SPLINE
  5
EE
330
1F
100
AcDbEntity
  8
0
  6
Continuous
 62
     7
370
    25
100
AcDbSpline
210
0.0
220
0.0
230
1.0
 70
     8
 71
     3
 72
    22
 73
    18
 74
     0
 42
0.000000001
 43
0.00000001
 40
0.0
 40
0.0
 40
0.0
 40
0.0
 40
0.0075654654145675
 40
0.0789812602066177
 40
0.1503158835745995
 40
0.2215693355377978
 40
0.2927416161155662
 40
0.3638327253273235
 40
0.4348426631925556
 40
0.5057714297308148
 40
0.5766190249617215
 40
0.6473854489049623
 40
0.7180707015802921
 40
0.788674783007535
 40
0.8591976932065819
 40
0.9296394321973938
 40
1.0
 40
1.0
 40
1.0
 40
1.0
 10
0.8073746163814277
 20
-1.831915159331506
 30
0.0
 10
0.8074967251335943
 20
-1.831947528830281
 30
0.0
 10
0.8087715050182255
 20
-1.832285456990072
 30
0.0
 10
0.8017422628504717
 20
-1.832929580022046
 30
0.0
 10
0.7856549272996484
 20
-1.833847257671495
 30
0.0
 10
0.7588559563955711
 20
-1.834765042354771
 30
0.0
 10
0.7230004361358102
 20
-1.835682798406162
 30
0.0
 10
0.6782053836857252
 20
-1.836600562112699
 30
0.0
 10
0.6251386404356492
 20
-1.83751832377693
 30
0.0
 10
0.5644511298959193
 20
-1.83843608595924
 30
0.0
 10
0.4969181722145772
 20
-1.839353848099888
 30
0.0
 10
0.4233895803779579
 20
-1.840271609882341
 30
0.0
 10
0.3447899387024159
 20
-1.841189373128355
 30
0.0
 10
0.2621030464830052
 20
-1.842107130878859
 30
0.0
 10
0.1763643773869583
 20
-1.84302490910666
 30
0.0
 10
0.0886329784413167
 20
-1.843942611034824
 30
0.0
 10
0.0295329693286691
 20
-1.844554954834748
 30
0.0
 10
0.0000000000683994
 20
-1.844860950229527
 30
0.0
  0
SPLINE
  5
EF
330
1F
100
AcDbEntity
  8
0
  6
Continuous
 62
     7
370
    25
100
AcDbSpline
210
0.0
220
0.0
230
1.0
 70
     8
 71
     3
 72
    24
 73
    20
 74
     0
 42
0.000000001
 43
0.00000001
 40
0.0
 40
0.0
 40
0.0
 40
0.0
 40
0.0613419591689249
 40
0.1226230876803281
 40
0.1838433855472259
 40
0.2450028527826733
 40
0.3061014893997631
 40
0.3671392954116288
 40
0.4281162708314419
 40
0.4890324156724138
 40
0.5498877299477964
 40
0.6106822136708799
 40
0.6714158668549953
 40
0.7320886895135136
 40
0.7927006816598458
 40
0.8532518433074439
 40
0.9137421744697996
 40
0.9741716751604461
 40
1.0
 40
1.0
 40
1.0
 40
1.0
 10
0.0000000000683994
 20
-1.844860950229525
 30
0.0
 10
-0.0253162535203796
 20
-1.845123580438988
 30
0.0
 10
-0.0759236554620981
 20
-1.845648580416797
 30
0.0
 10
-0.151008641153083
 20
-1.846436680088174
 30
0.0
 10
-0.2245714156740134
 20
-1.847224723829011
 30
0.0
 10
-0.2959364923875058
 20
-1.848012782533074
 30
0.0
 10
-0.3644584268529465
 20
-1.848800837232832
 30
0.0
 10
-0.4295167193939848
 20
-1.849588893002633
 30
0.0
 10
-0.4905243374254216
 20
-1.850376948486341
 30
0.0
 10
-0.5469323152958179
 20
-1.851165004041193
 30
0.0
 10
-0.5982345784623491
 20
-1.85195305959244
 30
0.0
 10
-0.6439736334939131
 20
-1.85274111508245
 30
0.0
 10
-0.683740161610497
 20
-1.853529170815913
 30
0.0
 10
-0.717193440454727
 20
-1.854317225633344
 30
0.0
 10
-0.74400178009172
 20
-1.85510528386193
 30
0.0
 10
-0.7640785876330474
 20
-1.855893329374944
 30
0.0
 10
-0.7767142113454666
 20
-1.856681422267964
 30
0.0
 10
-0.7824660826259533
 20
-1.857319219303658
 30
0.0
 10
-0.7814009383491414
 20
-1.857694606691104
 30
0.0
 10
-0.7810820004184275
 20
-1.857807009563818
 30
0.0
  0
SPLINE
  5
F0
330
1F
100
AcDbEntity
  8
0
  6
Continuous
 62
     7
370
    25
100
AcDbSpline
210
0.0
220
0.0
230
1.0
 70
     8
 71
     3
 72
    22
 73
    18
 74
     0
 42
0.000000001
 43
0.00000001
 40
0.0
 40
0.0
 40
0.0
 40
0.0
 40
0.125
 40
0.125
 40
0.25
 40
0.25
 40
0.375
 40
0.375
 40
0.5
 40
0.5
 40
0.625
 40
0.625
 40
0.75
 40
0.75
 40
0.875
 40
0.875
 40
1.0
 40
1.0
 40
1.0
 40
1.0
 10
-0.0000000000000034
 20
-1.490129574283858
 30
0.0
 10
0.0534678867798427
 20
-1.489309364310105
 30
0.0
 10
0.1069344514608241
 20
-1.488489154336352
 30
0.0
 10
0.2118154841167032
 20
-1.486848734388845
 30
0.0
 10
0.263227358701389
 20
-1.486028524415092
 30
0.0
 10
0.3620231311864502
 20
-1.484388104467585
 30
0.0
 10
0.4094045861666626
 20
-1.483567894493832
 30
0.0
 10
0.4983184323496129
 20
-1.481927474546326
 30
0.0
 10
0.5398486249822887
 20
-1.481107264572572
 30
0.0
 10
0.6154636356177765
 20
-1.479466844625066
 30
0.0
 10
0.6495465838904426
 20
-1.478646634651312
 30
0.0
 10
0.7089569165251323
 20
-1.477006214703806
 30
0.0
 10
0.734282831849607
 20
-1.476186004730053
 30
0.0
 10
0.7752053807180463
 20
-1.474545584782545
 30
0.0
 10
0.7908010023713471
 20
-1.473725374808793
 30
0.0
 10
0.8116631368701513
 20
-1.472084954861286
 30
0.0
 10
0.8169291338582679
 20
-1.471264744887533
 30
0.0
 10
0.8169291338582678
 20
-1.47044453491378
 30
0.0
  0
SPLINE
  5
F1
330
1F
100
AcDbEntity
  8
0
  6
Continuous
 62
     7
370
    25
100
AcDbSpline
210
0.0
220
0.0
230
1.0
 70
     8
 71
     3
 72
    36
 73
    32
 74
     0
 42
0.000000001
 43
0.00000001
 40
0.0
 40
0.0
 40
0.0
 40
0.0
 40
0.0047408633390248
 40
0.0407855334327382
 40
0.0768278522763053
 40
0.1128729079033931
 40
0.1489177026818981
 40
0.1849598212919655
 40
0.2210045348981449
 40
0.2570496824194368
 40
0.2930919134455932
 40
0.3291362526465886
 40
0.3651816385540633
 40
0.4012240650639665
 40
0.4372679940796581
 40
0.4733135473872687
 40
0.5093562712752561
 40
0.5453997778552999
 40
0.5814454169579032
 40
0.6174885130162829
 40
0.6535316091805656
 40
0.6895772481998935
 40
0.7256207547330067
 40
0.7616634793513578
 40
0.7977090331033446
 40
0.8337529617946456
 40
0.8697953881927953
 40
0.9058407744338004
 40
0.941885113220449
 40
0.9779273411223108
 40
0.9999999999999999
 40
0.9999999999999999
 40
0.9999999999999999
 40
0.9999999999999999
 10
0.7637671208858904
 20
-1.497251772862736
 30
0.0
 10
0.7635883880422336
 20
-1.497311492433161
 30
0.0
 10
0.7620507536813175
 20
-1.497825258463092
 30
0.0
 10
0.7505858162627865
 20
-1.498793033478487
 30
0.0
 10
0.7288442318952106
 20
-1.5001553269967
 30
0.0
 10
0.6975960148244923
 20
-1.501517414949311
 30
0.0
 10
0.658411268778911
 20
-1.502879518395498
 30
0.0
 10
0.611360329878336
 20
-1.504241811750546
 30
0.0
 10
0.5570825409872331
 20
-1.505603921495367
 30
0.0
 10
0.4962735958043172
 20
-1.506966002227923
 30
0.0
 10
0.4295935741467649
 20
-1.508328289624307
 30
0.0
 10
0.3578153652896904
 20
-1.50969042625269
 30
0.0
 10
0.2818456618394167
 20
-1.511052491008038
 30
0.0
 10
0.2025440711124539
 20
-1.512414764375461
 30
0.0
 10
0.1208367067213
 20
-1.513776930115648
 30
0.0
 10
0.0377163464447894
 20
-1.51513898406483
 30
0.0
 10
-0.0458549509565921
 20
-1.516501236277676
 30
0.0
 10
-0.1288791176180915
 20
-1.517863432335911
 30
0.0
 10
-0.2103844393876835
 20
-1.519225480958516
 30
0.0
 10
-0.2894223531788793
 20
-1.520587706601537
 30
0.0
 10
-0.3650144449961849
 20
-1.521949932234007
 30
0.0
 10
-0.4363092320952508
 20
-1.5233119808608
 30
0.0
 10
-0.502485499276355
 20
-1.524674176936998
 30
0.0
 10
-0.5626828655681649
 20
-1.526036429128589
 30
0.0
 10
-0.6162467652049792
 20
-1.527398483054309
 30
0.0
 10
-0.6625923546196599
 20
-1.528760648866004
 30
0.0
 10
-0.7010326907472294
 20
-1.530122922054248
 30
0.0
 10
-0.7313024285101472
 20
-1.531484987472693
 30
0.0
 10
-0.7526125517306474
 20
-1.532847121500968
 30
0.0
 10
-0.7646502048506999
 20
-1.534033386171057
 30
0.0
 10
-0.7658089162401286
 20
-1.534765435253823
 30
0.0
 10
-0.7662490072848477
 20
-1.535043475366797
 30
0.0
  0
SPLINE
  5
F2
330
1F
100
AcDbEntity
  8
0
  6
Continuous
 62
     7
370
    25
100
AcDbSpline
210
0.0
220
0.0
230
1.0
 70
     8
 71
     3
 72
    36
 73
    32
 74
     0
 42
0.000000001
 43
0.00000001
 40
0.0
 40
0.0
 40
0.0
 40
0.0
 40
0.0317112039005293
 40
0.0669671257529375
 40
0.1022236698138783
 40
0.1374773283192819
 40
0.1727328679517113
 40
0.2079896263039908
 40
0.243243513810838
 40
0.2784986461465378
 40
0.3137555421691902
 40
0.349009748686609
 40
0.3842644692696112
 40
0.4195214211870303
 40
0.4547760074811462
 40
0.4900303356462701
 40
0.5252872596209064
 40
0.5605422541012597
 40
0.595796239347357
 40
0.6310530525722418
 40
0.6663084583481282
 40
0.7015621819832891
 40
0.7368188057746082
 40
0.7720746043025156
 40
0.8073281704737417
 40
0.8425845333636187
 40
0.8778406875414733
 40
0.9130942134609544
 40
0.9483502542904118
 40
0.9836067115513418
 40
0.9999999999999999
 40
0.9999999999999999
 40
0.9999999999999999
 40
0.9999999999999999
 10
0.7669139686089989
 20
-1.575211108665633
 30
0.0
 10
0.765573722776669
 20
-1.575619544776389
 30
0.0
 10
0.7627434167600634
 20
-1.576482072496147
 30
0.0
 10
0.7472792376445168
 20
-1.577798580319822
 30
0.0
 10
0.7233500675110044
 20
-1.579160652595156
 30
0.0
 10
0.6906504149700454
 20
-1.580522936922963
 30
0.0
 10
0.6498065753539355
 20
-1.581885082805128
 30
0.0
 10
0.6013304010604268
 20
-1.583247143386015
 30
0.0
 10
0.5457634088777323
 20
-1.58460941041025
 30
0.0
 10
0.4837049525724277
 20
-1.585971586229099
 30
0.0
 10
0.4159751233887326
 20
-1.587333637794512
 30
0.0
 10
0.3433434191079369
 20
-1.588695881630257
 30
0.0
 10
0.2666254031615723
 20
-1.590058087737983
 30
0.0
 10
0.18678104655333
 20
-1.591420135779873
 30
0.0
 10
0.1047356251588053
 20
-1.592782351778724
 30
0.0
 10
0.0214428321435825
 20
-1.594144586727839
 30
0.0
 10
-0.0620956152915407
 20
-1.595506636524273
 30
0.0
 10
-0.1449105061129303
 20
-1.596868822471737
 30
0.0
 10
-0.2260029297168999
 20
-1.598231082423498
 30
0.0
 10
-0.3044255655287891
 20
-1.599593139351715
 30
0.0
 10
-0.3792819449218341
 20
-1.600955295174923
 30
0.0
 10
-0.4496330335977863
 20
-1.602317574091907
 30
0.0
 10
-0.5146696105330645
 20
-1.603679643636584
 30
0.0
 10
-0.5736768704274635
 20
-1.605041771017373
 30
0.0
 10
-0.6258760815689488
 20
-1.606404061321168
 30
0.0
 10
-0.6706767665608416
 20
-1.607766148729646
 30
0.0
 10
-0.7075833364084275
 20
-1.609128250889519
 30
0.0
 10
-0.7362454173038051
 20
-1.610490543680687
 30
0.0
 10
-0.7556717465935326
 20
-1.611852655287948
 30
0.0
 10
-0.7659127717833704
 20
-1.612971843863263
 30
0.0
 10
-0.7662252492853661
 20
-1.613637083978305
 30
0.0
 10
-0.7663244275824431
 20
-1.613848226800863
 30
0.0
  0
SPLINE
  5
F3
330
1F
100
AcDbEntity
  8
0
  6
Continuous
 62
     7
370
    25
100
AcDbSpline
210
0.0
220
0.0
230
1.0
 70
     8
 71
     3
 72
    37
 73
    33
 74
     0
 42
0.000000001
 43
0.00000001
 40
0.0
 40
0.0
 40
0.0
 40
0.0
 40
0.0037339138139693
 40
0.0390275918812261
 40
0.0743184390383752
 40
0.1096102964941824
 40
0.144904085493591
 40
0.1801952759977085
 40
0.2154867249088804
 40
0.2507805419468215
 40
0.2860721253478429
 40
0.3213631941541085
 40
0.3566569553053405
 40
0.391948950957813
 40
0.4272397004895148
 40
0.4625333238930639
 40
0.497825727335991
 40
0.5331162476968273
 40
0.5684096566517005
 40
0.6037024427817171
 40
0.6389928436786337
 40
0.67428596973996
 40
0.7095790959087029
 40
0.7448694968582392
 40
0.7801622829335334
 40
0.8154556920445502
 40
0.8507462125616977
 40
0.8860386160074594
 40
0.9213322396128661
 40
0.9566229894000904
 40
0.991914985118843
 40
1.0
 40
1.0
 40
1.0
 40
1.0
 10
0.7669104078549974
 20
-1.653935587572412
 30
0.0
 10
0.7669586028243808
 20
-1.653983626585369
 30
0.0
 10
0.7674623459983092
 20
-1.654485739672465
 30
0.0
 10
0.7598841605395702
 20
-1.655441789137142
 30
0.0
 10
0.7436048736351095
 20
-1.656804058073469
 30
0.0
 10
0.7175475699094792
 20
-1.658166241613956
 30
0.0
 10
0.6833193969706854
 20
-1.659528292055436
 30
0.0
 10
0.6409830064890432
 20
-1.660890526831185
 30
0.0
 10
0.5910336401900002
 20
-1.662252742876906
 30
0.0
 10
0.5341377349600979
 20
-1.663614790906382
 30
0.0
 10
0.4709645296645252
 20
-1.664976997016941
 30
0.0
 10
0.4021838945073438
 20
-1.666339240852018
 30
0.0
 10
0.3286752287072449
 20
-1.667701292418777
 30
0.0
 10
0.2513056495881389
 20
-1.669063468233303
 30
0.0
 10
0.1709446092696131
 20
-1.670425735271695
 30
0.0
 10
0.0885743340727166
 20
-1.67178779580144
 30
0.0
 10
0.0051621853249428
 20
-1.673149941874722
 30
0.0
 10
-0.0783148559064611
 20
-1.674512225487512
 30
0.0
 10
-0.160860260226266
 20
-1.675874300432711
 30
0.0
 10
-0.2415224150877827
 20
-1.677236418960234
 30
0.0
 10
-0.3193243352136729
 20
-1.678598711191713
 30
0.0
 10
-0.3933406290304817
 20
-1.679960805688155
 30
0.0
 10
-0.4627484853991568
 20
-1.681322900177883
 30
0.0
 10
-0.5266821470554529
 20
-1.68268519240802
 30
0.0
 10
-0.5843663936037267
 20
-1.684047310943514
 30
0.0
 10
-0.6351978675358316
 20
-1.685409385883438
 30
0.0
 10
-0.6785422535096421
 20
-1.686771669492497
 30
0.0
 10
-0.7137697834982815
 20
-1.688133815573967
 30
0.0
 10
-0.7408289300170136
 20
-1.689495876102584
 30
0.0
 10
-0.7584036397875712
 20
-1.690858143125621
 30
0.0
 10
-0.7668394606336706
 20
-1.69187025928947
 30
0.0
 10
-0.7665853937667535
 20
-1.69242830273293
 30
0.0
 10
-0.766538038396445
 20
-1.692532316114266
 30
0.0
  0
SPLINE
  5
F4
330
1F
100
AcDbEntity
  8
0
  6
Continuous
 62
     7
370
    25
100
AcDbSpline
210
0.0
220
0.0
230
1.0
 70
     8
 71
     3
 72
    26
 73
    22
 74
     0
 42
0.000000001
 43
0.00000001
 40
0.0
 40
0.0
 40
0.0
 40
0.0
 40
0.0165995940397484
 40
0.0712314984256271
 40
0.1258672574465035
 40
0.1804997841694324
 40
0.2351311245494057
 40
0.2897667536305436
 40
0.3443999207608098
 40
0.3990308105013593
 40
0.4536661859508722
 40
0.5082999749195605
 40
0.5629305684664448
 40
0.6175655826882598
 40
0.6721999392615682
 40
0.726830362524036
 40
0.781464842183685
 40
0.8360997172746943
 40
0.8907304441471241
 40
0.9453647349216
 40
1.0
 40
1.0
 40
1.0
 40
1.0
 10
0.7664056073799744
 20
-1.732671286480122
 30
0.0
 10
0.766424819360956
 20
-1.732809247936488
 30
0.0
 10
0.7665072610272865
 20
-1.733401262490482
 30
0.0
 10
0.7574208604360466
 20
-1.73444740116559
 30
0.0
 10
0.7391716903292794
 20
-1.735809445379038
 30
0.0
 10
0.7115753380024183
 20
-1.737171642618101
 30
0.0
 10
0.6756880007731493
 20
-1.738533894514855
 30
0.0
 10
0.6317982831602147
 20
-1.739895948549013
 30
0.0
 10
0.5805079928246596
 20
-1.741258114265905
 30
0.0
 10
0.5223097982562728
 20
-1.742620387639758
 30
0.0
 10
0.4579542967999405
 20
-1.743982452393716
 30
0.0
 10
0.3882282270301128
 20
-1.745344589022057
 30
0.0
 10
0.3138888639701229
 20
-1.746706876418321
 30
0.0
 10
0.2358438019896885
 20
-1.748068957151973
 30
0.0
 10
0.1550346099941559
 20
-1.749431066893662
 30
0.0
 10
0.072381291123568
 20
-1.750793360258644
 30
0.0
 10
-0.0111187448272998
 20
-1.752155463668292
 30
0.0
 10
-0.0945082996108683
 20
-1.753517551758525
 30
0.0
 10
-0.176710111086485
 20
-1.754879844761585
 30
0.0
 10
-0.2570926229557348
 20
-1.756241953484481
 30
0.0
 10
-0.3079698887982445
 20
-1.757150055374739
 30
0.0
 10
-0.3334087485435189
 20
-1.757604110368421
 30
0.0
  0
SPLINE
  5
F5
330
1F
100
AcDbEntity
  8
0
  6
Continuous
 62
     7
370
    25
100
AcDbSpline
210
0.0
220
0.0
230
1.0
 70
     8
 71
     3
 72
    10
 73
     6
 74
     0
 42
0.000000001
 43
0.00000001
 40
0.0
 40
0.0
 40
0.0
 40
0.0
 40
0.5
 40
0.5
 40
1.0
 40
1.0
 40
1.0
 40
1.0
 10
-0.3547825599513334
 20
-1.731979967984645
 30
0.0
 10
-0.2996846771662515
 20
-1.731041647774672
 30
0.0
 10
-0.2415931672540055
 20
-1.730103327564698
 30
0.0
 10
-0.1223319358582085
 20
-1.72822668714475
 30
0.0
 10
-0.0611672624761469
 20
-1.727288366934777
 30
0.0
 10
0.0
 20
-1.726350046724803
 30
0.0
  0
SPLINE
  5
F6
330
1F
100
AcDbEntity
  8
0
  6
Continuous
 62
     7
370
    25
100
AcDbSpline
210
0.0
220
0.0
230
1.0
 70
     8
 71
     3
 72
    22
 73
    18
 74
     0
 42
0.000000001
 43
0.00000001
 40
0.0
 40
0.0
 40
0.0
 40
0.0
 40
0.125
 40
0.125
 40
0.25
 40
0.25
 40
0.375
 40
0.375
 40
0.5
 40
0.5
 40
0.625
 40
0.625
 40
0.75
 40
0.75
 40
0.875
 40
0.875
 40
1.0
 40
1.0
 40
1.0
 40
1.0
 10
-0.0000000000000034
 20
-1.726350046724803
 30
0.0
 10
0.0534678867798434
 20
-1.725529836751058
 30
0.0
 10
0.1069344514608249
 20
-1.724709626777313
 30
0.0
 10
0.2118154841167054
 20
-1.723069206829822
 30
0.0
 10
0.2632273587013924
 20
-1.722248996856078
 30
0.0
 10
0.3620231311864548
 20
-1.720608576908587
 30
0.0
 10
0.4094045861666679
 20
-1.719788366934843
 30
0.0
 10
0.4983184323496188
 20
-1.718147946987352
 30
0.0
 10
0.5398486249822946
 20
-1.717327737013607
 30
0.0
 10
0.6154636356177828
 20
-1.715687317066117
 30
0.0
 10
0.6495465838904484
 20
-1.714867107092372
 30
0.0
 10
0.7089569165251375
 20
-1.713226687144882
 30
0.0
 10
0.7342828318496121
 20
-1.712406477171136
 30
0.0
 10
0.7752053807180506
 20
-1.710766057223647
 30
0.0
 10
0.7908010023713508
 20
-1.709945847249902
 30
0.0
 10
0.8116631368701536
 20
-1.708305427302412
 30
0.0
 10
0.8169291338582687
 20
-1.707485217328666
 30
0.0
 10
0.8169291338582678
 20
-1.706665007354921
 30
0.0
  0
SPLINE
  5
F7
330
1F
100
AcDbEntity
  8
0
  6
Continuous
 62
     7
370
    25
100
AcDbSpline
210
0.0
220
0.0
230
1.0
 70
     8
 71
     3
 72
    24
 73
    20
 74
     0
 42
0.000000001
 43
0.00000001
 40
0.0
 40
0.0
 40
0.0
 40
0.0
 40
0.0192450538845447
 40
0.0805422380167607
 40
0.1418394221489766
 40
0.2031366062811924
 40
0.2644337904134085
 40
0.3257309745456244
 40
0.3870281586778404
 40
0.4483253428100563
 40
0.5096225269422723
 40
0.5709197110744882
 40
0.6322168952067041
 40
0.6935140793389202
 40
0.754811263471136
 40
0.816108447603352
 40
0.877405631735568
 40
0.9387028158677839
 40
1.0
 40
1.0
 40
1.0
 40
1.0
 10
-0.8156940855778
 20
-1.667681202112634
 30
0.0
 10
-0.8161922088130812
 20
-1.667552444280076
 30
0.0
 10
-0.81827689823086
 20
-1.667013581460642
 30
0.0
 10
-0.8139494285025257
 20
-1.66606461365433
 30
0.0
 10
-0.8026147731335609
 20
-1.664834298693701
 30
0.0
 10
-0.7829838966877274
 20
-1.663603983733071
 30
0.0
 10
-0.7559642778580515
 20
-1.662373668772441
 30
0.0
 10
-0.7216236295830286
 20
-1.661143353811811
 30
0.0
 10
-0.6803442515015764
 20
-1.659913038851181
 30
0.0
 10
-0.6325098656573954
 20
-1.658682723890551
 30
0.0
 10
-0.5785848466428896
 20
-1.657452408929922
 30
0.0
 10
-0.5190875295712516
 20
-1.656222093969291
 30
0.0
 10
-0.4545911720159589
 20
-1.654991779008662
 30
0.0
 10
-0.3857168379137524
 20
-1.653761464048031
 30
0.0
 10
-0.3131278438422897
 20
-1.652531149087402
 30
0.0
 10
-0.2375232563806207
 20
-1.651300834126772
 30
0.0
 10
-0.159631190406117
 20
-1.650070519166142
 30
0.0
 10
-0.0802017887275091
 20
-1.648840204205511
 30
0.0
 10
-0.0267339295758364
 20
-1.648019994231758
 30
0.0
 10
0.0
 20
-1.647609889244882
 30
0.0
  0
SPLINE
  5
F8
330
1F
100
AcDbEntity
  8
0
  6
Continuous
 62
     7
370
    25
100
AcDbSpline
210
0.0
220
0.0
230
1.0
 70
     8
 71
     3
 72
    22
 73
    18
 74
     0
 42
0.000000001
 43
0.00000001
 40
0.0
 40
0.0
 40
0.0
 40
0.0
 40
0.1250000000000001
 40
0.1250000000000001
 40
0.2500000000000002
 40
0.2500000000000002
 40
0.3750000000000002
 40
0.3750000000000002
 40
0.5000000000000002
 40
0.5000000000000002
 40
0.6250000000000002
 40
0.6250000000000002
 40
0.7500000000000002
 40
0.7500000000000002
 40
0.8750000000000001
 40
0.8750000000000001
 40
1.0
 40
1.0
 40
1.0
 40
1.0
 10
-0.0000000000000034
 20
-1.647609889244882
 30
0.0
 10
0.0534678867798434
 20
-1.646789679271129
 30
0.0
 10
0.1069344514608249
 20
-1.645969469297376
 30
0.0
 10
0.2118154841167054
 20
-1.644329049349869
 30
0.0
 10
0.2632273587013917
 20
-1.643508839376116
 30
0.0
 10
0.3620231311864541
 20
-1.641868419428609
 30
0.0
 10
0.4094045861666679
 20
-1.641048209454855
 30
0.0
 10
0.4983184323496186
 20
-1.639407789507348
 30
0.0
 10
0.5398486249822942
 20
-1.638587579533596
 30
0.0
 10
0.6154636356177823
 20
-1.636947159586089
 30
0.0
 10
0.649546583890448
 20
-1.636126949612336
 30
0.0
 10
0.7089569165251374
 20
-1.634486529664829
 30
0.0
 10
0.7342828318496121
 20
-1.633666319691076
 30
0.0
 10
0.7752053807180506
 20
-1.632025899743569
 30
0.0
 10
0.7908010023713508
 20
-1.631205689769816
 30
0.0
 10
0.8116631368701536
 20
-1.62956526982231
 30
0.0
 10
0.8169291338582686
 20
-1.628745059848557
 30
0.0
 10
0.8169291338582678
 20
-1.627924849874803
 30
0.0
  0
SPLINE
  5
F9
330
1F
100
AcDbEntity
  8
0
  6
Continuous
 62
     7
370
    25
100
AcDbSpline
210
0.0
220
0.0
230
1.0
 70
     8
 71
     3
 72
    24
 73
    20
 74
     0
 42
0.000000001
 43
0.00000001
 40
0.0
 40
0.0
 40
0.0
 40
0.0
 40
0.0184461323822545
 40
0.0797932491083636
 40
0.1411403658344727
 40
0.2024874825605817
 40
0.2638345992866908
 40
0.3251817160127999
 40
0.386528832738909
 40
0.4478759494650181
 40
0.5092230661911272
 40
0.5705701829172364
 40
0.6319172996433453
 40
0.6932644163694546
 40
0.7546115330955636
 40
0.8159586498216727
 40
0.8773057665477818
 40
0.9386528832738908
 40
1.0
 40
1.0
 40
1.0
 40
1.0
 10
-0.8157463197570735
 20
-1.588924707878782
 30
0.0
 10
-0.8162207768603297
 20
-1.588801395630671
 30
0.0
 10
-0.8182731568957125
 20
-1.588267978395679
 30
0.0
 10
-0.8139414058096106
 20
-1.587324456173806
 30
0.0
 10
-0.8026169228076487
 20
-1.586094141213165
 30
0.0
 10
-0.7829833206842916
 20
-1.584863826252523
 30
0.0
 10
-0.7559644321977071
 20
-1.583633511291879
 30
0.0
 10
-0.7216235882278428
 20
-1.582403196331237
 30
0.0
 10
-0.6803442625826651
 20
-1.581172881370596
 30
0.0
 10
-0.6325098626882264
 20
-1.579942566409952
 30
0.0
 10
-0.578584847438476
 20
-1.578712251449311
 30
0.0
 10
-0.519087529358075
 20
-1.577481936488669
 30
0.0
 10
-0.4545911720730793
 20
-1.576251621528027
 30
0.0
 10
-0.385716837898447
 20
-1.575021306567385
 30
0.0
 10
-0.3131278438463908
 20
-1.573790991606743
 30
0.0
 10
-0.237523256379522
 20
-1.5725606766461
 30
0.0
 10
-0.1596311904064101
 20
-1.571330361685458
 30
0.0
 10
-0.0802017887274359
 20
-1.570100046724815
 30
0.0
 10
-0.026733929575812
 20
-1.569279836751054
 30
0.0
 10
0.0
 20
-1.568869731764173
 30
0.0
  0
SPLINE
  5
FA
330
1F
100
AcDbEntity
  8
0
  6
Continuous
 62
     7
370
    25
100
AcDbSpline
210
0.0
220
0.0
230
1.0
 70
     8
 71
     3
 72
    22
 73
    18
 74
     0
 42
0.000000001
 43
0.00000001
 40
0.0
 40
0.0
 40
0.0
 40
0.0
 40
0.1249999999999999
 40
0.1249999999999999
 40
0.2499999999999998
 40
0.2499999999999998
 40
0.3749999999999998
 40
0.3749999999999998
 40
0.4999999999999999
 40
0.4999999999999999
 40
0.6249999999999999
 40
0.6249999999999999
 40
0.7499999999999999
 40
0.7499999999999999
 40
0.875
 40
0.875
 40
1.0
 40
1.0
 40
1.0
 40
1.0
 10
-0.0000000000000034
 20
-1.568869731764173
 30
0.0
 10
0.0534678867798435
 20
-1.56804952179042
 30
0.0
 10
0.1069344514608249
 20
-1.567229311816667
 30
0.0
 10
0.2118154841167055
 20
-1.56558889186916
 30
0.0
 10
0.2632273587013924
 20
-1.564768681895407
 30
0.0
 10
0.3620231311864551
 20
-1.5631282619479
 30
0.0
 10
0.4094045861666684
 20
-1.562308051974147
 30
0.0
 10
0.4983184323496195
 20
-1.560667632026641
 30
0.0
 10
0.5398486249822958
 20
-1.559847422052887
 30
0.0
 10
0.6154636356177835
 20
-1.558207002105381
 30
0.0
 10
0.6495465838904492
 20
-1.557386792131627
 30
0.0
 10
0.7089569165251383
 20
-1.55574637218412
 30
0.0
 10
0.7342828318496126
 20
-1.554926162210367
 30
0.0
 10
0.7752053807180507
 20
-1.553285742262861
 30
0.0
 10
0.7908010023713509
 20
-1.552465532289107
 30
0.0
 10
0.8116631368701537
 20
-1.550825112341601
 30
0.0
 10
0.8169291338582689
 20
-1.550004902367847
 30
0.0
 10
0.8169291338582678
 20
-1.549184692394094
 30
0.0
  0
SPLINE
  5
FB
330
1F
100
AcDbEntity
  8
0
  6
Continuous
 62
     7
370
    25
100
AcDbSpline
210
0.0
220
0.0
230
1.0
 70
     8
 71
     3
 72
    24
 73
    20
 74
     0
 42
0.000000001
 43
0.00000001
 40
0.0
 40
0.0
 40
0.0
 40
0.0
 40
0.0176802198102492
 40
0.0790752060721086
 40
0.140470192333968
 40
0.2018651785958275
 40
0.2632601648576869
 40
0.3246551511195463
 40
0.3860501373814057
 40
0.4474451236432651
 40
0.5088401099051246
 40
0.570235096166984
 40
0.6316300824288434
 40
0.6930250686907029
 40
0.7544200549525624
 40
0.8158150412144216
 40
0.8772100274762811
 40
0.9386050137381405
 40
1.0
 40
1.0
 40
1.0
 40
1.0
 10
-0.8157963160128736
 20
-1.510168913577501
 30
0.0
 10
-0.8162482822833357
 20
-1.51005081360298
 30
0.0
 10
-0.8182697122405418
 20
-1.509522608641581
 30
0.0
 10
-0.8139335539107215
 20
-1.508584298693307
 30
0.0
 10
-0.8026190267176145
 20
-1.507353983732677
 30
0.0
 10
-0.7829827569433145
 20
-1.506123668772047
 30
0.0
 10
-0.7559645832516457
 20
-1.504893353811417
 30
0.0
 10
-0.7216235477530606
 20
-1.503663038850787
 30
0.0
 10
-0.6803442734278495
 20
-1.502432723890158
 30
0.0
 10
-0.6325098597822671
 20
-1.501202408929527
 30
0.0
 10
-0.5785848482171249
 20
-1.499972093968899
 30
0.0
 10
-0.5190875291494355
 20
-1.498741779008268
 30
0.0
 10
-0.4545911721289833
 20
-1.497511464047638
 30
0.0
 10
-0.3857168378834667
 20
-1.496281149087008
 30
0.0
 10
-0.3131278438504042
 20
-1.495050834126379
 30
0.0
 10
-0.2375232563784465
 20
-1.493820519165748
 30
0.0
 10
-0.1596311904066964
 20
-1.492590204205118
 30
0.0
 10
-0.0802017887273642
 20
-1.491359889244489
 30
0.0
 10
-0.026733929575788
 20
-1.490539679270735
 30
0.0
 10
0.0
 20
-1.490129574283859
 30
0.0
  0
SPLINE
  5
FC
330
1F
100
AcDbEntity
  8
0
  6
Continuous
 62
     7
370
    25
100
AcDbSpline
210
0.0
220
0.0
230
1.0
 70
     8
 71
     3
 72
    24
 73
    20
 74
     0
 42
0.000000001
 43
0.00000001
 40
0.0
 40
0.0
 40
0.0
 40
0.0
 40
0.0179703929637492
 40
0.0793472434035148
 40
0.1407240938432809
 40
0.2021009442830465
 40
0.2634777947228127
 40
0.3248546451625783
 40
0.386231495602344
 40
0.4476083460421101
 40
0.5089851964818762
 40
0.5703620469216418
 40
0.631738897361408
 40
0.693115747801173
 40
0.7544925982409393
 40
0.8158694486807049
 40
0.877246299120471
 40
0.9386231495602366
 40
1.0
 40
1.0
 40
1.0
 40
1.0
 10
0.8157773836391053
 20
-1.600061385608825
 30
0.0
 10
0.8162378477398208
 20
-1.600181459345385
 30
0.0
 10
0.8182710006681821
 20
-1.600711638068822
 30
0.0
 10
0.8139365474969242
 20
-1.601651921779134
 30
0.0
 10
0.802618224588609
 20
-1.602882236739764
 30
0.0
 10
0.7829829718731329
 20
-1.604112551700393
 30
0.0
 10
0.755964525661374
 20
-1.605342866661024
 30
0.0
 10
0.7216235631843264
 20
-1.606573181621653
 30
0.0
 10
0.6803442692930529
 20
-1.607803496582284
 30
0.0
 10
0.6325098608901809
 20
-1.609033811542913
 30
0.0
 10
0.5785848479202578
 20
-1.610264126503544
 30
0.0
 10
0.5190875292289783
 20
-1.611494441464173
 30
0.0
 10
0.4545911721076671
 20
-1.612724756424804
 30
0.0
 10
0.3857168378891754
 20
-1.613955071385433
 30
0.0
 10
0.3131278438488714
 20
-1.615185386346063
 30
0.0
 10
0.237523256378854
 20
-1.616415701306693
 30
0.0
 10
0.1596311904065842
 20
-1.617646016267324
 30
0.0
 10
0.0802017887273895
 20
-1.618876331227953
 30
0.0
 10
0.0267339295757963
 20
-1.619696541201706
 30
0.0
 10
0.0000000000000002
 20
-1.620106646188583
 30
0.0
  0
SPLINE
  5
FD
330
1F
100
AcDbEntity
  8
0
  6
Continuous
 62
     7
370
    25
100
AcDbSpline
210
0.0
220
0.0
230
1.0
 70
     8
 71
     3
 72
    22
 73
    18
 74
     0
 42
0.000000001
 43
0.00000001
 40
0.0
 40
0.0
 40
0.0
 40
0.0
 40
0.1249999999999999
 40
0.1249999999999999
 40
0.2499999999999997
 40
0.2499999999999997
 40
0.3749999999999997
 40
0.3749999999999997
 40
0.4999999999999998
 40
0.4999999999999998
 40
0.6249999999999998
 40
0.6249999999999998
 40
0.7499999999999998
 40
0.7499999999999998
 40
0.8749999999999999
 40
0.8749999999999999
 40
1.0
 40
1.0
 40
1.0
 40
1.0
 10
0.0
 20
-1.620106646188583
 30
0.0
 10
-0.0534678867798468
 20
-1.620926856162344
 30
0.0
 10
-0.1069344514608285
 20
-1.621747066136106
 30
0.0
 10
-0.2118154841167088
 20
-1.623387486083628
 30
0.0
 10
-0.2632273587013954
 20
-1.62420769605739
 30
0.0
 10
-0.3620231311864576
 20
-1.625848116004913
 30
0.0
 10
-0.4094045861666705
 20
-1.626668325978675
 30
0.0
 10
-0.4983184323496214
 20
-1.628308745926198
 30
0.0
 10
-0.5398486249822972
 20
-1.62912895589996
 30
0.0
 10
-0.6154636356177847
 20
-1.630769375847482
 30
0.0
 10
-0.6495465838904504
 20
-1.631589585821244
 30
0.0
 10
-0.7089569165251394
 20
-1.633230005768766
 30
0.0
 10
-0.7342828318496136
 20
-1.634050215742528
 30
0.0
 10
-0.7752053807180515
 20
-1.635690635690051
 30
0.0
 10
-0.7908010023713518
 20
-1.636510845663813
 30
0.0
 10
-0.8116631368701537
 20
-1.638151265611336
 30
0.0
 10
-0.8169291338582692
 20
-1.638971475585097
 30
0.0
 10
-0.8169291338582678
 20
-1.639791685558859
 30
0.0
  0
SPLINE
  5
FE
330
1F
100
AcDbEntity
  8
0
  6
Continuous
 62
     7
370
    25
100
AcDbSpline
210
0.0
220
0.0
230
1.0
 70
     8
 71
     3
 72
    24
 73
    20
 74
     0
 42
0.000000001
 43
0.00000001
 40
0.0
 40
0.0
 40
0.0
 40
0.0
 40
0.0178561644332934
 40
0.0792401541562125
 40
0.1406241438791322
 40
0.2020081336020512
 40
0.2633921233249709
 40
0.3247761130478899
 40
0.3861601027708091
 40
0.4475440924937287
 40
0.5089280822166484
 40
0.5703120719395675
 40
0.6316960616624872
 40
0.6930800513854056
 40
0.7544640411083253
 40
0.8158480308312444
 40
0.877232020554164
 40
0.9386160102770832
 40
1.0
 40
1.0
 40
1.0
 40
1.0
 10
0.8157848378250842
 20
-1.678803874459518
 30
0.0
 10
0.8162419533273488
 20
-1.67892317107275
 30
0.0
 10
0.8182704910349828
 20
-1.679452572672858
 30
0.0
 10
0.8139353718140356
 20
-1.680392079259843
 30
0.0
 10
0.8026185396118899
 20
-1.681622394220473
 30
0.0
 10
0.7829828874628995
 20
-1.682852709181102
 30
0.0
 10
0.7559645482790275
 20
-1.684083024141732
 30
0.0
 10
0.7216235571239444
 20
-1.685313339102362
 30
0.0
 10
0.6803442709169274
 20
-1.686543654062992
 30
0.0
 10
0.632509860455065
 20
-1.687773969023622
 30
0.0
 10
0.5785848480368468
 20
-1.689004283984252
 30
0.0
 10
0.5190875291977383
 20
-1.690234598944882
 30
0.0
 10
0.4545911721160379
 20
-1.691464913905511
 30
0.0
 10
0.3857168378869323
 20
-1.692695228866142
 30
0.0
 10
0.3131278438494725
 20
-1.693925543826772
 30
0.0
 10
0.237523256378693
 20
-1.695155858787401
 30
0.0
 10
0.1596311904066272
 20
-1.696386173748032
 30
0.0
 10
0.0802017887273789
 20
-1.697616488708661
 30
0.0
 10
0.0267339295757928
 20
-1.698436698682415
 30
0.0
 10
0.0000000000000002
 20
-1.698846803669291
 30
0.0
  0
SPLINE
  5
FF
330
1F
100
AcDbEntity
  8
0
  6
Continuous
 62
     7
370
    25
100
AcDbSpline
210
0.0
220
0.0
230
1.0
 70
     8
 71
     3
 72
    22
 73
    18
 74
     0
 42
0.000000001
 43
0.00000001
 40
0.0
 40
0.0
 40
0.0
 40
0.0
 40
0.1249999999999999
 40
0.1249999999999999
 40
0.2499999999999997
 40
0.2499999999999997
 40
0.3749999999999997
 40
0.3749999999999997
 40
0.4999999999999998
 40
0.4999999999999998
 40
0.6249999999999998
 40
0.6249999999999998
 40
0.7499999999999998
 40
0.7499999999999998
 40
0.8749999999999999
 40
0.8749999999999999
 40
1.0
 40
1.0
 40
1.0
 40
1.0
 10
0.0
 20
-1.698846803669291
 30
0.0
 10
-0.0534678867798468
 20
-1.699667013643037
 30
0.0
 10
-0.1069344514608285
 20
-1.700487223616781
 30
0.0
 10
-0.2118154841167088
 20
-1.702127643564271
 30
0.0
 10
-0.2632273587013954
 20
-1.702947853538017
 30
0.0
 10
-0.3620231311864576
 20
-1.704588273485507
 30
0.0
 10
-0.4094045861666705
 20
-1.705408483459252
 30
0.0
 10
-0.4983184323496214
 20
-1.707048903406743
 30
0.0
 10
-0.5398486249822972
 20
-1.707869113380488
 30
0.0
 10
-0.6154636356177847
 20
-1.709509533327978
 30
0.0
 10
-0.6495465838904504
 20
-1.710329743301723
 30
0.0
 10
-0.7089569165251394
 20
-1.711970163249213
 30
0.0
 10
-0.7342828318496136
 20
-1.712790373222958
 30
0.0
 10
-0.7752053807180515
 20
-1.714430793170449
 30
0.0
 10
-0.7908010023713518
 20
-1.715251003144194
 30
0.0
 10
-0.8116631368701537
 20
-1.716891423091683
 30
0.0
 10
-0.8169291338582692
 20
-1.717711633065428
 30
0.0
 10
-0.8169291338582678
 20
-1.718531843039173
 30
0.0
  0
SPLINE
  5
100
330
1F
100
AcDbEntity
  8
0
  6
Continuous
 62
     7
370
    25
100
AcDbSpline
210
0.0
220
0.0
230
1.0
 70
     8
 71
     3
 72
    24
 73
    20
 74
     0
 42
0.000000001
 43
0.00000001
 40
0.0
 40
0.0
 40
0.0
 40
0.0
 40
0.0193778911542425
 40
0.0806667729571023
 40
0.1419556547599626
 40
0.2032445365628223
 40
0.2645334183656827
 40
0.3258223001685425
 40
0.3871111819714023
 40
0.4484000637742626
 40
0.509688945577123
 40
0.5709778273799827
 40
0.632266709182843
 40
0.6935555909857022
 40
0.7548444727885626
 40
0.8161333545914223
 40
0.8774222363942827
 40
0.9387111181971425
 40
1.0
 40
1.0
 40
1.0
 40
1.0
 10
0.8156853923098878
 20
-1.757512929376414
 30
0.0
 10
0.8161874705906174
 20
-1.757642593510653
 30
0.0
 10
0.8182775346928423
 20
-1.75818236263177
 30
0.0
 10
0.8139507462160288
 20
-1.759132236739764
 30
0.0
 10
0.8026144200532913
 20
-1.760362551700393
 30
0.0
 10
0.7829839912952992
 20
-1.761592866661024
 30
0.0
 10
0.7559642525080276
 20
-1.762823181621653
 30
0.0
 10
0.721623636375545
 20
-1.764053496582283
 30
0.0
 10
0.6803442496815248
 20
-1.765283811542913
 30
0.0
 10
0.6325098661450741
 20
-1.766514126503544
 30
0.0
 10
0.5785848465122134
 20
-1.767744441464173
 30
0.0
 10
0.5190875296062627
 20
-1.768974756424803
 30
0.0
 10
0.454591172006574
 20
-1.770205071385433
 30
0.0
 10
0.385716837916263
 20
-1.771435386346063
 30
0.0
 10
0.3131278438416135
 20
-1.772665701306693
 30
0.0
 10
0.237523256380798
 20
-1.773896016267323
 30
0.0
 10
0.1596311904060659
 20
-1.775126331227952
 30
0.0
 10
0.0802017887275192
 20
-1.776356646188582
 30
0.0
 10
0.0267339295758395
 20
-1.777176856162337
 30
0.0
 10
0.0000000000000002
 20
-1.777586961149213
 30
0.0
  0
SPLINE
  5
101
330
1F
100
AcDbEntity
  8
0
  6
Continuous
 62
     7
370
    25
100
AcDbSpline
210
0.0
220
0.0
230
1.0
 70
     8
 71
     3
 72
    10
 73
     6
 74
     0
 42
0.000000001
 43
0.00000001
 40
0.0
 40
0.0
 40
0.0
 40
0.0
 40
0.5
 40
0.5
 40
1.0
 40
1.0
 40
1.0
 40
1.0
 10
0.0
 20
-1.777586961149212
 30
0.0
 10
-0.0611672624761469
 20
-1.778525281359186
 30
0.0
 10
-0.1223319358582086
 20
-1.77946360156916
 30
0.0
 10
-0.2415931672540055
 20
-1.781340241989107
 30
0.0
 10
-0.2996846771662516
 20
-1.782278562199081
 30
0.0
 10
-0.3547825599513335
 20
-1.783216882409055
 30
0.0
  0
SPLINE
  5
103
330
1F
100
AcDbEntity
  8
0
  6
Continuous
 62
     7
370
    25
100
AcDbSpline
210
0.0
220
0.0
230
1.0
 70
     8
 71
     3
 72
    22
 73
    18
 74
     0
 42
0.000000001
 43
0.00000001
 40
0.0
 40
0.0
 40
0.0
 40
0.0
 40
0.1249999999999998
 40
0.1249999999999998
 40
0.2499999999999997
 40
0.2499999999999997
 40
0.3749999999999996
 40
0.3749999999999996
 40
0.4999999999999996
 40
0.4999999999999996
 40
0.6249999999999997
 40
0.6249999999999997
 40
0.7499999999999999
 40
0.7499999999999999
 40
0.8749999999999999
 40
0.8749999999999999
 40
1.0
 40
1.0
 40
1.0
 40
1.0
 10
0.8169291338582678
 20
-1.521681449338189
 30
0.0
 10
0.8169291338582679
 20
-1.522501659311942
 30
0.0
 10
0.8116631368701513
 20
-1.523321869285696
 30
0.0
 10
0.790801002371347
 20
-1.524962289233202
 30
0.0
 10
0.775205380718046
 20
-1.525782499206955
 30
0.0
 10
0.734282831849607
 20
-1.527422919154462
 30
0.0
 10
0.7089569165251323
 20
-1.528243129128215
 30
0.0
 10
0.6495465838904425
 20
-1.529883549075722
 30
0.0
 10
0.6154636356177764
 20
-1.530703759049475
 30
0.0
 10
0.5398486249822886
 20
-1.532344178996982
 30
0.0
 10
0.4983184323496128
 20
-1.533164388970734
 30
0.0
 10
0.4094045861666627
 20
-1.534804808918241
 30
0.0
 10
0.3620231311864502
 20
-1.535625018891995
 30
0.0
 10
0.263227358701389
 20
-1.537265438839502
 30
0.0
 10
0.2118154841167033
 20
-1.538085648813254
 30
0.0
 10
0.1069344514608241
 20
-1.539726068760761
 30
0.0
 10
0.0534678867798428
 20
-1.540546278734514
 30
0.0
 10
-0.0000000000000034
 20
-1.541366488708268
 30
0.0
  0
SPLINE
  5
104
330
1F
100
AcDbEntity
  8
0
  6
Continuous
 62
     7
370
    25
100
AcDbSpline
210
0.0
220
0.0
230
1.0
 70
     8
 71
     3
 72
    22
 73
    18
 74
     0
 42
0.000000001
 43
0.00000001
 40
0.0
 40
0.0
 40
0.0
 40
0.0
 40
0.1249999999999999
 40
0.1249999999999999
 40
0.2499999999999998
 40
0.2499999999999998
 40
0.3749999999999998
 40
0.3749999999999998
 40
0.4999999999999998
 40
0.4999999999999998
 40
0.6249999999999998
 40
0.6249999999999998
 40
0.7499999999999998
 40
0.7499999999999998
 40
0.8749999999999999
 40
0.8749999999999999
 40
1.0
 40
1.0
 40
1.0
 40
1.0
 10
0.0
 20
-1.541366488708268
 30
0.0
 10
-0.0534678867798468
 20
-1.542186698682022
 30
0.0
 10
-0.1069344514608285
 20
-1.543006908655775
 30
0.0
 10
-0.2118154841167089
 20
-1.544647328603281
 30
0.0
 10
-0.2632273587013953
 20
-1.545467538577035
 30
0.0
 10
-0.3620231311864575
 20
-1.547107958524541
 30
0.0
 10
-0.4094045861666705
 20
-1.547928168498294
 30
0.0
 10
-0.4983184323496211
 20
-1.5495685884458
 30
0.0
 10
-0.5398486249822972
 20
-1.550388798419554
 30
0.0
 10
-0.6154636356177847
 20
-1.552029218367061
 30
0.0
 10
-0.6495465838904505
 20
-1.552849428340814
 30
0.0
 10
-0.7089569165251394
 20
-1.55448984828832
 30
0.0
 10
-0.7342828318496136
 20
-1.555310058262074
 30
0.0
 10
-0.7752053807180515
 20
-1.556950478209581
 30
0.0
 10
-0.7908010023713518
 20
-1.557770688183334
 30
0.0
 10
-0.8116631368701537
 20
-1.55941110813084
 30
0.0
 10
-0.8169291338582692
 20
-1.560231318104594
 30
0.0
 10
-0.8169291338582678
 20
-1.561051528078347
 30
0.0
  0
SPLINE
  5
117
330
1F
100
AcDbEntity
  8
0
  6
Continuous
 62
     7
370
    25
100
AcDbSpline
210
0.0
220
0.0
230
1.0
 70
    24
 71
     3
 72
     8
 73
     4
 74
     0
 42
0.000000001
 43
0.00000001
 40
0.0
 40
0.0
 40
0.0
 40
0.0
 40
1.0
 40
1.0
 40
1.0
 40
1.0
 10
0.0000000000070078
 20
-0.4527559055118111
 30
0.0
 10
0.0000000000077333
 20
-0.4527559055118111
 30
0.0
 10
0.000000000008096
 20
-0.4658792650918636
 30
0.0
 10
0.000000000008096
 20
-0.4921259842519685
 30
0.0
  0
LINE
  5
135
330
1F
100
AcDbEntity
  8
0
  6
Continuous
 62
     7
370
    25
100
AcDbLine
 10
-1.2283464567
 20
0.4819138154
 30
0.0
 11
1.2283464567
 21
0.4819138154
 31
0.0
  0
LINE
  5
136
330
1F
100
AcDbEntity
  8
0
  6
Continuous
 62
     7
370
    25
100
AcDbLine
 10
-1.2401574803
 20
0.5244584093
 30
0.0
 11
-1.2401574803
 21
0.493724839
 31
0.0
  0
LINE
  5
137
330
1F
100
AcDbEntity
  8
0
  6
Continuous
 62
     7
370
    25
100
AcDbLine
 10
1.2401574803
 20
0.493724839
 30
0.0
 11
1.2401574803
 21
0.5244584093
 31
0.0
  0
LINE
  5
138
330
1F
100
AcDbEntity
  8
0
  6
Continuous
 62
     7
370
    25
100
AcDbLine
 10
0.6811023622
 20
0.2362204724
 30
0.0
 11
0.6811023622
 21
0.4819138154
 31
0.0
  0
LINE
  5
139
330
1F
100
AcDbEntity
  8
0
  6
Continuous
 62
     7
370
    25
100
AcDbLine
 10
0.6811023622
 20
0.0
 30
0.0
 11
0.6811023622
 21
0.0590551181
 31
0.0
  0
LINE
  5
13A
330
1F
100
AcDbEntity
  8
0
  6
Continuous
 62
     7
370
    25
100
AcDbLine
 10
-0.6811023622
 20
0.0590551181
 30
0.0
 11
-0.6811023622
 21
0.0
 31
0.0
  0
LINE
  5
13B
330
1F
100
AcDbEntity
  8
0
  6
Continuous
 62
     7
370
    25
100
AcDbLine
 10
-0.6811023622
 20
0.4819138154
 30
0.0
 11
-0.6811023622
 21
0.2362204724
 31
0.0
  0
LINE
  5
13C
330
1F
100
AcDbEntity
  8
0
  6
Continuous
 62
     7
370
    25
100
AcDbLine
 10
-0.6200787402
 20
0.2362204724
 30
0.0
 11
-0.6200787402
 21
0.1673228346
 31
0.0
  0
LINE
  5
13D
330
1F
100
AcDbEntity
  8
0
  6
Continuous
 62
     7
370
    25
100
AcDbLine
 10
-0.6200787402
 20
0.1476377953
 30
0.0
 11
-0.6200787402
 21
0.0590551181
 31
0.0
  0
LINE
  5
13E
330
1F
100
AcDbEntity
  8
0
  6
Continuous
 62
     7
370
    25
100
AcDbLine
 10
0.6200787402
 20
0.0590551181
 30
0.0
 11
0.6200787402
 21
0.1476377953
 31
0.0
  0
LINE
  5
13F
330
1F
100
AcDbEntity
  8
0
  6
Continuous
 62
     7
370
    25
100
AcDbLine
 10
0.6200787402
 20
0.1673228346
 30
0.0
 11
0.6200787402
 21
0.2362204724
 31
0.0
  0
LINE
  5
140
330
1F
100
AcDbEntity
  8
0
  6
Continuous
 62
     7
370
    25
100
AcDbLine
 10
0.2755905512
 20
-0.0994202107
 30
0.0
 11
0.2755905512
 21
-0.0393700787
 31
0.0
  0
LINE
  5
141
330
1F
100
AcDbEntity
  8
0
  6
Continuous
 62
     7
370
    25
100
AcDbLine
 10
-0.2755905512
 20
-0.0393700787
 30
0.0
 11
-0.2755905512
 21
-0.0994202107
 31
0.0
  0
LINE
  5
142
330
1F
100
AcDbEntity
  8
0
  6
Continuous
 62
     7
370
    25
100
AcDbLine
 10
0.2362204724
 20
-0.0393700787
 30
0.0
 11
0.2362204724
 21
0.0
 31
0.0
  0
LINE
  5
143
330
1F
100
AcDbEntity
  8
0
  6
Continuous
 62
     7
370
    25
100
AcDbLine
 10
-0.2362204724
 20
0.0
 30
0.0
 11
-0.2362204724
 21
-0.0393700787
 31
0.0
  0
LINE
  5
144
330
1F
100
AcDbEntity
  8
0
  6
Continuous
 62
     7
370
    25
100
AcDbLine
 10
1.2125984252
 20
-0.0994202107
 30
0.0
 11
-1.2125984252
 21
-0.0994202107
 31
0.0
  0
LINE
  5
145
330
1F
100
AcDbEntity
  8
0
  6
Continuous
 62
     7
370
    25
100
AcDbLine
 10
-1.2244094488
 20
-0.1112312344
 30
0.0
 11
-1.2244094488
 21
-0.1465869938
 31
0.0
  0
LINE
  5
146
330
1F
100
AcDbEntity
  8
0
  6
Continuous
 62
     7
370
    25
100
AcDbLine
 10
1.2244094488
 20
-0.1465869938
 30
0.0
 11
1.2244094488
 21
-0.1112312344
 31
0.0
  0
LINE
  5
147
330
1F
100
AcDbEntity
  8
0
  6
Continuous
 62
     7
370
    25
100
AcDbLine
 10
0.7874015748
 20
-0.1928655679
 30
0.0
 11
1.2135516636
 21
-0.1583594879
 31
0.0
  0
LINE
  5
148
330
1F
100
AcDbEntity
  8
0
  6
Continuous
 62
     7
370
    25
100
AcDbLine
 10
-1.2135516636
 20
-0.1583594879
 30
0.0
 11
-0.7874015748
 21
-0.1928655679
 31
0.0
  0
LINE
  5
149
330
1F
100
AcDbEntity
  8
0
  6
Continuous
 62
     7
370
    25
100
AcDbLine
 10
-0.7874015748
 20
-0.1928655679
 30
0.0
 11
-0.7874015748
 21
-0.2086614173
 31
0.0
  0
LINE
  5
14A
330
1F
100
AcDbEntity
  8
0
  6
Continuous
 62
     7
370
    25
100
AcDbLine
 10
0.7874015748
 20
-0.2086614173
 30
0.0
 11
0.7874015748
 21
-0.1928655679
 31
0.0
  0
LINE
  5
14B
330
1F
100
AcDbEntity
  8
0
  6
Continuous
 62
     7
370
    25
100
AcDbLine
 10
1.2303149606
 20
-0.7480314961
 30
0.0
 11
1.2303149606
 21
-0.531496063
 31
0.0
  0
LINE
  5
14C
330
1F
100
AcDbEntity
  8
0
  6
Continuous
 62
     7
370
    25
100
AcDbLine
 10
-1.2303149606
 20
-0.531496063
 30
0.0
 11
-1.2303149606
 21
-0.7480314961
 31
0.0
  0
LINE
  5
14D
330
1F
100
AcDbEntity
  8
0
  6
Continuous
 62
     7
370
    25
100
AcDbLine
 10
0.9448818898
 20
-1.4566929134
 30
0.0
 11
0.9842519685
 21
-1.4173228346
 31
0.0
  0
LINE
  5
14E
330
1F
100
AcDbEntity
  8
0
  6
Continuous
 62
     7
370
    25
100
AcDbLine
 10
-0.9842519685
 20
-1.4173228346
 30
0.0
 11
-0.9448818898
 21
-1.4566929134
 31
0.0
  0
LINE
  5
14F
330
1F
100
AcDbEntity
  8
0
  6
Continuous
 62
     7
370
    25
100
AcDbLine
 10
0.9842519685
 20
-1.4173228346
 30
0.0
 11
0.9842519685
 21
-0.7677165354
 31
0.0
  0
LINE
  5
150
330
1F
100
AcDbEntity
  8
0
  6
Continuous
 62
     7
370
    25
100
AcDbLine
 10
-0.9842519685
 20
-0.7677165354
 30
0.0
 11
-0.9842519685
 21
-1.4173228346
 31
0.0
  0
LINE
  5
151
330
1F
100
AcDbEntity
  8
0
  6
Continuous
 62
     7
370
    25
100
AcDbLine
 10
-0.8107133464
 20
-1.8281883248
 30
0.0
 11
-0.7680811743
 21
-1.8503925284
 31
0.0
  0
LINE
  5
152
330
1F
100
AcDbEntity
  8
0
  6
Continuous
 62
     7
370
    25
100
AcDbLine
 10
-0.8169082642
 20
-1.7461467878
 30
0.0
 11
-0.7679759554
 21
-1.7716348681
 31
0.0
  0
LINE
  5
153
330
1F
100
AcDbEntity
  8
0
  6
Continuous
 62
     7
370
    25
100
AcDbLine
 10
0.7670232243
 20
-1.8114520745
 30
0.0
 11
0.8168833336
 21
-1.7854756776
 31
0.0
  0
LINE
  5
154
330
1F
100
AcDbEntity
  8
0
  6
Continuous
 62
     7
370
    25
100
AcDbLine
 10
-0.7672139313
 20
-1.8499408659
 30
0.0
 11
-0.7815585792
 21
-1.8574115985
 31
0.0
  0
LINE
  5
155
330
1F
100
AcDbEntity
  8
0
  6
Continuous
 62
     7
370
    25
100
AcDbLine
 10
-0.7670501835
 20
-1.7711526434
 30
0.0
 11
-0.8168775742
 21
-1.7971071962
 31
0.0
  0
LINE
  5
156
330
1F
100
AcDbEntity
  8
0
  6
Continuous
 62
     7
370
    25
100
AcDbLine
 10
0.8067376154
 20
-1.8312831485
 30
0.0
 11
0.7678474256
 21
-1.8110226775
 31
0.0
  0
LINE
  5
157
330
1F
100
AcDbEntity
  8
0
  6
Continuous
 62
     7
370
    25
100
AcDbLine
 10
-0.8169291339
 20
-1.7972719327
 30
0.0
 11
-0.8169291339
 21
-1.8228346457
 31
0.0
  0
LINE
  5
158
330
1F
100
AcDbEntity
  8
0
  6
Continuous
 62
     7
370
    25
100
AcDbLine
 10
0.8169291339
 20
-1.7854051648
 30
0.0
 11
0.8169291339
 21
-1.7579019218
 31
0.0
  0
LINE
  5
159
330
1F
100
AcDbEntity
  8
0
  6
Continuous
 62
     7
370
    25
100
AcDbLine
 10
-0.8169291339
 20
-1.8228346457
 30
0.0
 11
-0.8122739744
 21
-1.8274898052
 31
0.0
  0
LINE
  5
15A
330
1F
100
AcDbEntity
  8
0
  6
Continuous
 62
     7
370
    25
100
AcDbLine
 10
0.7696850394
 20
-1.8700787402
 30
0.0
 11
0.8076116183
 21
-1.8321521612
 31
0.0
  0
LINE
  5
15B
330
1F
100
AcDbEntity
  8
0
  6
Continuous
 62
     7
370
    25
100
AcDbLine
 10
-0.8169291339
 20
-1.5610515281
 30
0.0
 11
-0.8169291339
 21
-1.5885547711
 31
0.0
  0
LINE
  5
15C
330
1F
100
AcDbEntity
  8
0
  6
Continuous
 62
     7
370
    25
100
AcDbLine
 10
0.8169291339
 20
-1.4703968412
 30
0.0
 11
0.8169291339
 21
-1.4566929134
 31
0.0
  0
LINE
  5
15D
330
1F
100
AcDbEntity
  8
0
  6
Continuous
 62
     7
370
    25
100
AcDbLine
 10
0.8169291339
 20
-1.5491846924
 30
0.0
 11
0.8169291339
 21
-1.521729143
 31
0.0
  0
LINE
  5
15E
330
1F
100
AcDbEntity
  8
0
  6
Continuous
 62
     7
370
    25
100
AcDbLine
 10
-0.8169291339
 20
-1.4566929134
 30
0.0
 11
-0.8169291339
 21
-1.5098146137
 31
0.0
  0
LINE
  5
15F
330
1F
100
AcDbEntity
  8
0
  6
Continuous
 62
     7
370
    25
100
AcDbLine
 10
-0.8169291339
 20
-1.6397916856
 30
0.0
 11
-0.8169291339
 21
-1.6672949286
 31
0.0
  0
LINE
  5
160
330
1F
100
AcDbEntity
  8
0
  6
Continuous
 62
     7
370
    25
100
AcDbLine
 10
0.8169291339
 20
-1.6279248499
 30
0.0
 11
0.8169291339
 21
-1.6004216068
 31
0.0
  0
LINE
  5
161
330
1F
100
AcDbEntity
  8
0
  6
Continuous
 62
     7
370
    25
100
AcDbLine
 10
-0.8169291339
 20
-1.718531843
 30
0.0
 11
-0.8169291339
 21
-1.7460350895
 31
0.0
  0
LINE
  5
162
330
1F
100
AcDbEntity
  8
0
  6
Continuous
 62
     7
370
    25
100
AcDbLine
 10
0.8169291339
 20
-1.7066650074
 30
0.0
 11
0.8169291339
 21
-1.6791617643
 31
0.0
  0
LINE
  5
163
330
1F
100
AcDbEntity
  8
0
  6
Continuous
 62
     7
370
    25
100
AcDbLine
 10
-0.7815193852
 20
-1.8582443943
 30
0.0
 11
-0.7696850394
 21
-1.8700787402
 31
0.0
  0
LINE
  5
164
330
1F
100
AcDbEntity
  8
0
  6
Continuous
 62
     7
370
    25
100
AcDbLine
 10
-0.2362204724
 20
-1.8700787402
 30
0.0
 11
-0.2362204724
 21
-2.0275590551
 31
0.0
  0
LINE
  5
165
330
1F
100
AcDbEntity
  8
0
  6
Continuous
 62
     7
370
    25
100
AcDbLine
 10
0.2362204724
 20
-2.0275590551
 30
0.0
 11
0.2362204724
 21
-1.8700787402
 31
0.0
  0
LINE
  5
166
330
1F
100
AcDbEntity
  8
0
  6
Continuous
 62
     7
370
    25
100
AcDbLine
 10
0.7283464567
 20
0.1476377953
 30
0.0
 11
0.7283464567
 21
0.1673228346
 31
0.0
  0
LINE
  5
167
330
1F
100
AcDbEntity
  8
0
  6
Continuous
 62
     7
370
    25
100
AcDbLine
 10
-0.7283464567
 20
0.1673228346
 30
0.0
 11
-0.7283464567
 21
0.1476377953
 31
0.0
  0
LINE
  5
168
330
1F
100
AcDbEntity
  8
0
  6
Continuous
 62
     7
370
    25
100
AcDbLine
 10
1.1712598425
 20
-0.531496063
 30
0.0
 11
1.1712598425
 21
-0.4921259843
 31
0.0
  0
LINE
  5
169
330
1F
100
AcDbEntity
  8
0
  6
Continuous
 62
     7
370
    25
100
AcDbLine
 10
-1.1712598425
 20
-0.4921259843
 30
0.0
 11
-1.1712598425
 21
-0.531496063
 31
0.0
  0
LINE
  5
16A
330
1F
100
AcDbEntity
  8
0
  6
Continuous
 62
     7
370
    25
100
AcDbLine
 10
1.1811023622
 20
-0.4527559055
 30
0.0
 11
1.1811023622
 21
-0.2086614173
 31
0.0
  0
LINE
  5
16B
330
1F
100
AcDbEntity
  8
0
  6
Continuous
 62
     7
370
    25
100
AcDbLine
 10
-1.1811023622
 20
-0.2086614173
 30
0.0
 11
-1.1811023622
 21
-0.4527559055
 31
0.0
  0
LINE
  5
16C
330
1F
100
AcDbEntity
  8
0
  6
Continuous
 62
     7
370
    25
100
AcDbLine
 10
-0.6811023622
 20
0.2362204724
 30
0.0
 11
0.6811023622
 21
0.2362204724
 31
0.0
  0
LINE
  5
16D
330
1F
100
AcDbEntity
  8
0
  6
Continuous
 62
     7
370
    25
100
AcDbLine
 10
-0.6811023622
 20
0.0
 30
0.0
 11
0.6811023622
 21
0.0
 31
0.0
  0
LINE
  5
16E
330
1F
100
AcDbEntity
  8
0
  6
Continuous
 62
     7
370
    25
100
AcDbLine
 10
-0.6811023622
 20
0.0590551181
 30
0.0
 11
0.6811023622
 21
0.0590551181
 31
0.0
  0
LINE
  5
16F
330
1F
100
AcDbEntity
  8
0
  6
Continuous
 62
     7
370
    25
100
AcDbLine
 10
-0.2755905512
 20
-0.0393700787
 30
0.0
 11
0.2755905512
 21
-0.0393700787
 31
0.0
  0
LINE
  5
170
330
1F
100
AcDbEntity
  8
0
  6
Continuous
 62
     7
370
    25
100
AcDbLine
 10
-0.7874015748
 20
-0.1928655679
 30
0.0
 11
0.7874015748
 21
-0.1928655679
 31
0.0
  0
LINE
  5
171
330
1F
100
AcDbEntity
  8
0
  6
Continuous
 62
     7
370
    25
100
AcDbLine
 10
-1.2303149606
 20
-0.531496063
 30
0.0
 11
1.2303149606
 21
-0.531496063
 31
0.0
  0
LINE
  5
172
330
1F
100
AcDbEntity
  8
0
  6
Continuous
 62
     7
370
    25
100
AcDbLine
 10
-1.2106299213
 20
-0.7677165354
 30
0.0
 11
1.2106299213
 21
-0.7677165354
 31
0.0
  0
LINE
  5
173
330
1F
100
AcDbEntity
  8
0
  6
Continuous
 62
     7
370
    25
100
AcDbLine
 10
-0.9842519685
 20
-1.4173228346
 30
0.0
 11
0.9842519685
 21
-1.4173228346
 31
0.0
  0
LINE
  5
174
330
1F
100
AcDbEntity
  8
0
  6
Continuous
 62
     7
370
    25
100
AcDbLine
 10
-0.9448818898
 20
-1.4566929134
 30
0.0
 11
0.9448818898
 21
-1.4566929134
 31
0.0
  0
LINE
  5
175
330
1F
100
AcDbEntity
  8
0
  6
Continuous
 62
     7
370
    25
100
AcDbLine
 10
0.0
 20
-1.4901295743
 30
0.0
 11
0.0
 21
-0.4921259843
 31
0.0
  0
LINE
  5
176
330
1F
100
AcDbEntity
  8
0
  6
Continuous
 62
     7
370
    25
100
AcDbLine
 10
-0.3547812596
 20
-1.7319738244
 30
0.0
 11
-0.3334088939
 21
-1.757592649
 31
0.0
  0
LINE
  5
177
330
1F
100
AcDbEntity
  8
0
  6
Continuous
 62
     7
370
    25
100
AcDbLine
 10
-0.333408751
 20
-1.7576041104
 30
0.0
 11
-0.3547811062
 21
-1.783222935
 31
0.0
  0
LINE
  5
178
330
1F
100
AcDbEntity
  8
0
  6
Continuous
 62
     7
370
    25
100
AcDbLine
 10
0.7677165354
 20
-1.4960629921
 30
0.0
 11
0.8169291339
 21
-1.5216814493
 31
0.0
  0
LINE
  5
179
330
1F
100
AcDbEntity
  8
0
  6
Continuous
 62
     7
370
    25
100
AcDbLine
 10
-0.8169291339
 20
-1.8228346457
 30
0.0
 11
-0.807153956
 21
-1.8228346457
 31
0.0
  0
LINE
  5
17A
330
1F
100
AcDbEntity
  8
0
  6
Continuous
 62
     7
370
    25
100
AcDbLine
 10
0.0
 20
-1.8050902042
 30
0.0
 11
0.0
 21
-1.7775869611
 31
0.0
  0
LINE
  5
17B
330
1F
100
AcDbEntity
  8
0
  6
Continuous
 62
     7
370
    25
100
AcDbLine
 10
-0.7696850394
 20
-1.8700787402
 30
0.0
 11
0.7696850394
 21
-1.8700787402
 31
0.0
  0
LINE
  5
17C
330
1F
100
AcDbEntity
  8
0
  6
Continuous
 62
     7
370
    25
100
AcDbLine
 10
0.0000000001
 20
-1.8448609502
 30
0.0
 11
0.0
 21
-2.0275590551
 31
0.0
  0
LINE
  5
17D
330
1F
100
AcDbEntity
  8
0
  6
Continuous
 62
     7
370
    25
100
AcDbLine
 10
0.0
 20
-1.5688697318
 30
0.0
 11
0.0
 21
-1.5413664887
 31
0.0
  0
LINE
  5
17E
330
1F
100
AcDbEntity
  8
0
  6
Continuous
 62
     7
370
    25
100
AcDbLine
 10
0.8169291339
 20
-1.4704445349
 30
0.0
 11
0.8169291339
 21
-1.5216814493
 31
0.0
  0
LINE
  5
17F
330
1F
100
AcDbEntity
  8
0
  6
Continuous
 62
     7
370
    25
100
AcDbLine
 10
0.0
 20
-1.6476098892
 30
0.0
 11
0.0
 21
-1.6201066462
 31
0.0
  0
LINE
  5
180
330
1F
100
AcDbEntity
  8
0
  6
Continuous
 62
     7
370
    25
100
AcDbLine
 10
0.0
 20
-1.7263500467
 30
0.0
 11
0.0
 21
-1.6988468037
 31
0.0
  0
LINE
  5
181
330
1F
100
AcDbEntity
  8
0
  6
Continuous
 62
     7
370
    25
100
AcDbLine
 10
0.2362204724
 20
-2.0275590551
 30
0.0
 11
-0.2362204724
 21
-2.0275590551
 31
0.0
  0
LINE
  5
182
330
1F
100
AcDbEntity
  8
0
  6
Continuous
 62
     7
370
    25
100
AcDbLine
 10
-0.7283464567
 20
0.1673228346
 30
0.0
 11
0.7283464567
 21
0.1673228346
 31
0.0
  0
LINE
  5
183
330
1F
100
AcDbEntity
  8
0
  6
Continuous
 62
     7
370
    25
100
AcDbLine
 10
-0.7283464567
 20
0.1476377953
 30
0.0
 11
0.7283464567
 21
0.1476377953
 31
0.0
  0
LINE
  5
184
330
1F
100
AcDbEntity
  8
0
  6
Continuous
 62
     7
370
    25
100
AcDbLine
 10
-1.1811023622
 20
-0.4527559055
 30
0.0
 11
1.1811023622
 21
-0.4527559055
 31
0.0
  0
LINE
  5
185
330
1F
100
AcDbEntity
  8
0
  6
Continuous
 62
     7
370
    25
100
AcDbLine
 10
0.0
 20
-0.0994587403
 30
0.0
 11
0.0
 21
-0.4527559055
 31
0.0
  0
LINE
  5
186
330
1F
100
AcDbEntity
  8
0
  6
Continuous
 62
     7
370
    25
100
AcDbLine
 10
-1.1811023622
 20
-0.2086614173
 30
0.0
 11
1.1811023622
 21
-0.2086614173
 31
0.0
  0
LINE
  5
187
330
1F
100
AcDbEntity
  8
0
  6
Continuous
 62
     8
370
    25
100
AcDbLine
 10
-1.2401574803
 20
0.493724839
 30
0.0
 11
1.2401574803
 21
0.493724839
 31
0.0
  0
LINE
  5
188
330
1F
100
AcDbEntity
  8
0
  6
Continuous
 62
     8
370
    25
100
AcDbLine
 10
-1.233954011
 20
0.5348533896
 30
0.0
 11
1.233954011
 21
0.5348533896
 31
0.0
  0
LINE
  5
189
330
1F
100
AcDbEntity
  8
0
  6
Continuous
 62
     8
370
    25
100
AcDbLine
 10
-1.2401574803
 20
0.5244584093
 30
0.0
 11
1.2401574803
 21
0.5244584093
 31
0.0
  0
LINE
  5
18A
330
1F
100
AcDbEntity
  8
0
  6
Continuous
 62
     8
370
    25
100
AcDbLine
 10
0.0
 20
-0.0994202107
 30
0.0
 11
0.0
 21
0.8464566929
 31
0.0
  0
LINE
  5
18B
330
1F
100
AcDbEntity
  8
0
  6
Continuous
 62
     8
370
    25
100
AcDbLine
 10
-1.2244094488
 20
-0.1112312344
 30
0.0
 11
1.2244094488
 21
-0.1112312344
 31
0.0
  0
LINE
  5
18C
330
1F
100
AcDbEntity
  8
0
  6
Continuous
 62
     8
370
    25
100
AcDbLine
 10
-1.2244094488
 20
-0.1465869938
 30
0.0
 11
1.2244094488
 21
-0.1465869938
 31
0.0
  0
LINE
  5
18D
330
1F
100
AcDbEntity
  8
0
  6
Continuous
 62
     8
370
    25
100
AcDbLine
 10
-1.2135516636
 20
-0.1583594879
 30
0.0
 11
1.2135516636
 21
-0.1583594879
 31
0.0
  0
LINE
  5
18E
330
1F
100
AcDbEntity
  8
0
  6
Continuous
 62
     8
370
    25
100
AcDbLine
 10
-1.2303149606
 20
-0.7480314961
 30
0.0
 11
1.2303149606
 21
-0.7480314961
 31
0.0
  0
LINE
  5
18F
330
1F
100
AcDbEntity
  8
0
  6
Continuous
 62
     8
370
    25
100
AcDbLine
 10
-1.1712598425
 20
-0.4921259843
 30
0.0
 11
1.1712598425
 21
-0.4921259843
 31
0.0
  0
ARC
  5
190
330
1F
100
AcDbEntity
  8
0
  6
Continuous
 62
     7
370
    25
100
AcDbCircle
 10
1.2283464567
 20
0.493724839
 30
0.0
 40
0.0118110236220474
100
AcDbArc
 50
270.0
 51
0.0
  0
ARC
  5
191
330
1F
100
AcDbEntity
  8
0
  6
Continuous
 62
     7
370
    25
100
AcDbCircle
 10
1.2283464567
 20
0.5244584093
 30
0.0
 40
0.0118110236220472
100
AcDbArc
 50
0.0
 51
61.6554332751
  0
ARC
  5
192
330
1F
100
AcDbEntity
  8
0
  6
Continuous
 62
     7
370
    25
100
AcDbCircle
 10
-1.2283464567
 20
0.5244584093
 30
0.0
 40
0.0118110236220481
100
AcDbArc
 50
118.3445667249
 51
180.0
  0
ARC
  5
193
330
1F
100
AcDbEntity
  8
0
  6
Continuous
 62
     7
370
    25
100
AcDbCircle
 10
-1.2283464567
 20
0.493724839
 30
0.0
 40
0.011811023622047
100
AcDbArc
 50
180.0
 51
270.0
  0
ARC
  5
194
330
1F
100
AcDbEntity
  8
0
  6
Continuous
 62
     7
370
    25
100
AcDbCircle
 10
0.0
 20
-1.7525836614
 30
0.0
 40
2.59904035433333
100
AcDbArc
 50
61.6554332752
 51
118.3445667248
  0
ARC
  5
195
330
1F
100
AcDbEntity
  8
0
  6
Continuous
 62
     7
370
    25
100
AcDbCircle
 10
1.2125984252
 20
-0.1112312344
 30
0.0
 40
0.0118110236220472
100
AcDbArc
 50
0.0
 51
90.0
  0
ARC
  5
196
330
1F
100
AcDbEntity
  8
0
  6
Continuous
 62
     7
370
    25
100
AcDbCircle
 10
-1.2125984252
 20
-0.1465869938
 30
0.0
 40
0.0118110236220468
100
AcDbArc
 50
180.0
 51
265.370765052
  0
ARC
  5
197
330
1F
100
AcDbEntity
  8
0
  6
Continuous
 62
     7
370
    25
100
AcDbCircle
 10
-1.2125984252
 20
-0.1112312344
 30
0.0
 40
0.0118110236220472
100
AcDbArc
 50
90.0
 51
180.0
  0
ARC
  5
198
330
1F
100
AcDbEntity
  8
0
  6
Continuous
 62
     7
370
    25
100
AcDbCircle
 10
1.2125984252
 20
-0.1465869938
 30
0.0
 40
0.0118110236220474
100
AcDbArc
 50
274.629234948
 51
0.0
  0
ARC
  5
199
330
1F
100
AcDbEntity
  8
0
  6
Continuous
 62
     7
370
    25
100
AcDbCircle
 10
-1.2106299213
 20
-0.7480314961
 30
0.0
 40
0.0196850393700787
100
AcDbArc
 50
180.0
 51
270.0
  0
ARC
  5
19A
330
1F
100
AcDbEntity
  8
0
  6
Continuous
 62
     7
370
    25
100
AcDbCircle
 10
1.2106299213
 20
-0.7480314961
 30
0.0
 40
0.0196850393700786
100
AcDbArc
 50
270.0
 51
0.0
  0
LINE
  5
1A3
330
1B
100
AcDbEntity
 67
     1
  8
0
  6
Continuous
 62
     7
370
    25
100
AcDbLine
 10
0.0
 20
1.2401574803
 30
0.0
 11
0.0
 21
-1.2401574803
 31
0.0
  0
ARC
  5
1A4
330
1B
100
AcDbEntity
 67
     1
  8
0
  6
Continuous
 62
     7
370
    25
100
AcDbCircle
 10
0.0
 20
0.0
 30
0.0
 40
1.233954011015354
100
AcDbArc
 50
270.0
 51
90.0
  0
ARC
  5
1A5
330
1B
100
AcDbEntity
 67
     1
  8
0
  6
Continuous
 62
     7
370
    25
100
AcDbCircle
 10
0.0
 20
0.0
 30
0.0
 40
1.240157480314961
100
AcDbArc
 50
90.0
 51
270.0
  0
VIEWPORT
  5
2D6
330
1B
100
AcDbEntity
 67
     1
  8
0
100
AcDbViewport
 10
0.0
 20
0.0
 30
0.0
 40
8.4
 41
6.4
 68
     1
 69
     1
 12
0.0
 22
-0.5905511811
 13
0.0
 23
0.0
 14
0.5
 24
0.5
 15
0.5
 25
0.5
 16
0.0
 26
0.0
 36
1.0
 17
0.0
 27
0.0
 37
0.0
 42
50.0
 43
0.0
 44
0.0
 45
2.931496063
 50
0.0
 51
0.0
 72
   100
 90
   557152
  1

281
     0
 71
     1
 74
     0
110
0.0
120
0.0
130
0.0
111
1.0
121
0.0
131
0.0
112
0.0
122
1.0
132
0.0
 79
     0
146
0.0
  0
ENDSEC
  0
SECTION
  2
OBJECTS
  0
DICTIONARY
  5
C
330
0
100
AcDbDictionary
281
     1
  3
ACAD_GROUP
350
D
  3
ACAD_LAYOUT
350
1A
  3
ACAD_MLINESTYLE
350
17
  3
ACAD_PLOTSETTINGS
350
19
  3
ACAD_PLOTSTYLENAME
350
E
  3
ACAD_SCALELIST
350
47
  0
DICTIONARY
  5
D
102
{ACAD_REACTORS
330
C
102
}
330
C
100
AcDbDictionary
281
     1
  0
DICTIONARY
  5
1A
102
{ACAD_REACTORS
330
C
102
}
330
C
100
AcDbDictionary
281
     1
  3
_Bottom
350
26
  3
_Isometric
350
219
  3
_Top
350
1E
  3
Model
350
22
  0
DICTIONARY
  5
17
102
{ACAD_REACTORS
330
C
102
}
330
C
100
AcDbDictionary
281
     1
  3
Standard
350
18
  0
DICTIONARY
  5
19
102
{ACAD_REACTORS
330
C
102
}
330
C
100
AcDbDictionary
281
     1
  0
ACDBDICTIONARYWDFLT
  5
E
102
{ACAD_REACTORS
330
C
102
}
330
C
100
AcDbDictionary
281
     1
  3
Normal
350
F
100
AcDbDictionaryWithDefault
340
F
  0
DICTIONARY
  5
47
102
{ACAD_REACTORS
330
C
102
}
330
C
100
AcDbDictionary
281
     1
  3
A0
350
48
  3
A1
350
49
  3
A2
350
4A
  3
A3
350
4B
  3
A4
350
4C
  3
A5
350
4D
  3
A6
350
4E
  3
A7
350
4F
  3
A8
350
50
  3
A9
350
51
  3
B0
350
52
  3
B1
350
53
  3
B2
350
54
  3
B3
350
55
  3
B4
350
56
  3
B5
350
57
  3
B6
350
58
  3
B7
350
59
  3
B8
350
5A
  3
B9
350
5B
  3
C0
350
5C
  3
C1
350
5D
  3
C2
350
5E
  3
C3
350
5F
  3
C4
350
60
  3
C5
350
61
  3
C6
350
62
  3
C7
350
63
  3
C8
350
64
  3
C9
350
65
  3
D0
350
66
  3
D1
350
67
  3
D2
350
68
  0
LAYOUT
  5
26
102
{ACAD_REACTORS
330
1A
102
}
330
1A
100
AcDbPlotSettings
  1

  2
none_device
  4
Letter_(8.50_x_11.00_Inches)
  6

 40
6.35
 41
6.35
 42
6.35001
 43
6.35001
 44
215.9
 45
279.4
 46
0.0
 47
0.0
 48
0.0
 49
0.0
140
0.0
141
0.0
142
1.0
143
0.3100393853
 70
   688
 72
     0
 73
     1
 74
     1
  7

 75
     0
147
3.2253966667
148
31.5
149
31.5
100
AcDbLayout
  1
_Bottom
 70
     1
 71
     2
 10
0.0
 20
0.0
 11
0.0
 21
0.0
 12
0.0
 22
0.0
 32
0.0
 14
0.0
 24
0.0
 34
0.0
 15
0.0
 25
0.0
 35
0.0
146
0.0
 13
0.0
 23
0.0
 33
0.0
 16
1.0
 26
0.0
 36
0.0
 17
0.0
 27
1.0
 37
0.0
 76
     0
330
23
331
2D8
  0
LAYOUT
  5
219
102
{ACAD_REACTORS
330
1A
102
}
330
1A
100
AcDbPlotSettings
  1

  2
none_device
  4
Letter_(8.50_x_11.00_Inches)
  6

 40
6.35
 41
6.35
 42
6.35001
 43
6.35001
 44
215.9
 45
279.4
 46
0.0
 47
0.0
 48
0.0
 49
0.0
140
0.0
141
0.0
142
1.0
143
0.3100393853
 70
   688
 72
     0
 73
     1
 74
     1
  7

 75
     0
147
3.2253966667
148
31.5
149
31.5
100
AcDbLayout
  1
_Isometric
 70
     1
 71
     3
 10
0.0
 20
0.0
 11
0.0
 21
0.0
 12
0.0
 22
0.0
 32
0.0
 14
0.0
 24
0.0
 34
0.0
 15
0.0
 25
0.0
 35
0.0
146
0.0
 13
0.0
 23
0.0
 33
0.0
 16
1.0
 26
0.0
 36
0.0
 17
0.0
 27
1.0
 37
0.0
 76
     0
330
218
331
2DA
  0
LAYOUT
  5
1E
102
{ACAD_REACTORS
330
1A
102
}
330
1A
100
AcDbPlotSettings
  1

  2
none_device
  4
Letter_(8.50_x_11.00_Inches)
  6

 40
6.35
 41
6.35
 42
6.35001
 43
6.35001
 44
215.9
 45
279.4
 46
0.0
 47
0.0
 48
0.0
 49
0.0
140
0.0
141
0.0
142
1.0
143
0.3100393853
 70
   688
 72
     0
 73
     1
 74
     1
  7

 75
     0
147
3.2253966667
148
31.5
149
31.5
100
AcDbLayout
  1
_Top
 70
     1
 71
     1
 10
-1.3176674487
 20
-1.3176673266
 11
2.09276579
 21
1.3176674487
 12
0.0
 22
0.0
 32
0.0
 14
-1.2401574803
 24
-1.2401574803
 34
0.0
 15
1.233954011
 25
1.2401574803
 35
0.0
146
0.0
 13
0.0
 23
0.0
 33
0.0
 16
1.0
 26
0.0
 36
0.0
 17
0.0
 27
1.0
 37
0.0
 76
     0
330
1B
331
2D6
  0
LAYOUT
  5
22
102
{ACAD_REACTORS
330
1A
102
}
330
1A
100
AcDbPlotSettings
  1

  2
none_device
  4
ANSI_A_(11.00_x_8.50_Inches)
  6

 40
6.35
 41
19.05
 42
6.35000508
 43
19.05000254
 44
279.4
 45
215.9
 46
133.34999746
 47
132.8193822914
 48
0.0
 49
0.0
140
0.0
141
0.0
142
2.9279589041
143
1.0
 70
  1696
 72
     0
 73
     0
 74
     0
  7

 75
     0
147
0.5913241897
148
-39.4088153714
149
0.0
100
AcDbLayout
  1
Model
 70
     1
 71
     0
 10
0.0
 20
0.0
 11
12.0
 21
9.0
 12
0.0
 22
0.0
 32
0.0
 14
-1.2401574803
 24
-2.0275590551
 34
0.0
 15
1.2401574803
 25
0.8464566929
 35
0.0
146
0.0
 13
0.0
 23
0.0
 33
0.0
 16
1.0
 26
0.0
 36
0.0
 17
0.0
 27
1.0
 37
0.0
 76
     0
330
1F
331
29
  0
MLINESTYLE
  5
18
102
{ACAD_REACTORS
330
17
102
}
330
17
100
AcDbMlineStyle
  2
Standard
 70
     0
  3

 62
   256
 51
90.0
 52
90.0
 71
     2
 49
0.5
 62
   256
  6
BYLAYER
 49
-0.5
 62
   256
  6
BYLAYER
  0
ACDBPLACEHOLDER
  5
F
102
{ACAD_REACTORS
330
E
102
}
330
E
  0
SCALE
  5
48
102
{ACAD_REACTORS
330
47
102
}
330
47
100
AcDbScale
 70
     0
300
1:1
140
1.0
141
1.0
290
     1
  0
SCALE
  5
49
102
{ACAD_REACTORS
330
47
102
}
330
47
100
AcDbScale
 70
     0
300
1:2
140
1.0
141
2.0
290
     0
  0
SCALE
  5
4A
102
{ACAD_REACTORS
330
47
102
}
330
47
100
AcDbScale
 70
     0
300
1:4
140
1.0
141
4.0
290
     0
  0
SCALE
  5
4B
102
{ACAD_REACTORS
330
47
102
}
330
47
100
AcDbScale
 70
     0
300
1:5
140
1.0
141
5.0
290
     0
  0
SCALE
  5
4C
102
{ACAD_REACTORS
330
47
102
}
330
47
100
AcDbScale
 70
     0
300
1:8
140
1.0
141
8.0
290
     0
  0
SCALE
  5
4D
102
{ACAD_REACTORS
330
47
102
}
330
47
100
AcDbScale
 70
     0
300
1:10
140
1.0
141
10.0
290
     0
  0
SCALE
  5
4E
102
{ACAD_REACTORS
330
47
102
}
330
47
100
AcDbScale
 70
     0
300
1:16
140
1.0
141
16.0
290
     0
  0
SCALE
  5
4F
102
{ACAD_REACTORS
330
47
102
}
330
47
100
AcDbScale
 70
     0
300
1:20
140
1.0
141
20.0
290
     0
  0
SCALE
  5
50
102
{ACAD_REACTORS
330
47
102
}
330
47
100
AcDbScale
 70
     0
300
1:30
140
1.0
141
30.0
290
     0
  0
SCALE
  5
51
102
{ACAD_REACTORS
330
47
102
}
330
47
100
AcDbScale
 70
     0
300
1:40
140
1.0
141
40.0
290
     0
  0
SCALE
  5
52
102
{ACAD_REACTORS
330
47
102
}
330
47
100
AcDbScale
 70
     0
300
1:50
140
1.0
141
50.0
290
     0
  0
SCALE
  5
53
102
{ACAD_REACTORS
330
47
102
}
330
47
100
AcDbScale
 70
     0
300
1:100
140
1.0
141
100.0
290
     0
  0
SCALE
  5
54
102
{ACAD_REACTORS
330
47
102
}
330
47
100
AcDbScale
 70
     0
300
2:1
140
2.0
141
1.0
290
     0
  0
SCALE
  5
55
102
{ACAD_REACTORS
330
47
102
}
330
47
100
AcDbScale
 70
     0
300
4:1
140
4.0
141
1.0
290
     0
  0
SCALE
  5
56
102
{ACAD_REACTORS
330
47
102
}
330
47
100
AcDbScale
 70
     0
300
8:1
140
8.0
141
1.0
290
     0
  0
SCALE
  5
57
102
{ACAD_REACTORS
330
47
102
}
330
47
100
AcDbScale
 70
     0
300
10:1
140
10.0
141
1.0
290
     0
  0
SCALE
  5
58
102
{ACAD_REACTORS
330
47
102
}
330
47
100
AcDbScale
 70
     0
300
100:1
140
100.0
141
1.0
290
     0
  0
SCALE
  5
59
102
{ACAD_REACTORS
330
47
102
}
330
47
100
AcDbScale
 70
     0
300
1/128" = 1'-0"
140
0.0078125
141
12.0
290
     0
  0
SCALE
  5
5A
102
{ACAD_REACTORS
330
47
102
}
330
47
100
AcDbScale
 70
     0
300
1/64" = 1'-0"
140
0.015625
141
12.0
290
     0
  0
SCALE
  5
5B
102
{ACAD_REACTORS
330
47
102
}
330
47
100
AcDbScale
 70
     0
300
1/32" = 1'-0"
140
0.03125
141
12.0
290
     0
  0
SCALE
  5
5C
102
{ACAD_REACTORS
330
47
102
}
330
47
100
AcDbScale
 70
     0
300
1/16" = 1'-0"
140
0.0625
141
12.0
290
     0
  0
SCALE
  5
5D
102
{ACAD_REACTORS
330
47
102
}
330
47
100
AcDbScale
 70
     0
300
3/32" = 1'-0"
140
0.09375
141
12.0
290
     0
  0
SCALE
  5
5E
102
{ACAD_REACTORS
330
47
102
}
330
47
100
AcDbScale
 70
     0
300
1/8" = 1'-0"
140
0.125
141
12.0
290
     0
  0
SCALE
  5
5F
102
{ACAD_REACTORS
330
47
102
}
330
47
100
AcDbScale
 70
     0
300
3/16" = 1'-0"
140
0.1875
141
12.0
290
     0
  0
SCALE
  5
60
102
{ACAD_REACTORS
330
47
102
}
330
47
100
AcDbScale
 70
     0
300
1/4" = 1'-0"
140
0.25
141
12.0
290
     0
  0
SCALE
  5
61
102
{ACAD_REACTORS
330
47
102
}
330
47
100
AcDbScale
 70
     0
300
3/8" = 1'-0"
140
0.375
141
12.0
290
     0
  0
SCALE
  5
62
102
{ACAD_REACTORS
330
47
102
}
330
47
100
AcDbScale
 70
     0
300
1/2" = 1'-0"
140
0.5
141
12.0
290
     0
  0
SCALE
  5
63
102
{ACAD_REACTORS
330
47
102
}
330
47
100
AcDbScale
 70
     0
300
3/4" = 1'-0"
140
0.75
141
12.0
290
     0
  0
SCALE
  5
64
102
{ACAD_REACTORS
330
47
102
}
330
47
100
AcDbScale
 70
     0
300
1" = 1'-0"
140
1.0
141
12.0
290
     0
  0
SCALE
  5
65
102
{ACAD_REACTORS
330
47
102
}
330
47
100
AcDbScale
 70
     0
300
1-1/2" = 1'-0"
140
1.5
141
12.0
290
     0
  0
SCALE
  5
66
102
{ACAD_REACTORS
330
47
102
}
330
47
100
AcDbScale
 70
     0
300
3" = 1'-0"
140
3.0
141
12.0
290
     0
  0
SCALE
  5
67
102
{ACAD_REACTORS
330
47
102
}
330
47
100
AcDbScale
 70
     0
300
6" = 1'-0"
140
6.0
141
12.0
290
     0
  0
SCALE
  5
68
102
{ACAD_REACTORS
330
47
102
}
330
47
100
AcDbScale
 70
     0
300
1'-0" = 1'-0"
140
12.0
141
12.0
290
     0
  0
ENDSEC
  0
EOF
