  0
SECTION
  2
HEADER
  9
$ACADVER
  1
AC1015
  9
$ACADMAINTVER
 70
     6
  9
$DWGCODEPAGE
  3
ANSI_1252
  9
$INSBASE
 10
0.0
 20
0.0
 30
0.0
  9
$EXTMIN
 10
-1.2401574803
 20
-0.9348545406
 30
0.0
  9
$EXTMAX
 10
1.2391770084
 20
1.5748031496
 30
0.0
  9
$LIMMIN
 10
0.0
 20
0.0
  9
$LIMMAX
 10
12.0
 20
9.0
  9
$ORTHOMODE
 70
     0
  9
$REGENMODE
 70
     1
  9
$FILLMODE
 70
     1
  9
$QTEXTMODE
 70
     0
  9
$MIRRTEXT
 70
     1
  9
$LTSCALE
 40
1.0
  9
$ATTMODE
 70
     1
  9
$TEXTSIZE
 40
0.1377952756
  9
$TRACEWID
 40
0.05
  9
$TEXTSTYLE
  7
Standard
  9
$CLAYER
  8
0
  9
$CELTYPE
  6
ByLayer
  9
$CECOLOR
 62
   256
  9
$CELTSCALE
 40
1.0
  9
$DISPSILH
 70
     0
  9
$DIMSCALE
 40
1.0
  9
$DIMASZ
 40
0.13
  9
$DIMEXO
 40
0.0393700787
  9
$DIMDLI
 40
0.38
  9
$DIMRND
 40
0.0
  9
$DIMDLE
 40
0.0
  9
$DIMEXE
 40
0.0393700787
  9
$DIMTP
 40
0.0
  9
$DIMTM
 40
0.0
  9
$DIMTXT
 40
0.1377952756
  9
$DIMCEN
 40
0.09
  9
$DIMTSZ
 40
0.0
  9
$DIMTOL
 70
     0
  9
$DIMLIM
 70
     0
  9
$DIMTIH
 70
     1
  9
$DIMTOH
 70
     1
  9
$DIMSE1
 70
     0
  9
$DIMSE2
 70
     0
  9
$DIMTAD
 70
     1
  9
$DIMZIN
 70
     1
  9
$DIMBLK
  1

  9
$DIMASO
 70
     1
  9
$DIMSHO
 70
     1
  9
$DIMPOST
  1

  9
$DIMAPOST
  1

  9
$DIMALT
 70
     0
  9
$DIMALTD
 70
     2
  9
$DIMALTF
 40
25.4
  9
$DIMLFAC
 40
1.0
  9
$DIMTOFL
 70
     0
  9
$DIMTVP
 40
0.0
  9
$DIMTIX
 70
     0
  9
$DIMSOXD
 70
     0
  9
$DIMSAH
 70
     0
  9
$DIMBLK1
  1

  9
$DIMBLK2
  1

  9
$DIMSTYLE
  2
Standard
  9
$DIMCLRD
 70
     0
  9
$DIMCLRE
 70
     0
  9
$DIMCLRT
 70
     0
  9
$DIMTFAC
 40
1.0
  9
$DIMGAP
 40
0.06
  9
$DIMJUST
 70
     0
  9
$DIMSD1
 70
     0
  9
$DIMSD2
 70
     0
  9
$DIMTOLJ
 70
     1
  9
$DIMTZIN
 70
     1
  9
$DIMALTZ
 70
     0
  9
$DIMALTTZ
 70
     0
  9
$DIMUPT
 70
     0
  9
$DIMDEC
 70
     2
  9
$DIMTDEC
 70
     2
  9
$DIMALTU
 70
     2
  9
$DIMALTTD
 70
     2
  9
$DIMTXSTY
  7
Standard
  9
$DIMAUNIT
 70
     0
  9
$DIMADEC
 70
     2
  9
$DIMALTRND
 40
0.0
  9
$DIMAZIN
 70
     0
  9
$DIMDSEP
 70
    46
  9
$DIMATFIT
 70
     3
  9
$DIMFRAC
 70
     0
  9
$DIMLDRBLK
  1

  9
$DIMLUNIT
 70
     2
  9
$DIMLWD
 70
    -2
  9
$DIMLWE
 70
    -2
  9
$DIMTMOVE
 70
     0
  9
$LUNITS
 70
     2
  9
$LUPREC
 70
     2
  9
$SKETCHINC
 40
0.1
  9
$FILLETRAD
 40
0.5
  9
$AUNITS
 70
     0
  9
$AUPREC
 70
     2
  9
$MENU
  1
.
  9
$ELEVATION
 40
0.0
  9
$PELEVATION
 40
0.0
  9
$THICKNESS
 40
0.0
  9
$LIMCHECK
 70
     0
  9
$CHAMFERA
 40
0.0
  9
$CHAMFERB
 40
0.0
  9
$CHAMFERC
 40
0.0
  9
$CHAMFERD
 40
0.0
  9
$SKPOLY
 70
     0
  9
$TDCREATE
 40
2460468.529233426
  9
$TDUCREATE
 40
2460468.487566759
  9
$TDUPDATE
 40
2460468.529268368
  9
$TDUUPDATE
 40
2460468.487601701
  9
$TDINDWG
 40
0.0000000116
  9
$TDUSRTIMER
 40
0.0000000116
  9
$USRTIMER
 70
     1
  9
$ANGBASE
 50
0.0
  9
$ANGDIR
 70
     0
  9
$PDMODE
 70
     0
  9
$PDSIZE
 40
-1.0
  9
$PLINEWID
 40
0.0
  9
$SPLFRAME
 70
     0
  9
$SPLINETYPE
 70
     6
  9
$SPLINESEGS
 70
     8
  9
$HANDSEED
  5
6CC
  9
$SURFTAB1
 70
     6
  9
$SURFTAB2
 70
     6
  9
$SURFTYPE
 70
     6
  9
$SURFU
 70
     6
  9
$SURFV
 70
     6
  9
$UCSBASE
  2

  9
$UCSNAME
  2

  9
$UCSORG
 10
0.0
 20
0.0
 30
0.0
  9
$UCSXDIR
 10
1.0
 20
0.0
 30
0.0
  9
$UCSYDIR
 10
0.0
 20
1.0
 30
0.0
  9
$UCSORTHOREF
  2

  9
$UCSORTHOVIEW
 70
     0
  9
$UCSORGTOP
 10
0.0
 20
0.0
 30
0.0
  9
$UCSORGBOTTOM
 10
0.0
 20
0.0
 30
0.0
  9
$UCSORGLEFT
 10
0.0
 20
0.0
 30
0.0
  9
$UCSORGRIGHT
 10
0.0
 20
0.0
 30
0.0
  9
$UCSORGFRONT
 10
0.0
 20
0.0
 30
0.0
  9
$UCSORGBACK
 10
0.0
 20
0.0
 30
0.0
  9
$PUCSBASE
  2

  9
$PUCSNAME
  2

  9
$PUCSORG
 10
0.0
 20
0.0
 30
0.0
  9
$PUCSXDIR
 10
1.0
 20
0.0
 30
0.0
  9
$PUCSYDIR
 10
0.0
 20
1.0
 30
0.0
  9
$PUCSORTHOREF
  2

  9
$PUCSORTHOVIEW
 70
     0
  9
$PUCSORGTOP
 10
0.0
 20
0.0
 30
0.0
  9
$PUCSORGBOTTOM
 10
0.0
 20
0.0
 30
0.0
  9
$PUCSORGLEFT
 10
0.0
 20
0.0
 30
0.0
  9
$PUCSORGRIGHT
 10
0.0
 20
0.0
 30
0.0
  9
$PUCSORGFRONT
 10
0.0
 20
0.0
 30
0.0
  9
$PUCSORGBACK
 10
0.0
 20
0.0
 30
0.0
  9
$USERI1
 70
     0
  9
$USERI2
 70
     0
  9
$USERI3
 70
     0
  9
$USERI4
 70
     0
  9
$USERI5
 70
     0
  9
$USERR1
 40
0.0
  9
$USERR2
 40
0.0
  9
$USERR3
 40
0.0
  9
$USERR4
 40
0.0
  9
$USERR5
 40
0.0
  9
$WORLDVIEW
 70
     1
  9
$SHADEDGE
 70
     3
  9
$SHADEDIF
 70
    70
  9
$TILEMODE
 70
     1
  9
$MAXACTVP
 70
    64
  9
$PINSBASE
 10
0.0
 20
0.0
 30
0.0
  9
$PLIMCHECK
 70
     0
  9
$PEXTMIN
 10
-8.437007874
 20
-0.9350393701
 30
0.0
  9
$PEXTMAX
 10
2.2265866487
 20
1.5748031496
 30
0.0
  9
$PLIMMIN
 10
-8.6909033911
 20
-1.1889344873
  9
$PLIMMAX
 10
2.4804817659
 20
7.4434994976
  9
$UNITMODE
 70
     0
  9
$VISRETAIN
 70
     1
  9
$PLINEGEN
 70
     0
  9
$PSLTSCALE
 70
     1
  9
$TREEDEPTH
 70
  3020
  9
$CMLSTYLE
  2
Standard
  9
$CMLJUST
 70
     0
  9
$CMLSCALE
 40
1.0
  9
$PROXYGRAPHICS
 70
     1
  9
$MEASUREMENT
 70
     0
  9
$CELWEIGHT
370
    -1
  9
$ENDCAPS
280
     0
  9
$JOINSTYLE
280
     0
  9
$LWDISPLAY
290
     1
  9
$INSUNITS
 70
     1
  9
$HYPERLINKBASE
  1

  9
$STYLESHEET
  1

  9
$XEDIT
290
     1
  9
$CEPSNTYPE
380
     0
  9
$PSTYLEMODE
290
     1
  9
$FINGERPRINTGUID
  2
{ea5b0374-afcc-4cc1-a959-7ce04b49ca45}
  9
$VERSIONGUID
  2
{FAEB1C32-E019-11D5-929B-00C0DF256EC4}
  9
$EXTNAMES
290
     1
  9
$PSVPSCALE
 40
0.0
  9
$OLESTARTUP
290
     0
  0
ENDSEC
  0
SECTION
  2
CLASSES
  0
CLASS
  1
ACDBDICTIONARYWDFLT
  2
AcDbDictionaryWithDefault
  3
ObjectDBX Classes
 90
        0
280
     0
281
     0
  0
CLASS
  1
VISUALSTYLE
  2
AcDbVisualStyle
  3
ObjectDBX Classes
 90
     4095
280
     0
281
     0
  0
CLASS
  1
MATERIAL
  2
AcDbMaterial
  3
ObjectDBX Classes
 90
     1153
280
     0
281
     0
  0
CLASS
  1
SCALE
  2
AcDbScale
  3
ObjectDBX Classes
 90
     1153
280
     0
281
     0
  0
CLASS
  1
TABLESTYLE
  2
AcDbTableStyle
  3
ObjectDBX Classes
 90
     4095
280
     0
281
     0
  0
CLASS
  1
MLEADERSTYLE
  2
AcDbMLeaderStyle
  3
ACDB_MLEADERSTYLE_CLASS
 90
     4095
280
     0
281
     0
  0
CLASS
  1
SUN
  2
AcDbSun
  3
SCENEOE
 90
     1153
280
     0
281
     0
  0
CLASS
  1
ACDBPLACEHOLDER
  2
AcDbPlaceHolder
  3
ObjectDBX Classes
 90
        0
280
     0
281
     0
  0
CLASS
  1
LAYOUT
  2
AcDbLayout
  3
ObjectDBX Classes
 90
        0
280
     0
281
     0
  0
ENDSEC
  0
SECTION
  2
TABLES
  0
TABLE
  2
VPORT
  5
8
330
0
100
AcDbSymbolTable
 70
     1
  0
VPORT
  5
29
330
8
100
AcDbSymbolTableRecord
100
AcDbViewportTableRecord
  2
*Active
 70
     0
 10
0.0
 20
0.0
 11
1.0
 21
1.0
 12
-0.000490236
 22
0.3199743045
 13
0.0
 23
0.0
 14
0.5
 24
0.5
 15
0.5
 25
0.5
 16
0.0
 26
0.0
 36
1.0
 17
0.0
 27
0.0
 37
0.0
 40
2.559850844
 41
0.9879173954
 42
50.0
 43
0.0
 44
0.0
 50
0.0
 51
0.0
 71
     0
 72
   100
 73
     1
 74
     3
 75
     0
 76
     0
 77
     0
 78
     0
281
     0
 65
     1
110
0.0
120
0.0
130
0.0
111
1.0
121
0.0
131
0.0
112
0.0
122
1.0
132
0.0
 79
     0
146
0.0
  0
ENDTAB
  0
TABLE
  2
LTYPE
  5
5
330
0
100
AcDbSymbolTable
 70
     6
  0
LTYPE
  5
14
330
5
100
AcDbSymbolTableRecord
100
AcDbLinetypeTableRecord
  2
ByBlock
 70
     0
  3

 72
    65
 73
     0
 40
0.0
  0
LTYPE
  5
15
330
5
100
AcDbSymbolTableRecord
100
AcDbLinetypeTableRecord
  2
ByLayer
 70
     0
  3

 72
    65
 73
     0
 40
0.0
  0
LTYPE
  5
16
330
5
100
AcDbSymbolTableRecord
100
AcDbLinetypeTableRecord
  2
Continuous
 70
     0
  3
Solid line
 72
    65
 73
     0
 40
0.0
  0
LTYPE
  5
6E
330
5
100
AcDbSymbolTableRecord
100
AcDbLinetypeTableRecord
  2
HIDDEN
 70
     0
  3
Hidden __ __ __ __ __ __ __ __ __ __ __ __ __ __
 72
    65
 73
     2
 40
0.075
 49
0.05
 74
     0
 49
-0.025
 74
     0
  0
LTYPE
  5
6F
330
5
100
AcDbSymbolTableRecord
100
AcDbLinetypeTableRecord
  2
PHANTOM
 70
     0
  3
Phantom ______  __  __  ______  __  __  ______
 72
    65
 73
     6
 40
0.5
 49
0.25
 74
     0
 49
-0.05
 74
     0
 49
0.05
 74
     0
 49
-0.05
 74
     0
 49
0.05
 74
     0
 49
-0.05
 74
     0
  0
LTYPE
  5
70
330
5
100
AcDbSymbolTableRecord
100
AcDbLinetypeTableRecord
  2
CENTER
 70
     0
  3
Center ____ _ ____ _ ____ _ ____ _ ____ _ ____
 72
    65
 73
     4
 40
0.4
 49
0.25
 74
     0
 49
-0.05
 74
     0
 49
0.05
 74
     0
 49
-0.05
 74
     0
  0
LTYPE
  5
71
330
5
100
AcDbSymbolTableRecord
100
AcDbLinetypeTableRecord
  2
CENTERX2
 70
     0
  3
Center (2x) ________  __  ________  __  _____
 72
    65
 73
     4
 40
0.8
 49
0.5
 74
     0
 49
-0.1
 74
     0
 49
0.1
 74
     0
 49
-0.1
 74
     0
  0
LTYPE
  5
72
330
5
100
AcDbSymbolTableRecord
100
AcDbLinetypeTableRecord
  2
DOT2
 70
     0
  3
Dot (.5x) ........................................
 72
    65
 73
     2
 40
0.025
 49
0.0
 74
     0
 49
-0.025
 74
     0
  0
ENDTAB
  0
TABLE
  2
LAYER
  5
2
330
0
100
AcDbSymbolTable
 70
     1
  0
LAYER
  5
10
330
2
100
AcDbSymbolTableRecord
100
AcDbLayerTableRecord
  2
0
 70
     0
 62
     7
  6
Continuous
370
    -3
390
F
  0
ENDTAB
  0
TABLE
  2
STYLE
  5
3
330
0
100
AcDbSymbolTable
 70
     1
  0
STYLE
  5
11
330
3
100
AcDbSymbolTableRecord
100
AcDbTextStyleTableRecord
  2
Standard
 70
     0
 40
0.0
 41
1.0
 50
0.0
 71
     0
 42
0.1377952756
  3
txt
  4

  0
ENDTAB
  0
TABLE
  2
VIEW
  5
6
330
0
100
AcDbSymbolTable
 70
     0
  0
ENDTAB
  0
TABLE
  2
UCS
  5
7
330
0
100
AcDbSymbolTable
 70
     0
  0
ENDTAB
  0
TABLE
  2
APPID
  5
9
330
0
100
AcDbSymbolTable
 70
     1
  0
APPID
  5
12
330
9
100
AcDbSymbolTableRecord
100
AcDbRegAppTableRecord
  2
ACAD
 70
     0
  0
ENDTAB
  0
TABLE
  2
DIMSTYLE
  5
A
330
0
100
AcDbSymbolTable
 70
     1
100
AcDbDimStyleTable
  0
DIMSTYLE
105
27
330
A
100
AcDbSymbolTableRecord
100
AcDbDimStyleTableRecord
  2
Standard
 70
     0
178
     0
340
11
  0
ENDTAB
  0
TABLE
  2
BLOCK_RECORD
  5
1
330
0
100
AcDbSymbolTable
 70
     2
  0
BLOCK_RECORD
  5
1F
330
1
100
AcDbSymbolTableRecord
100
AcDbBlockTableRecord
  2
*Model_Space
340
22
  0
BLOCK_RECORD
  5
1B
330
1
100
AcDbSymbolTableRecord
100
AcDbBlockTableRecord
  2
*Paper_Space
340
1E
  0
BLOCK_RECORD
  5
23
330
1
100
AcDbSymbolTableRecord
100
AcDbBlockTableRecord
  2
*Paper_Space0
340
26
  0
BLOCK_RECORD
  5
54B
330
1
100
AcDbSymbolTableRecord
100
AcDbBlockTableRecord
  2
*Paper_Space1
340
54C
  0
ENDTAB
  0
ENDSEC
  0
SECTION
  2
BLOCKS
  0
BLOCK
  5
20
330
1F
100
AcDbEntity
  8
0
100
AcDbBlockBegin
  2
*Model_Space
 70
     0
 10
0.0
 20
0.0
 30
0.0
  3
*Model_Space
  1

  0
ENDBLK
  5
21
330
1F
100
AcDbEntity
  8
0
100
AcDbBlockEnd
  0
BLOCK
  5
1C
330
1B
100
AcDbEntity
 67
     1
  8
0
100
AcDbBlockBegin
  2
*Paper_Space
 70
     0
 10
0.0
 20
0.0
 30
0.0
  3
*Paper_Space
  1

  0
ENDBLK
  5
1D
330
1B
100
AcDbEntity
 67
     1
  8
0
100
AcDbBlockEnd
  0
BLOCK
  5
24
330
23
100
AcDbEntity
  8
0
100
AcDbBlockBegin
  2
*Paper_Space0
 70
     0
 10
0.0
 20
0.0
 30
0.0
  3
*Paper_Space0
  1

  0
SPLINE
  5
2F2
330
23
100
AcDbEntity
  8
0
  6
Continuous
 62
     7
370
    25
100
AcDbSpline
210
0.0
220
0.0
230
1.0
 70
     8
 71
     3
 72
    11
 73
     7
 74
     0
 42
0.000000001
 43
0.00000001
 40
0.0
 40
0.0
 40
0.0
 40
0.0
 40
0.1606615578894011
 40
0.4035349351067264
 40
0.6836228103613494
 40
1.0
 40
1.0
 40
1.0
 40
1.0
 10
-0.6181223338389588
 20
-1.384034761985112
 30
0.0
 10
-0.6511049054113739
 20
-1.400825263964362
 30
0.0
 10
-0.733947497341733
 20
-1.442998103663016
 30
0.0
 10
-0.8755961123736122
 20
-1.511828555364213
 30
0.0
 10
-1.049973533100874
 20
-1.595352137471035
 30
0.0
 10
-1.174242627627866
 20
-1.653955144454846
 30
0.0
 10
-1.240157480314879
 20
-1.68503937007874
 30
0.0
  0
SPLINE
  5
2F3
330
23
100
AcDbEntity
  8
0
  6
Continuous
 62
     7
370
    25
100
AcDbSpline
210
0.0
220
0.0
230
1.0
 70
     8
 71
     3
 72
    11
 73
     7
 74
     0
 42
0.000000001
 43
0.00000001
 40
0.0
 40
0.0
 40
0.0
 40
0.0
 40
0.2165422756632508
 40
0.4649820883854808
 40
0.7424872821388262
 40
1.0
 40
1.0
 40
1.0
 40
1.0
 10
1.24015748031488
 20
-1.68503937007874
 30
0.0
 10
1.194984247476457
 20
-1.663744288782829
 30
0.0
 10
1.097983585227031
 20
-1.618017276156851
 30
0.0
 10
0.9435090836187211
 20
-1.544529007274925
 30
0.0
 10
0.7805268163411622
 20
-1.466296869353899
 30
0.0
 10
0.6705950532249138
 20
-1.410553951489316
 30
0.0
 10
0.617683129185009
 20
-1.383723989409161
 30
0.0
  0
SPLINE
  5
3AE
330
23
100
AcDbEntity
  8
0
  6
Continuous
 62
     7
370
    25
100
AcDbSpline
210
0.0
220
0.0
230
1.0
 70
     8
 71
     3
 72
     9
 73
     5
 74
     0
 42
0.000000001
 43
0.00000001
 40
0.0
 40
0.0
 40
0.0
 40
0.0
 40
0.500005365454577
 40
1.0
 40
1.0
 40
1.0
 40
1.0
 10
-0.6165905645429908
 20
-1.37007874015748
 30
0.0
 10
-0.6168439274457723
 20
-1.372479161401004
 30
0.0
 10
-0.617350647813765
 20
-1.3772799523712
 30
0.0
 10
-0.6178453662663523
 20
-1.382080897894438
 30
0.0
 10
-0.6180927228382564
 20
-1.384481344896802
 30
0.0
  0
SPLINE
  5
3AF
330
23
100
AcDbEntity
  8
0
  6
Continuous
 62
     7
370
    25
100
AcDbSpline
210
0.0
220
0.0
230
1.0
 70
     8
 71
     3
 72
     9
 73
     5
 74
     0
 42
0.000000001
 43
0.00000001
 40
0.0
 40
0.0
 40
0.0
 40
0.0
 40
0.4999946345454619
 40
1.0
 40
1.0
 40
1.0
 40
1.0
 10
0.6180927228382572
 20
-1.384481344896803
 30
0.0
 10
0.617845366266353
 20
-1.382080897894439
 30
0.0
 10
0.6173506478137658
 20
-1.377279952371201
 30
0.0
 10
0.616843927445773
 20
-1.372479161401005
 30
0.0
 10
0.6165905645429914
 20
-1.370078740157481
 30
0.0
  0
SPLINE
  5
3B5
330
23
100
AcDbEntity
  8
0
  6
Continuous
 62
     7
370
    25
100
AcDbSpline
210
0.0
220
0.0
230
1.0
 70
     8
 71
     3
 72
    27
 73
    23
 74
     0
 42
0.000000001
 43
0.00000001
 40
0.0
 40
0.0
 40
0.0
 40
0.0
 40
0.0360218552996335
 40
0.0897387950202726
 40
0.1450144863488285
 40
0.1986721711326261
 40
0.2538315628670507
 40
0.3083353916252928
 40
0.3643961341554781
 40
0.4192471819179214
 40
0.4757024670570807
 40
0.5303168428140157
 40
0.5865323893387311
 40
0.640947347910679
 40
0.6969254721457043
 40
0.7516992808789298
 40
0.8063539040593877
 40
0.8625939853938925
 40
0.917128141131681
 40
0.9733048454610841
 40
0.9952978352920598
 40
1.0
 40
1.0
 40
1.0
 40
1.0
 10
-0.6176985379557216
 20
-1.384163958951276
 30
0.0
 10
-0.6160715757981938
 20
-1.38367237012726
 30
0.0
 10
-0.6120184357712384
 20
-1.38244770836718
 30
0.0
 10
-0.5899640811559503
 20
-1.380877458670136
 30
0.0
 10
-0.5498759119440689
 20
-1.379192025974886
 30
0.0
 10
-0.4937897115281922
 20
-1.37756793342671
 30
0.0
 10
-0.424593740781936
 20
-1.376148715110446
 30
0.0
 10
-0.3423987769158039
 20
-1.374707243760151
 30
0.0
 10
-0.2508133974963048
 20
-1.3735602859194
 30
0.0
 10
-0.1509573981939459
 20
-1.372564662813289
 30
0.0
 10
-0.0476413619608472
 20
-1.372104426675013
 30
0.0
 10
0.0578574746125045
 20
-1.372189109509663
 30
0.0
 10
0.1604542689967324
 20
-1.372889666554642
 30
0.0
 10
0.259288370786613
 20
-1.374160137703703
 30
0.0
 10
0.3499842133831069
 20
-1.375601445703297
 30
0.0
 10
0.4310512197112358
 20
-1.377264918780565
 30
0.0
 10
0.5001621882367449
 20
-1.378789685971445
 30
0.0
 10
0.5551107617874382
 20
-1.380359302671584
 30
0.0
 10
0.5947192492929286
 20
-1.381902410659442
 30
0.0
 10
0.6116139781567475
 20
-1.382839815614417
 30
0.0
 10
0.6172919922306894
 20
-1.383949306684793
 30
0.0
 10
0.617498827877144
 20
-1.38400794480146
 30
0.0
 10
0.6175352605292076
 20
-1.384018273495468
 30
0.0
  0
SPLINE
  5
411
330
23
100
AcDbEntity
  8
0
  6
Continuous
 62
     7
370
    25
100
AcDbSpline
210
0.0
220
0.0
230
1.0
 70
    24
 71
     3
 72
    38
 73
    34
 74
     0
 42
0.000000001
 43
0.00000001
 40
0.0
 40
0.0
 40
0.0
 40
0.0
 40
0.0625
 40
0.0625
 40
0.125
 40
0.125
 40
0.1875000000000001
 40
0.1875000000000001
 40
0.2500000000000001
 40
0.2500000000000001
 40
0.3125000000000001
 40
0.3125000000000001
 40
0.3750000000000001
 40
0.3750000000000001
 40
0.4375000000000001
 40
0.4375000000000001
 40
0.5000000000000001
 40
0.5000000000000001
 40
0.5625000000000001
 40
0.5625000000000001
 40
0.6250000000000001
 40
0.6250000000000001
 40
0.6875000000000001
 40
0.6875000000000001
 40
0.7500000000000002
 40
0.7500000000000002
 40
0.8125000000000002
 40
0.8125000000000002
 40
0.8750000000000002
 40
0.8750000000000002
 40
0.9375000000000002
 40
0.9375000000000002
 40
1.0
 40
1.0
 40
1.0
 40
1.0
 10
0.6988188976377955
 20
-7.000000000000001
 30
0.0
 10
0.6988188976377954
 20
-7.000000000000002
 30
0.0
 10
0.6943142496118129
 20
-7.000000000000001
 30
0.0
 10
0.67646832732969
 20
-7.000000000000002
 30
0.0
 10
0.6631274943491451
 20
-7.000000000000001
 30
0.0
 10
0.6281214585700923
 20
-7.000000000000003
 30
0.0
 10
0.6064571213648031
 20
-7.000000000000001
 30
0.0
 10
0.5556362344122003
 20
-7.0
 30
0.0
 10
0.5264809413114652
 20
-7.000000000000001
 30
0.0
 10
0.4617982213702206
 20
-7.000000000000001
 30
0.0
 10
0.426272393937426
 20
-7.000000000000001
 30
0.0
 10
0.3502135616603961
 20
-7.000000000000001
 30
0.0
 10
0.3096824375206715
 20
-6.999999999999998
 30
0.0
 10
0.2251703911779804
 20
-7.000000000000002
 30
0.0
 10
0.1811915587019004
 20
-7.000000000000002
 30
0.0
 10
0.0914740488395984
 20
-7.000000000000001
 30
0.0
 10
0.0457375898956065
 20
-7.000000000000001
 30
0.0
 10
-0.0457375898964545
 20
-7.000000000000001
 30
0.0
 10
-0.0914740488404415
 20
-7.000000000000001
 30
0.0
 10
-0.1811915587027218
 20
-7.000000000000001
 30
0.0
 10
-0.2251703911787855
 20
-7.000000000000001
 30
0.0
 10
-0.309682437521434
 20
-7.000000000000001
 30
0.0
 10
-0.3502135616611324
 20
-7.000000000000001
 30
0.0
 10
-0.4262723939381008
 20
-7.000000000000003
 30
0.0
 10
-0.4617982213708598
 20
-7.000000000000001
 30
0.0
 10
-0.5264809413120259
 20
-7.0
 30
0.0
 10
-0.5556362344127177
 20
-7.0
 30
0.0
 10
-0.6064571213652281
 20
-7.000000000000002
 30
0.0
 10
-0.6281214585704683
 20
-7.0
 30
0.0
 10
-0.6631274943494182
 20
-7.000000000000002
 30
0.0
 10
-0.6764683273299096
 20
-7.000000000000001
 30
0.0
 10
-0.6943142496119242
 20
-7.000000000000004
 30
0.0
 10
-0.6988188976378513
 20
-7.000000000000003
 30
0.0
 10
-0.6988188976377955
 20
-7.000000000000001
 30
0.0
  0
CIRCLE
  5
41E
330
23
100
AcDbEntity
  8
0
  6
Continuous
 62
     7
370
    25
100
AcDbCircle
 10
0.0
 20
1.3407598771
 30
0.0
 40
0.6102362204724399
  0
LINE
  5
423
330
23
100
AcDbEntity
  8
0
  6
Continuous
 62
     7
370
    25
100
AcDbLine
 10
-1.2401574803
 20
-1.6850393701
 30
0.0
 11
-1.2401574803
 21
-1.8818897638
 31
0.0
  0
LINE
  5
424
330
23
100
AcDbEntity
  8
0
  6
Continuous
 62
     7
370
    25
100
AcDbLine
 10
1.2401574803
 20
-1.8818897638
 30
0.0
 11
1.2401574803
 21
-1.6850393701
 31
0.0
  0
LINE
  5
425
330
23
100
AcDbEntity
  8
0
  6
Continuous
 62
     7
370
    25
100
AcDbLine
 10
-0.9350393701
 20
-0.1897579201
 30
0.0
 11
-0.9350393701
 21
-0.5118110236
 31
0.0
  0
LINE
  5
426
330
23
100
AcDbEntity
  8
0
  6
Continuous
 62
     7
370
    25
100
AcDbLine
 10
0.9350393701
 20
-0.5118110236
 30
0.0
 11
0.9350393701
 21
-0.1897579201
 31
0.0
  0
LINE
  5
427
330
23
100
AcDbEntity
  8
0
  6
Continuous
 62
     7
370
    25
100
AcDbLine
 10
-1.2401574803
 20
-2.6377952756
 30
0.0
 11
-1.2401574803
 21
-2.7086614173
 31
0.0
  0
LINE
  5
428
330
23
100
AcDbEntity
  8
0
  6
Continuous
 62
     7
370
    25
100
AcDbLine
 10
1.2401574803
 20
-2.7086614173
 30
0.0
 11
1.2401574803
 21
-2.6377952756
 31
0.0
  0
LINE
  5
429
330
23
100
AcDbEntity
  8
0
  6
Continuous
 62
     7
370
    25
100
AcDbLine
 10
-1.2401574803
 20
-1.9291338583
 30
0.0
 11
-1.2401574803
 21
-2.0
 31
0.0
  0
LINE
  5
42A
330
23
100
AcDbEntity
  8
0
  6
Continuous
 62
     7
370
    25
100
AcDbLine
 10
1.2401574803
 20
-2.0
 30
0.0
 11
1.2401574803
 21
-1.9291338583
 31
0.0
  0
LINE
  5
42B
330
23
100
AcDbEntity
  8
0
  6
Continuous
 62
     7
370
    25
100
AcDbLine
 10
-1.2401574803
 20
-6.1811023622
 30
0.0
 11
-1.2401574803
 21
-6.2519685039
 31
0.0
  0
LINE
  5
42C
330
23
100
AcDbEntity
  8
0
  6
Continuous
 62
     7
370
    25
100
AcDbLine
 10
1.2401574803
 20
-6.2519685039
 30
0.0
 11
1.2401574803
 21
-6.1811023622
 31
0.0
  0
LINE
  5
42D
330
23
100
AcDbEntity
  8
0
  6
Continuous
 62
     7
370
    25
100
AcDbLine
 10
-1.2401574803
 20
-6.2992125984
 30
0.0
 11
-1.2401574803
 21
-6.3700787402
 31
0.0
  0
LINE
  5
42E
330
23
100
AcDbEntity
  8
0
  6
Continuous
 62
     7
370
    25
100
AcDbLine
 10
1.2401574803
 20
-6.3700787402
 30
0.0
 11
1.2401574803
 21
-6.2992125984
 31
0.0
  0
LINE
  5
42F
330
23
100
AcDbEntity
  8
0
  6
Continuous
 62
     7
370
    25
100
AcDbLine
 10
-1.2401574803
 20
-3.5826771654
 30
0.0
 11
-1.2401574803
 21
-3.6535433071
 31
0.0
  0
LINE
  5
430
330
23
100
AcDbEntity
  8
0
  6
Continuous
 62
     7
370
    25
100
AcDbLine
 10
1.2401574803
 20
-3.6535433071
 30
0.0
 11
1.2401574803
 21
-3.5826771654
 31
0.0
  0
LINE
  5
431
330
23
100
AcDbEntity
  8
0
  6
Continuous
 62
     7
370
    25
100
AcDbLine
 10
-1.2401574803
 20
-2.7559055118
 30
0.0
 11
-1.2401574803
 21
-2.8267716535
 31
0.0
  0
LINE
  5
432
330
23
100
AcDbEntity
  8
0
  6
Continuous
 62
     7
370
    25
100
AcDbLine
 10
1.2401574803
 20
-2.8267716535
 30
0.0
 11
1.2401574803
 21
-2.7559055118
 31
0.0
  0
LINE
  5
433
330
23
100
AcDbEntity
  8
0
  6
Continuous
 62
     7
370
    25
100
AcDbLine
 10
-1.2401574803
 20
-3.4645669291
 30
0.0
 11
-1.2401574803
 21
-3.5354330709
 31
0.0
  0
LINE
  5
434
330
23
100
AcDbEntity
  8
0
  6
Continuous
 62
     7
370
    25
100
AcDbLine
 10
1.2401574803
 20
-3.5354330709
 30
0.0
 11
1.2401574803
 21
-3.4645669291
 31
0.0
  0
LINE
  5
435
330
23
100
AcDbEntity
  8
0
  6
Continuous
 62
     7
370
    25
100
AcDbLine
 10
-1.2401574803
 20
-6.062992126
 30
0.0
 11
-1.2401574803
 21
-6.1338582677
 31
0.0
  0
LINE
  5
436
330
23
100
AcDbEntity
  8
0
  6
Continuous
 62
     7
370
    25
100
AcDbLine
 10
1.2401574803
 20
-6.1338582677
 30
0.0
 11
1.2401574803
 21
-6.062992126
 31
0.0
  0
LINE
  5
437
330
23
100
AcDbEntity
  8
0
  6
Continuous
 62
     7
370
    25
100
AcDbLine
 10
-1.2401574803
 20
-2.2834645669
 30
0.0
 11
-1.2401574803
 21
-2.3543307087
 31
0.0
  0
LINE
  5
438
330
23
100
AcDbEntity
  8
0
  6
Continuous
 62
     7
370
    25
100
AcDbLine
 10
1.2401574803
 20
-2.3543307087
 30
0.0
 11
1.2401574803
 21
-2.2834645669
 31
0.0
  0
LINE
  5
439
330
23
100
AcDbEntity
  8
0
  6
Continuous
 62
     7
370
    25
100
AcDbLine
 10
-1.2401574803
 20
-5.8267716535
 30
0.0
 11
-1.2401574803
 21
-5.8976377953
 31
0.0
  0
LINE
  5
43A
330
23
100
AcDbEntity
  8
0
  6
Continuous
 62
     7
370
    25
100
AcDbLine
 10
1.2401574803
 20
-5.8976377953
 30
0.0
 11
1.2401574803
 21
-5.8267716535
 31
0.0
  0
LINE
  5
43B
330
23
100
AcDbEntity
  8
0
  6
Continuous
 62
     7
370
    25
100
AcDbLine
 10
-1.2401574803
 20
-2.4015748031
 30
0.0
 11
-1.2401574803
 21
-2.4724409449
 31
0.0
  0
LINE
  5
43C
330
23
100
AcDbEntity
  8
0
  6
Continuous
 62
     7
370
    25
100
AcDbLine
 10
1.2401574803
 20
-2.4724409449
 30
0.0
 11
1.2401574803
 21
-2.4015748031
 31
0.0
  0
LINE
  5
43D
330
23
100
AcDbEntity
  8
0
  6
Continuous
 62
     7
370
    25
100
AcDbLine
 10
-1.2401574803
 20
-3.1102362205
 30
0.0
 11
-1.2401574803
 21
-3.1811023622
 31
0.0
  0
LINE
  5
43E
330
23
100
AcDbEntity
  8
0
  6
Continuous
 62
     7
370
    25
100
AcDbLine
 10
1.2401574803
 20
-3.1811023622
 30
0.0
 11
1.2401574803
 21
-3.1102362205
 31
0.0
  0
LINE
  5
43F
330
23
100
AcDbEntity
  8
0
  6
Continuous
 62
     7
370
    25
100
AcDbLine
 10
-1.2401574803
 20
-5.9448818898
 30
0.0
 11
-1.2401574803
 21
-6.0157480315
 31
0.0
  0
LINE
  5
440
330
23
100
AcDbEntity
  8
0
  6
Continuous
 62
     7
370
    25
100
AcDbLine
 10
1.2401574803
 20
-6.0157480315
 30
0.0
 11
1.2401574803
 21
-5.9448818898
 31
0.0
  0
LINE
  5
441
330
23
100
AcDbEntity
  8
0
  6
Continuous
 62
     7
370
    25
100
AcDbLine
 10
-1.2401574803
 20
-5.5905511811
 30
0.0
 11
-1.2401574803
 21
-5.6614173228
 31
0.0
  0
LINE
  5
442
330
23
100
AcDbEntity
  8
0
  6
Continuous
 62
     7
370
    25
100
AcDbLine
 10
1.2401574803
 20
-5.6614173228
 30
0.0
 11
1.2401574803
 21
-5.5905511811
 31
0.0
  0
LINE
  5
443
330
23
100
AcDbEntity
  8
0
  6
Continuous
 62
     7
370
    25
100
AcDbLine
 10
-1.2401574803
 20
-2.1653543307
 30
0.0
 11
-1.2401574803
 21
-2.2362204724
 31
0.0
  0
LINE
  5
444
330
23
100
AcDbEntity
  8
0
  6
Continuous
 62
     7
370
    25
100
AcDbLine
 10
1.2401574803
 20
-2.2362204724
 30
0.0
 11
1.2401574803
 21
-2.1653543307
 31
0.0
  0
LINE
  5
445
330
23
100
AcDbEntity
  8
0
  6
Continuous
 62
     7
370
    25
100
AcDbLine
 10
-1.2401574803
 20
-3.7007874016
 30
0.0
 11
-1.2401574803
 21
-3.7716535433
 31
0.0
  0
LINE
  5
446
330
23
100
AcDbEntity
  8
0
  6
Continuous
 62
     7
370
    25
100
AcDbLine
 10
1.2401574803
 20
-3.7716535433
 30
0.0
 11
1.2401574803
 21
-3.7007874016
 31
0.0
  0
LINE
  5
447
330
23
100
AcDbEntity
  8
0
  6
Continuous
 62
     7
370
    25
100
AcDbLine
 10
-1.2401574803
 20
-5.4724409449
 30
0.0
 11
-1.2401574803
 21
-5.5433070866
 31
0.0
  0
LINE
  5
448
330
23
100
AcDbEntity
  8
0
  6
Continuous
 62
     7
370
    25
100
AcDbLine
 10
1.2401574803
 20
-5.5433070866
 30
0.0
 11
1.2401574803
 21
-5.4724409449
 31
0.0
  0
LINE
  5
449
330
23
100
AcDbEntity
  8
0
  6
Continuous
 62
     7
370
    25
100
AcDbLine
 10
-1.2401574803
 20
-2.0472440945
 30
0.0
 11
-1.2401574803
 21
-2.1181102362
 31
0.0
  0
LINE
  5
44A
330
23
100
AcDbEntity
  8
0
  6
Continuous
 62
     7
370
    25
100
AcDbLine
 10
1.2401574803
 20
-2.1181102362
 30
0.0
 11
1.2401574803
 21
-2.0472440945
 31
0.0
  0
LINE
  5
44B
330
23
100
AcDbEntity
  8
0
  6
Continuous
 62
     7
370
    25
100
AcDbLine
 10
-1.2401574803
 20
-3.8188976378
 30
0.0
 11
-1.2401574803
 21
-3.8897637795
 31
0.0
  0
LINE
  5
44C
330
23
100
AcDbEntity
  8
0
  6
Continuous
 62
     7
370
    25
100
AcDbLine
 10
1.2401574803
 20
-3.8897637795
 30
0.0
 11
1.2401574803
 21
-3.8188976378
 31
0.0
  0
LINE
  5
44D
330
23
100
AcDbEntity
  8
0
  6
Continuous
 62
     7
370
    25
100
AcDbLine
 10
0.9350393701
 20
-0.1897579201
 30
0.0
 11
0.7677165354
 21
-0.1288573888
 31
0.0
  0
LINE
  5
44E
330
23
100
AcDbEntity
  8
0
  6
Continuous
 62
     7
370
    25
100
AcDbLine
 10
-0.7677165354
 20
-0.1288573888
 30
0.0
 11
-0.9350393701
 21
-0.1897579201
 31
0.0
  0
LINE
  5
44F
330
23
100
AcDbEntity
  8
0
  6
Continuous
 62
     7
370
    25
100
AcDbLine
 10
-1.2401574803
 20
-5.7086614173
 30
0.0
 11
-1.2401574803
 21
-5.7795275591
 31
0.0
  0
LINE
  5
450
330
23
100
AcDbEntity
  8
0
  6
Continuous
 62
     7
370
    25
100
AcDbLine
 10
1.2401574803
 20
-5.7795275591
 30
0.0
 11
1.2401574803
 21
-5.7086614173
 31
0.0
  0
LINE
  5
451
330
23
100
AcDbEntity
  8
0
  6
Continuous
 62
     7
370
    25
100
AcDbLine
 10
-1.2401574803
 20
-4.0551181102
 30
0.0
 11
-1.2401574803
 21
-4.125984252
 31
0.0
  0
LINE
  5
452
330
23
100
AcDbEntity
  8
0
  6
Continuous
 62
     7
370
    25
100
AcDbLine
 10
1.2401574803
 20
-4.125984252
 30
0.0
 11
1.2401574803
 21
-4.0551181102
 31
0.0
  0
LINE
  5
453
330
23
100
AcDbEntity
  8
0
  6
Continuous
 62
     7
370
    25
100
AcDbLine
 10
-1.2401574803
 20
-2.5196850394
 30
0.0
 11
-1.2401574803
 21
-2.5905511811
 31
0.0
  0
LINE
  5
454
330
23
100
AcDbEntity
  8
0
  6
Continuous
 62
     7
370
    25
100
AcDbLine
 10
1.2401574803
 20
-2.5905511811
 30
0.0
 11
1.2401574803
 21
-2.5196850394
 31
0.0
  0
LINE
  5
455
330
23
100
AcDbEntity
  8
0
  6
Continuous
 62
     7
370
    25
100
AcDbLine
 10
-1.2401574803
 20
-4.4094488189
 30
0.0
 11
-1.2401574803
 21
-4.4803149606
 31
0.0
  0
LINE
  5
456
330
23
100
AcDbEntity
  8
0
  6
Continuous
 62
     7
370
    25
100
AcDbLine
 10
1.2401574803
 20
-4.4803149606
 30
0.0
 11
1.2401574803
 21
-4.4094488189
 31
0.0
  0
LINE
  5
457
330
23
100
AcDbEntity
  8
0
  6
Continuous
 62
     7
370
    25
100
AcDbLine
 10
-1.2401574803
 20
-4.5275590551
 30
0.0
 11
-1.2401574803
 21
-4.5984251969
 31
0.0
  0
LINE
  5
458
330
23
100
AcDbEntity
  8
0
  6
Continuous
 62
     7
370
    25
100
AcDbLine
 10
1.2401574803
 20
-4.5984251969
 30
0.0
 11
1.2401574803
 21
-4.5275590551
 31
0.0
  0
LINE
  5
459
330
23
100
AcDbEntity
  8
0
  6
Continuous
 62
     7
370
    25
100
AcDbLine
 10
-1.2401574803
 20
-2.874015748
 30
0.0
 11
-1.2401574803
 21
-2.9448818898
 31
0.0
  0
LINE
  5
45A
330
23
100
AcDbEntity
  8
0
  6
Continuous
 62
     7
370
    25
100
AcDbLine
 10
1.2401574803
 20
-2.9448818898
 30
0.0
 11
1.2401574803
 21
-2.874015748
 31
0.0
  0
LINE
  5
45B
330
23
100
AcDbEntity
  8
0
  6
Continuous
 62
     7
370
    25
100
AcDbLine
 10
-1.2401574803
 20
-4.6456692913
 30
0.0
 11
-1.2401574803
 21
-4.7165354331
 31
0.0
  0
LINE
  5
45C
330
23
100
AcDbEntity
  8
0
  6
Continuous
 62
     7
370
    25
100
AcDbLine
 10
1.2401574803
 20
-4.7165354331
 30
0.0
 11
1.2401574803
 21
-4.6456692913
 31
0.0
  0
LINE
  5
45D
330
23
100
AcDbEntity
  8
0
  6
Continuous
 62
     7
370
    25
100
AcDbLine
 10
-1.2401574803
 20
-2.9921259843
 30
0.0
 11
-1.2401574803
 21
-3.062992126
 31
0.0
  0
LINE
  5
45E
330
23
100
AcDbEntity
  8
0
  6
Continuous
 62
     7
370
    25
100
AcDbLine
 10
1.2401574803
 20
-3.062992126
 30
0.0
 11
1.2401574803
 21
-2.9921259843
 31
0.0
  0
LINE
  5
45F
330
23
100
AcDbEntity
  8
0
  6
Continuous
 62
     7
370
    25
100
AcDbLine
 10
-1.2401574803
 20
-4.7637795276
 30
0.0
 11
-1.2401574803
 21
-4.8346456693
 31
0.0
  0
LINE
  5
460
330
23
100
AcDbEntity
  8
0
  6
Continuous
 62
     7
370
    25
100
AcDbLine
 10
1.2401574803
 20
-4.8346456693
 30
0.0
 11
1.2401574803
 21
-4.7637795276
 31
0.0
  0
LINE
  5
461
330
23
100
AcDbEntity
  8
0
  6
Continuous
 62
     7
370
    25
100
AcDbLine
 10
-1.2401574803
 20
-4.8818897638
 30
0.0
 11
-1.2401574803
 21
-4.9527559055
 31
0.0
  0
LINE
  5
462
330
23
100
AcDbEntity
  8
0
  6
Continuous
 62
     7
370
    25
100
AcDbLine
 10
1.2401574803
 20
-4.9527559055
 30
0.0
 11
1.2401574803
 21
-4.8818897638
 31
0.0
  0
LINE
  5
463
330
23
100
AcDbEntity
  8
0
  6
Continuous
 62
     7
370
    25
100
AcDbLine
 10
-1.2401574803
 20
-3.2283464567
 30
0.0
 11
-1.2401574803
 21
-3.2992125984
 31
0.0
  0
LINE
  5
464
330
23
100
AcDbEntity
  8
0
  6
Continuous
 62
     7
370
    25
100
AcDbLine
 10
1.2401574803
 20
-3.2992125984
 30
0.0
 11
1.2401574803
 21
-3.2283464567
 31
0.0
  0
LINE
  5
465
330
23
100
AcDbEntity
  8
0
  6
Continuous
 62
     7
370
    25
100
AcDbLine
 10
-1.2401574803
 20
-4.1732283465
 30
0.0
 11
-1.2401574803
 21
-4.2440944882
 31
0.0
  0
LINE
  5
466
330
23
100
AcDbEntity
  8
0
  6
Continuous
 62
     7
370
    25
100
AcDbLine
 10
1.2401574803
 20
-4.2440944882
 30
0.0
 11
1.2401574803
 21
-4.1732283465
 31
0.0
  0
LINE
  5
467
330
23
100
AcDbEntity
  8
0
  6
Continuous
 62
     7
370
    25
100
AcDbLine
 10
-1.2401574803
 20
-3.3464566929
 30
0.0
 11
-1.2401574803
 21
-3.4173228346
 31
0.0
  0
LINE
  5
468
330
23
100
AcDbEntity
  8
0
  6
Continuous
 62
     7
370
    25
100
AcDbLine
 10
1.2401574803
 20
-3.4173228346
 30
0.0
 11
1.2401574803
 21
-3.3464566929
 31
0.0
  0
LINE
  5
469
330
23
100
AcDbEntity
  8
0
  6
Continuous
 62
     7
370
    25
100
AcDbLine
 10
-1.2401574803
 20
-4.2913385827
 30
0.0
 11
-1.2401574803
 21
-4.3622047244
 31
0.0
  0
LINE
  5
46A
330
23
100
AcDbEntity
  8
0
  6
Continuous
 62
     7
370
    25
100
AcDbLine
 10
1.2401574803
 20
-4.3622047244
 30
0.0
 11
1.2401574803
 21
-4.2913385827
 31
0.0
  0
LINE
  5
46B
330
23
100
AcDbEntity
  8
0
  6
Continuous
 62
     7
370
    25
100
AcDbLine
 10
-1.2401574803
 20
-5.2362204724
 30
0.0
 11
-1.2401574803
 21
-5.3070866142
 31
0.0
  0
LINE
  5
46C
330
23
100
AcDbEntity
  8
0
  6
Continuous
 62
     7
370
    25
100
AcDbLine
 10
1.2401574803
 20
-5.3070866142
 30
0.0
 11
1.2401574803
 21
-5.2362204724
 31
0.0
  0
LINE
  5
46D
330
23
100
AcDbEntity
  8
0
  6
Continuous
 62
     7
370
    25
100
AcDbLine
 10
-1.2401574803
 20
-5.3543307087
 30
0.0
 11
-1.2401574803
 21
-5.4251968504
 31
0.0
  0
LINE
  5
46E
330
23
100
AcDbEntity
  8
0
  6
Continuous
 62
     7
370
    25
100
AcDbLine
 10
1.2401574803
 20
-5.4251968504
 30
0.0
 11
1.2401574803
 21
-5.3543307087
 31
0.0
  0
LINE
  5
46F
330
23
100
AcDbEntity
  8
0
  6
Continuous
 62
     7
370
    25
100
AcDbLine
 10
-1.2401505745
 20
-6.6062992126
 30
0.0
 11
-0.6200644639
 21
-6.9212598425
 31
0.0
  0
LINE
  5
470
330
23
100
AcDbEntity
  8
0
  6
Continuous
 62
     7
370
    25
100
AcDbLine
 10
0.6200644639
 20
-6.9212598425
 30
0.0
 11
1.2401505745
 21
-6.6062992126
 31
0.0
  0
LINE
  5
471
330
23
100
AcDbEntity
  8
0
  6
Continuous
 62
     7
370
    25
100
AcDbLine
 10
-1.2401574803
 20
-3.937007874
 30
0.0
 11
-1.2401574803
 21
-4.0078740157
 31
0.0
  0
LINE
  5
472
330
23
100
AcDbEntity
  8
0
  6
Continuous
 62
     7
370
    25
100
AcDbLine
 10
1.2401574803
 20
-4.0078740157
 30
0.0
 11
1.2401574803
 21
-3.937007874
 31
0.0
  0
LINE
  5
473
330
23
100
AcDbEntity
  8
0
  6
Continuous
 62
     7
370
    25
100
AcDbLine
 10
-1.2401574803
 20
-5.1181102362
 30
0.0
 11
-1.2401574803
 21
-5.188976378
 31
0.0
  0
LINE
  5
474
330
23
100
AcDbEntity
  8
0
  6
Continuous
 62
     7
370
    25
100
AcDbLine
 10
1.2401574803
 20
-5.188976378
 30
0.0
 11
1.2401574803
 21
-5.1181102362
 31
0.0
  0
LINE
  5
475
330
23
100
AcDbEntity
  8
0
  6
Continuous
 62
     7
370
    25
100
AcDbLine
 10
-1.2401574803
 20
-5.0
 30
0.0
 11
-1.2401574803
 21
-5.0708661417
 31
0.0
  0
LINE
  5
476
330
23
100
AcDbEntity
  8
0
  6
Continuous
 62
     7
370
    25
100
AcDbLine
 10
1.2401574803
 20
-5.0708661417
 30
0.0
 11
1.2401574803
 21
-5.0
 31
0.0
  0
LINE
  5
477
330
23
100
AcDbEntity
  8
0
  6
Continuous
 62
     7
370
    25
100
AcDbLine
 10
-1.2401574803
 20
-6.4173228346
 30
0.0
 11
-1.2401574803
 21
-6.6062992126
 31
0.0
  0
LINE
  5
478
330
23
100
AcDbEntity
  8
0
  6
Continuous
 62
     7
370
    25
100
AcDbLine
 10
1.2401574803
 20
-6.6062992126
 30
0.0
 11
1.2401574803
 21
-6.4173228346
 31
0.0
  0
LINE
  5
479
330
23
100
AcDbEntity
  8
0
  6
Continuous
 62
     7
370
    25
100
AcDbLine
 10
-0.9251968504
 20
-7.8661417323
 30
0.0
 11
-0.9251968504
 21
-8.1881948358
 31
0.0
  0
LINE
  5
47A
330
23
100
AcDbEntity
  8
0
  6
Continuous
 62
     7
370
    25
100
AcDbLine
 10
0.9251968504
 20
-8.1881948358
 30
0.0
 11
0.9251968504
 21
-7.8661417323
 31
0.0
  0
LINE
  5
47B
330
23
100
AcDbEntity
  8
0
  6
Continuous
 62
     7
370
    25
100
AcDbLine
 10
-0.9251968504
 20
-8.1881948358
 30
0.0
 11
-0.7283464567
 21
-8.2598425197
 31
0.0
  0
LINE
  5
47C
330
23
100
AcDbEntity
  8
0
  6
Continuous
 62
     7
370
    25
100
AcDbLine
 10
0.7283464567
 20
-8.2598425197
 30
0.0
 11
0.9251968504
 21
-8.1881948358
 31
0.0
  0
LINE
  5
47D
330
23
100
AcDbEntity
  8
0
  6
Continuous
 62
     7
370
    25
100
AcDbLine
 10
-0.8267716535
 20
-1.1929133858
 30
0.0
 11
-0.8267716535
 21
-1.3700787402
 31
0.0
  0
LINE
  5
47E
330
23
100
AcDbEntity
  8
0
  6
Continuous
 62
     7
370
    25
100
AcDbLine
 10
0.8267716535
 20
-1.3700787402
 30
0.0
 11
0.8267716535
 21
-1.1929133858
 31
0.0
  0
LINE
  5
47F
330
23
100
AcDbEntity
  8
0
  6
Continuous
 62
     7
370
    25
100
AcDbLine
 10
-1.0826771654
 20
-3.6535433071
 30
0.0
 11
-1.0826771654
 21
-3.7007874016
 31
0.0
  0
LINE
  5
480
330
23
100
AcDbEntity
  8
0
  6
Continuous
 62
     7
370
    25
100
AcDbLine
 10
1.0826771654
 20
-3.7007874016
 30
0.0
 11
1.0826771654
 21
-3.6535433071
 31
0.0
  0
LINE
  5
481
330
23
100
AcDbEntity
  8
0
  6
Continuous
 62
     7
370
    25
100
AcDbLine
 10
-1.0826771654
 20
-5.4251968504
 30
0.0
 11
-1.0826771654
 21
-5.4724409449
 31
0.0
  0
LINE
  5
482
330
23
100
AcDbEntity
  8
0
  6
Continuous
 62
     7
370
    25
100
AcDbLine
 10
1.0826771654
 20
-5.4724409449
 30
0.0
 11
1.0826771654
 21
-5.4251968504
 31
0.0
  0
LINE
  5
483
330
23
100
AcDbEntity
  8
0
  6
Continuous
 62
     7
370
    25
100
AcDbLine
 10
-1.0826771654
 20
-3.1811023622
 30
0.0
 11
-1.0826771654
 21
-3.2283464567
 31
0.0
  0
LINE
  5
484
330
23
100
AcDbEntity
  8
0
  6
Continuous
 62
     7
370
    25
100
AcDbLine
 10
1.0826771654
 20
-3.2283464567
 30
0.0
 11
1.0826771654
 21
-3.1811023622
 31
0.0
  0
LINE
  5
485
330
23
100
AcDbEntity
  8
0
  6
Continuous
 62
     7
370
    25
100
AcDbLine
 10
-1.0826771654
 20
-4.3622047244
 30
0.0
 11
-1.0826771654
 21
-4.4094488189
 31
0.0
  0
LINE
  5
486
330
23
100
AcDbEntity
  8
0
  6
Continuous
 62
     7
370
    25
100
AcDbLine
 10
1.0826771654
 20
-4.4094488189
 30
0.0
 11
1.0826771654
 21
-4.3622047244
 31
0.0
  0
LINE
  5
487
330
23
100
AcDbEntity
  8
0
  6
Continuous
 62
     7
370
    25
100
AcDbLine
 10
-1.0826771654
 20
-2.5905511811
 30
0.0
 11
-1.0826771654
 21
-2.6377952756
 31
0.0
  0
LINE
  5
488
330
23
100
AcDbEntity
  8
0
  6
Continuous
 62
     7
370
    25
100
AcDbLine
 10
1.0826771654
 20
-2.6377952756
 30
0.0
 11
1.0826771654
 21
-2.5905511811
 31
0.0
  0
LINE
  5
489
330
23
100
AcDbEntity
  8
0
  6
Continuous
 62
     7
370
    25
100
AcDbLine
 10
-1.0826771654
 20
-4.7165354331
 30
0.0
 11
-1.0826771654
 21
-4.7637795276
 31
0.0
  0
LINE
  5
48A
330
23
100
AcDbEntity
  8
0
  6
Continuous
 62
     7
370
    25
100
AcDbLine
 10
1.0826771654
 20
-4.7637795276
 30
0.0
 11
1.0826771654
 21
-4.7165354331
 31
0.0
  0
LINE
  5
48B
330
23
100
AcDbEntity
  8
0
  6
Continuous
 62
     7
370
    25
100
AcDbLine
 10
-1.0826771654
 20
-2.7086614173
 30
0.0
 11
-1.0826771654
 21
-2.7559055118
 31
0.0
  0
LINE
  5
48C
330
23
100
AcDbEntity
  8
0
  6
Continuous
 62
     7
370
    25
100
AcDbLine
 10
1.0826771654
 20
-2.7559055118
 30
0.0
 11
1.0826771654
 21
-2.7086614173
 31
0.0
  0
LINE
  5
48D
330
23
100
AcDbEntity
  8
0
  6
Continuous
 62
     7
370
    25
100
AcDbLine
 10
-1.0826771654
 20
-4.4803149606
 30
0.0
 11
-1.0826771654
 21
-4.5275590551
 31
0.0
  0
LINE
  5
48E
330
23
100
AcDbEntity
  8
0
  6
Continuous
 62
     7
370
    25
100
AcDbLine
 10
1.0826771654
 20
-4.5275590551
 30
0.0
 11
1.0826771654
 21
-4.4803149606
 31
0.0
  0
LINE
  5
48F
330
23
100
AcDbEntity
  8
0
  6
Continuous
 62
     7
370
    25
100
AcDbLine
 10
-1.0826771654
 20
-5.7795275591
 30
0.0
 11
-1.0826771654
 21
-5.8267716535
 31
0.0
  0
LINE
  5
490
330
23
100
AcDbEntity
  8
0
  6
Continuous
 62
     7
370
    25
100
AcDbLine
 10
1.0826771654
 20
-5.8267716535
 30
0.0
 11
1.0826771654
 21
-5.7795275591
 31
0.0
  0
LINE
  5
491
330
23
100
AcDbEntity
  8
0
  6
Continuous
 62
     7
370
    25
100
AcDbLine
 10
-1.0826771654
 20
-6.2519685039
 30
0.0
 11
-1.0826771654
 21
-6.2992125984
 31
0.0
  0
LINE
  5
492
330
23
100
AcDbEntity
  8
0
  6
Continuous
 62
     7
370
    25
100
AcDbLine
 10
1.0826771654
 20
-6.2992125984
 30
0.0
 11
1.0826771654
 21
-6.2519685039
 31
0.0
  0
LINE
  5
493
330
23
100
AcDbEntity
  8
0
  6
Continuous
 62
     7
370
    25
100
AcDbLine
 10
-1.0826771654
 20
-2.8267716535
 30
0.0
 11
-1.0826771654
 21
-2.874015748
 31
0.0
  0
LINE
  5
494
330
23
100
AcDbEntity
  8
0
  6
Continuous
 62
     7
370
    25
100
AcDbLine
 10
1.0826771654
 20
-2.874015748
 30
0.0
 11
1.0826771654
 21
-2.8267716535
 31
0.0
  0
LINE
  5
495
330
23
100
AcDbEntity
  8
0
  6
Continuous
 62
     7
370
    25
100
AcDbLine
 10
-1.0826771654
 20
-5.3070866142
 30
0.0
 11
-1.0826771654
 21
-5.3543307087
 31
0.0
  0
LINE
  5
496
330
23
100
AcDbEntity
  8
0
  6
Continuous
 62
     7
370
    25
100
AcDbLine
 10
1.0826771654
 20
-5.3543307087
 30
0.0
 11
1.0826771654
 21
-5.3070866142
 31
0.0
  0
LINE
  5
497
330
23
100
AcDbEntity
  8
0
  6
Continuous
 62
     7
370
    25
100
AcDbLine
 10
-1.0826771654
 20
-6.0157480315
 30
0.0
 11
-1.0826771654
 21
-6.062992126
 31
0.0
  0
LINE
  5
498
330
23
100
AcDbEntity
  8
0
  6
Continuous
 62
     7
370
    25
100
AcDbLine
 10
1.0826771654
 20
-6.062992126
 30
0.0
 11
1.0826771654
 21
-6.0157480315
 31
0.0
  0
LINE
  5
499
330
23
100
AcDbEntity
  8
0
  6
Continuous
 62
     7
370
    25
100
AcDbLine
 10
-1.0826771654
 20
-4.8346456693
 30
0.0
 11
-1.0826771654
 21
-4.8818897638
 31
0.0
  0
LINE
  5
49A
330
23
100
AcDbEntity
  8
0
  6
Continuous
 62
     7
370
    25
100
AcDbLine
 10
1.0826771654
 20
-4.8818897638
 30
0.0
 11
1.0826771654
 21
-4.8346456693
 31
0.0
  0
LINE
  5
49B
330
23
100
AcDbEntity
  8
0
  6
Continuous
 62
     7
370
    25
100
AcDbLine
 10
-1.0826771654
 20
-3.4173228346
 30
0.0
 11
-1.0826771654
 21
-3.4645669291
 31
0.0
  0
LINE
  5
49C
330
23
100
AcDbEntity
  8
0
  6
Continuous
 62
     7
370
    25
100
AcDbLine
 10
1.0826771654
 20
-3.4645669291
 30
0.0
 11
1.0826771654
 21
-3.4173228346
 31
0.0
  0
LINE
  5
49D
330
23
100
AcDbEntity
  8
0
  6
Continuous
 62
     7
370
    25
100
AcDbLine
 10
-1.0826771654
 20
-1.8818897638
 30
0.0
 11
-1.0826771654
 21
-1.9291338583
 31
0.0
  0
LINE
  5
49E
330
23
100
AcDbEntity
  8
0
  6
Continuous
 62
     7
370
    25
100
AcDbLine
 10
1.0826771654
 20
-1.9291338583
 30
0.0
 11
1.0826771654
 21
-1.8818897638
 31
0.0
  0
LINE
  5
49F
330
23
100
AcDbEntity
  8
0
  6
Continuous
 62
     7
370
    25
100
AcDbLine
 10
-1.0826771654
 20
-5.188976378
 30
0.0
 11
-1.0826771654
 21
-5.2362204724
 31
0.0
  0
LINE
  5
4A0
330
23
100
AcDbEntity
  8
0
  6
Continuous
 62
     7
370
    25
100
AcDbLine
 10
1.0826771654
 20
-5.2362204724
 30
0.0
 11
1.0826771654
 21
-5.188976378
 31
0.0
  0
LINE
  5
4A1
330
23
100
AcDbEntity
  8
0
  6
Continuous
 62
     7
370
    25
100
AcDbLine
 10
-1.0826771654
 20
-3.5354330709
 30
0.0
 11
-1.0826771654
 21
-3.5826771654
 31
0.0
  0
LINE
  5
4A2
330
23
100
AcDbEntity
  8
0
  6
Continuous
 62
     7
370
    25
100
AcDbLine
 10
1.0826771654
 20
-3.5826771654
 30
0.0
 11
1.0826771654
 21
-3.5354330709
 31
0.0
  0
LINE
  5
4A3
330
23
100
AcDbEntity
  8
0
  6
Continuous
 62
     7
370
    25
100
AcDbLine
 10
-1.0826771654
 20
-4.0078740157
 30
0.0
 11
-1.0826771654
 21
-4.0551181102
 31
0.0
  0
LINE
  5
4A4
330
23
100
AcDbEntity
  8
0
  6
Continuous
 62
     7
370
    25
100
AcDbLine
 10
1.0826771654
 20
-4.0551181102
 30
0.0
 11
1.0826771654
 21
-4.0078740157
 31
0.0
  0
LINE
  5
4A5
330
23
100
AcDbEntity
  8
0
  6
Continuous
 62
     7
370
    25
100
AcDbLine
 10
-1.0826771654
 20
-2.1181102362
 30
0.0
 11
-1.0826771654
 21
-2.1653543307
 31
0.0
  0
LINE
  5
4A6
330
23
100
AcDbEntity
  8
0
  6
Continuous
 62
     7
370
    25
100
AcDbLine
 10
1.0826771654
 20
-2.1653543307
 30
0.0
 11
1.0826771654
 21
-2.1181102362
 31
0.0
  0
LINE
  5
4A7
330
23
100
AcDbEntity
  8
0
  6
Continuous
 62
     7
370
    25
100
AcDbLine
 10
-1.0826771654
 20
-5.0708661417
 30
0.0
 11
-1.0826771654
 21
-5.1181102362
 31
0.0
  0
LINE
  5
4A8
330
23
100
AcDbEntity
  8
0
  6
Continuous
 62
     7
370
    25
100
AcDbLine
 10
1.0826771654
 20
-5.1181102362
 30
0.0
 11
1.0826771654
 21
-5.0708661417
 31
0.0
  0
LINE
  5
4A9
330
23
100
AcDbEntity
  8
0
  6
Continuous
 62
     7
370
    25
100
AcDbLine
 10
-1.0826771654
 20
-2.3543307087
 30
0.0
 11
-1.0826771654
 21
-2.4015748031
 31
0.0
  0
LINE
  5
4AA
330
23
100
AcDbEntity
  8
0
  6
Continuous
 62
     7
370
    25
100
AcDbLine
 10
1.0826771654
 20
-2.4015748031
 30
0.0
 11
1.0826771654
 21
-2.3543307087
 31
0.0
  0
LINE
  5
4AB
330
23
100
AcDbEntity
  8
0
  6
Continuous
 62
     7
370
    25
100
AcDbLine
 10
-1.0826771654
 20
-4.125984252
 30
0.0
 11
-1.0826771654
 21
-4.1732283465
 31
0.0
  0
LINE
  5
4AC
330
23
100
AcDbEntity
  8
0
  6
Continuous
 62
     7
370
    25
100
AcDbLine
 10
1.0826771654
 20
-4.1732283465
 30
0.0
 11
1.0826771654
 21
-4.125984252
 31
0.0
  0
LINE
  5
4AD
330
23
100
AcDbEntity
  8
0
  6
Continuous
 62
     7
370
    25
100
AcDbLine
 10
-1.0826771654
 20
-6.1338582677
 30
0.0
 11
-1.0826771654
 21
-6.1811023622
 31
0.0
  0
LINE
  5
4AE
330
23
100
AcDbEntity
  8
0
  6
Continuous
 62
     7
370
    25
100
AcDbLine
 10
1.0826771654
 20
-6.1811023622
 30
0.0
 11
1.0826771654
 21
-6.1338582677
 31
0.0
  0
LINE
  5
4AF
330
23
100
AcDbEntity
  8
0
  6
Continuous
 62
     7
370
    25
100
AcDbLine
 10
-1.0826771654
 20
-2.9448818898
 30
0.0
 11
-1.0826771654
 21
-2.9921259843
 31
0.0
  0
LINE
  5
4B0
330
23
100
AcDbEntity
  8
0
  6
Continuous
 62
     7
370
    25
100
AcDbLine
 10
1.0826771654
 20
-2.9921259843
 30
0.0
 11
1.0826771654
 21
-2.9448818898
 31
0.0
  0
LINE
  5
4B1
330
23
100
AcDbEntity
  8
0
  6
Continuous
 62
     7
370
    25
100
AcDbLine
 10
-1.0826771654
 20
-5.5433070866
 30
0.0
 11
-1.0826771654
 21
-5.5905511811
 31
0.0
  0
LINE
  5
4B2
330
23
100
AcDbEntity
  8
0
  6
Continuous
 62
     7
370
    25
100
AcDbLine
 10
1.0826771654
 20
-5.5905511811
 30
0.0
 11
1.0826771654
 21
-5.5433070866
 31
0.0
  0
LINE
  5
4B3
330
23
100
AcDbEntity
  8
0
  6
Continuous
 62
     7
370
    25
100
AcDbLine
 10
-1.0826771654
 20
-6.3700787402
 30
0.0
 11
-1.0826771654
 21
-6.4173228346
 31
0.0
  0
LINE
  5
4B4
330
23
100
AcDbEntity
  8
0
  6
Continuous
 62
     7
370
    25
100
AcDbLine
 10
1.0826771654
 20
-6.4173228346
 30
0.0
 11
1.0826771654
 21
-6.3700787402
 31
0.0
  0
LINE
  5
4B5
330
23
100
AcDbEntity
  8
0
  6
Continuous
 62
     7
370
    25
100
AcDbLine
 10
-1.0826771654
 20
-5.6614173228
 30
0.0
 11
-1.0826771654
 21
-5.7086614173
 31
0.0
  0
LINE
  5
4B6
330
23
100
AcDbEntity
  8
0
  6
Continuous
 62
     7
370
    25
100
AcDbLine
 10
1.0826771654
 20
-5.7086614173
 30
0.0
 11
1.0826771654
 21
-5.6614173228
 31
0.0
  0
LINE
  5
4B7
330
23
100
AcDbEntity
  8
0
  6
Continuous
 62
     7
370
    25
100
AcDbLine
 10
-1.0826771654
 20
-4.2440944882
 30
0.0
 11
-1.0826771654
 21
-4.2913385827
 31
0.0
  0
LINE
  5
4B8
330
23
100
AcDbEntity
  8
0
  6
Continuous
 62
     7
370
    25
100
AcDbLine
 10
1.0826771654
 20
-4.2913385827
 30
0.0
 11
1.0826771654
 21
-4.2440944882
 31
0.0
  0
LINE
  5
4B9
330
23
100
AcDbEntity
  8
0
  6
Continuous
 62
     7
370
    25
100
AcDbLine
 10
-1.0826771654
 20
-3.7716535433
 30
0.0
 11
-1.0826771654
 21
-3.8188976378
 31
0.0
  0
LINE
  5
4BA
330
23
100
AcDbEntity
  8
0
  6
Continuous
 62
     7
370
    25
100
AcDbLine
 10
1.0826771654
 20
-3.8188976378
 30
0.0
 11
1.0826771654
 21
-3.7716535433
 31
0.0
  0
LINE
  5
4BB
330
23
100
AcDbEntity
  8
0
  6
Continuous
 62
     7
370
    25
100
AcDbLine
 10
-1.0826771654
 20
-2.4724409449
 30
0.0
 11
-1.0826771654
 21
-2.5196850394
 31
0.0
  0
LINE
  5
4BC
330
23
100
AcDbEntity
  8
0
  6
Continuous
 62
     7
370
    25
100
AcDbLine
 10
1.0826771654
 20
-2.5196850394
 30
0.0
 11
1.0826771654
 21
-2.4724409449
 31
0.0
  0
LINE
  5
4BD
330
23
100
AcDbEntity
  8
0
  6
Continuous
 62
     7
370
    25
100
AcDbLine
 10
-1.0826771654
 20
-2.2362204724
 30
0.0
 11
-1.0826771654
 21
-2.2834645669
 31
0.0
  0
LINE
  5
4BE
330
23
100
AcDbEntity
  8
0
  6
Continuous
 62
     7
370
    25
100
AcDbLine
 10
1.0826771654
 20
-2.2834645669
 30
0.0
 11
1.0826771654
 21
-2.2362204724
 31
0.0
  0
LINE
  5
4BF
330
23
100
AcDbEntity
  8
0
  6
Continuous
 62
     7
370
    25
100
AcDbLine
 10
-1.0826771654
 20
-3.2992125984
 30
0.0
 11
-1.0826771654
 21
-3.3464566929
 31
0.0
  0
LINE
  5
4C0
330
23
100
AcDbEntity
  8
0
  6
Continuous
 62
     7
370
    25
100
AcDbLine
 10
1.0826771654
 20
-3.3464566929
 30
0.0
 11
1.0826771654
 21
-3.2992125984
 31
0.0
  0
LINE
  5
4C1
330
23
100
AcDbEntity
  8
0
  6
Continuous
 62
     7
370
    25
100
AcDbLine
 10
-1.0826771654
 20
-4.5984251969
 30
0.0
 11
-1.0826771654
 21
-4.6456692913
 31
0.0
  0
LINE
  5
4C2
330
23
100
AcDbEntity
  8
0
  6
Continuous
 62
     7
370
    25
100
AcDbLine
 10
1.0826771654
 20
-4.6456692913
 30
0.0
 11
1.0826771654
 21
-4.5984251969
 31
0.0
  0
LINE
  5
4C3
330
23
100
AcDbEntity
  8
0
  6
Continuous
 62
     7
370
    25
100
AcDbLine
 10
-1.0826771654
 20
-5.8976377953
 30
0.0
 11
-1.0826771654
 21
-5.9448818898
 31
0.0
  0
LINE
  5
4C4
330
23
100
AcDbEntity
  8
0
  6
Continuous
 62
     7
370
    25
100
AcDbLine
 10
1.0826771654
 20
-5.9448818898
 30
0.0
 11
1.0826771654
 21
-5.8976377953
 31
0.0
  0
LINE
  5
4C5
330
23
100
AcDbEntity
  8
0
  6
Continuous
 62
     7
370
    25
100
AcDbLine
 10
-1.0826771654
 20
-3.8897637795
 30
0.0
 11
-1.0826771654
 21
-3.937007874
 31
0.0
  0
LINE
  5
4C6
330
23
100
AcDbEntity
  8
0
  6
Continuous
 62
     7
370
    25
100
AcDbLine
 10
1.0826771654
 20
-3.937007874
 30
0.0
 11
1.0826771654
 21
-3.8897637795
 31
0.0
  0
LINE
  5
4C7
330
23
100
AcDbEntity
  8
0
  6
Continuous
 62
     7
370
    25
100
AcDbLine
 10
-1.0826771654
 20
-3.062992126
 30
0.0
 11
-1.0826771654
 21
-3.1102362205
 31
0.0
  0
LINE
  5
4C8
330
23
100
AcDbEntity
  8
0
  6
Continuous
 62
     7
370
    25
100
AcDbLine
 10
1.0826771654
 20
-3.1102362205
 30
0.0
 11
1.0826771654
 21
-3.062992126
 31
0.0
  0
LINE
  5
4C9
330
23
100
AcDbEntity
  8
0
  6
Continuous
 62
     7
370
    25
100
AcDbLine
 10
-1.0826771654
 20
-2.0
 30
0.0
 11
-1.0826771654
 21
-2.0472440945
 31
0.0
  0
LINE
  5
4CA
330
23
100
AcDbEntity
  8
0
  6
Continuous
 62
     7
370
    25
100
AcDbLine
 10
1.0826771654
 20
-2.0472440945
 30
0.0
 11
1.0826771654
 21
-2.0
 31
0.0
  0
LINE
  5
4CB
330
23
100
AcDbEntity
  8
0
  6
Continuous
 62
     7
370
    25
100
AcDbLine
 10
-1.0826771654
 20
-4.9527559055
 30
0.0
 11
-1.0826771654
 21
-5.0
 31
0.0
  0
LINE
  5
4CC
330
23
100
AcDbEntity
  8
0
  6
Continuous
 62
     7
370
    25
100
AcDbLine
 10
1.0826771654
 20
-5.0
 30
0.0
 11
1.0826771654
 21
-4.9527559055
 31
0.0
  0
LINE
  5
4CD
330
23
100
AcDbEntity
  8
0
  6
Continuous
 62
     7
370
    25
100
AcDbLine
 10
-0.7677165354
 20
0.0
 30
0.0
 11
-0.7677165354
 21
-0.1288573888
 31
0.0
  0
LINE
  5
4CE
330
23
100
AcDbEntity
  8
0
  6
Continuous
 62
     7
370
    25
100
AcDbLine
 10
0.7677165354
 20
-0.1288573888
 30
0.0
 11
0.7677165354
 21
0.0
 31
0.0
  0
LINE
  5
4CF
330
23
100
AcDbEntity
  8
0
  6
Continuous
 62
     7
370
    25
100
AcDbLine
 10
-0.7578740157
 20
-0.5511811024
 30
0.0
 11
-0.7578740157
 21
-1.1929133858
 31
0.0
  0
LINE
  5
4D0
330
23
100
AcDbEntity
  8
0
  6
Continuous
 62
     7
370
    25
100
AcDbLine
 10
0.7578740157
 20
-1.1929133858
 30
0.0
 11
0.7578740157
 21
-0.5511811024
 31
0.0
  0
LINE
  5
4D1
330
23
100
AcDbEntity
  8
0
  6
Continuous
 62
     7
370
    25
100
AcDbLine
 10
-0.7480314961
 20
-8.2598425197
 30
0.0
 11
-0.7480314961
 21
-8.437007874
 31
0.0
  0
LINE
  5
4D2
330
23
100
AcDbEntity
  8
0
  6
Continuous
 62
     7
370
    25
100
AcDbLine
 10
0.7480314961
 20
-8.437007874
 30
0.0
 11
0.7480314961
 21
-8.2598425197
 31
0.0
  0
LINE
  5
4D3
330
23
100
AcDbEntity
  8
0
  6
Continuous
 62
     7
370
    25
100
AcDbLine
 10
-0.7480314961
 20
-7.157480315
 30
0.0
 11
-0.7480314961
 21
-7.8267716535
 31
0.0
  0
LINE
  5
4D4
330
23
100
AcDbEntity
  8
0
  6
Continuous
 62
     7
370
    25
100
AcDbLine
 10
0.7480314961
 20
-7.8267716535
 30
0.0
 11
0.7480314961
 21
-7.157480315
 31
0.0
  0
LINE
  5
4D5
330
23
100
AcDbEntity
  8
0
  6
Continuous
 62
     7
370
    25
100
AcDbLine
 10
0.6988188976
 20
-7.0
 30
0.0
 11
0.6200787402
 21
-6.9212598425
 31
0.0
  0
LINE
  5
4D6
330
23
100
AcDbEntity
  8
0
  6
Continuous
 62
     7
370
    25
100
AcDbLine
 10
-0.6200787402
 20
-6.9212598425
 30
0.0
 11
-0.6988188976
 21
-7.0
 31
0.0
  0
LINE
  5
4D7
330
23
100
AcDbEntity
  8
0
  6
Continuous
 62
     7
370
    25
100
AcDbLine
 10
-0.6988188976
 20
-7.0
 30
0.0
 11
-0.6988188976
 21
-7.157480315
 31
0.0
  0
LINE
  5
4D8
330
23
100
AcDbEntity
  8
0
  6
Continuous
 62
     7
370
    25
100
AcDbLine
 10
0.6988188976
 20
-7.157480315
 30
0.0
 11
0.6988188976
 21
-7.0
 31
0.0
  0
LINE
  5
4D9
330
23
100
AcDbEntity
  8
0
  6
Continuous
 62
     7
370
    25
100
AcDbLine
 10
0.688976378
 20
0.0
 30
0.0
 11
0.688976378
 21
0.7624484256
 31
0.0
  0
LINE
  5
4DA
330
23
100
AcDbEntity
  8
0
  6
Continuous
 62
     7
370
    25
100
AcDbLine
 10
-0.688976378
 20
0.7624484256
 30
0.0
 11
-0.688976378
 21
0.0
 31
0.0
  0
LINE
  5
4DB
330
23
100
AcDbEntity
  8
0
  6
Continuous
 62
     7
370
    25
100
AcDbLine
 10
1.2401574803
 20
-1.6850393701
 30
0.0
 11
-1.2401574803
 21
-1.6850393701
 31
0.0
  0
LINE
  5
4DC
330
23
100
AcDbEntity
  8
0
  6
Continuous
 62
     7
370
    25
100
AcDbLine
 10
1.2401574791
 20
-1.8818897638
 30
0.0
 11
-1.2401574803
 21
-1.8818897638
 31
0.0
  0
LINE
  5
4DD
330
23
100
AcDbEntity
  8
0
  6
Continuous
 62
     7
370
    25
100
AcDbLine
 10
0.9350393701
 20
-0.1897579201
 30
0.0
 11
-0.9350393701
 21
-0.1897579201
 31
0.0
  0
LINE
  5
4DE
330
23
100
AcDbEntity
  8
0
  6
Continuous
 62
     7
370
    25
100
AcDbLine
 10
0.8956692913
 20
-0.5511811024
 30
0.0
 11
-0.8956692911
 21
-0.5511811024
 31
0.0
  0
LINE
  5
4DF
330
23
100
AcDbEntity
  8
0
  6
Continuous
 62
     7
370
    25
100
AcDbLine
 10
1.2401574791
 20
-2.7086614173
 30
0.0
 11
-1.2401574803
 21
-2.7086614173
 31
0.0
  0
LINE
  5
4E0
330
23
100
AcDbEntity
  8
0
  6
Continuous
 62
     7
370
    25
100
AcDbLine
 10
1.2401574791
 20
-2.6377952756
 30
0.0
 11
-1.2401574803
 21
-2.6377952756
 31
0.0
  0
LINE
  5
4E1
330
23
100
AcDbEntity
  8
0
  6
Continuous
 62
     7
370
    25
100
AcDbLine
 10
1.2401574791
 20
-2.0
 30
0.0
 11
-1.2401574803
 21
-2.0
 31
0.0
  0
LINE
  5
4E2
330
23
100
AcDbEntity
  8
0
  6
Continuous
 62
     7
370
    25
100
AcDbLine
 10
1.2401574791
 20
-1.9291338583
 30
0.0
 11
-1.2401574803
 21
-1.9291338583
 31
0.0
  0
LINE
  5
4E3
330
23
100
AcDbEntity
  8
0
  6
Continuous
 62
     7
370
    25
100
AcDbLine
 10
1.2401574791
 20
-6.2519685039
 30
0.0
 11
-1.2401574803
 21
-6.2519685039
 31
0.0
  0
LINE
  5
4E4
330
23
100
AcDbEntity
  8
0
  6
Continuous
 62
     7
370
    25
100
AcDbLine
 10
1.2401574791
 20
-6.1811023622
 30
0.0
 11
-1.2401574803
 21
-6.1811023622
 31
0.0
  0
LINE
  5
4E5
330
23
100
AcDbEntity
  8
0
  6
Continuous
 62
     7
370
    25
100
AcDbLine
 10
1.2401574791
 20
-6.3700787402
 30
0.0
 11
-1.2401574803
 21
-6.3700787402
 31
0.0
  0
LINE
  5
4E6
330
23
100
AcDbEntity
  8
0
  6
Continuous
 62
     7
370
    25
100
AcDbLine
 10
1.2401574791
 20
-6.2992125984
 30
0.0
 11
-1.2401574803
 21
-6.2992125984
 31
0.0
  0
LINE
  5
4E7
330
23
100
AcDbEntity
  8
0
  6
Continuous
 62
     7
370
    25
100
AcDbLine
 10
1.2401574791
 20
-3.6535433071
 30
0.0
 11
-1.2401574803
 21
-3.6535433071
 31
0.0
  0
LINE
  5
4E8
330
23
100
AcDbEntity
  8
0
  6
Continuous
 62
     7
370
    25
100
AcDbLine
 10
1.2401574791
 20
-3.5826771654
 30
0.0
 11
-1.2401574803
 21
-3.5826771654
 31
0.0
  0
LINE
  5
4E9
330
23
100
AcDbEntity
  8
0
  6
Continuous
 62
     7
370
    25
100
AcDbLine
 10
1.2401574791
 20
-2.7559055118
 30
0.0
 11
-1.2401574803
 21
-2.7559055118
 31
0.0
  0
LINE
  5
4EA
330
23
100
AcDbEntity
  8
0
  6
Continuous
 62
     7
370
    25
100
AcDbLine
 10
1.2401574791
 20
-2.8267716535
 30
0.0
 11
-1.2401574803
 21
-2.8267716535
 31
0.0
  0
LINE
  5
4EB
330
23
100
AcDbEntity
  8
0
  6
Continuous
 62
     7
370
    25
100
AcDbLine
 10
1.2401574791
 20
-3.5354330709
 30
0.0
 11
-1.2401574803
 21
-3.5354330709
 31
0.0
  0
LINE
  5
4EC
330
23
100
AcDbEntity
  8
0
  6
Continuous
 62
     7
370
    25
100
AcDbLine
 10
1.2401574791
 20
-3.4645669291
 30
0.0
 11
-1.2401574803
 21
-3.4645669291
 31
0.0
  0
LINE
  5
4ED
330
23
100
AcDbEntity
  8
0
  6
Continuous
 62
     7
370
    25
100
AcDbLine
 10
1.2401574791
 20
-6.1338582677
 30
0.0
 11
-1.2401574803
 21
-6.1338582677
 31
0.0
  0
LINE
  5
4EE
330
23
100
AcDbEntity
  8
0
  6
Continuous
 62
     7
370
    25
100
AcDbLine
 10
1.2401574791
 20
-6.062992126
 30
0.0
 11
-1.2401574803
 21
-6.062992126
 31
0.0
  0
LINE
  5
4EF
330
23
100
AcDbEntity
  8
0
  6
Continuous
 62
     7
370
    25
100
AcDbLine
 10
1.2401574791
 20
-2.2834645669
 30
0.0
 11
-1.2401574803
 21
-2.2834645669
 31
0.0
  0
LINE
  5
4F0
330
23
100
AcDbEntity
  8
0
  6
Continuous
 62
     7
370
    25
100
AcDbLine
 10
1.2401574791
 20
-2.3543307087
 30
0.0
 11
-1.2401574803
 21
-2.3543307087
 31
0.0
  0
LINE
  5
4F1
330
23
100
AcDbEntity
  8
0
  6
Continuous
 62
     7
370
    25
100
AcDbLine
 10
1.2401574791
 20
-5.8976377953
 30
0.0
 11
-1.2401574803
 21
-5.8976377953
 31
0.0
  0
LINE
  5
4F2
330
23
100
AcDbEntity
  8
0
  6
Continuous
 62
     7
370
    25
100
AcDbLine
 10
1.2401574791
 20
-5.8267716535
 30
0.0
 11
-1.2401574803
 21
-5.8267716535
 31
0.0
  0
LINE
  5
4F3
330
23
100
AcDbEntity
  8
0
  6
Continuous
 62
     7
370
    25
100
AcDbLine
 10
1.2401574791
 20
-2.4724409449
 30
0.0
 11
-1.2401574803
 21
-2.4724409449
 31
0.0
  0
LINE
  5
4F4
330
23
100
AcDbEntity
  8
0
  6
Continuous
 62
     7
370
    25
100
AcDbLine
 10
1.2401574791
 20
-2.4015748031
 30
0.0
 11
-1.2401574803
 21
-2.4015748031
 31
0.0
  0
LINE
  5
4F5
330
23
100
AcDbEntity
  8
0
  6
Continuous
 62
     7
370
    25
100
AcDbLine
 10
1.2401574791
 20
-3.1102362205
 30
0.0
 11
-1.2401574803
 21
-3.1102362205
 31
0.0
  0
LINE
  5
4F6
330
23
100
AcDbEntity
  8
0
  6
Continuous
 62
     7
370
    25
100
AcDbLine
 10
1.2401574791
 20
-3.1811023622
 30
0.0
 11
-1.2401574803
 21
-3.1811023622
 31
0.0
  0
LINE
  5
4F7
330
23
100
AcDbEntity
  8
0
  6
Continuous
 62
     7
370
    25
100
AcDbLine
 10
1.2401574791
 20
-6.0157480315
 30
0.0
 11
-1.2401574803
 21
-6.0157480315
 31
0.0
  0
LINE
  5
4F8
330
23
100
AcDbEntity
  8
0
  6
Continuous
 62
     7
370
    25
100
AcDbLine
 10
1.2401574791
 20
-5.9448818898
 30
0.0
 11
-1.2401574803
 21
-5.9448818898
 31
0.0
  0
LINE
  5
4F9
330
23
100
AcDbEntity
  8
0
  6
Continuous
 62
     7
370
    25
100
AcDbLine
 10
1.2401574791
 20
-5.6614173228
 30
0.0
 11
-1.2401574803
 21
-5.6614173228
 31
0.0
  0
LINE
  5
4FA
330
23
100
AcDbEntity
  8
0
  6
Continuous
 62
     7
370
    25
100
AcDbLine
 10
1.2401574791
 20
-5.5905511811
 30
0.0
 11
-1.2401574803
 21
-5.5905511811
 31
0.0
  0
LINE
  5
4FB
330
23
100
AcDbEntity
  8
0
  6
Continuous
 62
     7
370
    25
100
AcDbLine
 10
1.2401574791
 20
-2.2362204724
 30
0.0
 11
-1.2401574803
 21
-2.2362204724
 31
0.0
  0
LINE
  5
4FC
330
23
100
AcDbEntity
  8
0
  6
Continuous
 62
     7
370
    25
100
AcDbLine
 10
1.2401574791
 20
-2.1653543307
 30
0.0
 11
-1.2401574803
 21
-2.1653543307
 31
0.0
  0
LINE
  5
4FD
330
23
100
AcDbEntity
  8
0
  6
Continuous
 62
     7
370
    25
100
AcDbLine
 10
1.2401574791
 20
-3.7716535433
 30
0.0
 11
-1.2401574803
 21
-3.7716535433
 31
0.0
  0
LINE
  5
4FE
330
23
100
AcDbEntity
  8
0
  6
Continuous
 62
     7
370
    25
100
AcDbLine
 10
1.2401574791
 20
-3.7007874016
 30
0.0
 11
-1.2401574803
 21
-3.7007874016
 31
0.0
  0
LINE
  5
4FF
330
23
100
AcDbEntity
  8
0
  6
Continuous
 62
     7
370
    25
100
AcDbLine
 10
1.2401574791
 20
-5.5433070866
 30
0.0
 11
-1.2401574803
 21
-5.5433070866
 31
0.0
  0
LINE
  5
500
330
23
100
AcDbEntity
  8
0
  6
Continuous
 62
     7
370
    25
100
AcDbLine
 10
1.2401574791
 20
-5.4724409449
 30
0.0
 11
-1.2401574803
 21
-5.4724409449
 31
0.0
  0
LINE
  5
501
330
23
100
AcDbEntity
  8
0
  6
Continuous
 62
     7
370
    25
100
AcDbLine
 10
1.2401574791
 20
-2.1181102362
 30
0.0
 11
-1.2401574803
 21
-2.1181102362
 31
0.0
  0
LINE
  5
502
330
23
100
AcDbEntity
  8
0
  6
Continuous
 62
     7
370
    25
100
AcDbLine
 10
1.2401574791
 20
-2.0472440945
 30
0.0
 11
-1.2401574803
 21
-2.0472440945
 31
0.0
  0
LINE
  5
503
330
23
100
AcDbEntity
  8
0
  6
Continuous
 62
     7
370
    25
100
AcDbLine
 10
1.2401574791
 20
-3.8897637795
 30
0.0
 11
-1.2401574803
 21
-3.8897637795
 31
0.0
  0
LINE
  5
504
330
23
100
AcDbEntity
  8
0
  6
Continuous
 62
     7
370
    25
100
AcDbLine
 10
1.2401574791
 20
-3.8188976378
 30
0.0
 11
-1.2401574803
 21
-3.8188976378
 31
0.0
  0
LINE
  5
505
330
23
100
AcDbEntity
  8
0
  6
Continuous
 62
     7
370
    25
100
AcDbLine
 10
-0.7677165354
 20
-0.1288573888
 30
0.0
 11
0.7677165354
 21
-0.1288573888
 31
0.0
  0
LINE
  5
506
330
23
100
AcDbEntity
  8
0
  6
Continuous
 62
     7
370
    25
100
AcDbLine
 10
1.2401574791
 20
-5.7795275591
 30
0.0
 11
-1.2401574803
 21
-5.7795275591
 31
0.0
  0
LINE
  5
507
330
23
100
AcDbEntity
  8
0
  6
Continuous
 62
     7
370
    25
100
AcDbLine
 10
1.2401574791
 20
-5.7086614173
 30
0.0
 11
-1.2401574803
 21
-5.7086614173
 31
0.0
  0
LINE
  5
508
330
23
100
AcDbEntity
  8
0
  6
Continuous
 62
     7
370
    25
100
AcDbLine
 10
1.2401574791
 20
-4.125984252
 30
0.0
 11
-1.2401574803
 21
-4.125984252
 31
0.0
  0
LINE
  5
509
330
23
100
AcDbEntity
  8
0
  6
Continuous
 62
     7
370
    25
100
AcDbLine
 10
1.2401574791
 20
-4.0551181102
 30
0.0
 11
-1.2401574803
 21
-4.0551181102
 31
0.0
  0
LINE
  5
50A
330
23
100
AcDbEntity
  8
0
  6
Continuous
 62
     7
370
    25
100
AcDbLine
 10
1.2401574791
 20
-2.5905511811
 30
0.0
 11
-1.2401574803
 21
-2.5905511811
 31
0.0
  0
LINE
  5
50B
330
23
100
AcDbEntity
  8
0
  6
Continuous
 62
     7
370
    25
100
AcDbLine
 10
1.2401574791
 20
-2.5196850394
 30
0.0
 11
-1.2401574803
 21
-2.5196850394
 31
0.0
  0
LINE
  5
50C
330
23
100
AcDbEntity
  8
0
  6
Continuous
 62
     7
370
    25
100
AcDbLine
 10
1.2401574791
 20
-4.4803149606
 30
0.0
 11
-1.2401574803
 21
-4.4803149606
 31
0.0
  0
LINE
  5
50D
330
23
100
AcDbEntity
  8
0
  6
Continuous
 62
     7
370
    25
100
AcDbLine
 10
1.2401574791
 20
-4.4094488189
 30
0.0
 11
-1.2401574803
 21
-4.4094488189
 31
0.0
  0
LINE
  5
50E
330
23
100
AcDbEntity
  8
0
  6
Continuous
 62
     7
370
    25
100
AcDbLine
 10
1.2401574791
 20
-4.5984251969
 30
0.0
 11
-1.2401574803
 21
-4.5984251969
 31
0.0
  0
LINE
  5
50F
330
23
100
AcDbEntity
  8
0
  6
Continuous
 62
     7
370
    25
100
AcDbLine
 10
1.2401574791
 20
-4.5275590551
 30
0.0
 11
-1.2401574803
 21
-4.5275590551
 31
0.0
  0
LINE
  5
510
330
23
100
AcDbEntity
  8
0
  6
Continuous
 62
     7
370
    25
100
AcDbLine
 10
1.2401574791
 20
-2.9448818898
 30
0.0
 11
-1.2401574803
 21
-2.9448818898
 31
0.0
  0
LINE
  5
511
330
23
100
AcDbEntity
  8
0
  6
Continuous
 62
     7
370
    25
100
AcDbLine
 10
1.2401574791
 20
-2.874015748
 30
0.0
 11
-1.2401574803
 21
-2.874015748
 31
0.0
  0
LINE
  5
512
330
23
100
AcDbEntity
  8
0
  6
Continuous
 62
     7
370
    25
100
AcDbLine
 10
1.2401574791
 20
-4.7165354331
 30
0.0
 11
-1.2401574803
 21
-4.7165354331
 31
0.0
  0
LINE
  5
513
330
23
100
AcDbEntity
  8
0
  6
Continuous
 62
     7
370
    25
100
AcDbLine
 10
1.2401574791
 20
-4.6456692913
 30
0.0
 11
-1.2401574803
 21
-4.6456692913
 31
0.0
  0
LINE
  5
514
330
23
100
AcDbEntity
  8
0
  6
Continuous
 62
     7
370
    25
100
AcDbLine
 10
1.2401574791
 20
-3.062992126
 30
0.0
 11
-1.2401574803
 21
-3.062992126
 31
0.0
  0
LINE
  5
515
330
23
100
AcDbEntity
  8
0
  6
Continuous
 62
     7
370
    25
100
AcDbLine
 10
1.2401574791
 20
-2.9921259843
 30
0.0
 11
-1.2401574803
 21
-2.9921259843
 31
0.0
  0
LINE
  5
516
330
23
100
AcDbEntity
  8
0
  6
Continuous
 62
     7
370
    25
100
AcDbLine
 10
1.2401574791
 20
-4.8346456693
 30
0.0
 11
-1.2401574803
 21
-4.8346456693
 31
0.0
  0
LINE
  5
517
330
23
100
AcDbEntity
  8
0
  6
Continuous
 62
     7
370
    25
100
AcDbLine
 10
1.2401574791
 20
-4.7637795276
 30
0.0
 11
-1.2401574803
 21
-4.7637795276
 31
0.0
  0
LINE
  5
518
330
23
100
AcDbEntity
  8
0
  6
Continuous
 62
     7
370
    25
100
AcDbLine
 10
1.2401574791
 20
-4.9527559055
 30
0.0
 11
-1.2401574803
 21
-4.9527559055
 31
0.0
  0
LINE
  5
519
330
23
100
AcDbEntity
  8
0
  6
Continuous
 62
     7
370
    25
100
AcDbLine
 10
1.2401574791
 20
-4.8818897638
 30
0.0
 11
-1.2401574803
 21
-4.8818897638
 31
0.0
  0
LINE
  5
51A
330
23
100
AcDbEntity
  8
0
  6
Continuous
 62
     7
370
    25
100
AcDbLine
 10
1.2401574791
 20
-3.2992125984
 30
0.0
 11
-1.2401574803
 21
-3.2992125984
 31
0.0
  0
LINE
  5
51B
330
23
100
AcDbEntity
  8
0
  6
Continuous
 62
     7
370
    25
100
AcDbLine
 10
1.2401574791
 20
-3.2283464567
 30
0.0
 11
-1.2401574803
 21
-3.2283464567
 31
0.0
  0
LINE
  5
51C
330
23
100
AcDbEntity
  8
0
  6
Continuous
 62
     7
370
    25
100
AcDbLine
 10
1.2401574791
 20
-4.2440944882
 30
0.0
 11
-1.2401574803
 21
-4.2440944882
 31
0.0
  0
LINE
  5
51D
330
23
100
AcDbEntity
  8
0
  6
Continuous
 62
     7
370
    25
100
AcDbLine
 10
1.2401574791
 20
-4.1732283465
 30
0.0
 11
-1.2401574803
 21
-4.1732283465
 31
0.0
  0
LINE
  5
51E
330
23
100
AcDbEntity
  8
0
  6
Continuous
 62
     7
370
    25
100
AcDbLine
 10
1.2401574791
 20
-3.4173228346
 30
0.0
 11
-1.2401574803
 21
-3.4173228346
 31
0.0
  0
LINE
  5
51F
330
23
100
AcDbEntity
  8
0
  6
Continuous
 62
     7
370
    25
100
AcDbLine
 10
1.2401574791
 20
-3.3464566929
 30
0.0
 11
-1.2401574803
 21
-3.3464566929
 31
0.0
  0
LINE
  5
520
330
23
100
AcDbEntity
  8
0
  6
Continuous
 62
     7
370
    25
100
AcDbLine
 10
1.2401574791
 20
-4.3622047244
 30
0.0
 11
-1.2401574803
 21
-4.3622047244
 31
0.0
  0
LINE
  5
521
330
23
100
AcDbEntity
  8
0
  6
Continuous
 62
     7
370
    25
100
AcDbLine
 10
1.2401574791
 20
-4.2913385827
 30
0.0
 11
-1.2401574803
 21
-4.2913385827
 31
0.0
  0
LINE
  5
522
330
23
100
AcDbEntity
  8
0
  6
Continuous
 62
     7
370
    25
100
AcDbLine
 10
1.2401574791
 20
-5.2362204724
 30
0.0
 11
-1.2401574803
 21
-5.2362204724
 31
0.0
  0
LINE
  5
523
330
23
100
AcDbEntity
  8
0
  6
Continuous
 62
     7
370
    25
100
AcDbLine
 10
1.2401574791
 20
-5.3070866142
 30
0.0
 11
-1.2401574803
 21
-5.3070866142
 31
0.0
  0
LINE
  5
524
330
23
100
AcDbEntity
  8
0
  6
Continuous
 62
     7
370
    25
100
AcDbLine
 10
1.2401574791
 20
-5.4251968504
 30
0.0
 11
-1.2401574803
 21
-5.4251968504
 31
0.0
  0
LINE
  5
525
330
23
100
AcDbEntity
  8
0
  6
Continuous
 62
     7
370
    25
100
AcDbLine
 10
1.2401574791
 20
-5.3543307087
 30
0.0
 11
-1.2401574803
 21
-5.3543307087
 31
0.0
  0
LINE
  5
526
330
23
100
AcDbEntity
  8
0
  6
Continuous
 62
     7
370
    25
100
AcDbLine
 10
0.6200787402
 20
-6.9212598425
 30
0.0
 11
-0.6200787402
 21
-6.9212598425
 31
0.0
  0
LINE
  5
527
330
23
100
AcDbEntity
  8
0
  6
Continuous
 62
     7
370
    25
100
AcDbLine
 10
1.2401506
 20
-6.6062992126
 30
0.0
 11
-1.2401574803
 21
-6.6062992126
 31
0.0
  0
LINE
  5
528
330
23
100
AcDbEntity
  8
0
  6
Continuous
 62
     7
370
    25
100
AcDbLine
 10
1.2401574791
 20
-4.0078740157
 30
0.0
 11
-1.2401574803
 21
-4.0078740157
 31
0.0
  0
LINE
  5
529
330
23
100
AcDbEntity
  8
0
  6
Continuous
 62
     7
370
    25
100
AcDbLine
 10
1.2401574791
 20
-3.937007874
 30
0.0
 11
-1.2401574803
 21
-3.937007874
 31
0.0
  0
LINE
  5
52A
330
23
100
AcDbEntity
  8
0
  6
Continuous
 62
     7
370
    25
100
AcDbLine
 10
1.2401574791
 20
-5.1181102362
 30
0.0
 11
-1.2401574803
 21
-5.1181102362
 31
0.0
  0
LINE
  5
52B
330
23
100
AcDbEntity
  8
0
  6
Continuous
 62
     7
370
    25
100
AcDbLine
 10
1.2401574791
 20
-5.188976378
 30
0.0
 11
-1.2401574803
 21
-5.188976378
 31
0.0
  0
LINE
  5
52C
330
23
100
AcDbEntity
  8
0
  6
Continuous
 62
     7
370
    25
100
AcDbLine
 10
1.2401574791
 20
-5.0708661417
 30
0.0
 11
-1.2401574803
 21
-5.0708661417
 31
0.0
  0
LINE
  5
52D
330
23
100
AcDbEntity
  8
0
  6
Continuous
 62
     7
370
    25
100
AcDbLine
 10
1.2401574791
 20
-5.0
 30
0.0
 11
-1.2401574803
 21
-5.0
 31
0.0
  0
LINE
  5
52E
330
23
100
AcDbEntity
  8
0
  6
Continuous
 62
     7
370
    25
100
AcDbLine
 10
1.2401574791
 20
-6.4173228346
 30
0.0
 11
-1.2401574803
 21
-6.4173228346
 31
0.0
  0
LINE
  5
52F
330
23
100
AcDbEntity
  8
0
  6
Continuous
 62
     7
370
    25
100
AcDbLine
 10
-0.9251968504
 20
-8.1881948358
 30
0.0
 11
0.9251968504
 21
-8.1881948358
 31
0.0
  0
LINE
  5
530
330
23
100
AcDbEntity
  8
0
  6
Continuous
 62
     7
370
    25
100
AcDbLine
 10
-0.8858267707
 20
-7.8267716535
 30
0.0
 11
0.8858267717
 21
-7.8267716535
 31
0.0
  0
LINE
  5
531
330
23
100
AcDbEntity
  8
0
  6
Continuous
 62
     7
370
    25
100
AcDbLine
 10
0.8267716535
 20
-1.1929133858
 30
0.0
 11
-0.8267716535
 21
-1.1929133858
 31
0.0
  0
LINE
  5
532
330
23
100
AcDbEntity
  8
0
  6
Continuous
 62
     7
370
    25
100
AcDbLine
 10
0.8267716535
 20
-1.3700787402
 30
0.0
 11
-0.8267716535
 21
-1.3700787402
 31
0.0
  0
LINE
  5
533
330
23
100
AcDbEntity
  8
0
  6
Continuous
 62
     7
370
    25
100
AcDbLine
 10
0.7677165354
 20
0.0
 30
0.0
 11
-0.7677165354
 21
0.0
 31
0.0
  0
LINE
  5
534
330
23
100
AcDbEntity
  8
0
  6
Continuous
 62
     7
370
    25
100
AcDbLine
 10
0.7480314961
 20
-8.2598425197
 30
0.0
 11
-0.7480314961
 21
-8.2598425197
 31
0.0
  0
LINE
  5
535
330
23
100
AcDbEntity
  8
0
  6
Continuous
 62
     7
370
    25
100
AcDbLine
 10
0.7480314961
 20
-8.437007874
 30
0.0
 11
-0.7480314961
 21
-8.437007874
 31
0.0
  0
LINE
  5
536
330
23
100
AcDbEntity
  8
0
  6
Continuous
 62
     7
370
    25
100
AcDbLine
 10
0.7480314961
 20
-7.157480315
 30
0.0
 11
-0.7480314961
 21
-7.157480315
 31
0.0
  0
LINE
  5
537
330
23
100
AcDbEntity
  8
0
  6
Continuous
 62
     7
370
    25
100
AcDbLine
 10
1.0228646501
 20
1.3407598771
 30
0.0
 11
0.5114323251
 21
2.2265866487
 31
0.0
  0
LINE
  5
538
330
23
100
AcDbEntity
  8
0
  6
Continuous
 62
     7
370
    25
100
AcDbLine
 10
0.5114323251
 20
0.4549331054
 30
0.0
 11
1.0228646501
 21
1.3407598771
 31
0.0
  0
LINE
  5
539
330
23
100
AcDbEntity
  8
0
  6
Continuous
 62
     7
370
    25
100
AcDbLine
 10
-0.5114323251
 20
0.4549331054
 30
0.0
 11
0.5114323251
 21
0.4549331054
 31
0.0
  0
LINE
  5
53A
330
23
100
AcDbEntity
  8
0
  6
Continuous
 62
     7
370
    25
100
AcDbLine
 10
-1.0228646501
 20
1.3407598771
 30
0.0
 11
-0.5114323251
 21
0.4549331054
 31
0.0
  0
LINE
  5
53B
330
23
100
AcDbEntity
  8
0
  6
Continuous
 62
     7
370
    25
100
AcDbLine
 10
-0.5114323251
 20
2.2265866487
 30
0.0
 11
-1.0228646501
 21
1.3407598771
 31
0.0
  0
LINE
  5
53C
330
23
100
AcDbEntity
  8
0
  6
Continuous
 62
     7
370
    25
100
AcDbLine
 10
-0.9319433479
 20
1.3407598771
 30
0.0
 11
-0.465971674
 21
0.5336732629
 31
0.0
  0
LINE
  5
53D
330
23
100
AcDbEntity
  8
0
  6
Continuous
 62
     7
370
    25
100
AcDbLine
 10
-0.465971674
 20
0.5336732629
 30
0.0
 11
0.465971674
 21
0.5336732629
 31
0.0
  0
LINE
  5
53E
330
23
100
AcDbEntity
  8
0
  6
Continuous
 62
     7
370
    25
100
AcDbLine
 10
0.465971674
 20
0.5336732629
 30
0.0
 11
0.9319433479
 21
1.3407598771
 31
0.0
  0
LINE
  5
53F
330
23
100
AcDbEntity
  8
0
  6
Continuous
 62
     7
370
    25
100
AcDbLine
 10
0.9319433479
 20
1.3407598771
 30
0.0
 11
0.465971674
 21
2.1478464912
 31
0.0
  0
LINE
  5
540
330
23
100
AcDbEntity
  8
0
  6
Continuous
 62
     7
370
    25
100
AcDbLine
 10
0.465971674
 20
2.1478464912
 30
0.0
 11
-0.465971674
 21
2.1478464912
 31
0.0
  0
LINE
  5
541
330
23
100
AcDbEntity
  8
0
  6
Continuous
 62
     7
370
    25
100
AcDbLine
 10
-0.465971674
 20
2.1478464912
 30
0.0
 11
-0.9319433479
 21
1.3407598771
 31
0.0
  0
LINE
  5
542
330
23
100
AcDbEntity
  8
0
  6
Continuous
 62
     7
370
    25
100
AcDbLine
 10
0.5114323251
 20
2.2265866487
 30
0.0
 11
-0.5114323251
 21
2.2265866487
 31
0.0
  0
LINE
  5
543
330
23
100
AcDbEntity
  8
0
  6
Continuous
 62
     8
370
    25
100
AcDbLine
 10
-0.9350393701
 20
-0.5118110236
 30
0.0
 11
0.9350393701
 21
-0.5118110236
 31
0.0
  0
LINE
  5
544
330
23
100
AcDbEntity
  8
0
  6
Continuous
 62
     8
370
    25
100
AcDbLine
 10
0.9251968504
 20
-7.8661417323
 30
0.0
 11
-0.9251968504
 21
-7.8661417323
 31
0.0
  0
LINE
  5
545
330
23
100
AcDbEntity
  8
0
  6
Continuous
 62
     8
370
    25
100
AcDbLine
 10
-0.568258139
 20
0.5533583023
 30
0.0
 11
-0.688976378
 21
0.5533583023
 31
0.0
  0
LINE
  5
546
330
23
100
AcDbEntity
  8
0
  6
Continuous
 62
     8
370
    25
100
AcDbLine
 10
0.688976378
 20
0.5533583023
 30
0.0
 11
0.568258139
 21
0.5533583023
 31
0.0
  0
ARC
  5
547
330
23
100
AcDbEntity
  8
0
  6
Continuous
 62
     7
370
    25
100
AcDbCircle
 10
0.8956692913
 20
-0.5118110236
 30
0.0
 40
0.0393700787401574
100
AcDbArc
 50
270.0
 51
0.0
  0
ARC
  5
548
330
23
100
AcDbEntity
  8
0
  6
Continuous
 62
     7
370
    25
100
AcDbCircle
 10
-0.8956692913
 20
-0.5118110236
 30
0.0
 40
0.0393700787401574
100
AcDbArc
 50
180.0
 51
270.0
  0
ARC
  5
549
330
23
100
AcDbEntity
  8
0
  6
Continuous
 62
     7
370
    25
100
AcDbCircle
 10
0.8858267717
 20
-7.8661417323
 30
0.0
 40
0.0393700787401593
100
AcDbArc
 50
0.0
 51
90.0
  0
ARC
  5
54A
330
23
100
AcDbEntity
  8
0
  6
Continuous
 62
     7
370
    25
100
AcDbCircle
 10
-0.8858267717
 20
-7.8661417323
 30
0.0
 40
0.0393700787401593
100
AcDbArc
 50
90.0
 51
180.0
  0
VIEWPORT
  5
6C8
330
23
100
AcDbEntity
  8
0
100
AcDbViewport
 10
0.0
 20
0.0
 30
0.0
 40
8.4
 41
6.4
 68
     1
 69
     1
 12
-0.000490236
 22
0.3199743045
 13
0.0
 23
0.0
 14
0.5
 24
0.5
 15
0.5
 25
0.5
 16
0.0
 26
0.0
 36
1.0
 17
0.0
 27
0.0
 37
0.0
 42
50.0
 43
0.0
 44
0.0
 45
2.559850844
 50
0.0
 51
0.0
 72
   100
 90
   557152
  1

281
     0
 71
     1
 74
     0
110
0.0
120
0.0
130
0.0
111
1.0
121
0.0
131
0.0
112
0.0
122
1.0
132
0.0
 79
     0
146
0.0
  0
ENDBLK
  5
25
330
23
100
AcDbEntity
  8
0
100
AcDbBlockEnd
  0
BLOCK
  5
54D
330
54B
100
AcDbEntity
  8
0
100
AcDbBlockBegin
  2
*Paper_Space1
 70
     0
 10
0.0
 20
0.0
 30
0.0
  3
*Paper_Space1
  1

  0
SPLINE
  5
553
330
54B
100
AcDbEntity
  8
0
  6
Continuous
 62
     7
370
    25
100
AcDbSpline
210
0.0
220
0.0
230
1.0
 70
     8
 71
     3
 72
    17
 73
    13
 74
     0
 42
0.000000001
 43
0.00000001
 40
0.0
 40
0.0
 40
0.0
 40
0.0
 40
0.0597181396257174
 40
0.1655663760257162
 40
0.2715199094102885
 40
0.3780453172675773
 40
0.4854409533999418
 40
0.5937875655158483
 40
0.702978327154557
 40
0.8128001295677989
 40
0.9230196041314178
 40
1.0
 40
1.0
 40
1.0
 40
1.0
 10
-5.102443558982158
 20
-4.01287190535851
 30
0.0
 10
-5.094498108947842
 20
-4.008510120715082
 30
0.0
 10
-5.072469636923759
 20
-3.99641723100111
 30
0.0
 10
-5.040335295895741
 20
-3.970023192926972
 30
0.0
 10
-5.006141745804229
 20
-3.934619773678586
 30
0.0
 10
-4.976339748378328
 20
-3.893609517019941
 30
0.0
 10
-4.950898911653545
 20
-3.847575575346573
 30
0.0
 10
-4.930074772486094
 20
-3.796682065332964
 30
0.0
 10
-4.914010955091289
 20
-3.741310512236826
 30
0.0
 10
-4.90296550443029
 20
-3.681824606076932
 30
0.0
 10
-4.897292839622058
 20
-3.625268144108606
 30
0.0
 10
-4.896701241801031
 20
-3.587939385586257
 30
0.0
 10
-4.896457964739181
 20
-3.572589040515512
 30
0.0
  0
SPLINE
  5
554
330
54B
100
AcDbEntity
  8
0
  6
Continuous
 62
     7
370
    25
100
AcDbSpline
210
0.0
220
0.0
230
1.0
 70
     8
 71
     3
 72
    35
 73
    31
 74
     0
 42
0.000000001
 43
0.00000001
 40
0.0
 40
0.0
 40
0.0
 40
0.0
 40
0.0197200590518144
 40
0.0570272211350794
 40
0.094314565169622
 40
0.1315742374640889
 40
0.1688040765544985
 40
0.2060062356854411
 40
0.2431853082798998
 40
0.2803471989977748
 40
0.3174984865336826
 40
0.3546460892646002
 40
0.3917968216849991
 40
0.4289557854802465
 40
0.4661302359902625
 40
0.5033273958663254
 40
0.5405542569058327
 40
0.577817175962813
 40
0.6151211115505207
 40
0.6524682775725553
 40
0.6898559120313322
 40
0.7272728331660793
 40
0.7646856528422911
 40
0.8020415249616538
 40
0.8392677882438112
 40
0.8762756242227054
 40
0.912980845986158
 40
0.9493374535446094
 40
0.9853693165045962
 40
1.0
 40
1.0
 40
1.0
 40
1.0
 10
-4.896457964739181
 20
-3.572589040515512
 30
0.0
 10
-4.896600559506941
 20
-3.560776338768275
 30
0.0
 10
-4.897012920511151
 20
-3.526615915973779
 30
0.0
 10
-4.901570764673473
 20
-3.468243691900581
 30
0.0
 10
-4.911705381088096
 20
-3.397265788228104
 30
0.0
 10
-4.926788468872696
 20
-3.324917533810655
 30
0.0
 10
-4.946596347941131
 20
-3.2517793746043
 30
0.0
 10
-4.970986489177313
 20
-3.178372775809287
 30
0.0
 10
-4.999758254007724
 20
-3.10523542893829
 30
0.0
 10
-5.032691483574861
 20
-3.0328983220781
 30
0.0
 10
-5.069537569324466
 20
-2.961888388724825
 30
0.0
 10
-5.110023498126282
 20
-2.892723883810493
 30
0.0
 10
-5.153852184810173
 20
-2.825912345177925
 30
0.0
 10
-5.200705409837983
 20
-2.761945498611087
 30
0.0
 10
-5.250246482208334
 20
-2.701295706405667
 30
0.0
 10
-5.302123966389371
 20
-2.644412131571019
 30
0.0
 10
-5.355973662188479
 20
-2.591719517065224
 30
0.0
 10
-5.411421310285297
 20
-2.543616314998245
 30
0.0
 10
-5.468084885059708
 20
-2.500473520751609
 30
0.0
 10
-5.525575971637355
 20
-2.462634261742957
 30
0.0
 10
-5.583499611580432
 20
-2.430413797077492
 30
0.0
 10
-5.641446871366451
 20
-2.404101809366325
 30
0.0
 10
-5.698989602435863
 20
-2.383956873323028
 30
0.0
 10
-5.755671939073821
 20
-2.370200794291659
 30
0.0
 10
-5.811018654262983
 20
-2.362987048538907
 30
0.0
 10
-5.864505837303924
 20
-2.362437178981097
 30
0.0
 10
-5.915702191396755
 20
-2.368409539917031
 30
0.0
 10
-5.96384808855131
 20
-2.381268363448612
 30
0.0
 10
-6.0006165596138
 20
-2.395561694730872
 30
0.0
 10
-6.019922268549707
 20
-2.407636211545209
 30
0.0
 10
-6.025497505817822
 20
-2.41112317472078
 30
0.0
  0
SPLINE
  5
5AC
330
54B
100
AcDbEntity
  8
0
  6
Continuous
 62
     7
370
    25
100
AcDbSpline
210
0.0
220
0.0
230
1.0
 70
     8
 71
     3
 72
    15
 73
    11
 74
     0
 42
0.000000001
 43
0.00000001
 40
0.0
 40
0.0
 40
0.0
 40
0.0
 40
0.0927479375605444
 40
0.2244884128177155
 40
0.3563426619258147
 40
0.4888802564997751
 40
0.6224757753550889
 40
0.7572392350742294
 40
0.8930489881704053
 40
1.0
 40
1.0
 40
1.0
 40
1.0
 10
-0.8192946418550816
 20
0.6056398823880614
 30
0.0
 10
-0.8293018601958426
 20
0.6002464468087987
 30
0.0
 10
-0.8535234722459347
 20
0.5871920994597501
 30
0.0
 10
-0.8878125792838708
 20
0.5595899614515999
 30
0.0
 10
-0.9223240528050622
 20
0.5241981393542775
 30
0.0
 10
-0.9524826877254722
 20
0.4832417311195158
 30
0.0
 10
-0.9783194392977694
 20
0.4372581260548691
 30
0.0
 10
-0.9994051638728876
 20
0.3862974027229205
 30
0.0
 10
-1.01507109993547
 20
0.3352378418329143
 30
0.0
 10
-1.021332435365528
 20
0.2995995635400697
 30
0.0
 10
-1.024090937794263
 20
0.2838987153224848
 30
0.0
  0
SPLINE
  5
5AD
330
54B
100
AcDbEntity
  8
0
  6
Continuous
 62
     7
370
    25
100
AcDbSpline
210
0.0
220
0.0
230
1.0
 70
     8
 71
     3
 72
    15
 73
    11
 74
     0
 42
0.000000001
 43
0.00000001
 40
0.0
 40
0.0
 40
0.0
 40
0.0
 40
0.0451186170697144
 40
0.1870794324433654
 40
0.3286793393120302
 40
0.4696072734580093
 40
0.6095291939487925
 40
0.7481952844429635
 40
0.8855694013831482
 40
1.0
 40
1.0
 40
1.0
 40
1.0
 10
-0.2661226655481631
 20
-1.028723174497675
 30
0.0
 10
-0.2599762518175645
 20
-1.03120774394755
 30
0.0
 10
-0.23449081660341
 20
-1.04150974061182
 30
0.0
 10
-0.1902564273364452
 20
-1.053271936157857
 30
0.0
 10
-0.1339860044429598
 20
-1.063676686635964
 30
0.0
 10
-0.0793833590382803
 20
-1.067020295467956
 30
0.0
 10
-0.0268787359926772
 20
-1.06388935771742
 30
0.0
 10
0.0228993685961343
 20
-1.053984915132197
 30
0.0
 10
0.0674735042279022
 20
-1.039158072036664
 30
0.0
 10
0.0936999904317913
 20
-1.024710431986203
 30
0.0
 10
0.1056184031163537
 20
-1.018144819837449
 30
0.0
  0
SPLINE
  5
5B2
330
54B
100
AcDbEntity
  8
0
  6
Continuous
 62
     7
370
    25
100
AcDbSpline
210
0.0
220
0.0
230
1.0
 70
     8
 71
     3
 72
    24
 73
    20
 74
     0
 42
0.000000001
 43
0.00000001
 40
0.0
 40
0.0
 40
0.0
 40
0.0
 40
0.0571693043722493
 40
0.1162743900525198
 40
0.175583915813159
 40
0.2355926191426843
 40
0.2966366721907842
 40
0.3588638494835891
 40
0.4221847938976817
 40
0.4863347509329236
 40
0.5509431380795909
 40
0.615521420441419
 40
0.6796635340564258
 40
0.7431700979290043
 40
0.8060722186514128
 40
0.8687044419544133
 40
0.9317552359729221
 40
0.9905411363284131
 40
1.0
 40
1.0
 40
1.0
 40
1.0
 10
0.2589626441830529
 20
1.18633340696766
 30
0.0
 10
0.2587903977489729
 20
1.183383176440799
 30
0.0
 10
0.2584400725301994
 20
1.177382819102331
 30
0.0
 10
0.2561627261812363
 20
1.160799686736783
 30
0.0
 10
0.2517443407731701
 20
1.139234984066437
 30
0.0
 10
0.2446570763224631
 20
1.113015198100208
 30
0.0
 10
0.2346216280638953
 20
1.08318667568652
 30
0.0
 10
0.2215165884372416
 20
1.050709639951616
 30
0.0
 10
0.2054427497742897
 20
1.016733437801125
 30
0.0
 10
0.186735945839542
 20
0.9824913049059
 30
0.0
 10
0.1659809717369759
 20
0.9492683649852152
 30
0.0
 10
0.1439921646644349
 20
0.91830365367028
 30
0.0
 10
0.1217634807754593
 20
0.8906857741415497
 30
0.0
 10
0.1003932827385781
 20
0.8672595930663104
 30
0.0
 10
0.0810257576549515
 20
0.8485828429275581
 30
0.0
 10
0.0647807197475612
 20
0.834896071295518
 30
0.0
 10
0.0531355542486766
 20
0.8264264020086558
 30
0.0
 10
0.0483114781471331
 20
0.8234358694576885
 30
0.0
 10
0.0470043809605028
 20
0.8226756760453099
 30
0.0
 10
0.0468232146209292
 20
0.8225703116857982
 30
0.0
  0
SPLINE
  5
5B3
330
54B
100
AcDbEntity
  8
0
  6
Continuous
 62
     7
370
    25
100
AcDbSpline
210
0.0
220
0.0
230
1.0
 70
     8
 71
     3
 72
    26
 73
    22
 74
     0
 42
0.000000001
 43
0.00000001
 40
0.0
 40
0.0
 40
0.0
 40
0.0
 40
0.0355509546598121
 40
0.0916714710392599
 40
0.1479917631333384
 40
0.2045866508485122
 40
0.2611814497234887
 40
0.317652168076868
 40
0.3739486136125776
 40
0.4300802794994592
 40
0.4860988845761552
 40
0.5420835004188737
 40
0.5981294598833256
 40
0.6543154903835416
 40
0.7107375422550934
 40
0.7674967947110297
 40
0.8246801806118623
 40
0.8823459723865337
 40
0.9405032535071318
 40
0.999086208416561
 40
0.9999999999999999
 40
0.9999999999999999
 40
0.9999999999999999
 40
0.9999999999999999
 10
0.7357436012796316
 20
-0.3708041049804968
 30
0.0
 10
0.7531600873598832
 20
-0.3604544989013941
 30
0.0
 10
0.7980701302712281
 20
-0.3337670689005136
 30
0.0
 10
0.8682527971150357
 20
-0.2857099034504584
 30
0.0
 10
0.9457258439703409
 20
-0.2257866841704438
 30
0.0
 10
1.020386828785828
 20
-0.1605219175939419
 30
0.0
 10
1.091961660070646
 20
-0.0904530216006886
 30
0.0
 10
1.160066451651773
 20
-0.0160816642519257
 30
0.0
 10
1.224452476680295
 20
0.0621277065428179
 30
0.0
 10
1.284926466823164
 20
0.1437794152951924
 30
0.0
 10
1.341329101756163
 20
0.2285300934312986
 30
0.0
 10
1.393511143323602
 20
0.3160830232732224
 30
0.0
 10
1.441309835802679
 20
0.406163721565411
 30
0.0
 10
1.484546789999863
 20
0.4985177628626077
 30
0.0
 10
1.523015777159014
 20
0.5929070442751129
 30
0.0
 10
1.556507142915853
 20
0.6891160513226327
 30
0.0
 10
1.58468835008753
 20
0.786919367694451
 30
0.0
 10
1.607497303262515
 20
0.8860809274680446
 30
0.0
 10
1.623629065893651
 20
0.9862011114708572
 30
0.0
 10
1.632098174142483
 20
1.053816955024434
 30
0.0
 10
1.633411423314657
 20
1.087799444999583
 30
0.0
 10
1.633431593090505
 20
1.088321371241841
 30
0.0
  0
LWPOLYLINE
  5
5B4
330
54B
100
AcDbEntity
  8
0
  6
Continuous
 62
     7
370
    25
100
AcDbPolyline
 90
       18
 70
   128
 43
0.0
 10
-5.1357151272
 20
-3.7201234494
 10
-5.1385058844
 20
-3.7882175255
 10
-5.1468543462
 20
-3.8525085073
 10
-5.1606892864
 20
-3.9124478868
 10
-5.1798926704
 20
-3.9675242824
 10
-5.2043006614
 20
-4.0172678016
 10
-5.2337050192
 20
-4.0612540504
 10
-5.2678548762
 20
-4.0991077535
 10
-5.3064588778
 20
-4.1305059564
 10
-5.3491876683
 20
-4.1551807809
 10
-5.3956767007
 20
-4.1729217099
 10
-5.4455293469
 20
-4.1835773842
 10
-5.4983202819
 20
-4.1870568932
 10
-5.5535991119
 20
-4.1833305511
 10
-5.6108942174
 20
-4.1724301497
 10
-5.6697167768
 20
-4.1544486873
 10
-5.7295649369
 20
-4.1295395755
 10
-5.7352458678
 20
-4.1268391016
  0
LWPOLYLINE
  5
5B5
330
54B
100
AcDbEntity
  8
0
  6
Continuous
 62
     7
370
    25
100
AcDbPolyline
 90
       35
 70
   128
 43
0.0
 10
-6.4418428593
 20
-2.9028445895
 10
-6.4413503037
 20
-2.8966911596
 10
-6.4330018419
 20
-2.8324001778
 10
-6.4191669017
 20
-2.7724607983
 10
-6.3999635178
 20
-2.7173844027
 10
-6.3755555267
 20
-2.6676408835
 10
-6.3461511689
 20
-2.6236546347
 10
-6.3120013119
 20
-2.5858009317
 10
-6.2733973103
 20
-2.5544027287
 10
-6.2306685198
 20
-2.5297279043
 10
-6.1841794874
 20
-2.5119869752
 10
-6.1343268412
 20
-2.5013313009
 10
-6.0815359062
 20
-2.4978517919
 10
-6.0262570762
 20
-2.501578134
 10
-5.9689619707
 20
-2.5124785354
 10
-5.9101394113
 20
-2.5304599978
 10
-5.8502912512
 20
-2.5553691097
 10
-5.7899280941
 20
-2.5869933552
 10
-5.7295649369
 20
-2.6250629275
 10
-5.6697167768
 20
-2.6692530304
 10
-5.6108942174
 20
-2.7191866495
 10
-5.5535991119
 20
-2.7744377689
 10
-5.4983202819
 20
-2.8345350053
 10
-5.4455293469
 20
-2.8989656305
 10
-5.3956767007
 20
-2.967179945
 10
-5.3491876683
 20
-3.0385959683
 10
-5.3064588778
 20
-3.1126044041
 10
-5.2678548762
 20
-3.1885738386
 10
-5.2337050192
 20
-3.2658561273
 10
-5.2043006614
 20
-3.3437919249
 10
-5.1798926704
 20
-3.4217163108
 10
-5.1606892864
 20
-3.4989644615
 10
-5.1468543462
 20
-3.574877323
 10
-5.1385058844
 20
-3.6488072336
 10
-5.1357151272
 20
-3.7201234494
  0
LWPOLYLINE
  5
5B6
330
54B
100
AcDbEntity
  8
0
  6
Continuous
 62
     7
370
    25
100
AcDbPolyline
 90
       24
 70
   128
 43
0.0
 10
-5.3116525138
 20
-3.6770507084
 10
-5.3144559517
 20
-3.6126294335
 10
-5.3228365485
 20
-3.5456542596
 10
-5.3367054675
 20
-3.4768351401
 10
-5.355915695
 20
-3.406901575
 10
-5.3802635976
 20
-3.3365948772
 10
-5.4094910815
 20
-3.2666603155
 10
-5.4432883282
 20
-3.1978392134
 10
-5.4812970785
 20
-3.1308610918
 10
-5.52311443
 20
-3.0664359355
 10
-5.5682971085
 20
-3.0052466671
 10
-5.6163661664
 20
-2.9479419081
 10
-5.6668120597
 20
-2.8951291032
 10
-5.7191000493
 20
-2.8473680813
 10
-5.7726758696
 20
-2.8051651211
 10
-5.8269716036
 20
-2.7689675844
 10
-5.8814117029
 20
-2.7391591742
 10
-5.9354190889
 20
-2.716055867
 10
-5.98842127
 20
-2.6999025636
 10
-6.0398564098
 20
-2.6908704931
 10
-6.0891792831
 20
-2.6890553976
 10
-6.1358670551
 20
-2.6944765177
 10
-6.1794248238
 20
-2.707076388
 10
-6.21457601
 20
-2.7238693915
  0
LWPOLYLINE
  5
5B7
330
54B
100
AcDbEntity
  8
0
  6
Continuous
 62
     7
370
    25
100
AcDbPolyline
 90
        9
 70
   128
 43
0.0
 10
-5.4666053044
 20
-4.0195330439
 10
-5.4432883282
 20
-4.004278727
 10
-5.4094910815
 20
-3.9744790954
 10
-5.3802635976
 20
-3.9382898683
 10
-5.355915695
 20
-3.8960946606
 10
-5.3367054675
 20
-3.8483407519
 10
-5.3228365485
 20
-3.7955343456
 10
-5.3144559517
 20
-3.7382352027
 10
-5.3116525138
 20
-3.6770507084
  0
LWPOLYLINE
  5
5B8
330
54B
100
AcDbEntity
  8
0
  6
Continuous
 62
     7
370
    25
100
AcDbPolyline
 90
       62
 70
   128
 43
0.0
 10
-5.4369273372
 20
-3.7493703246
 10
-5.4397307752
 20
-3.6849490497
 10
-5.4481113719
 20
-3.6179738758
 10
-5.461980291
 20
-3.5491547563
 10
-5.4811905184
 20
-3.4792211912
 10
-5.505538421
 20
-3.4089144935
 10
-5.534765905
 20
-3.3389799317
 10
-5.5685631517
 20
-3.2701588296
 10
-5.6065719019
 20
-3.203180708
 10
-5.6483892534
 20
-3.1387555517
 10
-5.693571932
 20
-3.0775662833
 10
-5.7416409899
 20
-3.0202615243
 10
-5.7920868831
 20
-2.9674487194
 10
-5.8443748728
 20
-2.9196876975
 10
-5.8979506931
 20
-2.8774847373
 10
-5.952246427
 20
-2.8412872006
 10
-6.0066865263
 20
-2.8114787904
 10
-6.0606939124
 20
-2.7883754832
 10
-6.1136960934
 20
-2.7722221798
 10
-6.1651312333
 20
-2.7631901093
 10
-6.2144541065
 20
-2.7613750138
 10
-6.2611418785
 20
-2.7667961339
 10
-6.3046996473
 20
-2.7793960042
 10
-6.3446656895
 20
-2.7990410631
 10
-6.3806163553
 20
-2.825523068
 10
-6.4121705587
 20
-2.8585613031
 10
-6.4389938172
 20
-2.8978055548
 10
-6.4608017977
 20
-2.9428398244
 10
-6.47736333
 20
-2.9931867374
 10
-6.4885028579
 20
-3.048312604
 10
-6.4941022996
 20
-3.1076330762
 10
-6.4941022996
 20
-3.1705193423
 10
-6.4885028579
 20
-3.2363047923
 10
-6.47736333
 20
-3.3042920841
 10
-6.4608017977
 20
-3.3737605353
 10
-6.4389938172
 20
-3.4439737631
 10
-6.4121705587
 20
-3.51418749
 10
-6.3806163553
 20
-3.5836574328
 10
-6.3446656895
 20
-3.6516471929
 10
-6.3046996473
 20
-3.717436062
 10
-6.2611418785
 20
-3.7803266616
 10
-6.2144541065
 20
-3.8396523358
 10
-6.1651312333
 20
-3.8947842177
 10
-6.1136960934
 20
-3.9451378956
 10
-6.0606939124
 20
-3.9901796079
 10
-6.0066865263
 20
-4.0294319014
 10
-5.952246427
 20
-4.0624786919
 10
-5.8979506931
 20
-4.0889696753
 10
-5.8443748728
 20
-4.1086240405
 10
-5.7920868831
 20
-4.1212334464
 10
-5.7416409899
 20
-4.1266642301
 10
-5.693571932
 20
-4.124858824
 10
-5.6483892534
 20
-4.1158363658
 10
-5.6065719019
 20
-4.0996924959
 10
-5.5685631517
 20
-4.0765983432
 10
-5.534765905
 20
-4.0467987116
 10
-5.505538421
 20
-4.0106094845
 10
-5.4811905184
 20
-3.9684142768
 10
-5.461980291
 20
-3.9206603681
 10
-5.4481113719
 20
-3.8678539618
 10
-5.4397307752
 20
-3.8105548189
 10
-5.4369273372
 20
-3.7493703246
  0
LWPOLYLINE
  5
5B9
330
54B
100
AcDbEntity
  8
0
  6
Continuous
 62
     7
370
    25
100
AcDbPolyline
 90
       60
 70
   128
 43
0.0
 10
-5.4786856117
 20
-3.7252637858
 10
-5.481445583
 20
-3.6638721829
 10
-5.4896942253
 20
-3.5999895763
 10
-5.5033380782
 20
-3.5343397815
 10
-5.5222225514
 20
-3.4676666369
 10
-5.5461336762
 20
-3.400725576
 10
-5.5748005301
 20
-3.3342750676
 10
-5.6078983061
 20
-3.2690680227
 10
-5.6450519933
 20
-3.2058432629
 10
-5.6858406255
 20
-3.1453171503
 10
-5.7298020511
 20
-3.0881754697
 10
-5.7764381698
 20
-3.0350656593
 10
-5.8252205756
 20
-2.9865894744
 10
-5.8755965443
 20
-2.9432961696
 10
-5.9269952962
 20
-2.9056762753
 10
-5.9788344628
 20
-2.87415604
 10
-6.0305266856
 20
-2.8490926005
 10
-6.0814862712
 20
-2.8307699357
 10
-6.131135827
 20
-2.8193956485
 10
-6.1789128037
 20
-2.8150986143
 10
-6.2242758691
 20
-2.8179275201
 10
-6.2667110416
 20
-2.8278503134
 10
-6.3057375137
 20
-2.8447545648
 10
-6.3409130998
 20
-2.8684487426
 10
-6.3718392465
 20
-2.8986643821
 10
-6.3981655483
 20
-2.9350591281
 10
-6.4195937175
 20
-2.9772206137
 10
-6.4358809645
 20
-3.0246711322
 10
-6.4468427483
 20
-3.0768730505
 10
-6.4523548674
 20
-3.1332348998
 10
-6.4523548674
 20
-3.1931180779
 10
-6.4468427483
 20
-3.2558440846
 10
-6.4358809645
 20
-3.320702209
 10
-6.4195937175
 20
-3.3869575827
 10
-6.3981655483
 20
-3.4538595058
 10
-6.3718392465
 20
-3.5206499528
 10
-6.3409130998
 20
-3.5865721613
 10
-6.3057375137
 20
-3.6508792063
 10
-6.2667110416
 20
-3.7128424633
 10
-6.2242758691
 20
-3.7717598638
 10
-6.1789128037
 20
-3.8269638502
 10
-6.131135827
 20
-3.8778289391
 10
-6.0814862712
 20
-3.9237788089
 10
-6.0305266856
 20
-3.9642928291
 10
-5.9788344628
 20
-3.9989119598
 10
-5.9269952962
 20
-4.0272439522
 10
-5.8755965443
 20
-4.0489677937
 10
-5.8252205756
 20
-4.0638373444
 10
-5.7764381698
 20
-4.0716841264
 10
-5.7298020511
 20
-4.0724192324
 10
-5.6858406255
 20
-4.0660343335
 10
-5.6450519933
 20
-4.0526017732
 10
-5.6078983061
 20
-4.0322737476
 10
-5.5748005301
 20
-4.0052805814
 10
-5.5461336762
 20
-3.971928118
 10
-5.5222225514
 20
-3.9325942542
 10
-5.5033380782
 20
-3.8877246583
 10
-5.4896942253
 20
-3.8378277207
 10
-5.481445583
 20
-3.7834687938
 10
-5.4786856117
 20
-3.7252637858
  0
LWPOLYLINE
  5
5BB
330
54B
100
AcDbEntity
  8
0
  6
Continuous
 62
     7
370
    25
100
AcDbPolyline
 90
       29
 70
   128
 43
0.0
 10
-6.2660277204
 20
-2.8276264168
 10
-6.2883226976
 20
-2.8504513046
 10
-6.3146489993
 20
-2.8868460507
 10
-6.3360771685
 20
-2.9290075362
 10
-6.3523644156
 20
-2.9764580548
 10
-6.3633261993
 20
-3.028659973
 10
-6.3688383185
 20
-3.0850218223
 10
-6.3688383185
 20
-3.1449050005
 10
-6.3633261993
 20
-3.2076310071
 10
-6.3523644156
 20
-3.2724891315
 10
-6.3360771685
 20
-3.3387445052
 10
-6.3146489993
 20
-3.4056464283
 10
-6.2883226976
 20
-3.4724368754
 10
-6.2573965508
 20
-3.5383590839
 10
-6.2222209647
 20
-3.6026661289
 10
-6.1831944927
 20
-3.6646293859
 10
-6.1407593202
 20
-3.7235467864
 10
-6.0953962547
 20
-3.7787507727
 10
-6.047619278
 20
-3.8296158617
 10
-5.9979697222
 20
-3.8755657315
 10
-5.9470101367
 20
-3.9160797517
 10
-5.8953179138
 20
-3.9506988823
 10
-5.8434787472
 20
-3.9790308748
 10
-5.7920799954
 20
-4.0007547162
 10
-5.7417040266
 20
-4.0156242669
 10
-5.6929216208
 20
-4.0234710489
 10
-5.6462855022
 20
-4.024206155
 10
-5.6023240765
 20
-4.0178212561
 10
-5.582186692
 20
-4.0122021736
  0
LWPOLYLINE
  5
5BC
330
54B
100
AcDbEntity
  8
0
  6
Continuous
 62
     7
370
    25
100
AcDbPolyline
 90
       45
 70
   128
 43
0.0
 10
-5.604153156
 20
-3.5564067593
 10
-5.6069847878
 20
-3.5090534208
 10
-5.6154220396
 20
-3.4593947272
 10
-5.6292931531
 20
-3.4084415862
 10
-5.6483157526
 20
-3.3572312569
 10
-5.6721025926
 20
-3.3068062338
 10
-5.7001694418
 20
-3.2581930251
 10
-5.7319449401
 20
-3.2123812555
 10
-5.7667822299
 20
-3.1703035204
 10
-5.8039721245
 20
-3.1328164014
 10
-5.8427575449
 20
-3.1006830279
 10
-5.8823489317
 20
-3.0745575428
 10
-5.9219403185
 20
-3.0549717856
 10
-5.9607257389
 20
-3.0423244659
 10
-5.9979156335
 20
-3.0368730467
 10
-6.0327529233
 20
-3.0387285031
 10
-6.0645284215
 20
-3.0478530633
 10
-6.0925952708
 20
-3.0640609777
 10
-6.1163821108
 20
-3.0870222998
 10
-6.1354047102
 20
-3.1162696033
 10
-6.1492758238
 20
-3.1512074975
 10
-6.1577130755
 20
-3.1911247477
 10
-6.1605447074
 20
-3.2352087536
 10
-6.1577130755
 20
-3.2825620921
 10
-6.1492758238
 20
-3.3322207857
 10
-6.1354047102
 20
-3.3831739267
 10
-6.1163821108
 20
-3.4343842561
 10
-6.0925952708
 20
-3.4848092791
 10
-6.0645284215
 20
-3.5334224878
 10
-6.0327529233
 20
-3.5792342575
 10
-5.9979156335
 20
-3.6213119925
 10
-5.9607257389
 20
-3.6587991116
 10
-5.9219403185
 20
-3.6909324851
 10
-5.8823489317
 20
-3.7170579702
 10
-5.8427575449
 20
-3.7366437273
 10
-5.8039721245
 20
-3.749291047
 10
-5.7667822299
 20
-3.7547424662
 10
-5.7319449401
 20
-3.7528870098
 10
-5.7001694418
 20
-3.7437624496
 10
-5.6721025926
 20
-3.7275545352
 10
-5.6483157526
 20
-3.7045932131
 10
-5.6292931531
 20
-3.6753459096
 10
-5.6154220396
 20
-3.6404080154
 10
-5.6069847878
 20
-3.6004907653
 10
-5.604153156
 20
-3.5564067593
  0
LWPOLYLINE
  5
5BE
330
54B
100
AcDbEntity
  8
0
  6
Continuous
 62
     7
370
    25
100
AcDbPolyline
 90
       24
 70
   128
 43
0.0
 10
-4.5321647235
 20
-3.2270619853
 10
-4.5349681615
 20
-3.1626407104
 10
-4.5433487582
 20
-3.0956655365
 10
-4.5572176773
 20
-3.0268464171
 10
-4.5764279047
 20
-2.9569128519
 10
-4.6007758073
 20
-2.8866061542
 10
-4.6300032912
 20
-2.8166715924
 10
-4.6638005379
 20
-2.7478504904
 10
-4.7018092882
 20
-2.6808723688
 10
-4.7436266397
 20
-2.6164472125
 10
-4.7888093182
 20
-2.5552579441
 10
-4.8368783761
 20
-2.4979531851
 10
-4.8873242694
 20
-2.4451403802
 10
-4.939612259
 20
-2.3973793583
 10
-4.9931880793
 20
-2.355176398
 10
-5.0474838133
 20
-2.3189788613
 10
-5.1019239126
 20
-2.2891704511
 10
-5.1559312986
 20
-2.2660671439
 10
-5.2089334797
 20
-2.2499138405
 10
-5.2603686195
 20
-2.24088177
 10
-5.3096914928
 20
-2.2390666746
 10
-5.3563792648
 20
-2.2444877946
 10
-5.3999370335
 20
-2.257087665
 10
-5.4350882197
 20
-2.2738806685
  0
LWPOLYLINE
  5
5BF
330
54B
100
AcDbEntity
  8
0
  6
Continuous
 62
     7
370
    25
100
AcDbPolyline
 90
        9
 70
   128
 43
0.0
 10
-4.6871175142
 20
-3.5695443209
 10
-4.6638005379
 20
-3.554290004
 10
-4.6300032912
 20
-3.5244903724
 10
-4.6007758073
 20
-3.4883011453
 10
-4.5764279047
 20
-3.4461059375
 10
-4.5572176773
 20
-3.3983520289
 10
-4.5433487582
 20
-3.3455456226
 10
-4.5349681615
 20
-3.2882464796
 10
-4.5321647235
 20
-3.2270619853
  0
LWPOLYLINE
  5
5C2
330
54B
100
AcDbEntity
  8
0
  6
Continuous
 62
     7
370
    25
100
AcDbPolyline
 90
       61
 70
   128
 43
0.0
 10
-4.6060635167
 20
-3.4957907531
 10
-4.5843209568
 20
-3.5066918788
 10
-4.5152683871
 20
-3.5381327188
 10
-4.4472026723
 20
-3.5642538648
 10
-4.3805541458
 20
-3.5848901707
 10
-4.315744181
 20
-3.5999111669
 10
-4.2531825275
 20
-3.609221886
 10
-4.19326472
 20
-3.6127634626
 10
-4.1363695784
 20
-3.6105135056
 10
-4.0828568119
 20
-3.6024862401
 10
-4.0330647456
 20
-3.588732417
 10
-3.9873081809
 20
-3.5693389924
 10
-3.9458764055
 20
-3.5444285777
 10
-3.9090313645
 20
-3.5141586647
 10
-3.8770060041
 20
-3.4787206295
 10
-3.8500027989
 20
-3.4383385227
 10
-3.8281924719
 20
-3.393267653
 10
-3.811712915
 20
-3.3437929729
 10
-3.8006683172
 20
-3.2902272774
 10
-3.7951285061
 20
-3.232909226
 10
-3.7951285061
 20
-3.1722012019
 10
-3.8006683172
 20
-3.1084870207
 10
-3.811712915
 20
-3.042169504
 10
-3.8281924719
 20
-2.9736679326
 10
-3.8500027989
 20
-2.9034153953
 10
-3.8770060041
 20
-2.8318560514
 10
-3.9090313645
 20
-2.7594423221
 10
-3.9458764055
 20
-2.6866320302
 10
-3.9873081809
 20
-2.613885506
 10
-4.0330647456
 20
-2.5416626762
 10
-4.0828568119
 20
-2.470420157
 10
-4.1363695784
 20
-2.4006083665
 10
-4.19326472
 20
-2.3326686772
 10
-4.2531825275
 20
-2.2670306259
 10
-4.315744181
 20
-2.2041091973
 10
-4.3805541458
 20
-2.1443022009
 10
-4.4472026723
 20
-2.087987756
 10
-4.5152683871
 20
-2.0355219005
 10
-4.5843209568
 20
-1.9872363405
 10
-4.6539238089
 20
-1.9434363528
 10
-4.7236368917
 20
-1.9043988551
 10
-4.7930194567
 20
-1.8703706549
 10
-4.8616328449
 20
-1.8415668896
 10
-4.9290432604
 20
-1.8181696657
 10
-4.9948245129
 20
-1.8003269081
 10
-5.0585607121
 20
-1.7881514245
 10
-5.1198488972
 20
-1.7817201921
 10
-5.1783015846
 20
-1.7810738713
 10
-5.2335492176
 20
-1.7862165484
 10
-5.2852425028
 20
-1.7971157096
 10
-5.3330546187
 20
-1.813702447
 10
-5.3766832817
 20
-1.8358718938
 10
-5.4158526573
 20
-1.8634838878
 10
-5.4503151041
 20
-1.8963638569
 10
-5.4798527394
 20
-1.9343039234
 10
-5.5042788169
 20
-1.9770642181
 10
-5.5234389069
 20
-2.0243743965
 10
-5.5372118732
 20
-2.0759353485
 10
-5.5455106387
 20
-2.1314210892
 10
-5.5482827358
 20
-2.1904808197
 10
-5.5482827358
 20
-2.1904808197
  0
LWPOLYLINE
  5
5C3
330
54B
100
AcDbEntity
  8
0
  6
Continuous
 62
     7
370
    25
100
AcDbPolyline
 90
       41
 70
   128
 43
0.0
 10
-3.8373156615
 20
-3.4833177451
 10
-3.8122499272
 20
-3.4672876538
 10
-3.7754048862
 20
-3.4370177408
 10
-3.7433795258
 20
-3.4015797055
 10
-3.7163763206
 20
-3.3611975987
 10
-3.6945659936
 20
-3.316126729
 10
-3.6780864366
 20
-3.266652049
 10
-3.6670418389
 20
-3.2130863535
 10
-3.6615020277
 20
-3.1557683021
 10
-3.6615020277
 20
-3.0950602779
 10
-3.6670418389
 20
-3.0313460968
 10
-3.6780864366
 20
-2.9650285801
 10
-3.6945659936
 20
-2.8965270086
 10
-3.7163763206
 20
-2.8262744714
 10
-3.7433795258
 20
-2.7547151275
 10
-3.7754048862
 20
-2.6823013981
 10
-3.8122499272
 20
-2.6094911063
 10
-3.8536817026
 20
-2.536744582
 10
-3.8994382673
 20
-2.4645217523
 10
-3.9492303336
 20
-2.3932792331
 10
-4.0027431
 20
-2.3234674425
 10
-4.0596382417
 20
-2.2555277533
 10
-4.1195560491
 20
-2.1898897019
 10
-4.1821177027
 20
-2.1269682733
 10
-4.2469276675
 20
-2.067161277
 10
-4.313576194
 20
-2.0108468321
 10
-4.3816419088
 20
-1.9583809766
 10
-4.4506944785
 20
-1.9100954166
 10
-4.5202973306
 20
-1.8662954289
 10
-4.5900104134
 20
-1.8272579311
 10
-4.6593929784
 20
-1.7932297309
 10
-4.7280063666
 20
-1.7644259656
 10
-4.7954167821
 20
-1.7410287417
 10
-4.8611980346
 20
-1.7231859842
 10
-4.9249342337
 20
-1.7110105005
 10
-4.9862224189
 20
-1.7045792682
 10
-5.0446751063
 20
-1.7039329474
 10
-5.0999227392
 20
-1.7090756244
 10
-5.1516160245
 20
-1.7199747856
 10
-5.1994281404
 20
-1.736561523
 10
-5.238209354
 20
-1.755871405
  0
SPLINE
  5
5C4
330
54B
100
AcDbEntity
  8
0
  6
Continuous
 62
     7
370
    25
100
AcDbSpline
210
0.0
220
0.0
230
1.0
 70
     8
 71
     3
 72
    19
 73
    15
 74
     0
 42
0.000000001
 43
0.00000001
 40
0.0
 40
0.0
 40
0.0
 40
0.0
 40
0.0859262945946455
 40
0.171852589189291
 40
0.2577788837839362
 40
0.3437051783785817
 40
0.4296314729732272
 40
0.5155577675678724
 40
0.6014840621625178
 40
0.6874103567571633
 40
0.7733366513518087
 40
0.8592629459464542
 40
0.9451892405410994
 40
1.0
 40
1.0
 40
1.0
 40
1.0
 10
-4.455607886964851
 20
-3.142689099742727
 30
0.0
 10
-4.457446932732674
 20
-3.104281141293632
 30
0.0
 10
-4.461125024268322
 20
-3.02746522439544
 30
0.0
 10
-4.490507858733747
 20
-2.902769584325265
 30
0.0
 10
-4.536175678203907
 20
-2.777118476942827
 30
0.0
 10
-4.598101961560057
 20
-2.654343101901669
 30
0.0
 10
-4.673444592477533
 20
-2.539427341867396
 30
0.0
 10
-4.759429024265928
 20
-2.436722071565853
 30
0.0
 10
-4.852729933963704
 20
-2.350169597028034
 30
0.0
 10
-4.949724949445933
 20
-2.283179754433663
 30
0.0
 10
-5.046855078087621
 20
-2.237996833284554
 30
0.0
 10
-5.139750648307015
 20
-2.217593885102155
 30
0.0
 10
-5.216663063174395
 20
-2.21807257472007
 30
0.0
 10
-5.256519203333629
 20
-2.23542992231721
 30
0.0
 10
-5.272041379251826
 20
-2.24218982936791
 30
0.0
  0
SPLINE
  5
5C5
330
54B
100
AcDbEntity
  8
0
  6
Continuous
 62
     7
370
    25
100
AcDbSpline
210
0.0
220
0.0
230
1.0
 70
     8
 71
     3
 72
    11
 73
     7
 74
     0
 42
0.000000001
 43
0.00000001
 40
0.0
 40
0.0
 40
0.0
 40
0.0
 40
0.1603655162561358
 40
0.4402436775040897
 40
0.7201218387520448
 40
1.0
 40
1.0
 40
1.0
 40
1.0
 10
-4.574096735020747
 20
-3.440848416109627
 30
0.0
 10
-4.561890138547296
 20
-3.431768885303195
 30
0.0
 10
-4.52837996100577
 20
-3.406843289542005
 30
0.0
 10
-4.490929282439061
 20
-3.341668170146258
 30
0.0
 10
-4.461019668341995
 20
-3.251704472773969
 30
0.0
 10
-4.457411814090565
 20
-3.179027557419808
 30
0.0
 10
-4.455607886964851
 20
-3.142689099742728
 30
0.0
  0
LWPOLYLINE
  5
5C6
330
54B
100
AcDbEntity
  8
0
  6
Continuous
 62
     7
370
    25
100
AcDbPolyline
 90
       43
 70
   128
 43
0.0
 10
-3.8212178552
 20
-3.4733900999
 10
-3.820275083
 20
-3.4729128374
 10
-3.7788433076
 20
-3.4480024228
 10
-3.7419982666
 20
-3.4177325098
 10
-3.7099729062
 20
-3.3822944745
 10
-3.682969701
 20
-3.3419123677
 10
-3.661159374
 20
-3.296841498
 10
-3.6446798171
 20
-3.247366818
 10
-3.6336352193
 20
-3.1938011225
 10
-3.6280954081
 20
-3.1364830711
 10
-3.6280954081
 20
-3.075775047
 10
-3.6336352193
 20
-3.0120608658
 10
-3.6446798171
 20
-2.9457433491
 10
-3.661159374
 20
-2.8772417776
 10
-3.682969701
 20
-2.8069892404
 10
-3.7099729062
 20
-2.7354298965
 10
-3.7419982666
 20
-2.6630161671
 10
-3.7788433076
 20
-2.5902058753
 10
-3.820275083
 20
-2.517459351
 10
-3.8660316477
 20
-2.4452365213
 10
-3.915823714
 20
-2.3739940021
 10
-3.9693364805
 20
-2.3041822116
 10
-4.0262316221
 20
-2.2362425223
 10
-4.0861494295
 20
-2.1706044709
 10
-4.1487110831
 20
-2.1076830423
 10
-4.2135210479
 20
-2.047876046
 10
-4.2801695744
 20
-1.9915616011
 10
-4.3482352892
 20
-1.9390957456
 10
-4.4172878589
 20
-1.8908101856
 10
-4.486890711
 20
-1.8470101979
 10
-4.5566037938
 20
-1.8079727001
 10
-4.6259863588
 20
-1.7739445
 10
-4.694599747
 20
-1.7451407346
 10
-4.7620101625
 20
-1.7217435108
 10
-4.827791415
 20
-1.7039007532
 10
-4.8915276142
 20
-1.6917252695
 10
-4.9528157993
 20
-1.6852940372
 10
-5.0112684867
 20
-1.6846477164
 10
-5.0665161197
 20
-1.6897903934
 10
-5.1182094049
 20
-1.7006895546
 10
-5.1660215208
 20
-1.717276292
 10
-5.2096501838
 20
-1.7394457389
 10
-5.2208405121
 20
-1.7464790875
  0
LWPOLYLINE
  5
5C7
330
54B
100
AcDbEntity
  8
0
  6
Continuous
 62
     7
370
    25
100
AcDbPolyline
 90
       41
 70
   128
 43
0.0
 10
-3.7537991126
 20
-3.4351046676
 10
-3.7287333782
 20
-3.4190745763
 10
-3.6918883372
 20
-3.3888046633
 10
-3.6598629768
 20
-3.353366628
 10
-3.6328597716
 20
-3.3129845212
 10
-3.6110494446
 20
-3.2679136515
 10
-3.5945698877
 20
-3.2184389715
 10
-3.5835252899
 20
-3.164873276
 10
-3.5779854788
 20
-3.1075552246
 10
-3.5779854788
 20
-3.0468472005
 10
-3.5835252899
 20
-2.9831330193
 10
-3.5945698877
 20
-2.9168155026
 10
-3.6110494446
 20
-2.8483139312
 10
-3.6328597716
 20
-2.7780613939
 10
-3.6598629768
 20
-2.70650205
 10
-3.6918883372
 20
-2.6340883207
 10
-3.7287333782
 20
-2.5612780288
 10
-3.7701651536
 20
-2.4885315045
 10
-3.8159217183
 20
-2.4163086748
 10
-3.8657137846
 20
-2.3450661556
 10
-3.9192265511
 20
-2.2752543651
 10
-3.9761216927
 20
-2.2073146758
 10
-4.0360395002
 20
-2.1416766244
 10
-4.0986011537
 20
-2.0787551958
 10
-4.1634111185
 20
-2.0189481995
 10
-4.230059645
 20
-1.9626337546
 10
-4.2981253598
 20
-1.9101678991
 10
-4.3671779295
 20
-1.8618823391
 10
-4.4367807816
 20
-1.8180823514
 10
-4.5064938644
 20
-1.7790448536
 10
-4.5758764294
 20
-1.7450166535
 10
-4.6444898176
 20
-1.7162128881
 10
-4.7119002331
 20
-1.6928156643
 10
-4.7776814856
 20
-1.6749729067
 10
-4.8414176848
 20
-1.6627974231
 10
-4.9027058699
 20
-1.6563661907
 10
-4.9611585573
 20
-1.6557198699
 10
-5.0164061903
 20
-1.6608625469
 10
-5.0680994755
 20
-1.6717617082
 10
-5.1159115914
 20
-1.6883484455
 10
-5.154692805
 20
-1.7076583275
  0
LWPOLYLINE
  5
5C8
330
54B
100
AcDbEntity
  8
0
  6
Continuous
 62
     7
370
    25
100
AcDbPolyline
 90
       43
 70
   128
 43
0.0
 10
-3.7377013062
 20
-3.4251770224
 10
-3.736758534
 20
-3.42469976
 10
-3.6953267587
 20
-3.3997893453
 10
-3.6584817177
 20
-3.3695194323
 10
-3.6264563572
 20
-3.3340813971
 10
-3.599453152
 20
-3.2936992902
 10
-3.577642825
 20
-3.2486284205
 10
-3.5611632681
 20
-3.1991537405
 10
-3.5501186703
 20
-3.145588045
 10
-3.5445788592
 20
-3.0882699936
 10
-3.5445788592
 20
-3.0275619695
 10
-3.5501186703
 20
-2.9638477883
 10
-3.5611632681
 20
-2.8975302716
 10
-3.577642825
 20
-2.8290287002
 10
-3.599453152
 20
-2.7587761629
 10
-3.6264563572
 20
-2.687216819
 10
-3.6584817177
 20
-2.6148030897
 10
-3.6953267587
 20
-2.5419927978
 10
-3.736758534
 20
-2.4692462735
 10
-3.7825150987
 20
-2.3970234438
 10
-3.832307165
 20
-2.3257809246
 10
-3.8858199315
 20
-2.2559691341
 10
-3.9427150731
 20
-2.1880294448
 10
-4.0026328806
 20
-2.1223913935
 10
-4.0651945341
 20
-2.0594699648
 10
-4.1300044989
 20
-1.9996629685
 10
-4.1966530254
 20
-1.9433485236
 10
-4.2647187402
 20
-1.8908826681
 10
-4.33377131
 20
-1.8425971081
 10
-4.4033741621
 20
-1.7987971204
 10
-4.4730872449
 20
-1.7597596227
 10
-4.5424698098
 20
-1.7257314225
 10
-4.611083198
 20
-1.6969276571
 10
-4.6784936135
 20
-1.6735304333
 10
-4.744274866
 20
-1.6556876757
 10
-4.8080110652
 20
-1.6435121921
 10
-4.8692992503
 20
-1.6370809597
 10
-4.9277519377
 20
-1.6364346389
 10
-4.9829995707
 20
-1.6415773159
 10
-5.0346928559
 20
-1.6524764772
 10
-5.0825049718
 20
-1.6690632146
 10
-5.1261336348
 20
-1.6912326614
 10
-5.1373239632
 20
-1.69826601
  0
LWPOLYLINE
  5
5C9
330
54B
100
AcDbEntity
  8
0
  6
Continuous
 62
     7
370
    25
100
AcDbPolyline
 90
       41
 70
   128
 43
0.0
 10
-3.6702825636
 20
-3.3868915902
 10
-3.6452168293
 20
-3.3708614988
 10
-3.6083717883
 20
-3.3405915858
 10
-3.5763464279
 20
-3.3051535506
 10
-3.5493432227
 20
-3.2647714438
 10
-3.5275328956
 20
-3.2197005741
 10
-3.5110533387
 20
-3.170225894
 10
-3.5000087409
 20
-3.1166601985
 10
-3.4944689298
 20
-3.0593421471
 10
-3.4944689298
 20
-2.998634123
 10
-3.5000087409
 20
-2.9349199418
 10
-3.5110533387
 20
-2.8686024251
 10
-3.5275328956
 20
-2.8001008537
 10
-3.5493432227
 20
-2.7298483164
 10
-3.5763464279
 20
-2.6582889725
 10
-3.6083717883
 20
-2.5858752432
 10
-3.6452168293
 20
-2.5130649513
 10
-3.6866486046
 20
-2.4403184271
 10
-3.7324051693
 20
-2.3680955973
 10
-3.7821972357
 20
-2.2968530781
 10
-3.8357100021
 20
-2.2270412876
 10
-3.8926051438
 20
-2.1591015984
 10
-3.9525229512
 20
-2.093463547
 10
-4.0150846048
 20
-2.0305421184
 10
-4.0798945695
 20
-1.9707351221
 10
-4.146543096
 20
-1.9144206771
 10
-4.2146088108
 20
-1.8619548216
 10
-4.2836613806
 20
-1.8136692616
 10
-4.3532642327
 20
-1.7698692739
 10
-4.4229773155
 20
-1.7308317762
 10
-4.4923598804
 20
-1.696803576
 10
-4.5609732687
 20
-1.6679998107
 10
-4.6283836842
 20
-1.6446025868
 10
-4.6941649366
 20
-1.6267598292
 10
-4.7579011358
 20
-1.6145843456
 10
-4.8191893209
 20
-1.6081531132
 10
-4.8776420083
 20
-1.6075067924
 10
-4.9328896413
 20
-1.6126494695
 10
-4.9845829266
 20
-1.6235486307
 10
-5.0323950425
 20
-1.6401353681
 10
-5.0711762561
 20
-1.6594452501
  0
LWPOLYLINE
  5
5CA
330
54B
100
AcDbEntity
  8
0
  6
Continuous
 62
     7
370
    25
100
AcDbPolyline
 90
       43
 70
   128
 43
0.0
 10
-3.6541847573
 20
-3.376963945
 10
-3.6532419851
 20
-3.3764866825
 10
-3.6118102097
 20
-3.3515762678
 10
-3.5749651687
 20
-3.3213063548
 10
-3.5429398083
 20
-3.2858683196
 10
-3.5159366031
 20
-3.2454862128
 10
-3.4941262761
 20
-3.2004153431
 10
-3.4776467191
 20
-3.1509406631
 10
-3.4666021214
 20
-3.0973749675
 10
-3.4610623102
 20
-3.0400569161
 10
-3.4610623102
 20
-2.979348892
 10
-3.4666021214
 20
-2.9156347108
 10
-3.4776467191
 20
-2.8493171942
 10
-3.4941262761
 20
-2.7808156227
 10
-3.5159366031
 20
-2.7105630854
 10
-3.5429398083
 20
-2.6390037415
 10
-3.5749651687
 20
-2.5665900122
 10
-3.6118102097
 20
-2.4937797203
 10
-3.6532419851
 20
-2.4210331961
 10
-3.6989985498
 20
-2.3488103664
 10
-3.7487906161
 20
-2.2775678472
 10
-3.8023033825
 20
-2.2077560566
 10
-3.8591985242
 20
-2.1398163674
 10
-3.9191163316
 20
-2.074178316
 10
-3.9816779852
 20
-2.0112568874
 10
-4.04648795
 20
-1.9514498911
 10
-4.1131364765
 20
-1.8951354461
 10
-4.1812021913
 20
-1.8426695907
 10
-4.250254761
 20
-1.7943840306
 10
-4.3198576131
 20
-1.7505840429
 10
-4.3895706959
 20
-1.7115465452
 10
-4.4589532609
 20
-1.677518345
 10
-4.5275666491
 20
-1.6487145797
 10
-4.5949770646
 20
-1.6253173558
 10
-4.6607583171
 20
-1.6074745982
 10
-4.7244945162
 20
-1.5952991146
 10
-4.7857827014
 20
-1.5888678822
 10
-4.8442353888
 20
-1.5882215614
 10
-4.8994830217
 20
-1.5933642385
 10
-4.951176307
 20
-1.6042633997
 10
-4.9989884229
 20
-1.6208501371
 10
-5.0426170859
 20
-1.6430195839
 10
-5.0538074142
 20
-1.6500529325
  0
LWPOLYLINE
  5
5CB
330
54B
100
AcDbEntity
  8
0
  6
Continuous
 62
     7
370
    25
100
AcDbPolyline
 90
       41
 70
   128
 43
0.0
 10
-3.5867660147
 20
-3.3386785127
 10
-3.5617002803
 20
-3.3226484214
 10
-3.5248552393
 20
-3.2923785083
 10
-3.4928298789
 20
-3.2569404731
 10
-3.4658266737
 20
-3.2165583663
 10
-3.4440163467
 20
-3.1714874966
 10
-3.4275367898
 20
-3.1220128166
 10
-3.416492192
 20
-3.0684471211
 10
-3.4109523809
 20
-3.0111290697
 10
-3.4109523809
 20
-2.9504210455
 10
-3.416492192
 20
-2.8867068643
 10
-3.4275367898
 20
-2.8203893477
 10
-3.4440163467
 20
-2.7518877762
 10
-3.4658266737
 20
-2.681635239
 10
-3.4928298789
 20
-2.610075895
 10
-3.5248552393
 20
-2.5376621657
 10
-3.5617002803
 20
-2.4648518739
 10
-3.6031320557
 20
-2.3921053496
 10
-3.6488886204
 20
-2.3198825199
 10
-3.6986806867
 20
-2.2486400007
 10
-3.7521934532
 20
-2.1788282101
 10
-3.8090885948
 20
-2.1108885209
 10
-3.8690064022
 20
-2.0452504695
 10
-3.9315680558
 20
-1.9823290409
 10
-3.9963780206
 20
-1.9225220446
 10
-4.0630265471
 20
-1.8662075997
 10
-4.1310922619
 20
-1.8137417442
 10
-4.2001448316
 20
-1.7654561841
 10
-4.2697476837
 20
-1.7216561965
 10
-4.3394607665
 20
-1.6826186987
 10
-4.4088433315
 20
-1.6485904985
 10
-4.4774567197
 20
-1.6197867332
 10
-4.5448671352
 20
-1.5963895093
 10
-4.6106483877
 20
-1.5785467518
 10
-4.6743845869
 20
-1.5663712681
 10
-4.735672772
 20
-1.5599400357
 10
-4.7941254594
 20
-1.559293715
 10
-4.8493730924
 20
-1.564436392
 10
-4.9010663776
 20
-1.5753355532
 10
-4.9488784935
 20
-1.5919222906
 10
-4.9876597071
 20
-1.6112321726
  0
LWPOLYLINE
  5
5CC
330
54B
100
AcDbEntity
  8
0
  6
Continuous
 62
     7
370
    25
100
AcDbPolyline
 90
       43
 70
   128
 43
0.0
 10
-3.5706682083
 20
-3.3287508675
 10
-3.5697254361
 20
-3.328273605
 10
-3.5282936607
 20
-3.3033631904
 10
-3.4914486197
 20
-3.2730932774
 10
-3.4594232593
 20
-3.2376552421
 10
-3.4324200541
 20
-3.1972731353
 10
-3.4106097271
 20
-3.1522022656
 10
-3.3941301702
 20
-3.1027275856
 10
-3.3830855724
 20
-3.0491618901
 10
-3.3775457613
 20
-2.9918438387
 10
-3.3775457613
 20
-2.9311358145
 10
-3.3830855724
 20
-2.8674216334
 10
-3.3941301702
 20
-2.8011041167
 10
-3.4106097271
 20
-2.7326025452
 10
-3.4324200541
 20
-2.662350008
 10
-3.4594232593
 20
-2.5907906641
 10
-3.4914486197
 20
-2.5183769347
 10
-3.5282936607
 20
-2.4455666429
 10
-3.5697254361
 20
-2.3728201186
 10
-3.6154820008
 20
-2.3005972889
 10
-3.6652740671
 20
-2.2293547697
 10
-3.7187868336
 20
-2.1595429792
 10
-3.7756819752
 20
-2.0916032899
 10
-3.8355997827
 20
-2.0259652385
 10
-3.8981614362
 20
-1.9630438099
 10
-3.962971401
 20
-1.9032368136
 10
-4.0296199275
 20
-1.8469223687
 10
-4.0976856423
 20
-1.7944565132
 10
-4.166738212
 20
-1.7461709532
 10
-4.2363410641
 20
-1.7023709655
 10
-4.3060541469
 20
-1.6633334677
 10
-4.3754367119
 20
-1.6293052676
 10
-4.4440501001
 20
-1.6005015022
 10
-4.5114605156
 20
-1.5771042783
 10
-4.5772417681
 20
-1.5592615208
 10
-4.6409779673
 20
-1.5470860371
 10
-4.7022661524
 20
-1.5406548048
 10
-4.7607188398
 20
-1.540008484
 10
-4.8159664728
 20
-1.545151161
 10
-4.867659758
 20
-1.5560503222
 10
-4.9154718739
 20
-1.5726370596
 10
-4.9591005369
 20
-1.5948065065
 10
-4.9702908652
 20
-1.6018398551
  0
LWPOLYLINE
  5
5CD
330
54B
100
AcDbEntity
  8
0
  6
Continuous
 62
     7
370
    25
100
AcDbPolyline
 90
       41
 70
   128
 43
0.0
 10
-3.5032494657
 20
-3.2904654352
 10
-3.4781837314
 20
-3.2744353439
 10
-3.4413386904
 20
-3.2441654309
 10
-3.4093133299
 20
-3.2087273956
 10
-3.3823101247
 20
-3.1683452888
 10
-3.3604997977
 20
-3.1232744191
 10
-3.3440202408
 20
-3.0737997391
 10
-3.332975643
 20
-3.0202340436
 10
-3.3274358319
 20
-2.9629159922
 10
-3.3274358319
 20
-2.9022079681
 10
-3.332975643
 20
-2.8384937869
 10
-3.3440202408
 20
-2.7721762702
 10
-3.3604997977
 20
-2.7036746987
 10
-3.3823101247
 20
-2.6334221615
 10
-3.4093133299
 20
-2.5618628176
 10
-3.4413386904
 20
-2.4894490882
 10
-3.4781837314
 20
-2.4166387964
 10
-3.5196155067
 20
-2.3438922721
 10
-3.5653720714
 20
-2.2716694424
 10
-3.6151641377
 20
-2.2004269232
 10
-3.6686769042
 20
-2.1306151327
 10
-3.7255720458
 20
-2.0626754434
 10
-3.7854898533
 20
-1.997037392
 10
-3.8480515069
 20
-1.9341159634
 10
-3.9128614716
 20
-1.8743089671
 10
-3.9795099981
 20
-1.8179945222
 10
-4.0475757129
 20
-1.7655286667
 10
-4.1166282827
 20
-1.7172431067
 10
-4.1862311348
 20
-1.673443119
 10
-4.2559442176
 20
-1.6344056212
 10
-4.3253267825
 20
-1.6003774211
 10
-4.3939401707
 20
-1.5715736557
 10
-4.4613505863
 20
-1.5481764319
 10
-4.5271318387
 20
-1.5303336743
 10
-4.5908680379
 20
-1.5181581907
 10
-4.652156223
 20
-1.5117269583
 10
-4.7106089104
 20
-1.5110806375
 10
-4.7658565434
 20
-1.5162233145
 10
-4.8175498286
 20
-1.5271224757
 10
-4.8653619445
 20
-1.5437092131
 10
-4.9041431581
 20
-1.5630190951
  0
LWPOLYLINE
  5
5CE
330
54B
100
AcDbEntity
  8
0
  6
Continuous
 62
     7
370
    25
100
AcDbPolyline
 90
       43
 70
   128
 43
0.0
 10
-3.4871516593
 20
-3.28053779
 10
-3.4862088871
 20
-3.2800605276
 10
-3.4447771118
 20
-3.2551501129
 10
-3.4079320708
 20
-3.2248801999
 10
-3.3759067104
 20
-3.1894421646
 10
-3.3489035052
 20
-3.1490600578
 10
-3.3270931781
 20
-3.1039891881
 10
-3.3106136212
 20
-3.0545145081
 10
-3.2995690234
 20
-3.0009488126
 10
-3.2940292123
 20
-2.9436307612
 10
-3.2940292123
 20
-2.8829227371
 10
-3.2995690234
 20
-2.8192085559
 10
-3.3106136212
 20
-2.7528910392
 10
-3.3270931781
 20
-2.6843894678
 10
-3.3489035052
 20
-2.6141369305
 10
-3.3759067104
 20
-2.5425775866
 10
-3.4079320708
 20
-2.4701638573
 10
-3.4447771118
 20
-2.3973535654
 10
-3.4862088871
 20
-2.3246070411
 10
-3.5319654518
 20
-2.2523842114
 10
-3.5817575182
 20
-2.1811416922
 10
-3.6352702846
 20
-2.1113299017
 10
-3.6921654263
 20
-2.0433902124
 10
-3.7520832337
 20
-1.9777521611
 10
-3.8146448873
 20
-1.9148307324
 10
-3.879454852
 20
-1.8550237361
 10
-3.9461033785
 20
-1.7987092912
 10
-4.0141690933
 20
-1.7462434357
 10
-4.0832216631
 20
-1.6979578757
 10
-4.1528245152
 20
-1.654157888
 10
-4.222537598
 20
-1.6151203902
 10
-4.2919201629
 20
-1.5810921901
 10
-4.3605335511
 20
-1.5522884247
 10
-4.4279439667
 20
-1.5288912009
 10
-4.4937252191
 20
-1.5110484433
 10
-4.5574614183
 20
-1.4988729597
 10
-4.6187496034
 20
-1.4924417273
 10
-4.6772022908
 20
-1.4917954065
 10
-4.7324499238
 20
-1.4969380835
 10
-4.7841432091
 20
-1.5078372448
 10
-4.831955325
 20
-1.5244239821
 10
-4.8755839879
 20
-1.546593429
 10
-4.8867743163
 20
-1.5536267776
  0
LWPOLYLINE
  5
5CF
330
54B
100
AcDbEntity
  8
0
  6
Continuous
 62
     7
370
    25
100
AcDbPolyline
 90
       41
 70
   128
 43
0.0
 10
-3.4197329168
 20
-3.2422523578
 10
-3.3946671824
 20
-3.2262222664
 10
-3.3578221414
 20
-3.1959523534
 10
-3.325796781
 20
-3.1605143182
 10
-3.2987935758
 20
-3.1201322114
 10
-3.2769832488
 20
-3.0750613417
 10
-3.2605036918
 20
-3.0255866616
 10
-3.2494590941
 20
-2.9720209661
 10
-3.2439192829
 20
-2.9147029147
 10
-3.2439192829
 20
-2.8539948906
 10
-3.2494590941
 20
-2.7902807094
 10
-3.2605036918
 20
-2.7239631927
 10
-3.2769832488
 20
-2.6554616213
 10
-3.2987935758
 20
-2.585209084
 10
-3.325796781
 20
-2.5136497401
 10
-3.3578221414
 20
-2.4412360108
 10
-3.3946671824
 20
-2.3684257189
 10
-3.4360989578
 20
-2.2956791947
 10
-3.4818555225
 20
-2.2234563649
 10
-3.5316475888
 20
-2.1522138457
 10
-3.5851603552
 20
-2.0824020552
 10
-3.6420554969
 20
-2.0144623659
 10
-3.7019733043
 20
-1.9488243146
 10
-3.7645349579
 20
-1.885902886
 10
-3.8293449227
 20
-1.8260958896
 10
-3.8959934492
 20
-1.7697814447
 10
-3.964059164
 20
-1.7173155892
 10
-4.0331117337
 20
-1.6690300292
 10
-4.1027145858
 20
-1.6252300415
 10
-4.1724276686
 20
-1.5861925438
 10
-4.2418102336
 20
-1.5521643436
 10
-4.3104236218
 20
-1.5233605782
 10
-4.3778340373
 20
-1.4999633544
 10
-4.4436152898
 20
-1.4821205968
 10
-4.5073514889
 20
-1.4699451132
 10
-4.5686396741
 20
-1.4635138808
 10
-4.6270923615
 20
-1.46286756
 10
-4.6823399944
 20
-1.4680102371
 10
-4.7340332797
 20
-1.4789093983
 10
-4.7818453956
 20
-1.4954961357
 10
-4.8206266092
 20
-1.5148060177
  0
LWPOLYLINE
  5
5D0
330
54B
100
AcDbEntity
  8
0
  6
Continuous
 62
     7
370
    25
100
AcDbPolyline
 90
       43
 70
   128
 43
0.0
 10
-3.4036351104
 20
-3.2323247126
 10
-3.4026923382
 20
-3.2318474501
 10
-3.3612605628
 20
-3.2069370354
 10
-3.3244155218
 20
-3.1766671224
 10
-3.2923901614
 20
-3.1412290872
 10
-3.2653869562
 20
-3.1008469804
 10
-3.2435766292
 20
-3.0557761107
 10
-3.2270970723
 20
-3.0063014306
 10
-3.2160524745
 20
-2.9527357351
 10
-3.2105126634
 20
-2.8954176837
 10
-3.2105126634
 20
-2.8347096596
 10
-3.2160524745
 20
-2.7709954784
 10
-3.2270970723
 20
-2.7046779617
 10
-3.2435766292
 20
-2.6361763903
 10
-3.2653869562
 20
-2.565923853
 10
-3.2923901614
 20
-2.4943645091
 10
-3.3244155218
 20
-2.4219507798
 10
-3.3612605628
 20
-2.3491404879
 10
-3.4026923382
 20
-2.2763939637
 10
-3.4484489029
 20
-2.2041711339
 10
-3.4982409692
 20
-2.1329286147
 10
-3.5517537357
 20
-2.0631168242
 10
-3.6086488773
 20
-1.995177135
 10
-3.6685666847
 20
-1.9295390836
 10
-3.7311283383
 20
-1.866617655
 10
-3.7959383031
 20
-1.8068106587
 10
-3.8625868296
 20
-1.7504962137
 10
-3.9306525444
 20
-1.6980303582
 10
-3.9997051141
 20
-1.6497447982
 10
-4.0693079662
 20
-1.6059448105
 10
-4.139021049
 20
-1.5669073128
 10
-4.208403614
 20
-1.5328791126
 10
-4.2770170022
 20
-1.5040753473
 10
-4.3444274177
 20
-1.4806781234
 10
-4.4102086702
 20
-1.4628353658
 10
-4.4739448694
 20
-1.4506598822
 10
-4.5352330545
 20
-1.4442286498
 10
-4.5936857419
 20
-1.443582329
 10
-4.6489333749
 20
-1.4487250061
 10
-4.7006266601
 20
-1.4596241673
 10
-4.748438776
 20
-1.4762109047
 10
-4.792067439
 20
-1.4983803515
 10
-4.8032577673
 20
-1.5054137001
  0
LWPOLYLINE
  5
5D1
330
54B
100
AcDbEntity
  8
0
  6
Continuous
 62
     7
370
    25
100
AcDbPolyline
 90
       41
 70
   128
 43
0.0
 10
-3.3362163678
 20
-3.1940392803
 10
-3.3111506334
 20
-3.178009189
 10
-3.2743055924
 20
-3.1477392759
 10
-3.242280232
 20
-3.1123012407
 10
-3.2152770268
 20
-3.0719191339
 10
-3.1934666998
 20
-3.0268482642
 10
-3.1769871429
 20
-2.9773735842
 10
-3.1659425451
 20
-2.9238078887
 10
-3.160402734
 20
-2.8664898373
 10
-3.160402734
 20
-2.8057818131
 10
-3.1659425451
 20
-2.7420676319
 10
-3.1769871429
 20
-2.6757501153
 10
-3.1934666998
 20
-2.6072485438
 10
-3.2152770268
 20
-2.5369960065
 10
-3.242280232
 20
-2.4654366626
 10
-3.2743055924
 20
-2.3930229333
 10
-3.3111506334
 20
-2.3202126415
 10
-3.3525824088
 20
-2.2474661172
 10
-3.3983389735
 20
-2.1752432875
 10
-3.4481310398
 20
-2.1040007683
 10
-3.5016438063
 20
-2.0341889777
 10
-3.5585389479
 20
-1.9662492885
 10
-3.6184567554
 20
-1.9006112371
 10
-3.6810184089
 20
-1.8376898085
 10
-3.7458283737
 20
-1.7778828122
 10
-3.8124769002
 20
-1.7215683672
 10
-3.880542615
 20
-1.6691025118
 10
-3.9495951848
 20
-1.6208169517
 10
-4.0191980368
 20
-1.577016964
 10
-4.0889111196
 20
-1.5379794663
 10
-4.1582936846
 20
-1.5039512661
 10
-4.2269070728
 20
-1.4751475008
 10
-4.2943174883
 20
-1.4517502769
 10
-4.3600987408
 20
-1.4339075194
 10
-4.42383494
 20
-1.4217320357
 10
-4.4851231251
 20
-1.4153008033
 10
-4.5435758125
 20
-1.4146544825
 10
-4.5988234455
 20
-1.4197971596
 10
-4.6505167307
 20
-1.4306963208
 10
-4.6983288466
 20
-1.4472830582
 10
-4.7371100602
 20
-1.4665929402
  0
LWPOLYLINE
  5
5D2
330
54B
100
AcDbEntity
  8
0
  6
Continuous
 62
     7
370
    25
100
AcDbPolyline
 90
       43
 70
   128
 43
0.0
 10
-3.3201185614
 20
-3.1841116351
 10
-3.3191757892
 20
-3.1836343726
 10
-3.2777440139
 20
-3.158723958
 10
-3.2408989729
 20
-3.128454045
 10
-3.2088736124
 20
-3.0930160097
 10
-3.1818704072
 20
-3.0526339029
 10
-3.1600600802
 20
-3.0075630332
 10
-3.1435805233
 20
-2.9580883532
 10
-3.1325359255
 20
-2.9045226577
 10
-3.1269961144
 20
-2.8472046063
 10
-3.1269961144
 20
-2.7864965821
 10
-3.1325359255
 20
-2.7227824009
 10
-3.1435805233
 20
-2.6564648843
 10
-3.1600600802
 20
-2.5879633128
 10
-3.1818704072
 20
-2.5177107756
 10
-3.2088736124
 20
-2.4461514316
 10
-3.2408989729
 20
-2.3737377023
 10
-3.2777440139
 20
-2.3009274105
 10
-3.3191757892
 20
-2.2281808862
 10
-3.3649323539
 20
-2.1559580565
 10
-3.4147244202
 20
-2.0847155373
 10
-3.4682371867
 20
-2.0149037467
 10
-3.5251323283
 20
-1.9469640575
 10
-3.5850501358
 20
-1.8813260061
 10
-3.6476117894
 20
-1.8184045775
 10
-3.7124217541
 20
-1.7585975812
 10
-3.7790702806
 20
-1.7022831363
 10
-3.8471359954
 20
-1.6498172808
 10
-3.9161885652
 20
-1.6015317208
 10
-3.9857914173
 20
-1.5577317331
 10
-4.0555045001
 20
-1.5186942353
 10
-4.124887065
 20
-1.4846660351
 10
-4.1935004532
 20
-1.4558622698
 10
-4.2609108687
 20
-1.4324650459
 10
-4.3266921212
 20
-1.4146222884
 10
-4.3904283204
 20
-1.4024468047
 10
-4.4517165055
 20
-1.3960155723
 10
-4.5101691929
 20
-1.3953692516
 10
-4.5654168259
 20
-1.4005119286
 10
-4.6171101111
 20
-1.4114110898
 10
-4.664922227
 20
-1.4279978272
 10
-4.70855089
 20
-1.4501672741
 10
-4.7197412184
 20
-1.4572006227
  0
LWPOLYLINE
  5
5D3
330
54B
100
AcDbEntity
  8
0
  6
Continuous
 62
     7
370
    25
100
AcDbPolyline
 90
       41
 70
   128
 43
0.0
 10
-3.2526998188
 20
-3.1458262028
 10
-3.2276340845
 20
-3.1297961115
 10
-3.1907890435
 20
-3.0995261985
 10
-3.1587636831
 20
-3.0640881632
 10
-3.1317604779
 20
-3.0237060564
 10
-3.1099501509
 20
-2.9786351867
 10
-3.0934705939
 20
-2.9291605067
 10
-3.0824259961
 20
-2.8755948112
 10
-3.076886185
 20
-2.8182767598
 10
-3.076886185
 20
-2.7575687356
 10
-3.0824259961
 20
-2.6938545545
 10
-3.0934705939
 20
-2.6275370378
 10
-3.1099501509
 20
-2.5590354663
 10
-3.1317604779
 20
-2.4887829291
 10
-3.1587636831
 20
-2.4172235852
 10
-3.1907890435
 20
-2.3448098558
 10
-3.2276340845
 20
-2.271999564
 10
-3.2690658598
 20
-2.1992530397
 10
-3.3148224246
 20
-2.12703021
 10
-3.3646144909
 20
-2.0557876908
 10
-3.4181272573
 20
-1.9859759003
 10
-3.475022399
 20
-1.918036211
 10
-3.5349402064
 20
-1.8523981596
 10
-3.59750186
 20
-1.789476731
 10
-3.6623118247
 20
-1.7296697347
 10
-3.7289603512
 20
-1.6733552898
 10
-3.7970260661
 20
-1.6208894343
 10
-3.8660786358
 20
-1.5726038743
 10
-3.9356814879
 20
-1.5288038866
 10
-4.0053945707
 20
-1.4897663888
 10
-4.0747771357
 20
-1.4557381887
 10
-4.1433905239
 20
-1.4269344233
 10
-4.2108009394
 20
-1.4035371995
 10
-4.2765821919
 20
-1.3856944419
 10
-4.340318391
 20
-1.3735189582
 10
-4.4016065761
 20
-1.3670877259
 10
-4.4600592635
 20
-1.3664414051
 10
-4.5153068965
 20
-1.3715840821
 10
-4.5670001818
 20
-1.3824832433
 10
-4.6148122977
 20
-1.3990699807
 10
-4.6535935113
 20
-1.4183798627
  0
LWPOLYLINE
  5
5D4
330
54B
100
AcDbEntity
  8
0
  6
Continuous
 62
     7
370
    25
100
AcDbPolyline
 90
       43
 70
   128
 43
0.0
 10
-3.2366020125
 20
-3.1358985576
 10
-3.2356592403
 20
-3.1354212951
 10
-3.1942274649
 20
-3.1105108805
 10
-3.1573824239
 20
-3.0802409675
 10
-3.1253570635
 20
-3.0448029322
 10
-3.0983538583
 20
-3.0044208254
 10
-3.0765435313
 20
-2.9593499557
 10
-3.0600639743
 20
-2.9098752757
 10
-3.0490193766
 20
-2.8563095802
 10
-3.0434795654
 20
-2.7989915288
 10
-3.0434795654
 20
-2.7382835047
 10
-3.0490193766
 20
-2.6745693235
 10
-3.0600639743
 20
-2.6082518068
 10
-3.0765435313
 20
-2.5397502353
 10
-3.0983538583
 20
-2.4694976981
 10
-3.1253570635
 20
-2.3979383542
 10
-3.1573824239
 20
-2.3255246248
 10
-3.1942274649
 20
-2.252714333
 10
-3.2356592403
 20
-2.1799678087
 10
-3.281415805
 20
-2.107744979
 10
-3.3312078713
 20
-2.0365024598
 10
-3.3847206377
 20
-1.9666906693
 10
-3.4416157794
 20
-1.89875098
 10
-3.5015335868
 20
-1.8331129286
 10
-3.5640952404
 20
-1.7701915
 10
-3.6289052052
 20
-1.7103845037
 10
-3.6955537317
 20
-1.6540700588
 10
-3.7636194465
 20
-1.6016042033
 10
-3.8326720162
 20
-1.5533186433
 10
-3.9022748683
 20
-1.5095186556
 10
-3.9719879511
 20
-1.4704811578
 10
-4.0413705161
 20
-1.4364529577
 10
-4.1099839043
 20
-1.4076491923
 10
-4.1773943198
 20
-1.3842519685
 10
-4.2431755723
 20
-1.3664092109
 10
-4.3069117714
 20
-1.3542337273
 10
-4.3681999566
 20
-1.3478024949
 10
-4.426652644
 20
-1.3471561741
 10
-4.4819002769
 20
-1.3522988511
 10
-4.5335935622
 20
-1.3631980123
 10
-4.5814056781
 20
-1.3797847497
 10
-4.6250343411
 20
-1.4019541966
 10
-4.6362246694
 20
-1.4089875452
  0
LWPOLYLINE
  5
5D5
330
54B
100
AcDbEntity
  8
0
  6
Continuous
 62
     7
370
    25
100
AcDbPolyline
 90
       41
 70
   128
 43
0.0
 10
-3.1691832699
 20
-3.0976131253
 10
-3.1441175355
 20
-3.081583034
 10
-3.1072724945
 20
-3.051313121
 10
-3.0752471341
 20
-3.0158750858
 10
-3.0482439289
 20
-2.9754929789
 10
-3.0264336019
 20
-2.9304221092
 10
-3.009954045
 20
-2.8809474292
 10
-2.9989094472
 20
-2.8273817337
 10
-2.9933696361
 20
-2.7700636823
 10
-2.9933696361
 20
-2.7093556582
 10
-2.9989094472
 20
-2.645641477
 10
-3.009954045
 20
-2.5793239603
 10
-3.0264336019
 20
-2.5108223889
 10
-3.0482439289
 20
-2.4405698516
 10
-3.0752471341
 20
-2.3690105077
 10
-3.1072724945
 20
-2.2965967784
 10
-3.1441175355
 20
-2.2237864865
 10
-3.1855493109
 20
-2.1510399622
 10
-3.2313058756
 20
-2.0788171325
 10
-3.2810979419
 20
-2.0075746133
 10
-3.3346107084
 20
-1.9377628228
 10
-3.39150585
 20
-1.8698231335
 10
-3.4514236575
 20
-1.8041850822
 10
-3.513985311
 20
-1.7412636535
 10
-3.5787952758
 20
-1.6814566572
 10
-3.6454438023
 20
-1.6251422123
 10
-3.7135095171
 20
-1.5726763568
 10
-3.7825620868
 20
-1.5243907968
 10
-3.8521649389
 20
-1.4805908091
 10
-3.9218780217
 20
-1.4415533114
 10
-3.9912605867
 20
-1.4075251112
 10
-4.0598739749
 20
-1.3787213458
 10
-4.1272843904
 20
-1.355324122
 10
-4.1930656429
 20
-1.3374813644
 10
-4.2568018421
 20
-1.3253058808
 10
-4.3180900272
 20
-1.3188746484
 10
-4.3765427146
 20
-1.3182283276
 10
-4.4317903476
 20
-1.3233710046
 10
-4.4834836328
 20
-1.3342701659
 10
-4.5312957487
 20
-1.3508569033
 10
-4.5700769623
 20
-1.3701667852
  0
LWPOLYLINE
  5
5D6
330
54B
100
AcDbEntity
  8
0
  6
Continuous
 62
     7
370
    25
100
AcDbPolyline
 90
       43
 70
   128
 43
0.0
 10
-3.1530854635
 20
-3.0876854802
 10
-3.1521426913
 20
-3.0872082177
 10
-3.1107109159
 20
-3.062297803
 10
-3.0738658749
 20
-3.03202789
 10
-3.0418405145
 20
-2.9965898548
 10
-3.0148373093
 20
-2.956207748
 10
-2.9930269823
 20
-2.9111368783
 10
-2.9765474254
 20
-2.8616621982
 10
-2.9655028276
 20
-2.8080965027
 10
-2.9599630165
 20
-2.7507784513
 10
-2.9599630165
 20
-2.6900704272
 10
-2.9655028276
 20
-2.626356246
 10
-2.9765474254
 20
-2.5600387293
 10
-2.9930269823
 20
-2.4915371579
 10
-3.0148373093
 20
-2.4212846206
 10
-3.0418405145
 20
-2.3497252767
 10
-3.0738658749
 20
-2.2773115474
 10
-3.1107109159
 20
-2.2045012555
 10
-3.1521426913
 20
-2.1317547313
 10
-3.197899256
 20
-2.0595319015
 10
-3.2476913223
 20
-1.9882893823
 10
-3.3012040888
 20
-1.9184775918
 10
-3.3580992304
 20
-1.8505379025
 10
-3.4180170379
 20
-1.7848998512
 10
-3.4805786914
 20
-1.7219784226
 10
-3.5453886562
 20
-1.6621714262
 10
-3.6120371827
 20
-1.6058569813
 10
-3.6801028975
 20
-1.5533911258
 10
-3.7491554672
 20
-1.5051055658
 10
-3.8187583193
 20
-1.4613055781
 10
-3.8884714021
 20
-1.4222680804
 10
-3.9578539671
 20
-1.3882398802
 10
-4.0264673553
 20
-1.3594361149
 10
-4.0938777708
 20
-1.336038891
 10
-4.1596590233
 20
-1.3181961334
 10
-4.2233952225
 20
-1.3060206498
 10
-4.2846834076
 20
-1.2995894174
 10
-4.343136095
 20
-1.2989430966
 10
-4.398383728
 20
-1.3040857737
 10
-4.4500770132
 20
-1.3149849349
 10
-4.4978891291
 20
-1.3315716723
 10
-4.5415177921
 20
-1.3537411191
 10
-4.5527081204
 20
-1.3607744677
  0
LWPOLYLINE
  5
5D7
330
54B
100
AcDbEntity
  8
0
  6
Continuous
 62
     7
370
    25
100
AcDbPolyline
 90
       41
 70
   128
 43
0.0
 10
-3.0856667209
 20
-3.0494000479
 10
-3.0606009866
 20
-3.0333699565
 10
-3.0237559456
 20
-3.0031000435
 10
-2.9917305852
 20
-2.9676620083
 10
-2.96472738
 20
-2.9272799015
 10
-2.9429170529
 20
-2.8822090318
 10
-2.926437496
 20
-2.8327343518
 10
-2.9153928982
 20
-2.7791686562
 10
-2.9098530871
 20
-2.7218506048
 10
-2.9098530871
 20
-2.6611425807
 10
-2.9153928982
 20
-2.5974283995
 10
-2.926437496
 20
-2.5311108829
 10
-2.9429170529
 20
-2.4626093114
 10
-2.96472738
 20
-2.3923567741
 10
-2.9917305852
 20
-2.3207974302
 10
-3.0237559456
 20
-2.2483837009
 10
-3.0606009866
 20
-2.175573409
 10
-3.1020327619
 20
-2.1028268848
 10
-3.1477893266
 20
-2.0306040551
 10
-3.197581393
 20
-1.9593615359
 10
-3.2510941594
 20
-1.8895497453
 10
-3.3079893011
 20
-1.8216100561
 10
-3.3679071085
 20
-1.7559720047
 10
-3.4304687621
 20
-1.6930505761
 10
-3.4952787268
 20
-1.6332435798
 10
-3.5619272533
 20
-1.5769291348
 10
-3.6299929681
 20
-1.5244632794
 10
-3.6990455379
 20
-1.4761777193
 10
-3.76864839
 20
-1.4323777316
 10
-3.8383614728
 20
-1.3933402339
 10
-3.9077440377
 20
-1.3593120337
 10
-3.9763574259
 20
-1.3305082684
 10
-4.0437678415
 20
-1.3071110445
 10
-4.1095490939
 20
-1.2892682869
 10
-4.1732852931
 20
-1.2770928033
 10
-4.2345734782
 20
-1.2706615709
 10
-4.2930261656
 20
-1.2700152501
 10
-4.3482737986
 20
-1.2751579272
 10
-4.3999670838
 20
-1.2860570884
 10
-4.4477791998
 20
-1.3026438258
 10
-4.4865604133
 20
-1.3219537078
  0
LWPOLYLINE
  5
5D8
330
54B
100
AcDbEntity
  8
0
  6
Continuous
 62
     7
370
    25
100
AcDbPolyline
 90
       43
 70
   128
 43
0.0
 10
-3.0695689146
 20
-3.0394724027
 10
-3.0686261423
 20
-3.0389951402
 10
-3.027194367
 20
-3.0140847256
 10
-2.990349326
 20
-2.9838148125
 10
-2.9583239656
 20
-2.9483767773
 10
-2.9313207604
 20
-2.9079946705
 10
-2.9095104334
 20
-2.8629238008
 10
-2.8930308764
 20
-2.8134491208
 10
-2.8819862786
 20
-2.7598834253
 10
-2.8764464675
 20
-2.7025653739
 10
-2.8764464675
 20
-2.6418573497
 10
-2.8819862786
 20
-2.5781431685
 10
-2.8930308764
 20
-2.5118256519
 10
-2.9095104334
 20
-2.4433240804
 10
-2.9313207604
 20
-2.3730715431
 10
-2.9583239656
 20
-2.3015121992
 10
-2.990349326
 20
-2.2290984699
 10
-3.027194367
 20
-2.1562881781
 10
-3.0686261423
 20
-2.0835416538
 10
-3.1143827071
 20
-2.0113188241
 10
-3.1641747734
 20
-1.9400763049
 10
-3.2176875398
 20
-1.8702645143
 10
-3.2745826815
 20
-1.8023248251
 10
-3.3345004889
 20
-1.7366867737
 10
-3.3970621425
 20
-1.6737653451
 10
-3.4618721072
 20
-1.6139583488
 10
-3.5285206337
 20
-1.5576439039
 10
-3.5965863486
 20
-1.5051780484
 10
-3.6656389183
 20
-1.4568924883
 10
-3.7352417704
 20
-1.4130925006
 10
-3.8049548532
 20
-1.3740550029
 10
-3.8743374181
 20
-1.3400268027
 10
-3.9429508064
 20
-1.3112230374
 10
-4.0103612219
 20
-1.2878258135
 10
-4.0761424743
 20
-1.269983056
 10
-4.1398786735
 20
-1.2578075723
 10
-4.2011668586
 20
-1.2513763399
 10
-4.259619546
 20
-1.2507300191
 10
-4.314867179
 20
-1.2558726962
 10
-4.3665604643
 20
-1.2667718574
 10
-4.4143725802
 20
-1.2833585948
 10
-4.4580012431
 20
-1.3055280417
 10
-4.4691915715
 20
-1.3125613903
  0
LWPOLYLINE
  5
5D9
330
54B
100
AcDbEntity
  8
0
  6
Continuous
 62
     7
370
    25
100
AcDbPolyline
 90
       41
 70
   128
 43
0.0
 10
-3.002150172
 20
-3.0011869704
 10
-2.9770844376
 20
-2.9851568791
 10
-2.9402393966
 20
-2.9548869661
 10
-2.9082140362
 20
-2.9194489308
 10
-2.881210831
 20
-2.879066824
 10
-2.859400504
 20
-2.8339959543
 10
-2.842920947
 20
-2.7845212743
 10
-2.8318763493
 20
-2.7309555788
 10
-2.8263365381
 20
-2.6736375274
 10
-2.8263365381
 20
-2.6129295032
 10
-2.8318763493
 20
-2.5492153221
 10
-2.842920947
 20
-2.4828978054
 10
-2.859400504
 20
-2.4143962339
 10
-2.881210831
 20
-2.3441436967
 10
-2.9082140362
 20
-2.2725843528
 10
-2.9402393966
 20
-2.2001706234
 10
-2.9770844376
 20
-2.1273603316
 10
-3.018516213
 20
-2.0546138073
 10
-3.0642727777
 20
-1.9823909776
 10
-3.114064844
 20
-1.9111484584
 10
-3.1675776104
 20
-1.8413366678
 10
-3.2244727521
 20
-1.7733969786
 10
-3.2843905595
 20
-1.7077589272
 10
-3.3469522131
 20
-1.6448374986
 10
-3.4117621779
 20
-1.5850305023
 10
-3.4784107044
 20
-1.5287160574
 10
-3.5464764192
 20
-1.4762502019
 10
-3.6155289889
 20
-1.4279646419
 10
-3.685131841
 20
-1.3841646542
 10
-3.7548449238
 20
-1.3451271564
 10
-3.8242274888
 20
-1.3110989563
 10
-3.892840877
 20
-1.2822951909
 10
-3.9602512925
 20
-1.258897967
 10
-4.026032545
 20
-1.2410552095
 10
-4.0897687442
 20
-1.2288797258
 10
-4.1510569293
 20
-1.2224484935
 10
-4.2095096167
 20
-1.2218021727
 10
-4.2647572496
 20
-1.2269448497
 10
-4.3164505349
 20
-1.2378440109
 10
-4.3642626508
 20
-1.2544307483
 10
-4.4030438644
 20
-1.2737406303
  0
LWPOLYLINE
  5
5DA
330
54B
100
AcDbEntity
  8
0
  6
Continuous
 62
     7
370
    25
100
AcDbPolyline
 90
       43
 70
   128
 43
0.0
 10
-2.9860523656
 20
-2.9912593252
 10
-2.9851095934
 20
-2.9907820627
 10
-2.943677818
 20
-2.9658716481
 10
-2.906832777
 20
-2.9356017351
 10
-2.8748074166
 20
-2.9001636998
 10
-2.8478042114
 20
-2.859781593
 10
-2.8259938844
 20
-2.8147107233
 10
-2.8095143275
 20
-2.7652360433
 10
-2.7984697297
 20
-2.7116703478
 10
-2.7929299186
 20
-2.6543522964
 10
-2.7929299186
 20
-2.5936442723
 10
-2.7984697297
 20
-2.5299300911
 10
-2.8095143275
 20
-2.4636125744
 10
-2.8259938844
 20
-2.3951110029
 10
-2.8478042114
 20
-2.3248584657
 10
-2.8748074166
 20
-2.2532991218
 10
-2.906832777
 20
-2.1808853924
 10
-2.943677818
 20
-2.1080751006
 10
-2.9851095934
 20
-2.0353285763
 10
-3.0308661581
 20
-1.9631057466
 10
-3.0806582244
 20
-1.8918632274
 10
-3.1341709909
 20
-1.8220514369
 10
-3.1910661325
 20
-1.7541117476
 10
-3.25098394
 20
-1.6884736962
 10
-3.3135455935
 20
-1.6255522676
 10
-3.3783555583
 20
-1.5657452713
 10
-3.4450040848
 20
-1.5094308264
 10
-3.5130697996
 20
-1.4569649709
 10
-3.5821223693
 20
-1.4086794109
 10
-3.6517252214
 20
-1.3648794232
 10
-3.7214383042
 20
-1.3258419254
 10
-3.7908208692
 20
-1.2918137253
 10
-3.8594342574
 20
-1.2630099599
 10
-3.9268446729
 20
-1.2396127361
 10
-3.9926259254
 20
-1.2217699785
 10
-4.0563621246
 20
-1.2095944948
 10
-4.1176503097
 20
-1.2031632625
 10
-4.1761029971
 20
-1.2025169417
 10
-4.2313506301
 20
-1.2076596187
 10
-4.2830439153
 20
-1.2185587799
 10
-4.3308560312
 20
-1.2351455173
 10
-4.3744846942
 20
-1.2573149642
 10
-4.3856750225
 20
-1.2643483128
  0
LWPOLYLINE
  5
5DB
330
54B
100
AcDbEntity
  8
0
  6
Continuous
 62
     7
370
    25
100
AcDbPolyline
 90
       41
 70
   128
 43
0.0
 10
-2.918633623
 20
-2.9529738929
 10
-2.8935678886
 20
-2.9369438016
 10
-2.8567228476
 20
-2.9066738886
 10
-2.8246974872
 20
-2.8712358533
 10
-2.797694282
 20
-2.8308537465
 10
-2.775883955
 20
-2.7857828768
 10
-2.7594043981
 20
-2.7363081968
 10
-2.7483598003
 20
-2.6827425013
 10
-2.7428199892
 20
-2.6254244499
 10
-2.7428199892
 20
-2.5647164258
 10
-2.7483598003
 20
-2.5010022446
 10
-2.7594043981
 20
-2.4346847279
 10
-2.775883955
 20
-2.3661831565
 10
-2.797694282
 20
-2.2959306192
 10
-2.8246974872
 20
-2.2243712753
 10
-2.8567228476
 20
-2.151957546
 10
-2.8935678886
 20
-2.0791472541
 10
-2.934999664
 20
-2.0064007298
 10
-2.9807562287
 20
-1.9341779001
 10
-3.030548295
 20
-1.8629353809
 10
-3.0840610615
 20
-1.7931235904
 10
-3.1409562031
 20
-1.7251839011
 10
-3.2008740106
 20
-1.6595458497
 10
-3.2634356641
 20
-1.5966244211
 10
-3.3282456289
 20
-1.5368174248
 10
-3.3948941554
 20
-1.4805029799
 10
-3.4629598702
 20
-1.4280371244
 10
-3.53201244
 20
-1.3797515644
 10
-3.601615292
 20
-1.3359515767
 10
-3.6713283749
 20
-1.2969140789
 10
-3.7407109398
 20
-1.2628858788
 10
-3.809324328
 20
-1.2340821134
 10
-3.8767347435
 20
-1.2106848896
 10
-3.942515996
 20
-1.192842132
 10
-4.0062521952
 20
-1.1806666484
 10
-4.0675403803
 20
-1.174235416
 10
-4.1259930677
 20
-1.1735890952
 10
-4.1812407007
 20
-1.1787317722
 10
-4.2329339859
 20
-1.1896309335
 10
-4.2807461018
 20
-1.2062176708
 10
-4.3195273154
 20
-1.2255275528
  0
LWPOLYLINE
  5
5DC
330
54B
100
AcDbEntity
  8
0
  6
Continuous
 62
     7
370
    25
100
AcDbPolyline
 90
       43
 70
   128
 43
0.0
 10
-2.9025358166
 20
-2.9430462477
 10
-2.9015930444
 20
-2.9425689853
 10
-2.8601612691
 20
-2.9176585706
 10
-2.8233162281
 20
-2.8873886576
 10
-2.7912908676
 20
-2.8519506224
 10
-2.7642876625
 20
-2.8115685155
 10
-2.7424773354
 20
-2.7664976458
 10
-2.7259977785
 20
-2.7170229658
 10
-2.7149531807
 20
-2.6634572703
 10
-2.7094133696
 20
-2.6061392189
 10
-2.7094133696
 20
-2.5454311948
 10
-2.7149531807
 20
-2.4817170136
 10
-2.7259977785
 20
-2.4153994969
 10
-2.7424773354
 20
-2.3468979255
 10
-2.7642876625
 20
-2.2766453882
 10
-2.7912908676
 20
-2.2050860443
 10
-2.8233162281
 20
-2.132672315
 10
-2.8601612691
 20
-2.0598620231
 10
-2.9015930444
 20
-1.9871154989
 10
-2.9473496091
 20
-1.9148926691
 10
-2.9971416755
 20
-1.8436501499
 10
-3.0506544419
 20
-1.7738383594
 10
-3.1075495836
 20
-1.7058986701
 10
-3.167467391
 20
-1.6402606188
 10
-3.2300290446
 20
-1.5773391902
 10
-3.2948390093
 20
-1.5175321938
 10
-3.3614875358
 20
-1.4612177489
 10
-3.4295532506
 20
-1.4087518934
 10
-3.4986058204
 20
-1.3604663334
 10
-3.5682086725
 20
-1.3166663457
 10
-3.6379217553
 20
-1.277628848
 10
-3.7073043202
 20
-1.2436006478
 10
-3.7759177084
 20
-1.2147968824
 10
-3.843328124
 20
-1.1913996586
 10
-3.9091093764
 20
-1.173556901
 10
-3.9728455756
 20
-1.1613814174
 10
-4.0341337607
 20
-1.154950185
 10
-4.0925864481
 20
-1.1543038642
 10
-4.1478340811
 20
-1.1594465413
 10
-4.1995273663
 20
-1.1703457025
 10
-4.2473394823
 20
-1.1869324399
 10
-4.2909681452
 20
-1.2091018867
 10
-4.3021584736
 20
-1.2161352353
  0
LWPOLYLINE
  5
5DD
330
54B
100
AcDbEntity
  8
0
  6
Continuous
 62
     7
370
    25
100
AcDbPolyline
 90
       41
 70
   128
 43
0.0
 10
-2.835117074
 20
-2.9047608155
 10
-2.8100513397
 20
-2.8887307241
 10
-2.7732062987
 20
-2.8584608111
 10
-2.7411809383
 20
-2.8230227759
 10
-2.7141777331
 20
-2.7826406691
 10
-2.6923674061
 20
-2.7375697994
 10
-2.6758878491
 20
-2.6880951193
 10
-2.6648432513
 20
-2.6345294238
 10
-2.6593034402
 20
-2.5772113724
 10
-2.6593034402
 20
-2.5165033483
 10
-2.6648432513
 20
-2.4527891671
 10
-2.6758878491
 20
-2.3864716504
 10
-2.6923674061
 20
-2.317970079
 10
-2.7141777331
 20
-2.2477175417
 10
-2.7411809383
 20
-2.1761581978
 10
-2.7732062987
 20
-2.1037444685
 10
-2.8100513397
 20
-2.0309341766
 10
-2.851483115
 20
-1.9581876524
 10
-2.8972396798
 20
-1.8859648226
 10
-2.9470317461
 20
-1.8147223034
 10
-3.0005445125
 20
-1.7449105129
 10
-3.0574396542
 20
-1.6769708237
 10
-3.1173574616
 20
-1.6113327723
 10
-3.1799191152
 20
-1.5484113437
 10
-3.2447290799
 20
-1.4886043474
 10
-3.3113776065
 20
-1.4322899024
 10
-3.3794433213
 20
-1.3798240469
 10
-3.448495891
 20
-1.3315384869
 10
-3.5180987431
 20
-1.2877384992
 10
-3.5878118259
 20
-1.2487010015
 10
-3.6571943909
 20
-1.2146728013
 10
-3.7258077791
 20
-1.185869036
 10
-3.7932181946
 20
-1.1624718121
 10
-3.8589994471
 20
-1.1446290545
 10
-3.9227356462
 20
-1.1324535709
 10
-3.9840238313
 20
-1.1260223385
 10
-4.0424765187
 20
-1.1253760177
 10
-4.0977241517
 20
-1.1305186948
 10
-4.149417437
 20
-1.141417856
 10
-4.1972295529
 20
-1.1580045934
 10
-4.2360107665
 20
-1.1773144754
  0
LWPOLYLINE
  5
5DE
330
54B
100
AcDbEntity
  8
0
  6
Continuous
 62
     7
370
    25
100
AcDbPolyline
 90
       43
 70
   128
 43
0.0
 10
-2.8190192677
 20
-2.8948331703
 10
-2.8180764955
 20
-2.8943559078
 10
-2.7766447201
 20
-2.8694454931
 10
-2.7397996791
 20
-2.8391755801
 10
-2.7077743187
 20
-2.8037375449
 10
-2.6807711135
 20
-2.7633554381
 10
-2.6589607865
 20
-2.7182845684
 10
-2.6424812295
 20
-2.6688098884
 10
-2.6314366318
 20
-2.6152441929
 10
-2.6258968206
 20
-2.5579261414
 10
-2.6258968206
 20
-2.4972181173
 10
-2.6314366318
 20
-2.4335039361
 10
-2.6424812295
 20
-2.3671864195
 10
-2.6589607865
 20
-2.298684848
 10
-2.6807711135
 20
-2.2284323107
 10
-2.7077743187
 20
-2.1568729668
 10
-2.7397996791
 20
-2.0844592375
 10
-2.7766447201
 20
-2.0116489456
 10
-2.8180764955
 20
-1.9389024214
 10
-2.8638330602
 20
-1.8666795917
 10
-2.9136251265
 20
-1.7954370725
 10
-2.9671378929
 20
-1.7256252819
 10
-3.0240330346
 20
-1.6576855927
 10
-3.083950842
 20
-1.5920475413
 10
-3.1465124956
 20
-1.5291261127
 10
-3.2113224604
 20
-1.4693191164
 10
-3.2779709869
 20
-1.4130046714
 10
-3.3460367017
 20
-1.360538816
 10
-3.4150892714
 20
-1.3122532559
 10
-3.4846921235
 20
-1.2684532682
 10
-3.5544052063
 20
-1.2294157705
 10
-3.6237877713
 20
-1.1953875703
 10
-3.6924011595
 20
-1.166583805
 10
-3.759811575
 20
-1.1431865811
 10
-3.8255928275
 20
-1.1253438235
 10
-3.8893290267
 20
-1.1131683399
 10
-3.9506172118
 20
-1.1067371075
 10
-4.0090698992
 20
-1.1060907867
 10
-4.0643175321
 20
-1.1112334638
 10
-4.1160108174
 20
-1.122132625
 10
-4.1638229333
 20
-1.1387193624
 10
-4.2074515963
 20
-1.1608888092
 10
-4.2186419246
 20
-1.1679221578
  0
LWPOLYLINE
  5
5DF
330
54B
100
AcDbEntity
  8
0
  6
Continuous
 62
     7
370
    25
100
AcDbPolyline
 90
       41
 70
   128
 43
0.0
 10
-2.7516005251
 20
-2.856547738
 10
-2.7265347907
 20
-2.8405176467
 10
-2.6896897497
 20
-2.8102477337
 10
-2.6576643893
 20
-2.7748096984
 10
-2.6306611841
 20
-2.7344275916
 10
-2.6088508571
 20
-2.6893567219
 10
-2.5923713002
 20
-2.6398820419
 10
-2.5813267024
 20
-2.5863163464
 10
-2.5757868913
 20
-2.528998295
 10
-2.5757868913
 20
-2.4682902708
 10
-2.5813267024
 20
-2.4045760896
 10
-2.5923713002
 20
-2.338258573
 10
-2.6088508571
 20
-2.2697570015
 10
-2.6306611841
 20
-2.1995044643
 10
-2.6576643893
 20
-2.1279451203
 10
-2.6896897497
 20
-2.055531391
 10
-2.7265347907
 20
-1.9827210992
 10
-2.7679665661
 20
-1.9099745749
 10
-2.8137231308
 20
-1.8377517452
 10
-2.8635151971
 20
-1.766509226
 10
-2.9170279636
 20
-1.6966974354
 10
-2.9739231052
 20
-1.6287577462
 10
-3.0338409127
 20
-1.5631196948
 10
-3.0964025662
 20
-1.5001982662
 10
-3.161212531
 20
-1.4403912699
 10
-3.2278610575
 20
-1.384076825
 10
-3.2959267723
 20
-1.3316109695
 10
-3.364979342
 20
-1.2833254094
 10
-3.4345821941
 20
-1.2395254218
 10
-3.5042952769
 20
-1.200487924
 10
-3.5736778419
 20
-1.1664597238
 10
-3.6422912301
 20
-1.1376559585
 10
-3.7097016456
 20
-1.1142587346
 10
-3.7754828981
 20
-1.0964159771
 10
-3.8392190973
 20
-1.0842404934
 10
-3.9005072824
 20
-1.077809261
 10
-3.9589599698
 20
-1.0771629403
 10
-4.0142076028
 20
-1.0823056173
 10
-4.065900888
 20
-1.0932047785
 10
-4.1137130039
 20
-1.1097915159
 10
-4.1524942175
 20
-1.1291013979
  0
LWPOLYLINE
  5
5E0
330
54B
100
AcDbEntity
  8
0
  6
Continuous
 62
     7
370
    25
100
AcDbPolyline
 90
       43
 70
   128
 43
0.0
 10
-2.7355027187
 20
-2.8466200928
 10
-2.7345599465
 20
-2.8461428303
 10
-2.6931281711
 20
-2.8212324157
 10
-2.6562831301
 20
-2.7909625027
 10
-2.6242577697
 20
-2.7555244674
 10
-2.5972545645
 20
-2.7151423606
 10
-2.5754442375
 20
-2.6700714909
 10
-2.5589646806
 20
-2.6205968109
 10
-2.5479200828
 20
-2.5670311154
 10
-2.5423802717
 20
-2.509713064
 10
-2.5423802717
 20
-2.4490050398
 10
-2.5479200828
 20
-2.3852908587
 10
-2.5589646806
 20
-2.318973342
 10
-2.5754442375
 20
-2.2504717705
 10
-2.5972545645
 20
-2.1802192333
 10
-2.6242577697
 20
-2.1086598894
 10
-2.6562831301
 20
-2.03624616
 10
-2.6931281711
 20
-1.9634358682
 10
-2.7345599465
 20
-1.8906893439
 10
-2.7803165112
 20
-1.8184665142
 10
-2.8301085775
 20
-1.747223995
 10
-2.883621344
 20
-1.6774122045
 10
-2.9405164856
 20
-1.6094725152
 10
-3.0004342931
 20
-1.5438344638
 10
-3.0629959466
 20
-1.4809130352
 10
-3.1278059114
 20
-1.4211060389
 10
-3.1944544379
 20
-1.364791594
 10
-3.2625201527
 20
-1.3123257385
 10
-3.3315727225
 20
-1.2640401785
 10
-3.4011755745
 20
-1.2202401908
 10
-3.4708886573
 20
-1.181202693
 10
-3.5402712223
 20
-1.1471744929
 10
-3.6088846105
 20
-1.1183707275
 10
-3.676295026
 20
-1.0949735036
 10
-3.7420762785
 20
-1.0771307461
 10
-3.8058124777
 20
-1.0649552624
 10
-3.8671006628
 20
-1.0585240301
 10
-3.9255533502
 20
-1.0578777093
 10
-3.9808009832
 20
-1.0630203863
 10
-4.0324942684
 20
-1.0739195475
 10
-4.0803063843
 20
-1.0905062849
 10
-4.1239350473
 20
-1.1126757318
 10
-4.1351253756
 20
-1.1197090804
  0
LWPOLYLINE
  5
5E1
330
54B
100
AcDbEntity
  8
0
  6
Continuous
 62
     7
370
    25
100
AcDbPolyline
 90
       41
 70
   128
 43
0.0
 10
-2.6680839761
 20
-2.8083346605
 10
-2.6430182418
 20
-2.7923045692
 10
-2.6061732008
 20
-2.7620346562
 10
-2.5741478404
 20
-2.7265966209
 10
-2.5471446352
 20
-2.6862145141
 10
-2.5253343081
 20
-2.6411436444
 10
-2.5088547512
 20
-2.5916689644
 10
-2.4978101534
 20
-2.5381032689
 10
-2.4922703423
 20
-2.4807852175
 10
-2.4922703423
 20
-2.4200771934
 10
-2.4978101534
 20
-2.3563630122
 10
-2.5088547512
 20
-2.2900454955
 10
-2.5253343081
 20
-2.221543924
 10
-2.5471446352
 20
-2.1512913868
 10
-2.5741478404
 20
-2.0797320429
 10
-2.6061732008
 20
-2.0073183135
 10
-2.6430182418
 20
-1.9345080217
 10
-2.6844500171
 20
-1.8617614974
 10
-2.7302065818
 20
-1.7895386677
 10
-2.7799986482
 20
-1.7182961485
 10
-2.8335114146
 20
-1.648484358
 10
-2.8904065563
 20
-1.5805446687
 10
-2.9503243637
 20
-1.5149066173
 10
-3.0128860173
 20
-1.4519851887
 10
-3.077695982
 20
-1.3921781924
 10
-3.1443445085
 20
-1.3358637475
 10
-3.2124102233
 20
-1.283397892
 10
-3.2814627931
 20
-1.235112332
 10
-3.3510656452
 20
-1.1913123443
 10
-3.420778728
 20
-1.1522748465
 10
-3.4901612929
 20
-1.1182466464
 10
-3.5587746811
 20
-1.089442881
 10
-3.6261850967
 20
-1.0660456572
 10
-3.6919663491
 20
-1.0482028996
 10
-3.7557025483
 20
-1.036027416
 10
-3.8169907334
 20
-1.0295961836
 10
-3.8754434208
 20
-1.0289498628
 10
-3.9306910538
 20
-1.0340925398
 10
-3.9823843391
 20
-1.044991701
 10
-4.030196455
 20
-1.0615784384
 10
-4.0689776685
 20
-1.0808883204
  0
LWPOLYLINE
  5
5E2
330
54B
100
AcDbEntity
  8
0
  6
Continuous
 62
     7
370
    25
100
AcDbPolyline
 90
       43
 70
   128
 43
0.0
 10
-2.6519861698
 20
-2.7984070153
 10
-2.6510433975
 20
-2.7979297529
 10
-2.6096116222
 20
-2.7730193382
 10
-2.5727665812
 20
-2.7427494252
 10
-2.5407412208
 20
-2.7073113899
 10
-2.5137380156
 20
-2.6669292831
 10
-2.4919276886
 20
-2.6218584134
 10
-2.4754481316
 20
-2.5723837334
 10
-2.4644035338
 20
-2.5188180379
 10
-2.4588637227
 20
-2.4614999865
 10
-2.4588637227
 20
-2.4007919624
 10
-2.4644035338
 20
-2.3370777812
 10
-2.4754481316
 20
-2.2707602645
 10
-2.4919276886
 20
-2.2022586931
 10
-2.5137380156
 20
-2.1320061558
 10
-2.5407412208
 20
-2.0604468119
 10
-2.5727665812
 20
-1.9880330826
 10
-2.6096116222
 20
-1.9152227907
 10
-2.6510433975
 20
-1.8424762664
 10
-2.6967999623
 20
-1.7702534367
 10
-2.7465920286
 20
-1.6990109175
 10
-2.800104795
 20
-1.629199127
 10
-2.8569999367
 20
-1.5612594377
 10
-2.9169177441
 20
-1.4956213864
 10
-2.9794793977
 20
-1.4326999577
 10
-3.0442893624
 20
-1.3728929614
 10
-3.110937889
 20
-1.3165785165
 10
-3.1790036038
 20
-1.264112661
 10
-3.2480561735
 20
-1.215827101
 10
-3.3176590256
 20
-1.1720271133
 10
-3.3873721084
 20
-1.1329896155
 10
-3.4567546734
 20
-1.0989614154
 10
-3.5253680616
 20
-1.07015765
 10
-3.5927784771
 20
-1.0467604262
 10
-3.6585597296
 20
-1.0289176686
 10
-3.7222959287
 20
-1.016742185
 10
-3.7835841138
 20
-1.0103109526
 10
-3.8420368012
 20
-1.0096646318
 10
-3.8972844342
 20
-1.0148073088
 10
-3.9489777195
 20
-1.0257064701
 10
-3.9967898354
 20
-1.0422932074
 10
-4.0404184984
 20
-1.0644626543
 10
-4.0516088267
 20
-1.0714960029
  0
LWPOLYLINE
  5
5E3
330
54B
100
AcDbEntity
  8
0
  6
Continuous
 62
     7
370
    25
100
AcDbPolyline
 90
       41
 70
   128
 43
0.0
 10
-2.5845674272
 20
-2.7601215831
 10
-2.5595016928
 20
-2.7440914917
 10
-2.5226566518
 20
-2.7138215787
 10
-2.4906312914
 20
-2.6783835435
 10
-2.4636280862
 20
-2.6380014367
 10
-2.4418177592
 20
-2.592930567
 10
-2.4253382022
 20
-2.5434558869
 10
-2.4142936045
 20
-2.4898901914
 10
-2.4087537933
 20
-2.43257214
 10
-2.4087537933
 20
-2.3718641159
 10
-2.4142936045
 20
-2.3081499347
 10
-2.4253382022
 20
-2.241832418
 10
-2.4418177592
 20
-2.1733308466
 10
-2.4636280862
 20
-2.1030783093
 10
-2.4906312914
 20
-2.0315189654
 10
-2.5226566518
 20
-1.9591052361
 10
-2.5595016928
 20
-1.8862949442
 10
-2.6009334682
 20
-1.81354842
 10
-2.6466900329
 20
-1.7413255902
 10
-2.6964820992
 20
-1.670083071
 10
-2.7499948657
 20
-1.6002712805
 10
-2.8068900073
 20
-1.5323315912
 10
-2.8668078147
 20
-1.4666935399
 10
-2.9293694683
 20
-1.4037721113
 10
-2.9941794331
 20
-1.3439651149
 10
-3.0608279596
 20
-1.28765067
 10
-3.1288936744
 20
-1.2351848145
 10
-3.1979462441
 20
-1.1868992545
 10
-3.2675490962
 20
-1.1430992668
 10
-3.337262179
 20
-1.1040617691
 10
-3.406644744
 20
-1.0700335689
 10
-3.4752581322
 20
-1.0412298036
 10
-3.5426685477
 20
-1.0178325797
 10
-3.6084498002
 20
-0.9999898221
 10
-3.6721859994
 20
-0.9878143385
 10
-3.7334741845
 20
-0.9813831061
 10
-3.7919268719
 20
-0.9807367853
 10
-3.8471745049
 20
-0.9858794624
 10
-3.8988677901
 20
-0.9967786236
 10
-3.946679906
 20
-1.013365361
 10
-3.9854611196
 20
-1.032675243
  0
LWPOLYLINE
  5
5E4
330
54B
100
AcDbEntity
  8
0
  6
Continuous
 62
     7
370
    25
100
AcDbPolyline
 90
       43
 70
   128
 43
0.0
 10
-2.5684696208
 20
-2.7501939379
 10
-2.5675268486
 20
-2.7497166754
 10
-2.5260950732
 20
-2.7248062607
 10
-2.4892500322
 20
-2.6945363477
 10
-2.4572246718
 20
-2.6590983125
 10
-2.4302214666
 20
-2.6187162057
 10
-2.4084111396
 20
-2.573645336
 10
-2.3919315827
 20
-2.5241706559
 10
-2.3808869849
 20
-2.4706049604
 10
-2.3753471738
 20
-2.413286909
 10
-2.3753471738
 20
-2.3525788849
 10
-2.3808869849
 20
-2.2888647037
 10
-2.3919315827
 20
-2.222547187
 10
-2.4084111396
 20
-2.1540456156
 10
-2.4302214666
 20
-2.0837930783
 10
-2.4572246718
 20
-2.0122337344
 10
-2.4892500322
 20
-1.9398200051
 10
-2.5260950732
 20
-1.8670097132
 10
-2.5675268486
 20
-1.794263189
 10
-2.6132834133
 20
-1.7220403592
 10
-2.6630754796
 20
-1.65079784
 10
-2.7165882461
 20
-1.5809860495
 10
-2.7734833877
 20
-1.5130463603
 10
-2.8334011952
 20
-1.4474083089
 10
-2.8959628487
 20
-1.3844868803
 10
-2.9607728135
 20
-1.324679884
 10
-3.02742134
 20
-1.268365439
 10
-3.0954870548
 20
-1.2158995835
 10
-3.1645396245
 20
-1.1676140235
 10
-3.2341424766
 20
-1.1238140358
 10
-3.3038555594
 20
-1.0847765381
 10
-3.3732381244
 20
-1.0507483379
 10
-3.4418515126
 20
-1.0219445726
 10
-3.5092619281
 20
-0.9985473487
 10
-3.5750431806
 20
-0.9807045911
 10
-3.6387793798
 20
-0.9685291075
 10
-3.7000675649
 20
-0.9620978751
 10
-3.7585202523
 20
-0.9614515543
 10
-3.8137678853
 20
-0.9665942314
 10
-3.8654611705
 20
-0.9774933926
 10
-3.9132732864
 20
-0.99408013
 10
-3.9569019494
 20
-1.0162495768
 10
-3.9680922777
 20
-1.0232829254
  0
LWPOLYLINE
  5
5E5
330
54B
100
AcDbEntity
  8
0
  6
Continuous
 62
     7
370
    25
100
AcDbPolyline
 90
       41
 70
   128
 43
0.0
 10
-2.5010508782
 20
-2.7119085056
 10
-2.4759851438
 20
-2.6958784143
 10
-2.4391401029
 20
-2.6656085012
 10
-2.4071147424
 20
-2.630170466
 10
-2.3801115372
 20
-2.5897883592
 10
-2.3583012102
 20
-2.5447174895
 10
-2.3418216533
 20
-2.4952428095
 10
-2.3307770555
 20
-2.441677114
 10
-2.3252372444
 20
-2.3843590626
 10
-2.3252372444
 20
-2.3236510384
 10
-2.3307770555
 20
-2.2599368572
 10
-2.3418216533
 20
-2.1936193406
 10
-2.3583012102
 20
-2.1251177691
 10
-2.3801115372
 20
-2.0548652318
 10
-2.4071147424
 20
-1.9833058879
 10
-2.4391401029
 20
-1.9108921586
 10
-2.4759851438
 20
-1.8380818668
 10
-2.5174169192
 20
-1.7653353425
 10
-2.5631734839
 20
-1.6931125128
 10
-2.6129655502
 20
-1.6218699936
 10
-2.6664783167
 20
-1.552058203
 10
-2.7233734583
 20
-1.4841185138
 10
-2.7832912658
 20
-1.4184804624
 10
-2.8458529193
 20
-1.3555590338
 10
-2.9106628841
 20
-1.2957520375
 10
-2.9773114106
 20
-1.2394375926
 10
-3.0453771254
 20
-1.1869717371
 10
-3.1144296952
 20
-1.138686177
 10
-3.1840325473
 20
-1.0948861893
 10
-3.2537456301
 20
-1.0558486916
 10
-3.323128195
 20
-1.0218204914
 10
-3.3917415832
 20
-0.9930167261
 10
-3.4591519987
 20
-0.9696195022
 10
-3.5249332512
 20
-0.9517767447
 10
-3.5886694504
 20
-0.939601261
 10
-3.6499576355
 20
-0.9331700286
 10
-3.7084103229
 20
-0.9325237078
 10
-3.7636579559
 20
-0.9376663849
 10
-3.8153512411
 20
-0.9485655461
 10
-3.863163357
 20
-0.9651522835
 10
-3.9019445706
 20
-0.9844621655
  0
LWPOLYLINE
  5
5E6
330
54B
100
AcDbEntity
  8
0
  6
Continuous
 62
     7
370
    25
100
AcDbPolyline
 90
       43
 70
   128
 43
0.0
 10
-2.4849530718
 20
-2.7019808604
 10
-2.4840102996
 20
-2.7015035979
 10
-2.4425785243
 20
-2.6765931833
 10
-2.4057334833
 20
-2.6463232703
 10
-2.3737081229
 20
-2.610885235
 10
-2.3467049177
 20
-2.5705031282
 10
-2.3248945906
 20
-2.5254322585
 10
-2.3084150337
 20
-2.4759575785
 10
-2.2973704359
 20
-2.422391883
 10
-2.2918306248
 20
-2.3650738316
 10
-2.2918306248
 20
-2.3043658074
 10
-2.2973704359
 20
-2.2406516262
 10
-2.3084150337
 20
-2.1743341096
 10
-2.3248945906
 20
-2.1058325381
 10
-2.3467049177
 20
-2.0355800009
 10
-2.3737081229
 20
-1.964020657
 10
-2.4057334833
 20
-1.8916069276
 10
-2.4425785243
 20
-1.8187966358
 10
-2.4840102996
 20
-1.7460501115
 10
-2.5297668643
 20
-1.6738272818
 10
-2.5795589307
 20
-1.6025847626
 10
-2.6330716971
 20
-1.532772972
 10
-2.6899668388
 20
-1.4648332828
 10
-2.7498846462
 20
-1.3991952314
 10
-2.8124462998
 20
-1.3362738028
 10
-2.8772562645
 20
-1.2764668065
 10
-2.943904791
 20
-1.2201523616
 10
-3.0119705058
 20
-1.1676865061
 10
-3.0810230756
 20
-1.1194009461
 10
-3.1506259277
 20
-1.0756009584
 10
-3.2203390105
 20
-1.0365634606
 10
-3.2897215754
 20
-1.0025352604
 10
-3.3583349636
 20
-0.9737314951
 10
-3.4257453792
 20
-0.9503342712
 10
-3.4915266316
 20
-0.9324915137
 10
-3.5552628308
 20
-0.92031603
 10
-3.6165510159
 20
-0.9138847976
 10
-3.6750037033
 20
-0.9132384769
 10
-3.7302513363
 20
-0.9183811539
 10
-3.7819446216
 20
-0.9292803151
 10
-3.8297567375
 20
-0.9458670525
 10
-3.8733854004
 20
-0.9680364994
 10
-3.8845757288
 20
-0.975069848
  0
LWPOLYLINE
  5
5E7
330
54B
100
AcDbEntity
  8
0
  6
Continuous
 62
     7
370
    25
100
AcDbPolyline
 90
       41
 70
   128
 43
0.0
 10
-2.4175343292
 20
-2.6636954281
 10
-2.3924685949
 20
-2.6476653368
 10
-2.3556235539
 20
-2.6173954238
 10
-2.3235981935
 20
-2.5819573885
 10
-2.2965949883
 20
-2.5415752817
 10
-2.2747846613
 20
-2.496504412
 10
-2.2583051043
 20
-2.447029732
 10
-2.2472605066
 20
-2.3934640365
 10
-2.2417206954
 20
-2.3361459851
 10
-2.2417206954
 20
-2.275437961
 10
-2.2472605066
 20
-2.2117237798
 10
-2.2583051043
 20
-2.1454062631
 10
-2.2747846613
 20
-2.0769046916
 10
-2.2965949883
 20
-2.0066521544
 10
-2.3235981935
 20
-1.9350928105
 10
-2.3556235539
 20
-1.8626790811
 10
-2.3924685949
 20
-1.7898687893
 10
-2.4339003703
 20
-1.717122265
 10
-2.479656935
 20
-1.6448994353
 10
-2.5294490013
 20
-1.5736569161
 10
-2.5829617677
 20
-1.5038451256
 10
-2.6398569094
 20
-1.4359054363
 10
-2.6997747168
 20
-1.3702673849
 10
-2.7623363704
 20
-1.3073459563
 10
-2.8271463352
 20
-1.24753896
 10
-2.8937948617
 20
-1.1912245151
 10
-2.9618605765
 20
-1.1387586596
 10
-3.0309131462
 20
-1.0904730996
 10
-3.1005159983
 20
-1.0466731119
 10
-3.1702290811
 20
-1.0076356141
 10
-3.2396116461
 20
-0.973607414
 10
-3.3082250343
 20
-0.9448036486
 10
-3.3756354498
 20
-0.9214064248
 10
-3.4414167023
 20
-0.9035636672
 10
-3.5051529014
 20
-0.8913881835
 10
-3.5664410866
 20
-0.8849569512
 10
-3.624893774
 20
-0.8843106304
 10
-3.6801414069
 20
-0.8894533074
 10
-3.7318346922
 20
-0.9003524686
 10
-3.7796468081
 20
-0.916939206
 10
-3.8184280217
 20
-0.936249088
  0
LWPOLYLINE
  5
5E8
330
54B
100
AcDbEntity
  8
0
  6
Continuous
 62
     7
370
    25
100
AcDbPolyline
 90
       43
 70
   128
 43
0.0
 10
-2.4014365229
 20
-2.6537677829
 10
-2.4004937507
 20
-2.6532905204
 10
-2.3590619753
 20
-2.6283801058
 10
-2.3222169343
 20
-2.5981101928
 10
-2.2901915739
 20
-2.5626721575
 10
-2.2631883687
 20
-2.5222900507
 10
-2.2413780417
 20
-2.477219181
 10
-2.2248984847
 20
-2.427744501
 10
-2.213853887
 20
-2.3741788055
 10
-2.2083140758
 20
-2.3168607541
 10
-2.2083140758
 20
-2.25615273
 10
-2.213853887
 20
-2.1924385488
 10
-2.2248984847
 20
-2.1261210321
 10
-2.2413780417
 20
-2.0576194606
 10
-2.2631883687
 20
-1.9873669234
 10
-2.2901915739
 20
-1.9158075795
 10
-2.3222169343
 20
-1.8433938501
 10
-2.3590619753
 20
-1.7705835583
 10
-2.4004937507
 20
-1.697837034
 10
-2.4462503154
 20
-1.6256142043
 10
-2.4960423817
 20
-1.5543716851
 10
-2.5495551481
 20
-1.4845598946
 10
-2.6064502898
 20
-1.4166202053
 10
-2.6663680972
 20
-1.3509821539
 10
-2.7289297508
 20
-1.2880607253
 10
-2.7937397156
 20
-1.228253729
 10
-2.8603882421
 20
-1.1719392841
 10
-2.9284539569
 20
-1.1194734286
 10
-2.9975065266
 20
-1.0711878686
 10
-3.0671093787
 20
-1.0273878809
 10
-3.1368224615
 20
-0.9883503831
 10
-3.2062050265
 20
-0.954322183
 10
-3.2748184147
 20
-0.9255184176
 10
-3.3422288302
 20
-0.9021211938
 10
-3.4080100827
 20
-0.8842784362
 10
-3.4717462819
 20
-0.8721029526
 10
-3.533034467
 20
-0.8656717202
 10
-3.5914871544
 20
-0.8650253994
 10
-3.6467347874
 20
-0.8701680764
 10
-3.6984280726
 20
-0.8810672376
 10
-3.7462401885
 20
-0.897653975
 10
-3.7898688515
 20
-0.9198234219
 10
-3.8010591798
 20
-0.9268567705
  0
LWPOLYLINE
  5
5E9
330
54B
100
AcDbEntity
  8
0
  6
Continuous
 62
     7
370
    25
100
AcDbPolyline
 90
       41
 70
   128
 43
0.0
 10
-2.3340177803
 20
-2.6154823506
 10
-2.3089520459
 20
-2.5994522593
 10
-2.2721070049
 20
-2.5691823463
 10
-2.2400816445
 20
-2.5337443111
 10
-2.2130784393
 20
-2.4933622042
 10
-2.1912681123
 20
-2.4482913345
 10
-2.1747885554
 20
-2.3988166545
 10
-2.1637439576
 20
-2.345250959
 10
-2.1582041465
 20
-2.2879329076
 10
-2.1582041465
 20
-2.2272248835
 10
-2.1637439576
 20
-2.1635107023
 10
-2.1747885554
 20
-2.0971931856
 10
-2.1912681123
 20
-2.0286916142
 10
-2.2130784393
 20
-1.9584390769
 10
-2.2400816445
 20
-1.886879733
 10
-2.2721070049
 20
-1.8144660037
 10
-2.3089520459
 20
-1.7416557118
 10
-2.3503838213
 20
-1.6689091876
 10
-2.396140386
 20
-1.5966863578
 10
-2.4459324523
 20
-1.5254438386
 10
-2.4994452188
 20
-1.4556320481
 10
-2.5563403604
 20
-1.3876923588
 10
-2.6162581679
 20
-1.3220543075
 10
-2.6788198214
 20
-1.2591328789
 10
-2.7436297862
 20
-1.1993258825
 10
-2.8102783127
 20
-1.1430114376
 10
-2.8783440275
 20
-1.0905455821
 10
-2.9473965972
 20
-1.0422600221
 10
-3.0169994493
 20
-0.9984600344
 10
-3.0867125321
 20
-0.9594225367
 10
-3.1560950971
 20
-0.9253943365
 10
-3.2247084853
 20
-0.8965905711
 10
-3.2921189008
 20
-0.8731933473
 10
-3.3579001533
 20
-0.8553505897
 10
-3.4216363525
 20
-0.8431751061
 10
-3.4829245376
 20
-0.8367438737
 10
-3.541377225
 20
-0.8360975529
 10
-3.596624858
 20
-0.84124023
 10
-3.6483181432
 20
-0.8521393912
 10
-3.6961302591
 20
-0.8687261286
 10
-3.7349114727
 20
-0.8880360105
  0
LWPOLYLINE
  5
5EA
330
54B
100
AcDbEntity
  8
0
  6
Continuous
 62
     7
370
    25
100
AcDbPolyline
 90
       43
 70
   128
 43
0.0
 10
-2.3179199739
 20
-2.6055547055
 10
-2.3169772017
 20
-2.605077443
 10
-2.2755454263
 20
-2.5801670283
 10
-2.2387003854
 20
-2.5498971153
 10
-2.2066750249
 20
-2.5144590801
 10
-2.1796718197
 20
-2.4740769733
 10
-2.1578614927
 20
-2.4290061036
 10
-2.1413819358
 20
-2.3795314235
 10
-2.130337338
 20
-2.325965728
 10
-2.1247975269
 20
-2.2686476766
 10
-2.1247975269
 20
-2.2079396525
 10
-2.130337338
 20
-2.1442254713
 10
-2.1413819358
 20
-2.0779079546
 10
-2.1578614927
 20
-2.0094063832
 10
-2.1796718197
 20
-1.9391538459
 10
-2.2066750249
 20
-1.867594502
 10
-2.2387003854
 20
-1.7951807727
 10
-2.2755454263
 20
-1.7223704808
 10
-2.3169772017
 20
-1.6496239566
 10
-2.3627337664
 20
-1.5774011268
 10
-2.4125258327
 20
-1.5061586076
 10
-2.4660385992
 20
-1.4363468171
 10
-2.5229337408
 20
-1.3684071279
 10
-2.5828515483
 20
-1.3027690765
 10
-2.6454132018
 20
-1.2398476479
 10
-2.7102231666
 20
-1.1800406516
 10
-2.7768716931
 20
-1.1237262066
 10
-2.8449374079
 20
-1.0712603511
 10
-2.9139899777
 20
-1.0229747911
 10
-2.9835928297
 20
-0.9791748034
 10
-3.0533059126
 20
-0.9401373057
 10
-3.1226884775
 20
-0.9061091055
 10
-3.1913018657
 20
-0.8773053402
 10
-3.2587122812
 20
-0.8539081163
 10
-3.3244935337
 20
-0.8360653587
 10
-3.3882297329
 20
-0.8238898751
 10
-3.449517918
 20
-0.8174586427
 10
-3.5079706054
 20
-0.8168123219
 10
-3.5632182384
 20
-0.821954999
 10
-3.6149115236
 20
-0.8328541602
 10
-3.6627236395
 20
-0.8494408976
 10
-3.7063523025
 20
-0.8716103444
 10
-3.7175426309
 20
-0.878643693
  0
LWPOLYLINE
  5
5EB
330
54B
100
AcDbEntity
  8
0
  6
Continuous
 62
     7
370
    25
100
AcDbPolyline
 90
       41
 70
   128
 43
0.0
 10
-2.2505012313
 20
-2.5672692732
 10
-2.225435497
 20
-2.5512391818
 10
-2.188590456
 20
-2.5209692688
 10
-2.1565650956
 20
-2.4855312336
 10
-2.1295618904
 20
-2.4451491268
 10
-2.1077515633
 20
-2.4000782571
 10
-2.0912720064
 20
-2.3506035771
 10
-2.0802274086
 20
-2.2970378815
 10
-2.0746875975
 20
-2.2397198301
 10
-2.0746875975
 20
-2.179011806
 10
-2.0802274086
 20
-2.1152976248
 10
-2.0912720064
 20
-2.0489801082
 10
-2.1077515633
 20
-1.9804785367
 10
-2.1295618904
 20
-1.9102259994
 10
-2.1565650956
 20
-1.8386666555
 10
-2.188590456
 20
-1.7662529262
 10
-2.225435497
 20
-1.6934426343
 10
-2.2668672723
 20
-1.6206961101
 10
-2.312623837
 20
-1.5484732804
 10
-2.3624159034
 20
-1.4772307612
 10
-2.4159286698
 20
-1.4074189706
 10
-2.4728238115
 20
-1.3394792814
 10
-2.5327416189
 20
-1.27384123
 10
-2.5953032725
 20
-1.2109198014
 10
-2.6601132372
 20
-1.1511128051
 10
-2.7267617637
 20
-1.0947983601
 10
-2.7948274785
 20
-1.0423325047
 10
-2.8638800483
 20
-0.9940469446
 10
-2.9334829004
 20
-0.9502469569
 10
-3.0031959832
 20
-0.9112094592
 10
-3.0725785481
 20
-0.877181259
 10
-3.1411919363
 20
-0.8483774937
 10
-3.2086023519
 20
-0.8249802698
 10
-3.2743836043
 20
-0.8071375122
 10
-3.3381198035
 20
-0.7949620286
 10
-3.3994079886
 20
-0.7885307962
 10
-3.457860676
 20
-0.7878844754
 10
-3.513108309
 20
-0.7930271525
 10
-3.5648015943
 20
-0.8039263137
 10
-3.6126137102
 20
-0.8205130511
 10
-3.6513949237
 20
-0.8398229331
  0
LWPOLYLINE
  5
5EC
330
54B
100
AcDbEntity
  8
0
  6
Continuous
 62
     7
370
    25
100
AcDbPolyline
 90
       43
 70
   128
 43
0.0
 10
-2.234403425
 20
-2.557341628
 10
-2.2334606528
 20
-2.5568643655
 10
-2.1920288774
 20
-2.5319539509
 10
-2.1551838364
 20
-2.5016840378
 10
-2.123158476
 20
-2.4662460026
 10
-2.0961552708
 20
-2.4258638958
 10
-2.0743449438
 20
-2.3807930261
 10
-2.0578653868
 20
-2.3313183461
 10
-2.046820789
 20
-2.2777526506
 10
-2.0412809779
 20
-2.2204345992
 10
-2.0412809779
 20
-2.159726575
 10
-2.046820789
 20
-2.0960123938
 10
-2.0578653868
 20
-2.0296948772
 10
-2.0743449438
 20
-1.9611933057
 10
-2.0961552708
 20
-1.8909407684
 10
-2.123158476
 20
-1.8193814245
 10
-2.1551838364
 20
-1.7469676952
 10
-2.1920288774
 20
-1.6741574034
 10
-2.2334606528
 20
-1.6014108791
 10
-2.2792172175
 20
-1.5291880494
 10
-2.3290092838
 20
-1.4579455302
 10
-2.3825220502
 20
-1.3881337396
 10
-2.4394171919
 20
-1.3201940504
 10
-2.4993349993
 20
-1.254555999
 10
-2.5618966529
 20
-1.1916345704
 10
-2.6267066176
 20
-1.1318275741
 10
-2.6933551442
 20
-1.0755131292
 10
-2.761420859
 20
-1.0230472737
 10
-2.8304734287
 20
-0.9747617136
 10
-2.9000762808
 20
-0.9309617259
 10
-2.9697893636
 20
-0.8919242282
 10
-3.0391719286
 20
-0.857896028
 10
-3.1077853168
 20
-0.8290922627
 10
-3.1751957323
 20
-0.8056950388
 10
-3.2409769848
 20
-0.7878522813
 10
-3.3047131839
 20
-0.7756767976
 10
-3.3660013691
 20
-0.7692455652
 10
-3.4244540565
 20
-0.7685992444
 10
-3.4797016894
 20
-0.7737419215
 10
-3.5313949747
 20
-0.7846410827
 10
-3.5792070906
 20
-0.8012278201
 10
-3.6228357536
 20
-0.823397267
 10
-3.6340260819
 20
-0.8304306156
  0
LWPOLYLINE
  5
5ED
330
54B
100
AcDbEntity
  8
0
  6
Continuous
 62
     7
370
    25
100
AcDbPolyline
 90
       41
 70
   128
 43
0.0
 10
-2.1669846824
 20
-2.5190561957
 10
-2.141918948
 20
-2.5030261044
 10
-2.105073907
 20
-2.4727561914
 10
-2.0730485466
 20
-2.4373181561
 10
-2.0460453414
 20
-2.3969360493
 10
-2.0242350144
 20
-2.3518651796
 10
-2.0077554575
 20
-2.3023904996
 10
-1.9967108597
 20
-2.2488248041
 10
-1.9911710485
 20
-2.1915067527
 10
-1.9911710485
 20
-2.1307987285
 10
-1.9967108597
 20
-2.0670845474
 10
-2.0077554575
 20
-2.0007670307
 10
-2.0242350144
 20
-1.9322654592
 10
-2.0460453414
 20
-1.862012922
 10
-2.0730485466
 20
-1.7904535781
 10
-2.105073907
 20
-1.7180398487
 10
-2.141918948
 20
-1.6452295569
 10
-2.1833507234
 20
-1.5724830326
 10
-2.2291072881
 20
-1.5002602029
 10
-2.2788993544
 20
-1.4290176837
 10
-2.3324121209
 20
-1.3592058932
 10
-2.3893072625
 20
-1.2912662039
 10
-2.4492250699
 20
-1.2256281525
 10
-2.5117867235
 20
-1.1627067239
 10
-2.5765966883
 20
-1.1028997276
 10
-2.6432452148
 20
-1.0465852827
 10
-2.7113109296
 20
-0.9941194272
 10
-2.7803634993
 20
-0.9458338672
 10
-2.8499663514
 20
-0.9020338795
 10
-2.9196794342
 20
-0.8629963817
 10
-2.9890619992
 20
-0.8289681816
 10
-3.0576753874
 20
-0.8001644162
 10
-3.1250858029
 20
-0.7767671923
 10
-3.1908670554
 20
-0.7589244348
 10
-3.2546032546
 20
-0.7467489511
 10
-3.3158914397
 20
-0.7403177188
 10
-3.3743441271
 20
-0.739671398
 10
-3.4295917601
 20
-0.744814075
 10
-3.4812850453
 20
-0.7557132362
 10
-3.5290971612
 20
-0.7722999736
 10
-3.5678783748
 20
-0.7916098556
  0
LWPOLYLINE
  5
5EE
330
54B
100
AcDbEntity
  8
0
  6
Continuous
 62
     7
370
    25
100
AcDbPolyline
 90
       43
 70
   128
 43
0.0
 10
-2.150886876
 20
-2.5091285505
 10
-2.1499441038
 20
-2.508651288
 10
-2.1085123284
 20
-2.4837408734
 10
-2.0716672874
 20
-2.4534709604
 10
-2.039641927
 20
-2.4180329251
 10
-2.0126387218
 20
-2.3776508183
 10
-1.9908283948
 20
-2.3325799486
 10
-1.9743488379
 20
-2.2831052686
 10
-1.9633042401
 20
-2.2295395731
 10
-1.957764429
 20
-2.1722215217
 10
-1.957764429
 20
-2.1115134976
 10
-1.9633042401
 20
-2.0477993164
 10
-1.9743488379
 20
-1.9814817997
 10
-1.9908283948
 20
-1.9129802282
 10
-2.0126387218
 20
-1.842727691
 10
-2.039641927
 20
-1.7711683471
 10
-2.0716672874
 20
-1.6987546177
 10
-2.1085123284
 20
-1.6259443259
 10
-2.1499441038
 20
-1.5531978016
 10
-2.1957006685
 20
-1.4809749719
 10
-2.2454927348
 20
-1.4097324527
 10
-2.2990055013
 20
-1.3399206622
 10
-2.3559006429
 20
-1.2719809729
 10
-2.4158184504
 20
-1.2063429215
 10
-2.4783801039
 20
-1.1434214929
 10
-2.5431900687
 20
-1.0836144966
 10
-2.6098385952
 20
-1.0273000517
 10
-2.67790431
 20
-0.9748341962
 10
-2.7469568797
 20
-0.9265486362
 10
-2.8165597318
 20
-0.8827486485
 10
-2.8862728146
 20
-0.8437111507
 10
-2.9556553796
 20
-0.8096829506
 10
-3.0242687678
 20
-0.7808791852
 10
-3.0916791833
 20
-0.7574819614
 10
-3.1574604358
 20
-0.7396392038
 10
-3.221196635
 20
-0.7274637201
 10
-3.2824848201
 20
-0.7210324878
 10
-3.3409375075
 20
-0.720386167
 10
-3.3961851405
 20
-0.725528844
 10
-3.4478784257
 20
-0.7364280052
 10
-3.4956905416
 20
-0.7530147426
 10
-3.5393192046
 20
-0.7751841895
 10
-3.5505095329
 20
-0.7822175381
  0
LWPOLYLINE
  5
5EF
330
54B
100
AcDbEntity
  8
0
  6
Continuous
 62
     7
370
    25
100
AcDbPolyline
 90
       41
 70
   128
 43
0.0
 10
-2.0834681334
 20
-2.4708431182
 10
-2.0584023991
 20
-2.4548130269
 10
-2.0215573581
 20
-2.4245431139
 10
-1.9895319976
 20
-2.3891050786
 10
-1.9625287924
 20
-2.3487229718
 10
-1.9407184654
 20
-2.3036521021
 10
-1.9242389085
 20
-2.2541774221
 10
-1.9131943107
 20
-2.2006117266
 10
-1.9076544996
 20
-2.1432936752
 10
-1.9076544996
 20
-2.0825856511
 10
-1.9131943107
 20
-2.0188714699
 10
-1.9242389085
 20
-1.9525539532
 10
-1.9407184654
 20
-1.8840523818
 10
-1.9625287924
 20
-1.8137998445
 10
-1.9895319976
 20
-1.7422405006
 10
-2.0215573581
 20
-1.6698267713
 10
-2.0584023991
 20
-1.5970164794
 10
-2.0998341744
 20
-1.5242699551
 10
-2.1455907391
 20
-1.4520471254
 10
-2.1953828054
 20
-1.3808046062
 10
-2.2488955719
 20
-1.3109928157
 10
-2.3057907135
 20
-1.2430531264
 10
-2.365708521
 20
-1.1774150751
 10
-2.4282701745
 20
-1.1144936464
 10
-2.4930801393
 20
-1.0546866501
 10
-2.5597286658
 20
-0.9983722052
 10
-2.6277943806
 20
-0.9459063497
 10
-2.6968469504
 20
-0.8976207897
 10
-2.7664498025
 20
-0.853820802
 10
-2.8361628853
 20
-0.8147833042
 10
-2.9055454502
 20
-0.7807551041
 10
-2.9741588384
 20
-0.7519513387
 10
-3.0415692539
 20
-0.7285541149
 10
-3.1073505064
 20
-0.7107113573
 10
-3.1710867056
 20
-0.6985358737
 10
-3.2323748907
 20
-0.6921046413
 10
-3.2908275781
 20
-0.6914583205
 10
-3.3460752111
 20
-0.6966009975
 10
-3.3977684963
 20
-0.7075001588
 10
-3.4455806122
 20
-0.7240868961
 10
-3.4843618258
 20
-0.7433967781
  0
LWPOLYLINE
  5
5F0
330
54B
100
AcDbEntity
  8
0
  6
Continuous
 62
     7
370
    25
100
AcDbPolyline
 90
       43
 70
   128
 43
0.0
 10
-2.067370327
 20
-2.4609154731
 10
-2.0664275548
 20
-2.4604382106
 10
-2.0249957795
 20
-2.4355277959
 10
-1.9881507385
 20
-2.4052578829
 10
-1.9561253781
 20
-2.3698198477
 10
-1.9291221729
 20
-2.3294377408
 10
-1.9073118458
 20
-2.2843668712
 10
-1.8908322889
 20
-2.2348921911
 10
-1.8797876911
 20
-2.1813264956
 10
-1.87424788
 20
-2.1240084442
 10
-1.87424788
 20
-2.0633004201
 10
-1.8797876911
 20
-1.9995862389
 10
-1.8908322889
 20
-1.9332687222
 10
-1.9073118458
 20
-1.8647671508
 10
-1.9291221729
 20
-1.7945146135
 10
-1.9561253781
 20
-1.7229552696
 10
-1.9881507385
 20
-1.6505415403
 10
-2.0249957795
 20
-1.5777312484
 10
-2.0664275548
 20
-1.5049847242
 10
-2.1121841195
 20
-1.4327618944
 10
-2.1619761859
 20
-1.3615193752
 10
-2.2154889523
 20
-1.2917075847
 10
-2.272384094
 20
-1.2237678954
 10
-2.3323019014
 20
-1.1581298441
 10
-2.394863555
 20
-1.0952084155
 10
-2.4596735197
 20
-1.0354014191
 10
-2.5263220462
 20
-0.9790869742
 10
-2.594387761
 20
-0.9266211187
 10
-2.6634403308
 20
-0.8783355587
 10
-2.7330431829
 20
-0.834535571
 10
-2.8027562657
 20
-0.7954980733
 10
-2.8721388306
 20
-0.7614698731
 10
-2.9407522188
 20
-0.7326661077
 10
-3.0081626344
 20
-0.7092688839
 10
-3.0739438868
 20
-0.6914261263
 10
-3.137680086
 20
-0.6792506427
 10
-3.1989682711
 20
-0.6728194103
 10
-3.2574209585
 20
-0.6721730895
 10
-3.3126685915
 20
-0.6773157666
 10
-3.3643618768
 20
-0.6882149278
 10
-3.4121739927
 20
-0.7048016652
 10
-3.4558026556
 20
-0.726971112
 10
-3.466992984
 20
-0.7340044606
  0
LWPOLYLINE
  5
5F1
330
54B
100
AcDbEntity
  8
0
  6
Continuous
 62
     7
370
    25
100
AcDbPolyline
 90
       41
 70
   128
 43
0.0
 10
-1.9999515844
 20
-2.4226300408
 10
-1.9748858501
 20
-2.4065999494
 10
-1.9380408091
 20
-2.3763300364
 10
-1.9060154487
 20
-2.3408920012
 10
-1.8790122435
 20
-2.3005098944
 10
-1.8572019165
 20
-2.2554390247
 10
-1.8407223595
 20
-2.2059643446
 10
-1.8296777618
 20
-2.1523986491
 10
-1.8241379506
 20
-2.0950805977
 10
-1.8241379506
 20
-2.0343725736
 10
-1.8296777618
 20
-1.9706583924
 10
-1.8407223595
 20
-1.9043408757
 10
-1.8572019165
 20
-1.8358393043
 10
-1.8790122435
 20
-1.765586767
 10
-1.9060154487
 20
-1.6940274231
 10
-1.9380408091
 20
-1.6216136938
 10
-1.9748858501
 20
-1.5488034019
 10
-2.0163176255
 20
-1.4760568777
 10
-2.0620741902
 20
-1.4038340479
 10
-2.1118662565
 20
-1.3325915287
 10
-2.1653790229
 20
-1.2627797382
 10
-2.2222741646
 20
-1.194840049
 10
-2.282191972
 20
-1.1292019976
 10
-2.3447536256
 20
-1.066280569
 10
-2.4095635904
 20
-1.0064735727
 10
-2.4762121169
 20
-0.9501591277
 10
-2.5442778317
 20
-0.8976932722
 10
-2.6133304014
 20
-0.8494077122
 10
-2.6829332535
 20
-0.8056077245
 10
-2.7526463363
 20
-0.7665702268
 10
-2.8220289013
 20
-0.7325420266
 10
-2.8906422895
 20
-0.7037382613
 10
-2.958052705
 20
-0.6803410374
 10
-3.0238339575
 20
-0.6624982798
 10
-3.0875701566
 20
-0.6503227962
 10
-3.1488583418
 20
-0.6438915638
 10
-3.2073110292
 20
-0.643245243
 10
-3.2625586621
 20
-0.6483879201
 10
-3.3142519474
 20
-0.6592870813
 10
-3.3620640633
 20
-0.6758738187
 10
-3.4008452769
 20
-0.6951837007
  0
LWPOLYLINE
  5
5F2
330
54B
100
AcDbEntity
  8
0
  6
Continuous
 62
     7
370
    25
100
AcDbPolyline
 90
       43
 70
   128
 43
0.0
 10
-1.9838537781
 20
-2.4127023956
 10
-1.9829110059
 20
-2.4122251331
 10
-1.9414792305
 20
-2.3873147184
 10
-1.9046341895
 20
-2.3570448054
 10
-1.8726088291
 20
-2.3216067702
 10
-1.8456056239
 20
-2.2812246634
 10
-1.8237952969
 20
-2.2361537937
 10
-1.80731574
 20
-2.1866791137
 10
-1.7962711422
 20
-2.1331134182
 10
-1.790731331
 20
-2.0757953667
 10
-1.790731331
 20
-2.0150873426
 10
-1.7962711422
 20
-1.9513731614
 10
-1.80731574
 20
-1.8850556448
 10
-1.8237952969
 20
-1.8165540733
 10
-1.8456056239
 20
-1.746301536
 10
-1.8726088291
 20
-1.6747421921
 10
-1.9046341895
 20
-1.6023284628
 10
-1.9414792305
 20
-1.5295181709
 10
-1.9829110059
 20
-1.4567716467
 10
-2.0286675706
 20
-1.384548817
 10
-2.0784596369
 20
-1.3133062978
 10
-2.1319724034
 20
-1.2434945072
 10
-2.188867545
 20
-1.175554818
 10
-2.2487853524
 20
-1.1099167666
 10
-2.311347006
 20
-1.046995338
 10
-2.3761569708
 20
-0.9871883417
 10
-2.4428054973
 20
-0.9308738967
 10
-2.5108712121
 20
-0.8784080413
 10
-2.5799237818
 20
-0.8301224812
 10
-2.6495266339
 20
-0.7863224935
 10
-2.7192397167
 20
-0.7472849958
 10
-2.7886222817
 20
-0.7132567956
 10
-2.8572356699
 20
-0.6844530303
 10
-2.9246460854
 20
-0.6610558064
 10
-2.9904273379
 20
-0.6432130488
 10
-3.0541635371
 20
-0.6310375652
 10
-3.1154517222
 20
-0.6246063328
 10
-3.1739044096
 20
-0.623960012
 10
-3.2291520426
 20
-0.6291026891
 10
-3.2808453278
 20
-0.6400018503
 10
-3.3286574437
 20
-0.6565885877
 10
-3.3722861067
 20
-0.6787580345
 10
-3.383476435
 20
-0.6857913831
  0
LWPOLYLINE
  5
5F3
330
54B
100
AcDbEntity
  8
0
  6
Continuous
 62
     7
370
    25
100
AcDbPolyline
 90
       41
 70
   128
 43
0.0
 10
-1.9164350355
 20
-2.3744169633
 10
-1.8913693011
 20
-2.358386872
 10
-1.8545242601
 20
-2.328116959
 10
-1.8224988997
 20
-2.2926789237
 10
-1.7954956945
 20
-2.2522968169
 10
-1.7736853675
 20
-2.2072259472
 10
-1.7572058106
 20
-2.1577512672
 10
-1.7461612128
 20
-2.1041855717
 10
-1.7406214017
 20
-2.0468675203
 10
-1.7406214017
 20
-1.9861594961
 10
-1.7461612128
 20
-1.9224453149
 10
-1.7572058106
 20
-1.8561277983
 10
-1.7736853675
 20
-1.7876262268
 10
-1.7954956945
 20
-1.7173736896
 10
-1.8224988997
 20
-1.6458143456
 10
-1.8545242601
 20
-1.5734006163
 10
-1.8913693011
 20
-1.5005903245
 10
-1.9328010765
 20
-1.4278438002
 10
-1.9785576412
 20
-1.3556209705
 10
-2.0283497075
 20
-1.2843784513
 10
-2.081862474
 20
-1.2145666607
 10
-2.1387576156
 20
-1.1466269715
 10
-2.1986754231
 20
-1.0809889201
 10
-2.2612370766
 20
-1.0180674915
 10
-2.3260470414
 20
-0.9582604952
 10
-2.3926955679
 20
-0.9019460503
 10
-2.4607612827
 20
-0.8494801948
 10
-2.5298138524
 20
-0.8011946348
 10
-2.5994167045
 20
-0.7573946471
 10
-2.6691297873
 20
-0.7183571493
 10
-2.7385123523
 20
-0.6843289491
 10
-2.8071257405
 20
-0.6555251838
 10
-2.874536156
 20
-0.6321279599
 10
-2.9403174085
 20
-0.6142852024
 10
-3.0040536077
 20
-0.6021097187
 10
-3.0653417928
 20
-0.5956784863
 10
-3.1237944802
 20
-0.5950321656
 10
-3.1790421132
 20
-0.6001748426
 10
-3.2307353984
 20
-0.6110740038
 10
-3.2785475143
 20
-0.6276607412
 10
-3.3173287279
 20
-0.6469706232
  0
LWPOLYLINE
  5
5F4
330
54B
100
AcDbEntity
  8
0
  6
Continuous
 62
     7
370
    25
100
AcDbPolyline
 90
       43
 70
   128
 43
0.0
 10
-1.9003372291
 20
-2.3644893181
 10
-1.8993944569
 20
-2.3640120556
 10
-1.8579626816
 20
-2.339101641
 10
-1.8211176406
 20
-2.308831728
 10
-1.7890922801
 20
-2.2733936927
 10
-1.7620890749
 20
-2.2330115859
 10
-1.7402787479
 20
-2.1879407162
 10
-1.723799191
 20
-2.1384660362
 10
-1.7127545932
 20
-2.0849003407
 10
-1.7072147821
 20
-2.0275822893
 10
-1.7072147821
 20
-1.9668742651
 10
-1.7127545932
 20
-1.903160084
 10
-1.723799191
 20
-1.8368425673
 10
-1.7402787479
 20
-1.7683409958
 10
-1.7620890749
 20
-1.6980884586
 10
-1.7890922801
 20
-1.6265291147
 10
-1.8211176406
 20
-1.5541153853
 10
-1.8579626816
 20
-1.4813050935
 10
-1.8993944569
 20
-1.4085585692
 10
-1.9451510216
 20
-1.3363357395
 10
-1.9949430879
 20
-1.2650932203
 10
-2.0484558544
 20
-1.1952814298
 10
-2.105350996
 20
-1.1273417405
 10
-2.1652688035
 20
-1.0617036891
 10
-2.227830457
 20
-0.9987822605
 10
-2.2926404218
 20
-0.9389752642
 10
-2.3592889483
 20
-0.8826608193
 10
-2.4273546631
 20
-0.8301949638
 10
-2.4964072329
 20
-0.7819094038
 10
-2.566010085
 20
-0.7381094161
 10
-2.6357231678
 20
-0.6990719183
 10
-2.7051057327
 20
-0.6650437182
 10
-2.7737191209
 20
-0.6362399528
 10
-2.8411295364
 20
-0.612842729
 10
-2.9069107889
 20
-0.5949999714
 10
-2.9706469881
 20
-0.5828244877
 10
-3.0319351732
 20
-0.5763932554
 10
-3.0903878606
 20
-0.5757469346
 10
-3.1456354936
 20
-0.5808896116
 10
-3.1973287788
 20
-0.5917887728
 10
-3.2451408947
 20
-0.6083755102
 10
-3.2887695577
 20
-0.6305449571
 10
-3.2999598861
 20
-0.6375783057
  0
LWPOLYLINE
  5
5F5
330
54B
100
AcDbEntity
  8
0
  6
Continuous
 62
     7
370
    25
100
AcDbPolyline
 90
       41
 70
   128
 43
0.0
 10
-1.8329184865
 20
-2.3262038858
 10
-1.8078527522
 20
-2.3101737945
 10
-1.7710077112
 20
-2.2799038815
 10
-1.7389823508
 20
-2.2444658462
 10
-1.7119791456
 20
-2.2040837394
 10
-1.6901688185
 20
-2.1590128697
 10
-1.6736892616
 20
-2.1095381897
 10
-1.6626446638
 20
-2.0559724942
 10
-1.6571048527
 20
-1.9986544428
 10
-1.6571048527
 20
-1.9379464187
 10
-1.6626446638
 20
-1.8742322375
 10
-1.6736892616
 20
-1.8079147208
 10
-1.6901688185
 20
-1.7394131493
 10
-1.7119791456
 20
-1.6691606121
 10
-1.7389823508
 20
-1.5976012682
 10
-1.7710077112
 20
-1.5251875388
 10
-1.8078527522
 20
-1.452377247
 10
-1.8492845275
 20
-1.3796307227
 10
-1.8950410922
 20
-1.307407893
 10
-1.9448331586
 20
-1.2361653738
 10
-1.998345925
 20
-1.1663535833
 10
-2.0552410667
 20
-1.098413894
 10
-2.1151588741
 20
-1.0327758426
 10
-2.1777205277
 20
-0.969854414
 10
-2.2425304924
 20
-0.9100474177
 10
-2.3091790189
 20
-0.8537329728
 10
-2.3772447338
 20
-0.8012671173
 10
-2.4462973035
 20
-0.7529815573
 10
-2.5159001556
 20
-0.7091815696
 10
-2.5856132384
 20
-0.6701440718
 10
-2.6549958033
 20
-0.6361158717
 10
-2.7236091916
 20
-0.6073121063
 10
-2.7910196071
 20
-0.5839148825
 10
-2.8568008595
 20
-0.5660721249
 10
-2.9205370587
 20
-0.5538966413
 10
-2.9818252438
 20
-0.5474654089
 10
-3.0402779312
 20
-0.5468190881
 10
-3.0955255642
 20
-0.5519617651
 10
-3.1472188495
 20
-0.5628609263
 10
-3.1950309654
 20
-0.5794476637
 10
-3.233812179
 20
-0.5987575457
  0
LWPOLYLINE
  5
5F6
330
54B
100
AcDbEntity
  8
0
  6
Continuous
 62
     7
370
    25
100
AcDbPolyline
 90
       43
 70
   128
 43
0.0
 10
-1.8168206802
 20
-2.3162762406
 10
-1.815877908
 20
-2.3157989782
 10
-1.7744461326
 20
-2.2908885635
 10
-1.7376010916
 20
-2.2606186505
 10
-1.7055757312
 20
-2.2251806152
 10
-1.678572526
 20
-2.1847985084
 10
-1.656762199
 20
-2.1397276387
 10
-1.640282642
 20
-2.0902529587
 10
-1.6292380443
 20
-2.0366872632
 10
-1.6236982331
 20
-1.9793692118
 10
-1.6236982331
 20
-1.9186611877
 10
-1.6292380443
 20
-1.8549470065
 10
-1.640282642
 20
-1.7886294898
 10
-1.656762199
 20
-1.7201279184
 10
-1.678572526
 20
-1.6498753811
 10
-1.7055757312
 20
-1.5783160372
 10
-1.7376010916
 20
-1.5059023079
 10
-1.7744461326
 20
-1.433092016
 10
-1.815877908
 20
-1.3603454917
 10
-1.8616344727
 20
-1.288122662
 10
-1.911426539
 20
-1.2168801428
 10
-1.9649393054
 20
-1.1470683523
 10
-2.0218344471
 20
-1.079128663
 10
-2.0817522545
 20
-1.0134906117
 10
-2.1443139081
 20
-0.950569183
 10
-2.2091238729
 20
-0.8907621867
 10
-2.2757723994
 20
-0.8344477418
 10
-2.3438381142
 20
-0.7819818863
 10
-2.4128906839
 20
-0.7336963263
 10
-2.482493536
 20
-0.6898963386
 10
-2.5522066188
 20
-0.6508588409
 10
-2.6215891838
 20
-0.6168306407
 10
-2.690202572
 20
-0.5880268753
 10
-2.7576129875
 20
-0.5646296515
 10
-2.82339424
 20
-0.5467868939
 10
-2.8871304391
 20
-0.5346114103
 10
-2.9484186243
 20
-0.5281801779
 10
-3.0068713117
 20
-0.5275338571
 10
-3.0621189446
 20
-0.5326765341
 10
-3.1138122299
 20
-0.5435756954
 10
-3.1616243458
 20
-0.5601624327
 10
-3.2052530088
 20
-0.5823318796
 10
-3.2164433371
 20
-0.5893652282
  0
LWPOLYLINE
  5
5F7
330
54B
100
AcDbEntity
  8
0
  6
Continuous
 62
     7
370
    25
100
AcDbPolyline
 90
       41
 70
   128
 43
0.0
 10
-1.7494019376
 20
-2.2779908084
 10
-1.7243362032
 20
-2.261960717
 10
-1.6874911622
 20
-2.231690804
 10
-1.6554658018
 20
-2.1962527688
 10
-1.6284625966
 20
-2.155870662
 10
-1.6066522696
 20
-2.1107997923
 10
-1.5901727127
 20
-2.0613251122
 10
-1.5791281149
 20
-2.0077594167
 10
-1.5735883038
 20
-1.9504413653
 10
-1.5735883038
 20
-1.8897333412
 10
-1.5791281149
 20
-1.82601916
 10
-1.5901727127
 20
-1.7597016433
 10
-1.6066522696
 20
-1.6912000719
 10
-1.6284625966
 20
-1.6209475346
 10
-1.6554658018
 20
-1.5493881907
 10
-1.6874911622
 20
-1.4769744614
 10
-1.7243362032
 20
-1.4041641695
 10
-1.7657679786
 20
-1.3314176453
 10
-1.8115245433
 20
-1.2591948155
 10
-1.8613166096
 20
-1.1879522963
 10
-1.9148293761
 20
-1.1181405058
 10
-1.9717245177
 20
-1.0502008166
 10
-2.0316423251
 20
-0.9845627652
 10
-2.0942039787
 20
-0.9216413366
 10
-2.1590139435
 20
-0.8618343402
 10
-2.22566247
 20
-0.8055198953
 10
-2.2937281848
 20
-0.7530540398
 10
-2.3627807545
 20
-0.7047684798
 10
-2.4323836066
 20
-0.6609684921
 10
-2.5020966894
 20
-0.6219309944
 10
-2.5714792544
 20
-0.5879027942
 10
-2.6400926426
 20
-0.5590990289
 10
-2.7075030581
 20
-0.535701805
 10
-2.7732843106
 20
-0.5178590474
 10
-2.8370205098
 20
-0.5056835638
 10
-2.8983086949
 20
-0.4992523314
 10
-2.9567613823
 20
-0.4986060106
 10
-3.0120090153
 20
-0.5037486877
 10
-3.0637023005
 20
-0.5146478489
 10
-3.1115144164
 20
-0.5312345863
 10
-3.15029563
 20
-0.5505444683
  0
LWPOLYLINE
  5
5F8
330
54B
100
AcDbEntity
  8
0
  6
Continuous
 62
     7
370
    25
100
AcDbPolyline
 90
       43
 70
   128
 43
0.0
 10
-1.7333041312
 20
-2.2680631632
 10
-1.732361359
 20
-2.2675859007
 10
-1.6909295836
 20
-2.242675486
 10
-1.6540845426
 20
-2.212405573
 10
-1.6220591822
 20
-2.1769675378
 10
-1.595055977
 20
-2.136585431
 10
-1.57324565
 20
-2.0915145613
 10
-1.5567660931
 20
-2.0420398812
 10
-1.5457214953
 20
-1.9884741857
 10
-1.5401816842
 20
-1.9311561343
 10
-1.5401816842
 20
-1.8704481102
 10
-1.5457214953
 20
-1.806733929
 10
-1.5567660931
 20
-1.7404164124
 10
-1.57324565
 20
-1.6719148409
 10
-1.595055977
 20
-1.6016623036
 10
-1.6220591822
 20
-1.5301029597
 10
-1.6540845426
 20
-1.4576892304
 10
-1.6909295836
 20
-1.3848789385
 10
-1.732361359
 20
-1.3121324143
 10
-1.7781179237
 20
-1.2399095846
 10
-1.82790999
 20
-1.1686670653
 10
-1.8814227565
 20
-1.0988552748
 10
-1.9383178981
 20
-1.0309155856
 10
-1.9982357056
 20
-0.9652775342
 10
-2.0607973591
 20
-0.9023561056
 10
-2.1256073239
 20
-0.8425491093
 10
-2.1922558504
 20
-0.7862346643
 10
-2.2603215652
 20
-0.7337688088
 10
-2.3293741349
 20
-0.6854832488
 10
-2.398976987
 20
-0.6416832611
 10
-2.4686900698
 20
-0.6026457634
 10
-2.5380726348
 20
-0.5686175632
 10
-2.606686023
 20
-0.5398137979
 10
-2.6740964385
 20
-0.516416574
 10
-2.739877691
 20
-0.4985738164
 10
-2.8036138902
 20
-0.4863983328
 10
-2.8649020753
 20
-0.4799671004
 10
-2.9233547627
 20
-0.4793207796
 10
-2.9786023957
 20
-0.4844634567
 10
-3.0302956809
 20
-0.4953626179
 10
-3.0781077968
 20
-0.5119493553
 10
-3.1217364598
 20
-0.5341188021
 10
-3.1329267881
 20
-0.5411521507
  0
LWPOLYLINE
  5
5F9
330
54B
100
AcDbEntity
  8
0
  6
Continuous
 62
     7
370
    25
100
AcDbPolyline
 90
       41
 70
   128
 43
0.0
 10
-1.6658853886
 20
-2.2297777309
 10
-1.6408196543
 20
-2.2137476396
 10
-1.6039746133
 20
-2.1834777265
 10
-1.5719492528
 20
-2.1480396913
 10
-1.5449460477
 20
-2.1076575845
 10
-1.5231357206
 20
-2.0625867148
 10
-1.5066561637
 20
-2.0131120348
 10
-1.4956115659
 20
-1.9595463393
 10
-1.4900717548
 20
-1.9022282879
 10
-1.4900717548
 20
-1.8415202637
 10
-1.4956115659
 20
-1.7778060825
 10
-1.5066561637
 20
-1.7114885659
 10
-1.5231357206
 20
-1.6429869944
 10
-1.5449460477
 20
-1.5727344571
 10
-1.5719492528
 20
-1.5011751132
 10
-1.6039746133
 20
-1.4287613839
 10
-1.6408196543
 20
-1.3559510921
 10
-1.6822514296
 20
-1.2832045678
 10
-1.7280079943
 20
-1.2109817381
 10
-1.7778000606
 20
-1.1397392189
 10
-1.8313128271
 20
-1.0699274283
 10
-1.8882079688
 20
-1.0019877391
 10
-1.9481257762
 20
-0.9363496877
 10
-2.0106874298
 20
-0.8734282591
 10
-2.0754973945
 20
-0.8136212628
 10
-2.142145921
 20
-0.7573068179
 10
-2.2102116358
 20
-0.7048409624
 10
-2.2792642056
 20
-0.6565554023
 10
-2.3488670577
 20
-0.6127554146
 10
-2.4185801405
 20
-0.5737179169
 10
-2.4879627054
 20
-0.5396897167
 10
-2.5565760936
 20
-0.5108859514
 10
-2.6239865092
 20
-0.4874887275
 10
-2.6897677616
 20
-0.46964597
 10
-2.7535039608
 20
-0.4574704863
 10
-2.8147921459
 20
-0.4510392539
 10
-2.8732448333
 20
-0.4503929331
 10
-2.9284924663
 20
-0.4555356102
 10
-2.9801857515
 20
-0.4664347714
 10
-3.0279978674
 20
-0.4830215088
 10
-3.066779081
 20
-0.5023313908
  0
LWPOLYLINE
  5
5FA
330
54B
100
AcDbEntity
  8
0
  6
Continuous
 62
     7
370
    25
100
AcDbPolyline
 90
       43
 70
   128
 43
0.0
 10
-1.6497875822
 20
-2.2198500857
 10
-1.64884481
 20
-2.2193728232
 10
-1.6074130347
 20
-2.1944624086
 10
-1.5705679937
 20
-2.1641924956
 10
-1.5385426333
 20
-2.1287544603
 10
-1.5115394281
 20
-2.0883723535
 10
-1.489729101
 20
-2.0433014838
 10
-1.4732495441
 20
-1.9938268038
 10
-1.4622049463
 20
-1.9402611083
 10
-1.4566651352
 20
-1.8829430569
 10
-1.4566651352
 20
-1.8222350327
 10
-1.4622049463
 20
-1.7585208516
 10
-1.4732495441
 20
-1.6922033349
 10
-1.489729101
 20
-1.6237017634
 10
-1.5115394281
 20
-1.5534492262
 10
-1.5385426333
 20
-1.4818898823
 10
-1.5705679937
 20
-1.4094761529
 10
-1.6074130347
 20
-1.3366658611
 10
-1.64884481
 20
-1.2639193368
 10
-1.6946013747
 20
-1.1916965071
 10
-1.7443934411
 20
-1.1204539879
 10
-1.7979062075
 20
-1.0506421973
 10
-1.8548013492
 20
-0.9827025081
 10
-1.9147191566
 20
-0.9170644567
 10
-1.9772808102
 20
-0.8541430281
 10
-2.0420907749
 20
-0.7943360318
 10
-2.1087393014
 20
-0.7380215869
 10
-2.1768050162
 20
-0.6855557314
 10
-2.245857586
 20
-0.6372701714
 10
-2.3154604381
 20
-0.5934701837
 10
-2.3851735209
 20
-0.5544326859
 10
-2.4545560858
 20
-0.5204044857
 10
-2.5231694741
 20
-0.4916007204
 10
-2.5905798896
 20
-0.4682034965
 10
-2.656361142
 20
-0.450360739
 10
-2.7200973412
 20
-0.4381852553
 10
-2.7813855263
 20
-0.4317540229
 10
-2.8398382137
 20
-0.4311077022
 10
-2.8950858467
 20
-0.4362503792
 10
-2.946779132
 20
-0.4471495404
 10
-2.9945912479
 20
-0.4637362778
 10
-3.0382199108
 20
-0.4859057247
 10
-3.0494102392
 20
-0.4929390733
  0
LWPOLYLINE
  5
5FB
330
54B
100
AcDbEntity
  8
0
  6
Continuous
 62
     7
370
    25
100
AcDbPolyline
 90
       41
 70
   128
 43
0.0
 10
-1.5823688397
 20
-2.1815646534
 10
-1.5573031053
 20
-2.1655345621
 10
-1.5204580643
 20
-2.1352646491
 10
-1.4884327039
 20
-2.0998266138
 10
-1.4614294987
 20
-2.059444507
 10
-1.4396191717
 20
-2.0143736373
 10
-1.4231396147
 20
-1.9648989573
 10
-1.412095017
 20
-1.9113332618
 10
-1.4065552058
 20
-1.8540152104
 10
-1.4065552058
 20
-1.7933071863
 10
-1.412095017
 20
-1.7295930051
 10
-1.4231396147
 20
-1.6632754884
 10
-1.4396191717
 20
-1.5947739169
 10
-1.4614294987
 20
-1.5245213797
 10
-1.4884327039
 20
-1.4529620358
 10
-1.5204580643
 20
-1.3805483064
 10
-1.5573031053
 20
-1.3077380146
 10
-1.5987348807
 20
-1.2349914903
 10
-1.6444914454
 20
-1.1627686606
 10
-1.6942835117
 20
-1.0915261414
 10
-1.7477962781
 20
-1.0217143509
 10
-1.8046914198
 20
-0.9537746616
 10
-1.8646092272
 20
-0.8881366102
 10
-1.9271708808
 20
-0.8252151816
 10
-1.9919808456
 20
-0.7654081853
 10
-2.0586293721
 20
-0.7090937404
 10
-2.1266950869
 20
-0.6566278849
 10
-2.1957476566
 20
-0.6083423249
 10
-2.2653505087
 20
-0.5645423372
 10
-2.3350635915
 20
-0.5255048394
 10
-2.4044461565
 20
-0.4914766393
 10
-2.4730595447
 20
-0.4626728739
 10
-2.5404699602
 20
-0.4392756501
 10
-2.6062512127
 20
-0.4214328925
 10
-2.6699874119
 20
-0.4092574088
 10
-2.731275597
 20
-0.4028261765
 10
-2.7897282844
 20
-0.4021798557
 10
-2.8449759173
 20
-0.4073225327
 10
-2.8966692026
 20
-0.4182216939
 10
-2.9444813185
 20
-0.4348084313
 10
-2.9832625321
 20
-0.4541183133
  0
LWPOLYLINE
  5
5FC
330
54B
100
AcDbEntity
  8
0
  6
Continuous
 62
     7
370
    25
100
AcDbPolyline
 90
       43
 70
   128
 43
0.0
 10
-1.5662710333
 20
-2.1716370082
 10
-1.5653282611
 20
-2.1711597457
 10
-1.5238964857
 20
-2.1462493311
 10
-1.4870514447
 20
-2.1159794181
 10
-1.4550260843
 20
-2.0805413828
 10
-1.4280228791
 20
-2.040159276
 10
-1.4062125521
 20
-1.9950884063
 10
-1.3897329952
 20
-1.9456137263
 10
-1.3786883974
 20
-1.8920480308
 10
-1.3731485863
 20
-1.8347299794
 10
-1.3731485863
 20
-1.7740219553
 10
-1.3786883974
 20
-1.7103077741
 10
-1.3897329952
 20
-1.6439902574
 10
-1.4062125521
 20
-1.5754886859
 10
-1.4280228791
 20
-1.5052361487
 10
-1.4550260843
 20
-1.4336768048
 10
-1.4870514447
 20
-1.3612630754
 10
-1.5238964857
 20
-1.2884527836
 10
-1.5653282611
 20
-1.2157062593
 10
-1.6110848258
 20
-1.1434834296
 10
-1.6608768921
 20
-1.0722409104
 10
-1.7143896586
 20
-1.0024291199
 10
-1.7712848002
 20
-0.9344894306
 10
-1.8312026076
 20
-0.8688513792
 10
-1.8937642612
 20
-0.8059299506
 10
-1.958574226
 20
-0.7461229543
 10
-2.0252227525
 20
-0.6898085094
 10
-2.0932884673
 20
-0.6373426539
 10
-2.162341037
 20
-0.5890570939
 10
-2.2319438891
 20
-0.5452571062
 10
-2.3016569719
 20
-0.5062196084
 10
-2.3710395369
 20
-0.4721914083
 10
-2.4396529251
 20
-0.4433876429
 10
-2.5070633406
 20
-0.4199904191
 10
-2.5728445931
 20
-0.4021476615
 10
-2.6365807923
 20
-0.3899721779
 10
-2.6978689774
 20
-0.3835409455
 10
-2.7563216648
 20
-0.3828946247
 10
-2.8115692978
 20
-0.3880373017
 10
-2.863262583
 20
-0.398936463
 10
-2.9110746989
 20
-0.4155232003
 10
-2.9547033619
 20
-0.4376926472
 10
-2.9658936902
 20
-0.4447259958
  0
LWPOLYLINE
  5
5FD
330
54B
100
AcDbEntity
  8
0
  6
Continuous
 62
     7
370
    25
100
AcDbPolyline
 90
       41
 70
   128
 43
0.0
 10
-1.4988522907
 20
-2.1333515759
 10
-1.4737865563
 20
-2.1173214846
 10
-1.4369415153
 20
-2.0870515716
 10
-1.4049161549
 20
-2.0516135364
 10
-1.3779129497
 20
-2.0112314295
 10
-1.3561026227
 20
-1.9661605598
 10
-1.3396230658
 20
-1.9166858798
 10
-1.328578468
 20
-1.8631201843
 10
-1.3230386569
 20
-1.8058021329
 10
-1.3230386569
 20
-1.7450941088
 10
-1.328578468
 20
-1.6813799276
 10
-1.3396230658
 20
-1.6150624109
 10
-1.3561026227
 20
-1.5465608395
 10
-1.3779129497
 20
-1.4763083022
 10
-1.4049161549
 20
-1.4047489583
 10
-1.4369415153
 20
-1.332335229
 10
-1.4737865563
 20
-1.2595249371
 10
-1.5152183317
 20
-1.1867784129
 10
-1.5609748964
 20
-1.1145555831
 10
-1.6107669627
 20
-1.0433130639
 10
-1.6642797292
 20
-0.9735012734
 10
-1.7211748708
 20
-0.9055615841
 10
-1.7810926783
 20
-0.8399235328
 10
-1.8436543318
 20
-0.7770021042
 10
-1.9084642966
 20
-0.7171951078
 10
-1.9751128231
 20
-0.6608806629
 10
-2.0431785379
 20
-0.6084148074
 10
-2.1122311077
 20
-0.5601292474
 10
-2.1818339597
 20
-0.5163292597
 10
-2.2515470425
 20
-0.477291762
 10
-2.3209296075
 20
-0.4432635618
 10
-2.3895429957
 20
-0.4144597964
 10
-2.4569534112
 20
-0.3910625726
 10
-2.5227346637
 20
-0.373219815
 10
-2.5864708629
 20
-0.3610443314
 10
-2.647759048
 20
-0.354613099
 10
-2.7062117354
 20
-0.3539667782
 10
-2.7614593684
 20
-0.3591094553
 10
-2.8131526536
 20
-0.3700086165
 10
-2.8609647695
 20
-0.3865953539
 10
-2.8997459831
 20
-0.4059052358
  0
LWPOLYLINE
  5
5FE
330
54B
100
AcDbEntity
  8
0
  6
Continuous
 62
     7
370
    25
100
AcDbPolyline
 90
       43
 70
   128
 43
0.0
 10
-1.4827544843
 20
-2.1234239308
 10
-1.4818117121
 20
-2.1229466683
 10
-1.4403799368
 20
-2.0980362536
 10
-1.4035348958
 20
-2.0677663406
 10
-1.3715095353
 20
-2.0323283054
 10
-1.3445063301
 20
-1.9919461986
 10
-1.3226960031
 20
-1.9468753289
 10
-1.3062164462
 20
-1.8974006488
 10
-1.2951718484
 20
-1.8438349533
 10
-1.2896320373
 20
-1.7865169019
 10
-1.2896320373
 20
-1.7258088778
 10
-1.2951718484
 20
-1.6620946966
 10
-1.3062164462
 20
-1.5957771799
 10
-1.3226960031
 20
-1.5272756085
 10
-1.3445063301
 20
-1.4570230712
 10
-1.3715095353
 20
-1.3854637273
 10
-1.4035348958
 20
-1.313049998
 10
-1.4403799368
 20
-1.2402397061
 10
-1.4818117121
 20
-1.1674931819
 10
-1.5275682768
 20
-1.0952703521
 10
-1.5773603431
 20
-1.0240278329
 10
-1.6308731096
 20
-0.9542160424
 10
-1.6877682512
 20
-0.8862763532
 10
-1.7476860587
 20
-0.8206383018
 10
-1.8102477123
 20
-0.7577168732
 10
-1.875057677
 20
-0.6979098769
 10
-1.9417062035
 20
-0.6415954319
 10
-2.0097719183
 20
-0.5891295764
 10
-2.0788244881
 20
-0.5408440164
 10
-2.1484273402
 20
-0.4970440287
 10
-2.218140423
 20
-0.458006531
 10
-2.2875229879
 20
-0.4239783308
 10
-2.3561363761
 20
-0.3951745655
 10
-2.4235467916
 20
-0.3717773416
 10
-2.4893280441
 20
-0.353934584
 10
-2.5530642433
 20
-0.3417591004
 10
-2.6143524284
 20
-0.335327868
 10
-2.6728051158
 20
-0.3346815472
 10
-2.7280527488
 20
-0.3398242243
 10
-2.779746034
 20
-0.3507233855
 10
-2.8275581499
 20
-0.3673101229
 10
-2.8711868129
 20
-0.3894795697
 10
-2.8823771413
 20
-0.3965129183
  0
LWPOLYLINE
  5
5FF
330
54B
100
AcDbEntity
  8
0
  6
Continuous
 62
     7
370
    25
100
AcDbPolyline
 90
       41
 70
   128
 43
0.0
 10
-1.4153357417
 20
-2.0851384985
 10
-1.3902700074
 20
-2.0691084071
 10
-1.3534249664
 20
-2.0388384941
 10
-1.321399606
 20
-2.0034004589
 10
-1.2943964008
 20
-1.9630183521
 10
-1.2725860738
 20
-1.9179474824
 10
-1.2561065168
 20
-1.8684728024
 10
-1.245061919
 20
-1.8149071069
 10
-1.2395221079
 20
-1.7575890554
 10
-1.2395221079
 20
-1.6968810313
 10
-1.245061919
 20
-1.6331668501
 10
-1.2561065168
 20
-1.5668493335
 10
-1.2725860738
 20
-1.498347762
 10
-1.2943964008
 20
-1.4280952247
 10
-1.321399606
 20
-1.3565358808
 10
-1.3534249664
 20
-1.2841221515
 10
-1.3902700074
 20
-1.2113118596
 10
-1.4317017827
 20
-1.1385653354
 10
-1.4774583475
 20
-1.0663425057
 10
-1.5272504138
 20
-0.9950999865
 10
-1.5807631802
 20
-0.9252881959
 10
-1.6376583219
 20
-0.8573485067
 10
-1.6975761293
 20
-0.7917104553
 10
-1.7601377829
 20
-0.7287890267
 10
-1.8249477476
 20
-0.6689820304
 10
-1.8915962742
 20
-0.6126675854
 10
-1.959661989
 20
-0.56020173
 10
-2.0287145587
 20
-0.5119161699
 10
-2.0983174108
 20
-0.4681161822
 10
-2.1680304936
 20
-0.4290786845
 10
-2.2374130586
 20
-0.3950504843
 10
-2.3060264468
 20
-0.366246719
 10
-2.3734368623
 20
-0.3428494951
 10
-2.4392181148
 20
-0.3250067375
 10
-2.5029543139
 20
-0.3128312539
 10
-2.564242499
 20
-0.3064000215
 10
-2.6226951864
 20
-0.3057537007
 10
-2.6779428194
 20
-0.3108963778
 10
-2.7296361047
 20
-0.321795539
 10
-2.7774482206
 20
-0.3383822764
 10
-2.8162294342
 20
-0.3576921584
  0
LWPOLYLINE
  5
600
330
54B
100
AcDbEntity
  8
0
  6
Continuous
 62
     7
370
    25
100
AcDbPolyline
 90
       43
 70
   128
 43
0.0
 10
-1.3992379354
 20
-2.0752108533
 10
-1.3982951632
 20
-2.0747335908
 10
-1.3568633878
 20
-2.0498231762
 10
-1.3200183468
 20
-2.0195532631
 10
-1.2879929864
 20
-1.9841152279
 10
-1.2609897812
 20
-1.9437331211
 10
-1.2391794542
 20
-1.8986622514
 10
-1.2226998972
 20
-1.8491875714
 10
-1.2116552995
 20
-1.7956218759
 10
-1.2061154883
 20
-1.7383038245
 10
-1.2061154883
 20
-1.6775958003
 10
-1.2116552995
 20
-1.6138816191
 10
-1.2226998972
 20
-1.5475641025
 10
-1.2391794542
 20
-1.479062531
 10
-1.2609897812
 20
-1.4088099937
 10
-1.2879929864
 20
-1.3372506498
 10
-1.3200183468
 20
-1.2648369205
 10
-1.3568633878
 20
-1.1920266287
 10
-1.3982951632
 20
-1.1192801044
 10
-1.4440517279
 20
-1.0470572747
 10
-1.4938437942
 20
-0.9758147555
 10
-1.5473565606
 20
-0.9060029649
 10
-1.6042517023
 20
-0.8380632757
 10
-1.6641695097
 20
-0.7724252243
 10
-1.7267311633
 20
-0.7095037957
 10
-1.7915411281
 20
-0.6496967994
 10
-1.8581896546
 20
-0.5933823545
 10
-1.9262553694
 20
-0.540916499
 10
-1.9953079391
 20
-0.4926309389
 10
-2.0649107912
 20
-0.4488309512
 10
-2.134623874
 20
-0.4097934535
 10
-2.204006439
 20
-0.3757652533
 10
-2.2726198272
 20
-0.346961488
 10
-2.3400302427
 20
-0.3235642641
 10
-2.4058114952
 20
-0.3057215066
 10
-2.4695476943
 20
-0.2935460229
 10
-2.5308358795
 20
-0.2871147905
 10
-2.5892885669
 20
-0.2864684698
 10
-2.6445361998
 20
-0.2916111468
 10
-2.6962294851
 20
-0.302510308
 10
-2.744041601
 20
-0.3190970454
 10
-2.787670264
 20
-0.3412664923
 10
-2.7988605923
 20
-0.3482998409
  0
LWPOLYLINE
  5
601
330
54B
100
AcDbEntity
  8
0
  6
Continuous
 62
     7
370
    25
100
AcDbPolyline
 90
       41
 70
   128
 43
0.0
 10
-1.3318191928
 20
-2.036925421
 10
-1.3067534584
 20
-2.0208953297
 10
-1.2699084174
 20
-1.9906254167
 10
-1.237883057
 20
-1.9551873814
 10
-1.2108798518
 20
-1.9148052746
 10
-1.1890695248
 20
-1.8697344049
 10
-1.1725899679
 20
-1.8202597249
 10
-1.1615453701
 20
-1.7666940294
 10
-1.156005559
 20
-1.709375978
 10
-1.156005559
 20
-1.6486679538
 10
-1.1615453701
 20
-1.5849537727
 10
-1.1725899679
 20
-1.518636256
 10
-1.1890695248
 20
-1.4501346845
 10
-1.2108798518
 20
-1.3798821473
 10
-1.237883057
 20
-1.3083228034
 10
-1.2699084174
 20
-1.235909074
 10
-1.3067534584
 20
-1.1630987822
 10
-1.3481852338
 20
-1.0903522579
 10
-1.3939417985
 20
-1.0181294282
 10
-1.4437338648
 20
-0.946886909
 10
-1.4972466313
 20
-0.8770751185
 10
-1.5541417729
 20
-0.8091354292
 10
-1.6140595804
 20
-0.7434973778
 10
-1.6766212339
 20
-0.6805759492
 10
-1.7414311987
 20
-0.6207689529
 10
-1.8080797252
 20
-0.564454508
 10
-1.87614544
 20
-0.5119886525
 10
-1.9451980097
 20
-0.4637030925
 10
-2.0148008618
 20
-0.4199031048
 10
-2.0845139446
 20
-0.380865607
 10
-2.1538965096
 20
-0.3468374069
 10
-2.2225098978
 20
-0.3180336415
 10
-2.2899203133
 20
-0.2946364176
 10
-2.3557015658
 20
-0.2767936601
 10
-2.419437765
 20
-0.2646181764
 10
-2.4807259501
 20
-0.2581869441
 10
-2.5391786375
 20
-0.2575406233
 10
-2.5944262705
 20
-0.2626833003
 10
-2.6461195557
 20
-0.2735824615
 10
-2.6939316716
 20
-0.2901691989
 10
-2.7327128852
 20
-0.3094790809
  0
LWPOLYLINE
  5
602
330
54B
100
AcDbEntity
  8
0
  6
Continuous
 62
     7
370
    25
100
AcDbPolyline
 90
       43
 70
   128
 43
0.0
 10
-1.3157213864
 20
-2.0269977758
 10
-1.3147786142
 20
-2.0265205133
 10
-1.2733468388
 20
-2.0016100987
 10
-1.2365017978
 20
-1.9713401857
 10
-1.2044764374
 20
-1.9359021504
 10
-1.1774732322
 20
-1.8955200436
 10
-1.1556629052
 20
-1.8504491739
 10
-1.1391833483
 20
-1.8009744939
 10
-1.1281387505
 20
-1.7474087984
 10
-1.1225989394
 20
-1.690090747
 10
-1.1225989394
 20
-1.6293827229
 10
-1.1281387505
 20
-1.5656685417
 10
-1.1391833483
 20
-1.499351025
 10
-1.1556629052
 20
-1.4308494535
 10
-1.1774732322
 20
-1.3605969163
 10
-1.2044764374
 20
-1.2890375724
 10
-1.2365017978
 20
-1.216623843
 10
-1.2733468388
 20
-1.1438135512
 10
-1.3147786142
 20
-1.0710670269
 10
-1.3605351789
 20
-0.9988441972
 10
-1.4103272452
 20
-0.927601678
 10
-1.4638400117
 20
-0.8577898875
 10
-1.5207351533
 20
-0.7898501982
 10
-1.5806529608
 20
-0.7242121468
 10
-1.6432146143
 20
-0.6612907182
 10
-1.7080245791
 20
-0.6014837219
 10
-1.7746731056
 20
-0.545169277
 10
-1.8427388204
 20
-0.4927034215
 10
-1.9117913901
 20
-0.4444178615
 10
-1.9813942422
 20
-0.4006178738
 10
-2.051107325
 20
-0.361580376
 10
-2.12048989
 20
-0.3275521759
 10
-2.1891032782
 20
-0.2987484105
 10
-2.2565136937
 20
-0.2753511867
 10
-2.3222949462
 20
-0.2575084291
 10
-2.3860311454
 20
-0.2453329454
 10
-2.4473193305
 20
-0.2389017131
 10
-2.5057720179
 20
-0.2382553923
 10
-2.5610196509
 20
-0.2433980693
 10
-2.6127129361
 20
-0.2542972305
 10
-2.660525052
 20
-0.2708839679
 10
-2.704153715
 20
-0.2930534148
 10
-2.7153440433
 20
-0.3000867634
  0
LWPOLYLINE
  5
603
330
54B
100
AcDbEntity
  8
0
  6
Continuous
 62
     7
370
    25
100
AcDbPolyline
 90
       41
 70
   128
 43
0.0
 10
-1.2483026438
 20
-1.9887123435
 10
-1.2232369095
 20
-1.9726822522
 10
-1.1863918685
 20
-1.9424123392
 10
-1.1543665081
 20
-1.9069743039
 10
-1.1273633029
 20
-1.8665921971
 10
-1.1055529758
 20
-1.8215213274
 10
-1.0890734189
 20
-1.7720466474
 10
-1.0780288211
 20
-1.7184809519
 10
-1.07248901
 20
-1.6611629005
 10
-1.07248901
 20
-1.6004548764
 10
-1.0780288211
 20
-1.5367406952
 10
-1.0890734189
 20
-1.4704231785
 10
-1.1055529758
 20
-1.4019216071
 10
-1.1273633029
 20
-1.3316690698
 10
-1.1543665081
 20
-1.2601097259
 10
-1.1863918685
 20
-1.1876959966
 10
-1.2232369095
 20
-1.1148857047
 10
-1.2646686848
 20
-1.0421391804
 10
-1.3104252495
 20
-0.9699163507
 10
-1.3602173159
 20
-0.8986738315
 10
-1.4137300823
 20
-0.828862041
 10
-1.470625224
 20
-0.7609223517
 10
-1.5305430314
 20
-0.6952843004
 10
-1.593104685
 20
-0.6323628717
 10
-1.6579146497
 20
-0.5725558754
 10
-1.7245631762
 20
-0.5162414305
 10
-1.792628891
 20
-0.463775575
 10
-1.8616814608
 20
-0.415490015
 10
-1.9312843129
 20
-0.3716900273
 10
-2.0009973957
 20
-0.3326525296
 10
-2.0703799606
 20
-0.2986243294
 10
-2.1389933488
 20
-0.269820564
 10
-2.2064037644
 20
-0.2464233402
 10
-2.2721850168
 20
-0.2285805826
 10
-2.335921216
 20
-0.216405099
 10
-2.3972094011
 20
-0.2099738666
 10
-2.4556620885
 20
-0.2093275458
 10
-2.5109097215
 20
-0.2144702228
 10
-2.5626030067
 20
-0.2253693841
 10
-2.6104151227
 20
-0.2419561214
 10
-2.6491963362
 20
-0.2612660034
  0
LWPOLYLINE
  5
604
330
54B
100
AcDbEntity
  8
0
  6
Continuous
 62
     7
370
    25
100
AcDbPolyline
 90
       43
 70
   128
 43
0.0
 10
-1.2322048375
 20
-1.9787846983
 10
-1.2312620652
 20
-1.9783074359
 10
-1.1898302899
 20
-1.9533970212
 10
-1.1529852489
 20
-1.9231271082
 10
-1.1209598885
 20
-1.887689073
 10
-1.0939566833
 20
-1.8473069661
 10
-1.0721463563
 20
-1.8022360965
 10
-1.0556667993
 20
-1.7527614164
 10
-1.0446222015
 20
-1.6991957209
 10
-1.0390823904
 20
-1.6418776695
 10
-1.0390823904
 20
-1.5811696454
 10
-1.0446222015
 20
-1.5174554642
 10
-1.0556667993
 20
-1.4511379475
 10
-1.0721463563
 20
-1.3826363761
 10
-1.0939566833
 20
-1.3123838388
 10
-1.1209598885
 20
-1.2408244949
 10
-1.1529852489
 20
-1.1684107656
 10
-1.1898302899
 20
-1.0956004737
 10
-1.2312620652
 20
-1.0228539495
 10
-1.27701863
 20
-0.9506311197
 10
-1.3268106963
 20
-0.8793886005
 10
-1.3803234627
 20
-0.80957681
 10
-1.4372186044
 20
-0.7416371207
 10
-1.4971364118
 20
-0.6759990694
 10
-1.5596980654
 20
-0.6130776408
 10
-1.6245080301
 20
-0.5532706444
 10
-1.6911565566
 20
-0.4969561995
 10
-1.7592222715
 20
-0.444490344
 10
-1.8282748412
 20
-0.396204784
 10
-1.8978776933
 20
-0.3524047963
 10
-1.9675907761
 20
-0.3133672986
 10
-2.036973341
 20
-0.2793390984
 10
-2.1055867293
 20
-0.250535333
 10
-2.1729971448
 20
-0.2271381092
 10
-2.2387783973
 20
-0.2092953516
 10
-2.3025145964
 20
-0.197119868
 10
-2.3638027815
 20
-0.1906886356
 10
-2.4222554689
 20
-0.1900423148
 10
-2.4775031019
 20
-0.1951849919
 10
-2.5291963872
 20
-0.2060841531
 10
-2.5770085031
 20
-0.2226708905
 10
-2.620637166
 20
-0.2448403373
 10
-2.6318274944
 20
-0.2518736859
  0
LWPOLYLINE
  5
605
330
54B
100
AcDbEntity
  8
0
  6
Continuous
 62
     7
370
    25
100
AcDbPolyline
 90
       41
 70
   128
 43
0.0
 10
-1.1647860949
 20
-1.9404992661
 10
-1.1397203605
 20
-1.9244691747
 10
-1.1028753195
 20
-1.8941992617
 10
-1.0708499591
 20
-1.8587612265
 10
-1.0438467539
 20
-1.8183791197
 10
-1.0220364269
 20
-1.77330825
 10
-1.0055568699
 20
-1.7238335699
 10
-0.9945122722
 20
-1.6702678744
 10
-0.988972461
 20
-1.612949823
 10
-0.988972461
 20
-1.5522417989
 10
-0.9945122722
 20
-1.4885276177
 10
-1.0055568699
 20
-1.422210101
 10
-1.0220364269
 20
-1.3537085296
 10
-1.0438467539
 20
-1.2834559923
 10
-1.0708499591
 20
-1.2118966484
 10
-1.1028753195
 20
-1.1394829191
 10
-1.1397203605
 20
-1.0666726272
 10
-1.1811521359
 20
-0.993926103
 10
-1.2269087006
 20
-0.9217032732
 10
-1.2767007669
 20
-0.850460754
 10
-1.3302135333
 20
-0.7806489635
 10
-1.387108675
 20
-0.7127092743
 10
-1.4470264824
 20
-0.6470712229
 10
-1.509588136
 20
-0.5841497943
 10
-1.5743981008
 20
-0.524342798
 10
-1.6410466273
 20
-0.468028353
 10
-1.7091123421
 20
-0.4155624975
 10
-1.7781649118
 20
-0.3672769375
 10
-1.8477677639
 20
-0.3234769498
 10
-1.9174808467
 20
-0.2844394521
 10
-1.9868634117
 20
-0.2504112519
 10
-2.0554767999
 20
-0.2216074866
 10
-2.1228872154
 20
-0.1982102627
 10
-2.1886684679
 20
-0.1803675051
 10
-2.2524046671
 20
-0.1681920215
 10
-2.3136928522
 20
-0.1617607891
 10
-2.3721455396
 20
-0.1611144683
 10
-2.4273931726
 20
-0.1662571454
 10
-2.4790864578
 20
-0.1771563066
 10
-2.5268985737
 20
-0.193743044
 10
-2.5656797873
 20
-0.213052926
  0
LWPOLYLINE
  5
606
330
54B
100
AcDbEntity
  8
0
  6
Continuous
 62
     7
370
    25
100
AcDbPolyline
 90
       43
 70
   128
 43
0.0
 10
-1.1486882885
 20
-1.9305716209
 10
-1.1477455163
 20
-1.9300943584
 10
-1.1063137409
 20
-1.9051839438
 10
-1.0694686999
 20
-1.8749140307
 10
-1.0374433395
 20
-1.8394759955
 10
-1.0104401343
 20
-1.7990938887
 10
-0.9886298073
 20
-1.754023019
 10
-0.9721502504
 20
-1.704548339
 10
-0.9611056526
 20
-1.6509826435
 10
-0.9555658415
 20
-1.593664592
 10
-0.9555658415
 20
-1.5329565679
 10
-0.9611056526
 20
-1.4692423867
 10
-0.9721502504
 20
-1.4029248701
 10
-0.9886298073
 20
-1.3344232986
 10
-1.0104401343
 20
-1.2641707613
 10
-1.0374433395
 20
-1.1926114174
 10
-1.0694686999
 20
-1.1201976881
 10
-1.1063137409
 20
-1.0473873962
 10
-1.1477455163
 20
-0.974640872
 10
-1.193502081
 20
-0.9024180423
 10
-1.2432941473
 20
-0.8311755231
 10
-1.2968069138
 20
-0.7613637325
 10
-1.3537020554
 20
-0.6934240433
 10
-1.4136198629
 20
-0.6277859919
 10
-1.4761815164
 20
-0.5648645633
 10
-1.5409914812
 20
-0.505057567
 10
-1.6076400077
 20
-0.448743122
 10
-1.6757057225
 20
-0.3962772666
 10
-1.7447582922
 20
-0.3479917065
 10
-1.8143611443
 20
-0.3041917188
 10
-1.8840742271
 20
-0.2651542211
 10
-1.9534567921
 20
-0.2311260209
 10
-2.0220701803
 20
-0.2023222556
 10
-2.0894805958
 20
-0.1789250317
 10
-2.1552618483
 20
-0.1610822741
 10
-2.2189980475
 20
-0.1489067905
 10
-2.2802862326
 20
-0.1424755581
 10
-2.33873892
 20
-0.1418292373
 10
-2.393986553
 20
-0.1469719144
 10
-2.4456798382
 20
-0.1578710756
 10
-2.4934919541
 20
-0.174457813
 10
-2.5371206171
 20
-0.1966272598
 10
-2.5483109454
 20
-0.2036606085
  0
LWPOLYLINE
  5
607
330
54B
100
AcDbEntity
  8
0
  6
Continuous
 62
     7
370
    25
100
AcDbPolyline
 90
       41
 70
   128
 43
0.0
 10
-1.0812695459
 20
-1.8922861886
 10
-1.0562038115
 20
-1.8762560973
 10
-1.0193587705
 20
-1.8459861843
 10
-0.9873334101
 20
-1.810548149
 10
-0.9603302049
 20
-1.7701660422
 10
-0.9385198779
 20
-1.7250951725
 10
-0.922040321
 20
-1.6756204925
 10
-0.9109957232
 20
-1.622054797
 10
-0.9054559121
 20
-1.5647367456
 10
-0.9054559121
 20
-1.5040287214
 10
-0.9109957232
 20
-1.4403145402
 10
-0.922040321
 20
-1.3739970236
 10
-0.9385198779
 20
-1.3054954521
 10
-0.9603302049
 20
-1.2352429149
 10
-0.9873334101
 20
-1.163683571
 10
-1.0193587705
 20
-1.0912698416
 10
-1.0562038115
 20
-1.0184595498
 10
-1.0976355869
 20
-0.9457130255
 10
-1.1433921516
 20
-0.8734901958
 10
-1.1931842179
 20
-0.8022476766
 10
-1.2466969844
 20
-0.732435886
 10
-1.303592126
 20
-0.6644961968
 10
-1.3635099335
 20
-0.5988581454
 10
-1.426071587
 20
-0.5359367168
 10
-1.4908815518
 20
-0.4761297205
 10
-1.5575300783
 20
-0.4198152756
 10
-1.6255957931
 20
-0.3673494201
 10
-1.6946483629
 20
-0.3190638601
 10
-1.7642512149
 20
-0.2752638724
 10
-1.8339642978
 20
-0.2362263746
 10
-1.9033468627
 20
-0.2021981744
 10
-1.9719602509
 20
-0.1733944091
 10
-2.0393706664
 20
-0.1499971852
 10
-2.1051519189
 20
-0.1321544277
 10
-2.1688881181
 20
-0.119978944
 10
-2.2301763032
 20
-0.1135477116
 10
-2.2886289906
 20
-0.1129013909
 10
-2.3438766236
 20
-0.1180440679
 10
-2.3955699088
 20
-0.1289432291
 10
-2.4433820247
 20
-0.1455299665
 10
-2.4821632383
 20
-0.1648398485
  0
LWPOLYLINE
  5
608
330
54B
100
AcDbEntity
  8
0
  6
Continuous
 62
     7
370
    25
100
AcDbPolyline
 90
       43
 70
   128
 43
0.0
 10
-1.0651717395
 20
-1.8823585434
 10
-1.0642289673
 20
-1.8818812809
 10
-1.022797192
 20
-1.8569708663
 10
-0.985952151
 20
-1.8267009533
 10
-0.9539267905
 20
-1.791262918
 10
-0.9269235854
 20
-1.7508808112
 10
-0.9051132583
 20
-1.7058099415
 10
-0.8886337014
 20
-1.6563352615
 10
-0.8775891036
 20
-1.602769566
 10
-0.8720492925
 20
-1.5454515146
 10
-0.8720492925
 20
-1.4847434904
 10
-0.8775891036
 20
-1.4210293093
 10
-0.8886337014
 20
-1.3547117926
 10
-0.9051132583
 20
-1.2862102211
 10
-0.9269235854
 20
-1.2159576839
 10
-0.9539267905
 20
-1.14439834
 10
-0.985952151
 20
-1.0719846106
 10
-1.022797192
 20
-0.9991743188
 10
-1.0642289673
 20
-0.9264277945
 10
-1.109985532
 20
-0.8542049648
 10
-1.1597775984
 20
-0.7829624456
 10
-1.2132903648
 20
-0.7131506551
 10
-1.2701855065
 20
-0.6452109658
 10
-1.3301033139
 20
-0.5795729144
 10
-1.3926649675
 20
-0.5166514858
 10
-1.4574749322
 20
-0.4568444895
 10
-1.5241234587
 20
-0.4005300446
 10
-1.5921891735
 20
-0.3480641891
 10
-1.6612417433
 20
-0.2997786291
 10
-1.7308445954
 20
-0.2559786414
 10
-1.8005576782
 20
-0.2169411436
 10
-1.8699402431
 20
-0.1829129435
 10
-1.9385536313
 20
-0.1541091781
 10
-2.0059640469
 20
-0.1307119543
 10
-2.0717452993
 20
-0.1128691967
 10
-2.1354814985
 20
-0.100693713
 10
-2.1967696836
 20
-0.0942624807
 10
-2.255222371
 20
-0.0936161599
 10
-2.310470004
 20
-0.0987588369
 10
-2.3621632892
 20
-0.1096579981
 10
-2.4099754052
 20
-0.1262447355
 10
-2.4536040681
 20
-0.1484141824
 10
-2.4647943965
 20
-0.155447531
  0
LWPOLYLINE
  5
609
330
54B
100
AcDbEntity
  8
0
  6
Continuous
 62
     7
370
    25
100
AcDbPolyline
 90
       41
 70
   128
 43
0.0
 10
-0.9977529969
 20
-1.8440731111
 10
-0.9726872626
 20
-1.8280430198
 10
-0.9358422216
 20
-1.7977731068
 10
-0.9038168612
 20
-1.7623350715
 10
-0.876813656
 20
-1.7219529647
 10
-0.855003329
 20
-1.676882095
 10
-0.838523772
 20
-1.627407415
 10
-0.8274791742
 20
-1.5738417195
 10
-0.8219393631
 20
-1.5165236681
 10
-0.8219393631
 20
-1.455815644
 10
-0.8274791742
 20
-1.3921014628
 10
-0.838523772
 20
-1.3257839461
 10
-0.855003329
 20
-1.2572823746
 10
-0.876813656
 20
-1.1870298374
 10
-0.9038168612
 20
-1.1154704935
 10
-0.9358422216
 20
-1.0430567641
 10
-0.9726872626
 20
-0.9702464723
 10
-1.0141190379
 20
-0.897499948
 10
-1.0598756027
 20
-0.8252771183
 10
-1.109667669
 20
-0.7540345991
 10
-1.1631804354
 20
-0.6842228086
 10
-1.2200755771
 20
-0.6162831193
 10
-1.2799933845
 20
-0.5506450679
 10
-1.3425550381
 20
-0.4877236393
 10
-1.4073650028
 20
-0.427916643
 10
-1.4740135294
 20
-0.3716021981
 10
-1.5420792442
 20
-0.3191363426
 10
-1.6111318139
 20
-0.2708507826
 10
-1.680734666
 20
-0.2270507949
 10
-1.7504477488
 20
-0.1880132971
 10
-1.8198303138
 20
-0.153985097
 10
-1.888443702
 20
-0.1251813316
 10
-1.9558541175
 20
-0.1017841078
 10
-2.02163537
 20
-0.0839413502
 10
-2.0853715691
 20
-0.0717658666
 10
-2.1466597542
 20
-0.0653346342
 10
-2.2051124416
 20
-0.0646883134
 10
-2.2603600746
 20
-0.0698309904
 10
-2.3120533599
 20
-0.0807301517
 10
-2.3598654758
 20
-0.097316889
 10
-2.3986466894
 20
-0.116626771
  0
LWPOLYLINE
  5
60A
330
54B
100
AcDbEntity
  8
0
  6
Continuous
 62
     7
370
    25
100
AcDbPolyline
 90
       43
 70
   128
 43
0.0
 10
-0.9816551906
 20
-1.8341454659
 10
-0.9807124184
 20
-1.8336682035
 10
-0.939280643
 20
-1.8087577888
 10
-0.902435602
 20
-1.7784878758
 10
-0.8704102416
 20
-1.7430498405
 10
-0.8434070364
 20
-1.7026677337
 10
-0.8215967094
 20
-1.657596864
 10
-0.8051171524
 20
-1.608122184
 10
-0.7940725547
 20
-1.5545564885
 10
-0.7885327435
 20
-1.4972384371
 10
-0.7885327435
 20
-1.436530413
 10
-0.7940725547
 20
-1.3728162318
 10
-0.8051171524
 20
-1.3064987151
 10
-0.8215967094
 20
-1.2379971437
 10
-0.8434070364
 20
-1.1677446064
 10
-0.8704102416
 20
-1.0961852625
 10
-0.902435602
 20
-1.0237715332
 10
-0.939280643
 20
-0.9509612413
 10
-0.9807124184
 20
-0.878214717
 10
-1.0264689831
 20
-0.8059918873
 10
-1.0762610494
 20
-0.7347493681
 10
-1.1297738158
 20
-0.6649375776
 10
-1.1866689575
 20
-0.5969978883
 10
-1.2465867649
 20
-0.531359837
 10
-1.3091484185
 20
-0.4684384083
 10
-1.3739583833
 20
-0.408631412
 10
-1.4406069098
 20
-0.3523169671
 10
-1.5086726246
 20
-0.2998511116
 10
-1.5777251943
 20
-0.2515655516
 10
-1.6473280464
 20
-0.2077655639
 10
-1.7170411292
 20
-0.1687280662
 10
-1.7864236942
 20
-0.134699866
 10
-1.8550370824
 20
-0.1058961006
 10
-1.9224474979
 20
-0.0824988768
 10
-1.9882287504
 20
-0.0646561192
 10
-2.0519649496
 20
-0.0524806356
 10
-2.1132531347
 20
-0.0460494032
 10
-2.1717058221
 20
-0.0454030824
 10
-2.226953455
 20
-0.0505457594
 10
-2.2786467403
 20
-0.0614449207
 10
-2.3264588562
 20
-0.078031658
 10
-2.3700875192
 20
-0.1002011049
 10
-2.3812778475
 20
-0.1072344535
  0
LWPOLYLINE
  5
60B
330
54B
100
AcDbEntity
  8
0
  6
Continuous
 62
     7
370
    25
100
AcDbPolyline
 90
       41
 70
   128
 43
0.0
 10
-0.914236448
 20
-1.7958600337
 10
-0.8891707136
 20
-1.7798299423
 10
-0.8523256726
 20
-1.7495600293
 10
-0.8203003122
 20
-1.7141219941
 10
-0.793297107
 20
-1.6737398873
 10
-0.77148678
 20
-1.6286690176
 10
-0.7550072231
 20
-1.5791943375
 10
-0.7439626253
 20
-1.525628642
 10
-0.7384228142
 20
-1.4683105906
 10
-0.7384228142
 20
-1.4076025665
 10
-0.7439626253
 20
-1.3438883853
 10
-0.7550072231
 20
-1.2775708686
 10
-0.77148678
 20
-1.2090692972
 10
-0.793297107
 20
-1.1388167599
 10
-0.8203003122
 20
-1.067257416
 10
-0.8523256726
 20
-0.9948436867
 10
-0.8891707136
 20
-0.9220333948
 10
-0.930602489
 20
-0.8492868706
 10
-0.9763590537
 20
-0.7770640408
 10
-1.02615112
 20
-0.7058215216
 10
-1.0796638865
 20
-0.6360097311
 10
-1.1365590281
 20
-0.5680700419
 10
-1.1964768356
 20
-0.5024319905
 10
-1.2590384891
 20
-0.4395105619
 10
-1.3238484539
 20
-0.3797035656
 10
-1.3904969804
 20
-0.3233891206
 10
-1.4585626952
 20
-0.2709232651
 10
-1.5276152649
 20
-0.2226377051
 10
-1.597218117
 20
-0.1788377174
 10
-1.6669311998
 20
-0.1398002197
 10
-1.7363137648
 20
-0.1057720195
 10
-1.804927153
 20
-0.0769682542
 10
-1.8723375685
 20
-0.0535710303
 10
-1.938118821
 20
-0.0357282727
 10
-2.0018550202
 20
-0.0235527891
 10
-2.0631432053
 20
-0.0171215567
 10
-2.1215958927
 20
-0.0164752359
 10
-2.1768435257
 20
-0.021617913
 10
-2.2285368109
 20
-0.0325170742
 10
-2.2763489268
 20
-0.0491038116
 10
-2.3151301404
 20
-0.0684136936
  0
LWPOLYLINE
  5
60C
330
54B
100
AcDbEntity
  8
0
  6
Continuous
 62
     7
370
    25
100
AcDbPolyline
 90
       43
 70
   128
 43
0.0
 10
-0.8981386416
 20
-1.7859323885
 10
-0.8971958694
 20
-1.785455126
 10
-0.855764094
 20
-1.7605447113
 10
-0.818919053
 20
-1.7302747983
 10
-0.7868936926
 20
-1.6948367631
 10
-0.7598904874
 20
-1.6544546563
 10
-0.7380801604
 20
-1.6093837866
 10
-0.7216006035
 20
-1.5599091065
 10
-0.7105560057
 20
-1.506343411
 10
-0.7050161946
 20
-1.4490253596
 10
-0.7050161946
 20
-1.3883173355
 10
-0.7105560057
 20
-1.3246031543
 10
-0.7216006035
 20
-1.2582856377
 10
-0.7380801604
 20
-1.1897840662
 10
-0.7598904874
 20
-1.1195315289
 10
-0.7868936926
 20
-1.047972185
 10
-0.818919053
 20
-0.9755584557
 10
-0.855764094
 20
-0.9027481638
 10
-0.8971958694
 20
-0.8300016396
 10
-0.9429524341
 20
-0.7577788099
 10
-0.9927445004
 20
-0.6865362907
 10
-1.0462572669
 20
-0.6167245001
 10
-1.1031524085
 20
-0.5487848109
 10
-1.163070216
 20
-0.4831467595
 10
-1.2256318695
 20
-0.4202253309
 10
-1.2904418343
 20
-0.3604183346
 10
-1.3570903608
 20
-0.3041038896
 10
-1.4251560756
 20
-0.2516380341
 10
-1.4942086454
 20
-0.2033524741
 10
-1.5638114974
 20
-0.1595524864
 10
-1.6335245803
 20
-0.1205149887
 10
-1.7029071452
 20
-0.0864867885
 10
-1.7715205334
 20
-0.0576830232
 10
-1.8389309489
 20
-0.0342857993
 10
-1.9047122014
 20
-0.0164430417
 10
-1.9684484006
 20
-0.0042675581
 10
-2.0297365857
 20
0.0021636743
 10
-2.0881892731
 20
0.0028099951
 10
-2.1434369061
 20
-0.002332682
 10
-2.1951301913
 20
-0.0132318432
 10
-2.2429423072
 20
-0.0298185806
 10
-2.2865709702
 20
-0.0519880274
 10
-2.2977612986
 20
-0.059021376
  0
LWPOLYLINE
  5
60D
330
54B
100
AcDbEntity
  8
0
  6
Continuous
 62
     7
370
    25
100
AcDbPolyline
 90
       41
 70
   128
 43
0.0
 10
-0.830719899
 20
-1.7476469562
 10
-0.8056541647
 20
-1.7316168649
 10
-0.7688091237
 20
-1.7013469518
 10
-0.7367837633
 20
-1.6659089166
 10
-0.7097805581
 20
-1.6255268098
 10
-0.687970231
 20
-1.5804559401
 10
-0.6714906741
 20
-1.5309812601
 10
-0.6604460763
 20
-1.4774155646
 10
-0.6549062652
 20
-1.4200975132
 10
-0.6549062652
 20
-1.359389489
 10
-0.6604460763
 20
-1.2956753078
 10
-0.6714906741
 20
-1.2293577912
 10
-0.687970231
 20
-1.1608562197
 10
-0.7097805581
 20
-1.0906036824
 10
-0.7367837633
 20
-1.0190443385
 10
-0.7688091237
 20
-0.9466306092
 10
-0.8056541647
 20
-0.8738203174
 10
-0.84708594
 20
-0.8010737931
 10
-0.8928425047
 20
-0.7288509634
 10
-0.9426345711
 20
-0.6576084442
 10
-0.9961473375
 20
-0.5877966536
 10
-1.0530424792
 20
-0.5198569644
 10
-1.1129602866
 20
-0.454218913
 10
-1.1755219402
 20
-0.3912974844
 10
-1.2403319049
 20
-0.3314904881
 10
-1.3069804314
 20
-0.2751760432
 10
-1.3750461462
 20
-0.2227101877
 10
-1.444098716
 20
-0.1744246276
 10
-1.5137015681
 20
-0.1306246399
 10
-1.5834146509
 20
-0.0915871422
 10
-1.6527972158
 20
-0.057558942
 10
-1.721410604
 20
-0.0287551767
 10
-1.7888210196
 20
-0.0053579528
 10
-1.854602272
 20
0.0124848047
 10
-1.9183384712
 20
0.0246602884
 10
-1.9796266563
 20
0.0310915208
 10
-2.0380793437
 20
0.0317378416
 10
-2.0933269767
 20
0.0265951645
 10
-2.145020262
 20
0.0156960033
 10
-2.1928323779
 20
-0.0008907341
 10
-2.2316135914
 20
-0.0202006161
  0
LWPOLYLINE
  5
60E
330
54B
100
AcDbEntity
  8
0
  6
Continuous
 62
     7
370
    25
100
AcDbPolyline
 90
       43
 70
   128
 43
0.0
 10
-0.8146220927
 20
-1.737719311
 10
-0.8136793204
 20
-1.7372420485
 10
-0.7722475451
 20
-1.7123316339
 10
-0.7354025041
 20
-1.6820617209
 10
-0.7033771437
 20
-1.6466236856
 10
-0.6763739385
 20
-1.6062415788
 10
-0.6545636115
 20
-1.5611707091
 10
-0.6380840545
 20
-1.5116960291
 10
-0.6270394567
 20
-1.4581303336
 10
-0.6214996456
 20
-1.4008122822
 10
-0.6214996456
 20
-1.340104258
 10
-0.6270394567
 20
-1.2763900769
 10
-0.6380840545
 20
-1.2100725602
 10
-0.6545636115
 20
-1.1415709887
 10
-0.6763739385
 20
-1.0713184515
 10
-0.7033771437
 20
-0.9997591076
 10
-0.7354025041
 20
-0.9273453782
 10
-0.7722475451
 20
-0.8545350864
 10
-0.8136793204
 20
-0.7817885621
 10
-0.8594358852
 20
-0.7095657324
 10
-0.9092279515
 20
-0.6383232132
 10
-0.9627407179
 20
-0.5685114226
 10
-1.0196358596
 20
-0.5005717334
 10
-1.079553667
 20
-0.434933682
 10
-1.1421153206
 20
-0.3720122534
 10
-1.2069252853
 20
-0.3122052571
 10
-1.2735738119
 20
-0.2558908122
 10
-1.3416395267
 20
-0.2034249567
 10
-1.4106920964
 20
-0.1551393967
 10
-1.4802949485
 20
-0.111339409
 10
-1.5500080313
 20
-0.0723019112
 10
-1.6193905963
 20
-0.038273711
 10
-1.6880039845
 20
-0.0094699457
 10
-1.7554144
 20
0.0139272782
 10
-1.8211956525
 20
0.0317700357
 10
-1.8849318516
 20
0.0439455194
 10
-1.9462200367
 20
0.0503767517
 10
-2.0046727241
 20
0.0510230725
 10
-2.0599203571
 20
0.0458803955
 10
-2.1116136424
 20
0.0349812343
 10
-2.1594257583
 20
0.0183944969
 10
-2.2030544213
 20
-0.00377495
 10
-2.2142447496
 20
-0.0108082986
  0
LWPOLYLINE
  5
60F
330
54B
100
AcDbEntity
  8
0
  6
Continuous
 62
     7
370
    25
100
AcDbPolyline
 90
       41
 70
   128
 43
0.0
 10
-0.7472033501
 20
-1.6994338787
 10
-0.7221376157
 20
-1.6834037874
 10
-0.6852925747
 20
-1.6531338744
 10
-0.6532672143
 20
-1.6176958391
 10
-0.6262640091
 20
-1.5773137323
 10
-0.6044536821
 20
-1.5322428626
 10
-0.5879741252
 20
-1.4827681826
 10
-0.5769295274
 20
-1.4292024871
 10
-0.5713897162
 20
-1.3718844357
 10
-0.5713897162
 20
-1.3111764116
 10
-0.5769295274
 20
-1.2474622304
 10
-0.5879741252
 20
-1.1811447137
 10
-0.6044536821
 20
-1.1126431422
 10
-0.6262640091
 20
-1.042390605
 10
-0.6532672143
 20
-0.9708312611
 10
-0.6852925747
 20
-0.8984175317
 10
-0.7221376157
 20
-0.8256072399
 10
-0.7635693911
 20
-0.7528607156
 10
-0.8093259558
 20
-0.6806378859
 10
-0.8591180221
 20
-0.6093953667
 10
-0.9126307886
 20
-0.5395835762
 10
-0.9695259302
 20
-0.4716438869
 10
-1.0294437376
 20
-0.4060058355
 10
-1.0920053912
 20
-0.3430844069
 10
-1.156815356
 20
-0.2832774106
 10
-1.2234638825
 20
-0.2269629657
 10
-1.2915295973
 20
-0.1744971102
 10
-1.360582167
 20
-0.1262115502
 10
-1.4301850191
 20
-0.0824115625
 10
-1.4998981019
 20
-0.0433740647
 10
-1.5692806669
 20
-0.0093458646
 10
-1.6378940551
 20
0.0194579008
 10
-1.7053044706
 20
0.0428551246
 10
-1.7710857231
 20
0.0606978822
 10
-1.8348219223
 20
0.0728733659
 10
-1.8961101074
 20
0.0793045982
 10
-1.9545627948
 20
0.079950919
 10
-2.0098104278
 20
0.074808242
 10
-2.061503713
 20
0.0639090808
 10
-2.1093158289
 20
0.0473223434
 10
-2.1480970425
 20
0.0280124614
  0
LWPOLYLINE
  5
610
330
54B
100
AcDbEntity
  8
0
  6
Continuous
 62
     7
370
    25
100
AcDbPolyline
 90
       43
 70
   128
 43
0.0
 10
-0.7311055437
 20
-1.6895062335
 10
-0.7301627715
 20
-1.689028971
 10
-0.6887309961
 20
-1.6641185564
 10
-0.6518859551
 20
-1.6338486434
 10
-0.6198605947
 20
-1.5984106081
 10
-0.5928573895
 20
-1.5580285013
 10
-0.5710470625
 20
-1.5129576316
 10
-0.5545675056
 20
-1.4634829516
 10
-0.5435229078
 20
-1.4099172561
 10
-0.5379830967
 20
-1.3525992047
 10
-0.5379830967
 20
-1.2918911806
 10
-0.5435229078
 20
-1.2281769994
 10
-0.5545675056
 20
-1.1618594827
 10
-0.5710470625
 20
-1.0933579113
 10
-0.5928573895
 20
-1.023105374
 10
-0.6198605947
 20
-0.9515460301
 10
-0.6518859551
 20
-0.8791323007
 10
-0.6887309961
 20
-0.8063220089
 10
-0.7301627715
 20
-0.7335754846
 10
-0.7759193362
 20
-0.6613526549
 10
-0.8257114025
 20
-0.5901101357
 10
-0.879224169
 20
-0.5202983452
 10
-0.9361193106
 20
-0.4523586559
 10
-0.9960371181
 20
-0.3867206045
 10
-1.0585987716
 20
-0.3237991759
 10
-1.1234087364
 20
-0.2639921796
 10
-1.1900572629
 20
-0.2076777347
 10
-1.2581229777
 20
-0.1552118792
 10
-1.3271755474
 20
-0.1069263192
 10
-1.3967783995
 20
-0.0631263315
 10
-1.4664914823
 20
-0.0240888337
 10
-1.5358740473
 20
0.0099393664
 10
-1.6044874355
 20
0.0387431318
 10
-1.671897851
 20
0.0621403556
 10
-1.7376791035
 20
0.0799831132
 10
-1.8014153027
 20
0.0921585968
 10
-1.8627034878
 20
0.0985898292
 10
-1.9211561752
 20
0.09923615
 10
-1.9764038082
 20
0.094093473
 10
-2.0280970934
 20
0.0831943117
 10
-2.0759092093
 20
0.0666075744
 10
-2.1195378723
 20
0.0444381275
 10
-2.1307282006
 20
0.0374047789
  0
LWPOLYLINE
  5
611
330
54B
100
AcDbEntity
  8
0
  6
Continuous
 62
     7
370
    25
100
AcDbPolyline
 90
       41
 70
   128
 43
0.0
 10
-0.6636868011
 20
-1.6512208013
 10
-0.6386210667
 20
-1.6351907099
 10
-0.6017760258
 20
-1.6049207969
 10
-0.5697506653
 20
-1.5694827617
 10
-0.5427474601
 20
-1.5291006548
 10
-0.5209371331
 20
-1.4840297852
 10
-0.5044575762
 20
-1.4345551051
 10
-0.4934129784
 20
-1.3809894096
 10
-0.4878731673
 20
-1.3236713582
 10
-0.4878731673
 20
-1.2629633341
 10
-0.4934129784
 20
-1.1992491529
 10
-0.5044575762
 20
-1.1329316362
 10
-0.5209371331
 20
-1.0644300648
 10
-0.5427474601
 20
-0.9941775275
 10
-0.5697506653
 20
-0.9226181836
 10
-0.6017760258
 20
-0.8502044543
 10
-0.6386210667
 20
-0.7773941624
 10
-0.6800528421
 20
-0.7046476382
 10
-0.7258094068
 20
-0.6324248084
 10
-0.7756014731
 20
-0.5611822892
 10
-0.8291142396
 20
-0.4913704987
 10
-0.8860093812
 20
-0.4234308094
 10
-0.9459271887
 20
-0.3577927581
 10
-1.0084888422
 20
-0.2948713295
 10
-1.073298807
 20
-0.2350643331
 10
-1.1399473335
 20
-0.1787498882
 10
-1.2080130483
 20
-0.1262840327
 10
-1.2770656181
 20
-0.0779984727
 10
-1.3466684702
 20
-0.034198485
 10
-1.416381553
 20
0.0048390127
 10
-1.4857641179
 20
0.0388672129
 10
-1.5543775061
 20
0.0676709783
 10
-1.6217879216
 20
0.0910682021
 10
-1.6875691741
 20
0.1089109597
 10
-1.7513053733
 20
0.1210864433
 10
-1.8125935584
 20
0.1275176757
 10
-1.8710462458
 20
0.1281639965
 10
-1.9262938788
 20
0.1230213194
 10
-1.977987164
 20
0.1121221582
 10
-2.0257992799
 20
0.0955354208
 10
-2.0645804935
 20
0.0762255389
  0
LWPOLYLINE
  5
612
330
54B
100
AcDbEntity
  8
0
  6
Continuous
 62
     7
370
    25
100
AcDbPolyline
 90
       43
 70
   128
 43
0.0
 10
-0.6475889947
 20
-1.6412931561
 10
-0.6466462225
 20
-1.6408158936
 10
-0.6052144472
 20
-1.6159054789
 10
-0.5683694062
 20
-1.5856355659
 10
-0.5363440458
 20
-1.5501975307
 10
-0.5093408406
 20
-1.5098154239
 10
-0.4875305135
 20
-1.4647445542
 10
-0.4710509566
 20
-1.4152698741
 10
-0.4600063588
 20
-1.3617041786
 10
-0.4544665477
 20
-1.3043861272
 10
-0.4544665477
 20
-1.2436781031
 10
-0.4600063588
 20
-1.1799639219
 10
-0.4710509566
 20
-1.1136464052
 10
-0.4875305135
 20
-1.0451448338
 10
-0.5093408406
 20
-0.9748922965
 10
-0.5363440458
 20
-0.9033329526
 10
-0.5683694062
 20
-0.8309192233
 10
-0.6052144472
 20
-0.7581089314
 10
-0.6466462225
 20
-0.6853624072
 10
-0.6924027872
 20
-0.6131395774
 10
-0.7421948536
 20
-0.5418970582
 10
-0.79570762
 20
-0.4720852677
 10
-0.8526027617
 20
-0.4041455785
 10
-0.9125205691
 20
-0.3385075271
 10
-0.9750822227
 20
-0.2755860985
 10
-1.0398921874
 20
-0.2157791022
 10
-1.1065407139
 20
-0.1594646572
 10
-1.1746064287
 20
-0.1069988017
 10
-1.2436589985
 20
-0.0587132417
 10
-1.3132618506
 20
-0.014913254
 10
-1.3829749334
 20
0.0241242437
 10
-1.4523574983
 20
0.0581524439
 10
-1.5209708865
 20
0.0869562092
 10
-1.5883813021
 20
0.1103534331
 10
-1.6541625545
 20
0.1281961907
 10
-1.7178987537
 20
0.1403716743
 10
-1.7791869388
 20
0.1468029067
 10
-1.8376396262
 20
0.1474492275
 10
-1.8928872592
 20
0.1423065504
 10
-1.9445805445
 20
0.1314073892
 10
-1.9923926604
 20
0.1148206518
 10
-2.0360213233
 20
0.092651205
 10
-2.0472116517
 20
0.0856178564
  0
SPLINE
  5
613
330
54B
100
AcDbEntity
  8
0
  6
Continuous
 62
     7
370
    25
100
AcDbSpline
210
0.0
220
0.0
230
1.0
 70
     8
 71
     3
 72
    36
 73
    32
 74
     0
 42
0.000000001
 43
0.00000001
 40
0.0
 40
0.0
 40
0.0
 40
0.0
 40
0.0174083644586934
 40
0.046706032865671
 40
0.0752388919951635
 40
0.1031048228412373
 40
0.1304353371515083
 40
0.1573908651633087
 40
0.184153204848737
 40
0.2109155445341652
 40
0.2378710725459656
 40
0.2652015868562366
 40
0.2930675177023104
 40
0.3216003768318029
 40
0.3508980452387805
 40
0.3810227587767864
 40
0.4120013063641058
 40
0.4546064233347236
 40
0.4986150729584131
 40
0.5438450813906299
 40
0.5900483886525083
 40
0.6369277274446075
 40
0.6841532048487369
 40
0.7313786822528665
 40
0.778258021044966
 40
0.824461328306844
 40
0.8696913367390613
 40
0.9136999863627503
 40
0.9563051033333682
 40
0.9872836509206874
 40
1.0
 40
1.0
 40
1.0
 40
1.0
 10
-0.4919916950843721
 20
-1.550613022146128
 30
0.0
 10
-0.481944483808938
 20
-1.54500556247392
 30
0.0
 10
-0.4549881674271068
 20
-1.529960944332764
 30
0.0
 10
-0.4175619687200847
 20
-1.495832700099182
 30
0.0
 10
-0.380381455396247
 20
-1.449604928074212
 30
0.0
 10
-0.3512396302454778
 20
-1.395592702917128
 30
0.0
 10
-0.3301551229822359
 20
-1.334791677698073
 30
0.0
 10
-0.3174233419235182
 20
-1.267661879598311
 30
0.0
 10
-0.3131620970531286
 20
-1.194895380916555
 30
0.0
 10
-0.3174227326452473
 20
-1.117208096678438
 30
0.0
 10
-0.3301575948899259
 20
-1.035380387548535
 30
0.0
 10
-0.3512301407954255
 20
-0.950228867803227
 30
0.0
 10
-0.3804180055620308
 20
-0.8625964023669388
 30
0.0
 10
-0.4174204261134833
 20
-0.773339632477292
 30
0.0
 10
-0.4618637530594138
 20
-0.6833219689163033
 30
0.0
 10
-0.5133096001286231
 20
-0.5934033897695554
 30
0.0
 10
-0.5779694943700366
 20
-0.4941314670462568
 30
0.0
 10
-0.6576282978700079
 20
-0.387597911448597
 30
0.0
 10
-0.7531560417780571
 20
-0.2771158110285505
 30
0.0
 10
-0.8560947951310849
 20
-0.1736708550136472
 30
0.0
 10
-0.9646987725502326
 20
-0.0790018364028508
 30
0.0
 10
-1.077134746419208
 20
0.005305123757221
 30
0.0
 10
-1.191502624120141
 20
0.0778304051076827
 30
0.0
 10
-1.305871345926815
 20
0.1373525094159378
 30
0.0
 10
-1.418304818077761
 20
0.1828571623010257
 30
0.0
 10
-1.52691776303826
 20
0.2135950393529543
 30
0.0
 10
-1.629824162235666
 20
0.2289449363120877
 30
0.0
 10
-1.725467746281322
 20
0.2289562796074029
 30
0.0
 10
-1.804747385647085
 20
0.2137419547993108
 30
0.0
 10
-1.859416244499528
 20
0.1947424117151562
 30
0.0
 10
-1.883891035703112
 20
0.1793986458146613
 30
0.0
 10
-1.891013835213604
 20
0.1749332116732195
 30
0.0
  0
SPLINE
  5
614
330
54B
100
AcDbEntity
  8
0
  6
Continuous
 62
     7
370
    25
100
AcDbSpline
210
0.0
220
0.0
230
1.0
 70
     8
 71
     3
 72
    12
 73
     8
 74
     0
 42
0.000000001
 43
0.00000001
 40
0.0
 40
0.0
 40
0.0
 40
0.0
 40
0.1499097022993657
 40
0.4247924633907739
 40
0.6908707100970553
 40
0.964592523753647
 40
1.0
 40
1.0
 40
1.0
 40
1.0
 10
-0.9711303968433695
 20
-0.077502719436524
 30
0.0
 10
-0.9575068832234745
 20
-0.0851053546138058
 30
0.0
 10
-0.9189025379284906
 20
-0.1066486041545834
 30
0.0
 10
-0.8572076145983423
 20
-0.1572035438431314
 30
0.0
 10
-0.7887841481297495
 20
-0.2271393929385047
 30
0.0
 10
-0.7422793949193089
 20
-0.2824408145259307
 30
0.0
 10
-0.721056779836138
 20
-0.3158156338158206
 30
0.0
 10
-0.7186259547283693
 20
-0.3196383648213626
 30
0.0
  0
LWPOLYLINE
  5
615
330
54B
100
AcDbEntity
  8
0
  6
Continuous
 62
     7
370
    25
100
AcDbPolyline
 90
       26
 70
   128
 43
0.0
 10
-0.2589013018
 20
-0.8244436247
 10
-0.2616305021
 20
-0.7577122381
 10
-0.2697926212
 20
-0.6884528368
 10
-0.2833114516
 20
-0.6173120773
 10
-0.3020607716
 20
-0.5449541817
 10
-0.3258655239
 20
-0.472054736
 10
-0.3545034498
 20
-0.3992943829
 10
-0.3877071649
 20
-0.3273524661
 10
-0.425166655
 20
-0.2569006879
 10
-0.4665321709
 20
-0.1885968376
 10
-0.5114174939
 20
-0.1230786498
 10
-0.5594035418
 20
-0.0609578503
 10
-0.6100422819
 20
-0.0028144441
 10
-0.6628609139
 20
0.0508086994
 10
-0.7173662844
 20
0.0994109154
 10
-0.7730494916
 20
0.1425384181
 10
-0.8293906362
 20
0.1797885375
 10
-0.8858636762
 20
0.2108134795
 10
-0.9419413381
 20
0.2353235724
 10
-0.9971000398
 20
0.2530899721
 10
-1.0508247794
 20
0.2639467985
 10
-1.1026139434
 20
0.2677926844
 10
-1.1519839904
 20
0.2645917218
 10
-1.1984739657
 20
0.2543737972
 10
-1.2416498047
 20
0.2372343125
 10
-1.2568693765
 20
0.2290725676
  0
LWPOLYLINE
  5
617
330
54B
100
AcDbEntity
  8
0
  6
Continuous
 62
     7
370
    25
100
AcDbPolyline
 90
       26
 70
   128
 43
0.0
 10
-0.3856483144
 20
-0.8480336656
 10
-0.3869053255
 20
-0.8300318543
 10
-0.3950674446
 20
-0.760772453
 10
-0.408586275
 20
-0.6896316935
 10
-0.427335595
 20
-0.6172737979
 10
-0.4511403473
 20
-0.5443743522
 10
-0.4797782733
 20
-0.4716139991
 10
-0.5129819884
 20
-0.3996720823
 10
-0.5504414784
 20
-0.3292203041
 10
-0.5918069943
 20
-0.2609164538
 10
-0.6366923173
 20
-0.195398266
 10
-0.6846783652
 20
-0.1332774665
 10
-0.7353171054
 20
-0.0751340603
 10
-0.7881357373
 20
-0.0215109168
 10
-0.8426411079
 20
0.0270912992
 10
-0.898324315
 20
0.0702188019
 10
-0.9546654596
 20
0.1074689213
 10
-1.0111384997
 20
0.1384938633
 10
-1.0672161615
 20
0.1630039562
 10
-1.1223748632
 20
0.1807703559
 10
-1.1760996028
 20
0.1916271823
 10
-1.2278887668
 20
0.1954730682
 10
-1.2772588139
 20
0.1922721056
 10
-1.3237487891
 20
0.1820541809
 10
-1.3669246281
 20
0.1649146963
 10
-1.3716411267
 20
0.1625157054
  0
SPLINE
  5
618
330
54B
100
AcDbEntity
  8
0
  6
Continuous
 62
     7
370
    25
100
AcDbSpline
210
0.0
220
0.0
230
1.0
 70
     8
 71
     3
 72
    13
 73
     9
 74
     0
 42
0.000000001
 43
0.00000001
 40
0.0
 40
0.0
 40
0.0
 40
0.0
 40
0.0266250190964455
 40
0.2588885484692494
 40
0.4872483872048801
 40
0.7221643949436268
 40
0.9521721400323858
 40
0.9999999999999999
 40
0.9999999999999999
 40
0.9999999999999999
 40
0.9999999999999999
 10
-0.6875386036431441
 20
-0.3556698665954999
 30
0.0
 10
-0.6895627610029876
 20
-0.3522463063385214
 30
0.0
 10
-0.7092446684174021
 20
-0.3189572956408928
 30
0.0
 10
-0.753826495855069
 20
-0.2621105488790643
 30
0.0
 10
-0.8203546520901173
 20
-0.1873486999157861
 30
0.0
 10
-0.8916080834631176
 20
-0.1257729013936921
 30
0.0
 10
-0.9458565142494851
 20
-0.0858926114608597
 30
0.0
 10
-0.9750980915081843
 20
-0.0720600945391511
 30
0.0
 10
-0.9801318670103467
 20
-0.0696789033948525
 30
0.0
  0
LWPOLYLINE
  5
619
330
54B
100
AcDbEntity
  8
0
  6
Continuous
 62
     7
370
    25
100
AcDbPolyline
 90
       25
 70
   128
 43
0.0
 10
0.1461539607
 20
-0.5343616086
 10
0.1434044421
 20
-0.4701678403
 10
0.1351841001
 20
-0.4034582603
 10
0.1215772865
 20
-0.3349173992
 10
0.1027236257
 20
-0.265248579
 10
0.0788165817
 20
-0.1951666961
 10
0.0501014731
 20
-0.1253908853
 10
0.0168729559
 20
-0.056637141
 10
-0.0205280005
 20
0.0103890303
 10
-0.0617176116
 20
0.0749998496
 10
-0.1062732162
 20
0.1365323223
 10
-0.1537376136
 20
0.194355042
 10
-0.2036237548
 20
0.2478746693
 10
-0.2554197405
 20
0.2965420205
 10
-0.3085940739
 20
0.3398577027
 10
-0.3626011142
 20
0.3773772383
 10
-0.4168866761
 20
0.4087156262
 10
-0.4708937164
 20
0.433551292
 10
-0.5240680497
 20
0.4516293883
 10
-0.5758640355
 20
0.4627644093
 10
-0.6257501767
 20
0.4668420946
 10
-0.6732145741
 20
0.4638206017
 10
-0.7177701787
 20
0.4537309351
 10
-0.7589597898
 20
0.4366766285
 10
-0.7686501078
 20
0.4313615676
  0
LWPOLYLINE
  5
61A
330
54B
100
AcDbEntity
  8
0
  6
Continuous
 62
     7
370
    25
100
AcDbPolyline
 90
        9
 70
   128
 43
0.0
 10
-0.0108376825
 20
-0.8813502907
 10
0.0168729559
 20
-0.8628214053
 10
0.0501014731
 20
-0.8324324904
 10
0.0788165817
 20
-0.7958104383
 10
0.1027236257
 20
-0.7533310408
 10
0.1215772865
 20
-0.705430194
 10
0.1351841001
 20
-0.6525994255
 10
0.1434044421
 20
-0.5953808504
 10
0.1461539607
 20
-0.5343616086
  0
LWPOLYLINE
  5
61C
330
54B
100
AcDbEntity
  8
0
  6
Continuous
 62
     7
370
    25
100
AcDbPolyline
 90
       27
 70
   128
 43
0.0
 10
0.5269935672
 20
-0.4591468159
 10
0.5242542246
 20
-0.3881368593
 10
0.5160588961
 20
-0.3145525359
 10
0.5024754907
 20
-0.2390035887
 10
0.4836165647
 20
-0.1621160401
 10
0.4596383892
 20
-0.0845270045
 10
0.4307396548
 20
-0.006879409
 10
0.3971598256
 20
0.0701833338
 10
0.3591771547
 20
0.1460226579
 10
0.3171063783
 20
0.2200101346
 10
0.2712961083
 20
0.2915326806
 10
0.2221259428
 20
0.3599976374
 10
0.1700033215
 20
0.4248376828
 10
0.1153601488
 20
0.4855155318
 10
0.0586492151
 20
0.5415283886
 10
0.0003404452
 20
0.5924121131
 10
-0.0590829962
 20
0.6377450667
 10
-0.1191287076
 20
0.6771516063
 10
-0.1792991314
 20
0.7103051968
 10
-0.2390956765
 20
0.7369311173
 10
-0.2980228499
 20
0.7568087368
 10
-0.3555923625
 20
0.7697733432
 10
-0.4113271752
 20
0.7757175077
 10
-0.4647654517
 20
0.7745919751
 10
-0.5154643858
 20
0.7664060718
 10
-0.5630038699
 20
0.751227629
 10
-0.6016608031
 20
0.7323298301
  0
LWPOLYLINE
  5
61D
330
54B
100
AcDbEntity
  8
0
  6
Continuous
 62
     7
370
    25
100
AcDbPolyline
 90
       10
 70
   128
 43
0.0
 10
0.3333025788
 20
-0.8872497354
 10
0.3591771547
 20
-0.8705595842
 10
0.3971598256
 20
-0.8385741185
 10
0.4307396548
 20
-0.8002818212
 10
0.4596383892
 20
-0.7559999942
 10
0.4836165647
 20
-0.7060955708
 10
0.5024754907
 20
-0.6509820746
 10
0.5160588961
 20
-0.5911161935
 10
0.5242542246
 20
-0.5269939951
 10
0.5269935672
 20
-0.4591468159
  0
LWPOLYLINE
  5
61E
330
54B
100
AcDbEntity
  8
0
  6
Continuous
 62
     7
370
    25
100
AcDbPolyline
 90
       19
 70
   128
 43
0.0
 10
0.5428575682
 20
-0.3133850036
 10
0.5400723416
 20
-0.2483575499
 10
0.5317452419
 20
-0.1807816118
 10
0.5179617165
 20
-0.1113506096
 10
0.4988632029
 20
-0.0407769995
 10
0.4746456778
 20
0.0302150377
 10
0.4455576458
 20
0.1008970278
 10
0.4118975894
 20
0.1705436779
 10
0.3740109063
 20
0.238440319
 10
0.3322863652
 20
0.3038902398
 10
0.2871521163
 20
0.3662218356
 10
0.2390712982
 20
0.4247954997
 10
0.188537285
 20
0.4790101871
 10
0.1360686241
 20
0.5283095818
 10
0.0822037151
 20
0.5721878053
 10
0.0274952846
 20
0.6101946076
 10
-0.0274952846
 20
0.6419399875
 10
-0.0822037151
 20
0.6670981945
 10
-0.1302364247
 20
0.6837482139
  0
LWPOLYLINE
  5
632
330
54B
100
AcDbEntity
  8
0
  6
Continuous
 62
     7
370
    25
100
AcDbPolyline
 90
       12
 70
   128
 43
0.0
 10
1.3795625706
 20
1.825117354
 10
1.425937466
 20
1.7950982855
 10
1.466082503
 20
1.7622231504
 10
1.4994743296
 20
1.7269205262
 10
1.5256776325
 20
1.6896506366
 10
1.5443508113
 20
1.6508993517
 10
1.5552504328
 20
1.6111718537
 10
1.5582344036
 20
1.5709860513
 10
1.5532638232
 20
1.5308658279
 10
1.5404034906
 20
1.4913342119
 10
1.51982106
 20
1.4529065585
 10
1.5092516329
 20
1.4376447364
  0
LWPOLYLINE
  5
633
330
54B
100
AcDbEntity
  8
0
  6
Continuous
 62
     7
370
    25
100
AcDbPolyline
 90
       23
 70
   128
 43
0.0
 10
0.3449143444
 20
1.5224714105
 10
0.3383840651
 20
1.5609293494
 10
0.3393789925
 20
1.6011479547
 10
0.3483090129
 20
1.6410389324
 10
0.3650577099
 20
1.6800822427
 10
0.3894067386
 20
1.7177688963
 10
0.4210386721
 20
1.75360759
 10
0.4595411398
 20
1.7871311116
 10
0.5044122032
 20
1.8179024309
 10
0.5550668993
 20
1.8455203965
 10
0.6108448667
 20
1.869624966
 10
0.6710189543
 20
1.8899018996
 10
0.7348047009
 20
1.9060868564
 10
0.8013705616
 20
1.9179688406
 10
0.8698487487
 20
1.9253929526
 10
0.9393465443
 20
1.9282624076
 10
1.0089579384
 20
1.9265397979
 10
1.0777754399
 20
1.9202475804
 10
1.1449019075
 20
1.9094677837
 10
1.2094622451
 20
1.894340939
 10
1.2706148099
 20
1.8750642477
 10
1.3275623846
 20
1.8518890112
 10
1.3795625706
 20
1.825117354
  0
LWPOLYLINE
  5
63A
330
54B
100
AcDbEntity
  8
0
  6
Continuous
 62
     8
370
    25
100
AcDbPolyline
 90
       27
 70
   128
 43
0.0
 10
-4.9079891938
 20
-3.5886600663
 10
-4.910779951
 20
-3.5173438506
 10
-4.9191284128
 20
-3.4434139399
 10
-4.9329633531
 20
-3.3675010784
 10
-4.952166737
 20
-3.2902529277
 10
-4.976574728
 20
-3.2123285419
 10
-5.0059790858
 20
-3.1343927442
 10
-5.0401289428
 20
-3.0571104555
 10
-5.0787329444
 20
-2.9811410211
 10
-5.1214617349
 20
-2.9071325852
 10
-5.1679507673
 20
-2.8357165619
 10
-5.2178034136
 20
-2.7675022474
 10
-5.2705943485
 20
-2.7030716223
 10
-5.3258731785
 20
-2.6429743858
 10
-5.383168284
 20
-2.5877232665
 10
-5.4419908435
 20
-2.5377896473
 10
-5.5018390035
 20
-2.4935995444
 10
-5.5622021607
 20
-2.4555299721
 10
-5.6225653179
 20
-2.4239057266
 10
-5.6824134779
 20
-2.3989966148
 10
-5.7412360373
 20
-2.3810151524
 10
-5.7985311429
 20
-2.3701147509
 10
-5.8538099728
 20
-2.3663884088
 10
-5.9066009078
 20
-2.3698679179
 10
-5.9564535541
 20
-2.3805235922
 10
-6.0029425865
 20
-2.3982645212
 10
-6.0247629917
 20
-2.4097252797
  0
LWPOLYLINE
  5
63B
330
54B
100
AcDbEntity
  8
0
  6
Continuous
 62
     8
370
    25
100
AcDbPolyline
 90
       10
 70
   128
 43
0.0
 10
-5.0996413296
 20
-4.0122566393
 10
-5.0787329444
 20
-3.9990425733
 10
-5.0401289428
 20
-3.9676443704
 10
-5.0059790858
 20
-3.9297906673
 10
-4.976574728
 20
-3.8858044186
 10
-4.952166737
 20
-3.8360608993
 10
-4.9329633531
 20
-3.7809845038
 10
-4.9191284128
 20
-3.7210451243
 10
-4.910779951
 20
-3.6567541425
 10
-4.9079891938
 20
-3.5886600663
  0
LWPOLYLINE
  5
63C
330
54B
100
AcDbEntity
  8
0
  6
Continuous
 62
     8
370
    25
100
AcDbPolyline
 90
       33
 70
   128
 43
0.0
 10
0.2435899345
 20
-0.590610199
 10
0.2408070542
 20
-0.5205189234
 10
0.2324828696
 20
-0.4478305673
 10
0.2186905338
 20
-0.3731839187
 10
0.1995512543
 20
-0.2972349749
 10
0.1752332279
 20
-0.2206511779
 10
0.1459501622
 20
-0.1441055491
 10
0.1119593978
 20
-0.068270774
 10
0.0735596469
 20
0.0061867086
 10
0.0310883678
 20
0.0786125636
 10
-0.0150812004
 20
0.14837031
 10
-0.0645433178
 20
0.2148469143
 10
-0.1168633095
 20
0.2774581776
 10
-0.1715813857
 20
0.3356538699
 10
-0.2282166818
 20
0.3889225654
 10
-0.2862714849
 20
0.4367961369
 10
-0.3452356073
 20
0.4788538697
 10
-0.4045908701
 20
0.514726159
 10
-0.4638156571
 20
0.5440977577
 10
-0.5223894988
 20
0.5667105472
 10
-0.5797976462
 20
0.5823658055
 10
-0.6355355944
 20
0.5909259536
 10
-0.6891135163
 20
0.5923157647
 10
-0.7400605673
 20
0.5865230249
 10
-0.7879290227
 20
0.5735986413
 10
-0.8322982128
 20
0.5536561935
 10
-0.8727782198
 20
0.5268709368
 10
-0.9090133037
 20
0.4934782607
 10
-0.9406850294
 20
0.4537716214
 10
-0.9675150646
 20
0.4080999622
 10
-0.9892676259
 20
0.3568646474
 10
-1.0057515512
 20
0.3005159346
 10
-1.0073379205
 20
0.2935700263
  0
LWPOLYLINE
  5
63D
330
54B
100
AcDbEntity
  8
0
  6
Continuous
 62
     8
370
    25
100
AcDbPolyline
 90
       16
 70
   128
 43
0.0
 10
-0.2495254952
 20
-1.019141832
 10
-0.2282166818
 20
-1.0254066393
 10
-0.1715813857
 20
-1.0375276649
 10
-0.1168633095
 20
-1.0425081185
 10
-0.0645433178
 20
-1.0403042319
 10
-0.0150812004
 20
-1.0309353728
 10
0.0310883678
 20
-1.0144838751
 10
0.0735596469
 20
-0.9910943152
 10
0.1119593978
 20
-0.9609722413
 10
0.1459501622
 20
-0.9243823674
 10
0.1752332279
 20
-0.8816462465
 10
0.1995512543
 20
-0.8331394453
 10
0.2186905338
 20
-0.7792882432
 10
0.2324828696
 20
-0.7205658865
 10
0.2408070542
 20
-0.6574884295
 10
0.2435899345
 20
-0.590610199
  0
LWPOLYLINE
  5
63E
330
54B
100
AcDbEntity
  8
0
  6
Continuous
 62
     8
370
    25
100
AcDbPolyline
 90
       10
 70
   128
 43
0.0
 10
0.2992676338
 20
-0.590610199
 10
0.2965282912
 20
-0.6584573781
 10
0.2883329627
 20
-0.7225795766
 10
0.2747495573
 20
-0.7824454577
 10
0.2558906313
 20
-0.8375589538
 10
0.2319124558
 20
-0.8874633773
 10
0.2030137214
 20
-0.9317452043
 10
0.1694338923
 20
-0.9700375016
 10
0.1314512213
 20
-1.0020229672
 10
0.1058410658
 20
-1.0185602991
  0
LWPOLYLINE
  5
63F
330
54B
100
AcDbEntity
  8
0
  6
Continuous
 62
     8
370
    25
100
AcDbPolyline
 90
       27
 70
   128
 43
0.0
 10
-0.8204009634
 20
0.6058581601
 10
-0.7907298033
 20
0.6197642459
 10
-0.7431903191
 20
0.6349426888
 10
-0.6924913851
 20
0.643128592
 10
-0.6390531086
 20
0.6442541246
 10
-0.5833182959
 20
0.6383099601
 10
-0.5257487833
 20
0.6253453537
 10
-0.4668216099
 20
0.6054677342
 10
-0.4070250648
 20
0.5788418138
 10
-0.346854641
 20
0.5456882232
 10
-0.2868089296
 20
0.5062816837
 10
-0.2273854882
 20
0.4609487301
 10
-0.1690767183
 20
0.4100650056
 10
-0.1123657846
 20
0.3540521487
 10
-0.0577226119
 20
0.2933742997
 10
-0.0055999905
 20
0.2285342543
 10
0.0435701749
 20
0.1600692975
 10
0.0893804449
 20
0.0885467516
 10
0.1314512213
 20
0.0145592748
 10
0.1694338923
 20
-0.0612800492
 10
0.2030137214
 20
-0.1383427921
 10
0.2319124558
 20
-0.2159903875
 10
0.2558906313
 20
-0.2935794232
 10
0.2747495573
 20
-0.3704669718
 10
0.2883329627
 20
-0.446015919
 10
0.2965282912
 20
-0.5196002423
 10
0.2992676338
 20
-0.590610199
  0
LWPOLYLINE
  5
640
330
54B
100
AcDbEntity
  8
0
  6
Continuous
 62
     8
370
    25
100
AcDbPolyline
 90
        9
 70
   128
 43
0.0
 10
0.391283408
 20
0.7884604344
 10
0.3394993615
 20
0.8151676151
 10
0.2883020491
 20
0.8351979668
 10
0.2382715566
 20
0.8483245376
 10
0.1899747494
 20
0.8543985983
 10
0.1439588499
 20
0.8533513273
 10
0.1007452364
 20
0.8451945905
 10
0.0608235365
 20
0.8300208072
 10
0.0468232146
 20
0.8225703117
  0
LWPOLYLINE
  5
641
330
54B
100
AcDbEntity
  8
0
  6
Continuous
 62
     8
370
    25
100
AcDbPolyline
 90
       24
 70
   128
 43
0.0
 10
0.7357436013
 20
-0.370804105
 10
0.7403267088
 20
-0.3680869844
 10
0.7744754918
 20
-0.3427343277
 10
0.8042825554
 20
-0.3109390084
 10
0.8294101737
 20
-0.27306128
 10
0.8495736406
 20
-0.2295303124
 10
0.864544496
 20
-0.1808393288
 10
0.8741531142
 20
-0.1275400175
 10
0.8782906258
 20
-0.0702362811
 10
0.8769101509
 20
-0.0095773937
 10
0.870027331
 20
0.0537493552
 10
0.8577201511
 20
0.1190264483
 10
0.8401280566
 20
0.1855142699
 10
0.8174503728
 20
0.2524594866
 10
0.7899440471
 20
0.3191035822
 10
0.757920737
 20
0.3846914526
 10
0.7217432794
 20
0.4484799609
 10
0.6818215795
 20
0.5097463579
 10
0.638607966
 20
0.5677964707
 10
0.5925920665
 20
0.6219725685
 10
0.5442952593
 20
0.6716608144
 10
0.4942647668
 20
0.7162982207
 10
0.4430674544
 20
0.7553790277
 10
0.391283408
 20
0.7884604344
  0
LWPOLYLINE
  5
642
330
54B
100
AcDbEntity
  8
0
  6
Continuous
 62
     8
370
    25
100
AcDbPolyline
 90
        9
 70
   128
 43
0.0
 10
0.4608805321
 20
0.9090061891
 10
0.411856457
 20
0.9404937803
 10
0.3689077868
 20
0.9748111995
 10
0.3325211472
 20
1.0115696167
 10
0.3031088132
 20
1.0503525443
 10
0.2810040385
 20
1.0907205562
 10
0.2664572789
 20
1.1322162667
 10
0.259633355
 20
1.174369513
 10
0.25911897
 20
1.186243162
  0
LWPOLYLINE
  5
643
330
54B
100
AcDbEntity
  8
0
  6
Continuous
 62
     8
370
    25
100
AcDbPolyline
 90
       21
 70
   128
 43
0.0
 10
1.6125177866
 20
1.0850863447
 10
1.5992344898
 20
1.0603135445
 10
1.57162098
 20
1.0210923612
 10
1.5369422796
 20
0.9837877919
 10
1.4955913123
 20
0.9488225121
 10
1.448036601
 20
0.9165926925
 10
1.3948169595
 20
0.8874635098
 10
1.3365353877
 20
0.8617650093
 10
1.2738522391
 20
0.8397883652
 10
1.2074777388
 20
0.8217825818
 10
1.1381639364
 20
0.8079516718
 10
1.066696185
 20
0.7984523448
 10
0.9938842427
 20
0.793392232
 10
0.920553098
 20
0.7928286667
 10
0.847533622
 20
0.7967680341
 10
0.7756531546
 20
0.8051656996
 10
0.7057261302
 20
0.8179265145
 10
0.63854485
 20
0.8349058934
 10
0.5748705045
 20
0.8559114534
 10
0.5154245498
 20
0.8807051929
 10
0.4608805321
 20
0.9090061891
  0
LINE
  5
646
330
54B
100
AcDbEntity
  8
0
  6
Continuous
 62
     7
370
    25
100
AcDbLine
 10
-6.0247629917
 20
-2.4097252797
 30
0.0
 11
-6.2524889251
 21
-2.5411886628
 31
0.0
  0
LINE
  5
647
330
54B
100
AcDbEntity
  8
0
  6
Continuous
 62
     7
370
    25
100
AcDbLine
 10
-5.327367263
 20
-4.1437200223
 30
0.0
 11
-5.0996413296
 21
-4.0122566393
 31
0.0
  0
LINE
  5
648
330
54B
100
AcDbEntity
  8
0
  6
Continuous
 62
     7
370
    25
100
AcDbLine
 10
-6.21457601
 20
-2.7238693915
 30
0.0
 11
-6.3398508334
 21
-2.7961890077
 31
0.0
  0
LINE
  5
649
330
54B
100
AcDbEntity
  8
0
  6
Continuous
 62
     7
370
    25
100
AcDbLine
 10
-5.5918801279
 20
-4.0918526601
 30
0.0
 11
-5.4666053044
 21
-4.0195330439
 31
0.0
  0
LINE
  5
64A
330
54B
100
AcDbEntity
  8
0
  6
Continuous
 62
     7
370
    25
100
AcDbLine
 10
-5.4350882197
 20
-2.2738806685
 30
0.0
 11
-5.654494691
 21
-2.4005413284
 31
0.0
  0
LINE
  5
64B
330
54B
100
AcDbEntity
  8
0
  6
Continuous
 62
     7
370
    25
100
AcDbLine
 10
-4.9065499704
 20
-3.6962199815
 30
0.0
 11
-4.6871175142
 21
-3.5695443209
 31
0.0
  0
LINE
  5
64C
330
54B
100
AcDbEntity
  8
0
  6
Continuous
 62
     7
370
    25
100
AcDbLine
 10
-5.2378942816
 20
-1.7556892916
 30
0.0
 11
-5.3715207599
 21
-1.8328302156
 31
0.0
  0
LINE
  5
64D
330
54B
100
AcDbEntity
  8
0
  6
Continuous
 62
     7
370
    25
100
AcDbLine
 10
-3.9711971836
 20
-3.5606060507
 30
0.0
 11
-3.8375707053
 21
-3.4834651268
 31
0.0
  0
LINE
  5
64E
330
54B
100
AcDbEntity
  8
0
  6
Continuous
 62
     7
370
    25
100
AcDbLine
 10
-5.1543777326
 20
-1.7074762142
 30
0.0
 11
-5.204487662
 21
-1.7364040606
 31
0.0
  0
LINE
  5
64F
330
54B
100
AcDbEntity
  8
0
  6
Continuous
 62
     7
370
    25
100
AcDbLine
 10
-3.8041640857
 20
-3.4641798958
 30
0.0
 11
-3.7540541563
 21
-3.4352520493
 31
0.0
  0
LINE
  5
650
330
54B
100
AcDbEntity
  8
0
  6
Continuous
 62
     7
370
    25
100
AcDbLine
 10
-4.455607887
 20
-3.1426890997
 30
0.0
 11
-4.455607887
 21
-3.0784049964
 31
0.0
  0
LINE
  5
651
330
54B
100
AcDbEntity
  8
0
  6
Continuous
 62
     7
370
    25
100
AcDbLine
 10
-4.8939985066
 20
-2.3190078874
 30
0.0
 11
-4.9496632247
 21
-2.2868628824
 31
0.0
  0
LINE
  5
652
330
54B
100
AcDbEntity
  8
0
  6
Continuous
 62
     7
370
    25
100
AcDbLine
 10
-5.0708611837
 20
-1.6592631367
 30
0.0
 11
-5.1209711131
 21
-1.6881909832
 31
0.0
  0
LINE
  5
653
330
54B
100
AcDbEntity
  8
0
  6
Continuous
 62
     7
370
    25
100
AcDbLine
 10
-3.7206475367
 20
-3.4159668183
 30
0.0
 11
-3.6705376074
 21
-3.3870389718
 31
0.0
  0
LINE
  5
654
330
54B
100
AcDbEntity
  8
0
  6
Continuous
 62
     7
370
    25
100
AcDbLine
 10
-4.9873446347
 20
-1.6110500592
 30
0.0
 11
-5.0374545641
 21
-1.6399779057
 31
0.0
  0
LINE
  5
655
330
54B
100
AcDbEntity
  8
0
  6
Continuous
 62
     7
370
    25
100
AcDbLine
 10
-3.6371309878
 20
-3.3677537408
 30
0.0
 11
-3.5870210584
 21
-3.3388258943
 31
0.0
  0
LINE
  5
656
330
54B
100
AcDbEntity
  8
0
  6
Continuous
 62
     7
370
    25
100
AcDbLine
 10
-4.9038280858
 20
-1.5628369818
 30
0.0
 11
-4.9539380151
 21
-1.5917648282
 31
0.0
  0
LINE
  5
657
330
54B
100
AcDbEntity
  8
0
  6
Continuous
 62
     7
370
    25
100
AcDbLine
 10
-3.5536144388
 20
-3.3195406634
 30
0.0
 11
-3.5035045094
 21
-3.2906128169
 31
0.0
  0
LINE
  5
658
330
54B
100
AcDbEntity
  8
0
  6
Continuous
 62
     7
370
    25
100
AcDbLine
 10
-4.8203115368
 20
-1.5146239043
 30
0.0
 11
-4.8704214662
 21
-1.5435517508
 31
0.0
  0
LINE
  5
659
330
54B
100
AcDbEntity
  8
0
  6
Continuous
 62
     7
370
    25
100
AcDbLine
 10
-3.4700978899
 20
-3.2713275859
 30
0.0
 11
-3.4199879605
 21
-3.2423997394
 31
0.0
  0
LINE
  5
65A
330
54B
100
AcDbEntity
  8
0
  6
Continuous
 62
     7
370
    25
100
AcDbLine
 10
-4.7367949879
 20
-1.4664108268
 30
0.0
 11
-4.7869049172
 21
-1.4953386733
 31
0.0
  0
LINE
  5
65B
330
54B
100
AcDbEntity
  8
0
  6
Continuous
 62
     7
370
    25
100
AcDbLine
 10
-3.3865813409
 20
-3.2231145084
 30
0.0
 11
-3.3364714115
 21
-3.1941866619
 31
0.0
  0
LINE
  5
65C
330
54B
100
AcDbEntity
  8
0
  6
Continuous
 62
     7
370
    25
100
AcDbLine
 10
-4.6532784389
 20
-1.4181977493
 30
0.0
 11
-4.7033883683
 21
-1.4471255958
 31
0.0
  0
LINE
  5
65D
330
54B
100
AcDbEntity
  8
0
  6
Continuous
 62
     7
370
    25
100
AcDbLine
 10
-3.3030647919
 20
-3.1749014309
 30
0.0
 11
-3.2529548626
 21
-3.1459735845
 31
0.0
  0
LINE
  5
65E
330
54B
100
AcDbEntity
  8
0
  6
Continuous
 62
     7
370
    25
100
AcDbLine
 10
-4.5697618899
 20
-1.3699846719
 30
0.0
 11
-4.6198718193
 21
-1.3989125184
 31
0.0
  0
LINE
  5
65F
330
54B
100
AcDbEntity
  8
0
  6
Continuous
 62
     7
370
    25
100
AcDbLine
 10
-3.219548243
 20
-3.1266883535
 30
0.0
 11
-3.1694383136
 21
-3.097760507
 31
0.0
  0
LINE
  5
660
330
54B
100
AcDbEntity
  8
0
  6
Continuous
 62
     7
370
    25
100
AcDbLine
 10
-4.486245341
 20
-1.3217715944
 30
0.0
 11
-4.5363552704
 21
-1.3506994409
 31
0.0
  0
LINE
  5
661
330
54B
100
AcDbEntity
  8
0
  6
Continuous
 62
     7
370
    25
100
AcDbLine
 10
-3.136031694
 20
-3.078475276
 30
0.0
 11
-3.0859217646
 21
-3.0495474295
 31
0.0
  0
LINE
  5
662
330
54B
100
AcDbEntity
  8
0
  6
Continuous
 62
     7
370
    25
100
AcDbLine
 10
-4.402728792
 20
-1.2735585169
 30
0.0
 11
-4.4528387214
 21
-1.3024863634
 31
0.0
  0
LINE
  5
663
330
54B
100
AcDbEntity
  8
0
  6
Continuous
 62
     7
370
    25
100
AcDbLine
 10
-3.0525151451
 20
-3.0302621985
 30
0.0
 11
-3.0024052157
 21
-3.0013343521
 31
0.0
  0
LINE
  5
664
330
54B
100
AcDbEntity
  8
0
  6
Continuous
 62
     7
370
    25
100
AcDbLine
 10
-4.3192122431
 20
-1.2253454395
 30
0.0
 11
-4.3693221724
 21
-1.2542732859
 31
0.0
  0
LINE
  5
665
330
54B
100
AcDbEntity
  8
0
  6
Continuous
 62
     7
370
    25
100
AcDbLine
 10
-2.9689985961
 20
-2.9820491211
 30
0.0
 11
-2.9188886667
 21
-2.9531212746
 31
0.0
  0
LINE
  5
666
330
54B
100
AcDbEntity
  8
0
  6
Continuous
 62
     7
370
    25
100
AcDbLine
 10
-4.2356956941
 20
-1.177132362
 30
0.0
 11
-4.2858056235
 21
-1.2060602085
 31
0.0
  0
LINE
  5
667
330
54B
100
AcDbEntity
  8
0
  6
Continuous
 62
     7
370
    25
100
AcDbLine
 10
-2.8854820471
 20
-2.9338360436
 30
0.0
 11
-2.8353721178
 21
-2.9049081971
 31
0.0
  0
LINE
  5
668
330
54B
100
AcDbEntity
  8
0
  6
Continuous
 62
     7
370
    25
100
AcDbLine
 10
-4.1521791451
 20
-1.1289192845
 30
0.0
 11
-4.2022890745
 21
-1.157847131
 31
0.0
  0
LINE
  5
669
330
54B
100
AcDbEntity
  8
0
  6
Continuous
 62
     7
370
    25
100
AcDbLine
 10
-2.8019654982
 20
-2.8856229661
 30
0.0
 11
-2.7518555688
 21
-2.8566951196
 31
0.0
  0
LINE
  5
66A
330
54B
100
AcDbEntity
  8
0
  6
Continuous
 62
     7
370
    25
100
AcDbLine
 10
-4.0686625962
 20
-1.0807062071
 30
0.0
 11
-4.1187725256
 21
-1.1096340535
 31
0.0
  0
LINE
  5
66B
330
54B
100
AcDbEntity
  8
0
  6
Continuous
 62
     7
370
    25
100
AcDbLine
 10
-2.7184489492
 20
-2.8374098887
 30
0.0
 11
-2.6683390198
 21
-2.8084820422
 31
0.0
  0
LINE
  5
66C
330
54B
100
AcDbEntity
  8
0
  6
Continuous
 62
     7
370
    25
100
AcDbLine
 10
-3.9851460472
 20
-1.0324931296
 30
0.0
 11
-4.0352559766
 21
-1.0614209761
 31
0.0
  0
LINE
  5
66D
330
54B
100
AcDbEntity
  8
0
  6
Continuous
 62
     7
370
    25
100
AcDbLine
 10
-2.6349324003
 20
-2.7891968112
 30
0.0
 11
-2.5848224709
 21
-2.7602689647
 31
0.0
  0
LINE
  5
66E
330
54B
100
AcDbEntity
  8
0
  6
Continuous
 62
     7
370
    25
100
AcDbLine
 10
-3.9016294983
 20
-0.9842800521
 30
0.0
 11
-3.9517394276
 21
-1.0132078986
 31
0.0
  0
LINE
  5
66F
330
54B
100
AcDbEntity
  8
0
  6
Continuous
 62
     7
370
    25
100
AcDbLine
 10
-2.5514158513
 20
-2.7409837337
 30
0.0
 11
-2.5013059219
 21
-2.7120558872
 31
0.0
  0
LINE
  5
670
330
54B
100
AcDbEntity
  8
0
  6
Continuous
 62
     7
370
    25
100
AcDbLine
 10
-3.8181129493
 20
-0.9360669746
 30
0.0
 11
-3.8682228787
 21
-0.9649948211
 31
0.0
  0
LINE
  5
671
330
54B
100
AcDbEntity
  8
0
  6
Continuous
 62
     7
370
    25
100
AcDbLine
 10
-2.4678993023
 20
-2.6927706562
 30
0.0
 11
-2.417789373
 21
-2.6638428098
 31
0.0
  0
LINE
  5
672
330
54B
100
AcDbEntity
  8
0
  6
Continuous
 62
     7
370
    25
100
AcDbLine
 10
-3.7345964003
 20
-0.8878538972
 30
0.0
 11
-3.7847063297
 21
-0.9167817437
 31
0.0
  0
LINE
  5
673
330
54B
100
AcDbEntity
  8
0
  6
Continuous
 62
     7
370
    25
100
AcDbLine
 10
-2.3843827534
 20
-2.6445575788
 30
0.0
 11
-2.334272824
 21
-2.6156297323
 31
0.0
  0
LINE
  5
674
330
54B
100
AcDbEntity
  8
0
  6
Continuous
 62
     7
370
    25
100
AcDbLine
 10
-3.6510798514
 20
-0.8396408197
 30
0.0
 11
-3.7011897808
 21
-0.8685686662
 31
0.0
  0
LINE
  5
675
330
54B
100
AcDbEntity
  8
0
  6
Continuous
 62
     7
370
    25
100
AcDbLine
 10
-2.3008662044
 20
-2.5963445013
 30
0.0
 11
-2.2507562751
 21
-2.5674166548
 31
0.0
  0
LINE
  5
676
330
54B
100
AcDbEntity
  8
0
  6
Continuous
 62
     7
370
    25
100
AcDbLine
 10
-3.5675633024
 20
-0.7914277422
 30
0.0
 11
-3.6176732318
 21
-0.8203555887
 31
0.0
  0
LINE
  5
677
330
54B
100
AcDbEntity
  8
0
  6
Continuous
 62
     7
370
    25
100
AcDbLine
 10
-2.2173496555
 20
-2.5481314238
 30
0.0
 11
-2.1672397261
 21
-2.5192035774
 31
0.0
  0
LINE
  5
678
330
54B
100
AcDbEntity
  8
0
  6
Continuous
 62
     7
370
    25
100
AcDbLine
 10
-3.4840467535
 20
-0.7432146648
 30
0.0
 11
-3.5341566828
 21
-0.7721425113
 31
0.0
  0
LINE
  5
679
330
54B
100
AcDbEntity
  8
0
  6
Continuous
 62
     7
370
    25
100
AcDbLine
 10
-2.1338331065
 20
-2.4999183464
 30
0.0
 11
-2.0837231771
 21
-2.4709904999
 31
0.0
  0
LINE
  5
67A
330
54B
100
AcDbEntity
  8
0
  6
Continuous
 62
     7
370
    25
100
AcDbLine
 10
-3.4005302045
 20
-0.6950015873
 30
0.0
 11
-3.4506401339
 21
-0.7239294338
 31
0.0
  0
LINE
  5
67B
330
54B
100
AcDbEntity
  8
0
  6
Continuous
 62
     7
370
    25
100
AcDbLine
 10
-2.0503165576
 20
-2.4517052689
 30
0.0
 11
-2.0002066282
 21
-2.4227774224
 31
0.0
  0
LINE
  5
67C
330
54B
100
AcDbEntity
  8
0
  6
Continuous
 62
     7
370
    25
100
AcDbLine
 10
-3.3170136556
 20
-0.6467885098
 30
0.0
 11
-3.3671235849
 21
-0.6757163563
 31
0.0
  0
LINE
  5
67D
330
54B
100
AcDbEntity
  8
0
  6
Continuous
 62
     7
370
    25
100
AcDbLine
 10
-1.9668000086
 20
-2.4034921914
 30
0.0
 11
-1.9166900792
 21
-2.3745643449
 31
0.0
  0
LINE
  5
67E
330
54B
100
AcDbEntity
  8
0
  6
Continuous
 62
     7
370
    25
100
AcDbLine
 10
-3.2334971066
 20
-0.5985754324
 30
0.0
 11
-3.283607036
 21
-0.6275032788
 31
0.0
  0
LINE
  5
67F
330
54B
100
AcDbEntity
  8
0
  6
Continuous
 62
     7
370
    25
100
AcDbLine
 10
-1.8832834596
 20
-2.355279114
 30
0.0
 11
-1.8331735303
 21
-2.3263512675
 31
0.0
  0
LINE
  5
680
330
54B
100
AcDbEntity
  8
0
  6
Continuous
 62
     7
370
    25
100
AcDbLine
 10
-3.1499805576
 20
-0.5503623549
 30
0.0
 11
-3.200090487
 21
-0.5792902014
 31
0.0
  0
LINE
  5
681
330
54B
100
AcDbEntity
  8
0
  6
Continuous
 62
     7
370
    25
100
AcDbLine
 10
-1.7997669107
 20
-2.3070660365
 30
0.0
 11
-1.7496569813
 21
-2.27813819
 31
0.0
  0
LINE
  5
682
330
54B
100
AcDbEntity
  8
0
  6
Continuous
 62
     7
370
    25
100
AcDbLine
 10
-3.0664640087
 20
-0.5021492774
 30
0.0
 11
-3.116573938
 21
-0.5310771239
 31
0.0
  0
LINE
  5
683
330
54B
100
AcDbEntity
  8
0
  6
Continuous
 62
     7
370
    25
100
AcDbLine
 10
-1.7162503617
 20
-2.258852959
 30
0.0
 11
-1.6661404323
 21
-2.2299251125
 31
0.0
  0
LINE
  5
684
330
54B
100
AcDbEntity
  8
0
  6
Continuous
 62
     7
370
    25
100
AcDbLine
 10
-2.9829474597
 20
-0.4539361999
 30
0.0
 11
-3.0330573891
 21
-0.4828640464
 31
0.0
  0
LINE
  5
685
330
54B
100
AcDbEntity
  8
0
  6
Continuous
 62
     7
370
    25
100
AcDbLine
 10
-1.6327338128
 20
-2.2106398816
 30
0.0
 11
-1.5826238834
 21
-2.1817120351
 31
0.0
  0
LINE
  5
686
330
54B
100
AcDbEntity
  8
0
  6
Continuous
 62
     7
370
    25
100
AcDbLine
 10
-2.8994309108
 20
-0.4057231225
 30
0.0
 11
-2.9495408401
 21
-0.434650969
 31
0.0
  0
LINE
  5
687
330
54B
100
AcDbEntity
  8
0
  6
Continuous
 62
     7
370
    25
100
AcDbLine
 10
-1.5492172638
 20
-2.1624268041
 30
0.0
 11
-1.4991073344
 21
-2.1334989576
 31
0.0
  0
LINE
  5
688
330
54B
100
AcDbEntity
  8
0
  6
Continuous
 62
     7
370
    25
100
AcDbLine
 10
-2.8159143618
 20
-0.357510045
 30
0.0
 11
-2.8660242912
 21
-0.3864378915
 31
0.0
  0
LINE
  5
689
330
54B
100
AcDbEntity
  8
0
  6
Continuous
 62
     7
370
    25
100
AcDbLine
 10
-1.4657007148
 20
-2.1142137266
 30
0.0
 11
-1.4155907855
 21
-2.0852858801
 31
0.0
  0
LINE
  5
68A
330
54B
100
AcDbEntity
  8
0
  6
Continuous
 62
     7
370
    25
100
AcDbLine
 10
-2.7323978128
 20
-0.3092969675
 30
0.0
 11
-2.7825077422
 21
-0.338224814
 31
0.0
  0
LINE
  5
68B
330
54B
100
AcDbEntity
  8
0
  6
Continuous
 62
     7
370
    25
100
AcDbLine
 10
-1.3821841659
 20
-2.0660006491
 30
0.0
 11
-1.3320742365
 21
-2.0370728027
 31
0.0
  0
LINE
  5
68C
330
54B
100
AcDbEntity
  8
0
  6
Continuous
 62
     7
370
    25
100
AcDbLine
 10
-2.6488812639
 20
-0.2610838901
 30
0.0
 11
-2.6989911933
 21
-0.2900117366
 31
0.0
  0
LINE
  5
68D
330
54B
100
AcDbEntity
  8
0
  6
Continuous
 62
     7
370
    25
100
AcDbLine
 10
-1.2986676169
 20
-2.0177875717
 30
0.0
 11
-1.2485576875
 21
-1.9888597252
 31
0.0
  0
LINE
  5
68E
330
54B
100
AcDbEntity
  8
0
  6
Continuous
 62
     7
370
    25
100
AcDbLine
 10
-2.5653647149
 20
-0.2128708126
 30
0.0
 11
-2.6154746443
 21
-0.2417986591
 31
0.0
  0
LINE
  5
68F
330
54B
100
AcDbEntity
  8
0
  6
Continuous
 62
     7
370
    25
100
AcDbLine
 10
-1.215151068
 20
-1.9695744942
 30
0.0
 11
-1.1650411386
 21
-1.9406466477
 31
0.0
  0
LINE
  5
690
330
54B
100
AcDbEntity
  8
0
  6
Continuous
 62
     7
370
    25
100
AcDbLine
 10
-2.481848166
 20
-0.1646577351
 30
0.0
 11
-2.5319580953
 21
-0.1935855816
 31
0.0
  0
LINE
  5
691
330
54B
100
AcDbEntity
  8
0
  6
Continuous
 62
     7
370
    25
100
AcDbLine
 10
-1.131634519
 20
-1.9213614167
 30
0.0
 11
-1.0815245896
 21
-1.8924335702
 31
0.0
  0
LINE
  5
692
330
54B
100
AcDbEntity
  8
0
  6
Continuous
 62
     7
370
    25
100
AcDbLine
 10
-2.398331617
 20
-0.1164446577
 30
0.0
 11
-2.4484415464
 21
-0.1453725041
 31
0.0
  0
LINE
  5
693
330
54B
100
AcDbEntity
  8
0
  6
Continuous
 62
     7
370
    25
100
AcDbLine
 10
-1.04811797
 20
-1.8731483393
 30
0.0
 11
-0.9980080407
 21
-1.8442204928
 31
0.0
  0
LINE
  5
694
330
54B
100
AcDbEntity
  8
0
  6
Continuous
 62
     7
370
    25
100
AcDbLine
 10
-2.314815068
 20
-0.0682315802
 30
0.0
 11
-2.3649249974
 21
-0.0971594267
 31
0.0
  0
LINE
  5
695
330
54B
100
AcDbEntity
  8
0
  6
Continuous
 62
     7
370
    25
100
AcDbLine
 10
-0.9646014211
 20
-1.8249352618
 30
0.0
 11
-0.9144914917
 21
-1.7960074153
 31
0.0
  0
LINE
  5
696
330
54B
100
AcDbEntity
  8
0
  6
Continuous
 62
     7
370
    25
100
AcDbLine
 10
-2.2312985191
 20
-0.0200185027
 30
0.0
 11
-2.2814084485
 21
-0.0489463492
 31
0.0
  0
LINE
  5
697
330
54B
100
AcDbEntity
  8
0
  6
Continuous
 62
     7
370
    25
100
AcDbLine
 10
-0.8810848721
 20
-1.7767221843
 30
0.0
 11
-0.8309749427
 21
-1.7477943378
 31
0.0
  0
LINE
  5
698
330
54B
100
AcDbEntity
  8
0
  6
Continuous
 62
     7
370
    25
100
AcDbLine
 10
-2.1477819701
 20
0.0281945747
 30
0.0
 11
-2.1978918995
 21
-0.0007332717
 31
0.0
  0
LINE
  5
699
330
54B
100
AcDbEntity
  8
0
  6
Continuous
 62
     7
370
    25
100
AcDbLine
 10
-0.7975683232
 20
-1.7285091069
 30
0.0
 11
-0.7474583938
 21
-1.6995812604
 31
0.0
  0
LINE
  5
69A
330
54B
100
AcDbEntity
  8
0
  6
Continuous
 62
     7
370
    25
100
AcDbLine
 10
-2.0642654212
 20
0.0764076522
 30
0.0
 11
-2.1143753505
 21
0.0474798057
 31
0.0
  0
LINE
  5
69B
330
54B
100
AcDbEntity
  8
0
  6
Continuous
 62
     7
370
    25
100
AcDbLine
 10
-0.7140517742
 20
-1.6802960294
 30
0.0
 11
-0.6639418448
 21
-1.6513681829
 31
0.0
  0
LINE
  5
69C
330
54B
100
AcDbEntity
  8
0
  6
Continuous
 62
     7
370
    25
100
AcDbLine
 10
-1.8916645533
 20
0.1760480123
 30
0.0
 11
-2.0308588016
 21
0.0956928832
 31
0.0
  0
LINE
  5
69D
330
54B
100
AcDbEntity
  8
0
  6
Continuous
 62
     7
370
    25
100
AcDbLine
 10
-0.6305352252
 20
-1.6320829519
 30
0.0
 11
-0.491340977
 21
-1.5517278228
 31
0.0
  0
LINE
  5
69E
330
54B
100
AcDbEntity
  8
0
  6
Continuous
 62
     7
370
    25
100
AcDbLine
 10
-1.2568693765
 20
0.2290725676
 30
0.0
 11
-1.3727341562
 21
0.162185254
 31
0.0
  0
LINE
  5
69F
330
54B
100
AcDbEntity
  8
0
  6
Continuous
 62
     7
370
    25
100
AcDbLine
 10
-0.7686501078
 20
0.4313615676
 30
0.0
 11
-1.0571992004
 21
0.2647857222
 31
0.0
  0
LINE
  5
6A0
330
54B
100
AcDbEntity
  8
0
  6
Continuous
 62
     7
370
    25
100
AcDbLine
 10
-0.2993867751
 20
-1.0479261362
 30
0.0
 11
-0.0108376825
 21
-0.8813502907
 31
0.0
  0
LINE
  5
6A1
330
54B
100
AcDbEntity
  8
0
  6
Continuous
 62
     7
370
    25
100
AcDbLine
 10
-0.6016608031
 20
0.7323298301
 30
0.0
 11
-0.8293867364
 21
0.600866447
 31
0.0
  0
LINE
  5
6A2
330
54B
100
AcDbEntity
  8
0
  6
Continuous
 62
     7
370
    25
100
AcDbLine
 10
0.1055766455
 20
-1.0187131184
 30
0.0
 11
0.3333025788
 21
-0.8872497354
 31
0.0
  0
LINE
  5
6A3
330
54B
100
AcDbEntity
  8
0
  6
Continuous
 62
     7
370
    25
100
AcDbLine
 10
0.5263804019
 20
-0.4916669074
 30
0.0
 11
0.7357436013
 21
-0.370804105
 31
0.0
  0
LINE
  5
6A4
330
54B
100
AcDbEntity
  8
0
  6
Continuous
 62
     7
370
    25
100
AcDbLine
 10
0.0468232146
 20
0.8225703117
 30
0.0
 11
-0.1625399848
 21
0.7017075093
 31
0.0
  0
LINE
  5
6A5
330
54B
100
AcDbEntity
  8
0
  6
Continuous
 62
     7
370
    25
100
AcDbLine
 10
-0.8293867364
 20
0.600866447
 30
0.0
 11
-0.8204009634
 21
0.6058581601
 31
0.0
  0
LINE
  5
6A6
330
54B
100
AcDbEntity
  8
0
  6
Continuous
 62
     7
370
    25
100
AcDbLine
 10
0.683323549
 20
1.2628278317
 30
0.0
 11
0.683323549
 21
0.9413550711
 31
0.0
  0
LINE
  5
6A7
330
54B
100
AcDbEntity
  8
0
  6
Continuous
 62
     7
370
    25
100
AcDbLine
 10
0.683323549
 20
1.2628278317
 30
0.0
 11
1.6713349314
 21
1.4156571633
 31
0.0
  0
LINE
  5
6A8
330
54B
100
AcDbEntity
  8
0
  6
Continuous
 62
     7
370
    25
100
AcDbLine
 10
1.6713349314
 20
1.4156571633
 30
0.0
 11
1.6713349314
 21
1.0941844027
 31
0.0
  0
LINE
  5
6A9
330
54B
100
AcDbEntity
  8
0
  6
Continuous
 62
     7
370
    25
100
AcDbLine
 10
0.683323549
 20
0.9413550711
 30
0.0
 11
1.6713349314
 21
1.0941844027
 31
0.0
  0
LINE
  5
6AA
330
54B
100
AcDbEntity
  8
0
  6
Continuous
 62
     7
370
    25
100
AcDbLine
 10
1.9360717834
 20
1.9860239938
 30
0.0
 11
1.212797253
 21
2.4035614926
 31
0.0
  0
LINE
  5
6AB
330
54B
100
AcDbEntity
  8
0
  6
Continuous
 62
     7
370
    25
100
AcDbLine
 10
1.6713349314
 20
1.4156571633
 30
0.0
 11
1.9360717834
 21
1.9860239938
 31
0.0
  0
LINE
  5
6AC
330
54B
100
AcDbEntity
  8
0
  6
Continuous
 62
     7
370
    25
100
AcDbLine
 10
-0.0399509814
 20
1.6803653306
 30
0.0
 11
0.683323549
 21
1.2628278317
 31
0.0
  0
LINE
  5
6AD
330
54B
100
AcDbEntity
  8
0
  6
Continuous
 62
     7
370
    25
100
AcDbLine
 10
0.2247858707
 20
2.250732161
 30
0.0
 11
-0.0399509814
 21
1.6803653306
 31
0.0
  0
LINE
  5
6AE
330
54B
100
AcDbEntity
  8
0
  6
Continuous
 62
     7
370
    25
100
AcDbLine
 10
1.212797253
 20
2.4035614926
 30
0.0
 11
0.2247858707
 21
2.250732161
 31
0.0
  0
LINE
  5
6AF
330
54B
100
AcDbEntity
  8
0
  6
Continuous
 62
     7
370
    25
100
AcDbLine
 10
0.28907694
 20
2.2136177167
 30
0.0
 11
0.0478722526
 21
1.69395016
 31
0.0
  0
LINE
  5
6B0
330
54B
100
AcDbEntity
  8
0
  6
Continuous
 62
     7
370
    25
100
AcDbLine
 10
0.0478722526
 20
1.69395016
 30
0.0
 11
0.7068557136
 21
1.3135271055
 31
0.0
  0
LINE
  5
6B1
330
54B
100
AcDbEntity
  8
0
  6
Continuous
 62
     7
370
    25
100
AcDbLine
 10
0.7068557136
 20
1.3135271055
 30
0.0
 11
1.607043862
 21
1.4527716077
 31
0.0
  0
LINE
  5
6B2
330
54B
100
AcDbEntity
  8
0
  6
Continuous
 62
     7
370
    25
100
AcDbLine
 10
1.607043862
 20
1.4527716077
 30
0.0
 11
1.8482485494
 21
1.9724391643
 31
0.0
  0
LINE
  5
6B3
330
54B
100
AcDbEntity
  8
0
  6
Continuous
 62
     7
370
    25
100
AcDbLine
 10
1.8482485494
 20
1.9724391643
 30
0.0
 11
1.1892650884
 21
2.3528622188
 31
0.0
  0
LINE
  5
6B4
330
54B
100
AcDbEntity
  8
0
  6
Continuous
 62
     7
370
    25
100
AcDbLine
 10
1.1892650884
 20
2.3528622188
 30
0.0
 11
0.28907694
 21
2.2136177167
 31
0.0
  0
LINE
  5
6B5
330
54B
100
AcDbEntity
  8
0
  6
Continuous
 62
     7
370
    25
100
AcDbLine
 10
1.7541045911
 20
1.7696091061
 30
0.0
 11
1.1892650884
 21
2.0956840103
 31
0.0
  0
LINE
  5
6B6
330
54B
100
AcDbEntity
  8
0
  6
Continuous
 62
     7
370
    25
100
AcDbLine
 10
0.28907694
 20
1.9564395082
 30
0.0
 11
0.1420162109
 21
1.6396020097
 31
0.0
  0
LINE
  5
6B7
330
54B
100
AcDbEntity
  8
0
  6
Continuous
 62
     7
370
    25
100
AcDbLine
 10
1.1892650884
 20
2.0956840103
 30
0.0
 11
0.28907694
 21
1.9564395082
 31
0.0
  0
LINE
  5
6B8
330
54B
100
AcDbEntity
  8
0
  6
Continuous
 62
     7
370
    25
100
AcDbLine
 10
-0.0399509814
 20
1.6803653306
 30
0.0
 11
-0.0399509814
 21
1.35889257
 31
0.0
  0
LINE
  5
6B9
330
54B
100
AcDbEntity
  8
0
  6
Continuous
 62
     7
370
    25
100
AcDbLine
 10
-0.0399509814
 20
1.35889257
 30
0.0
 11
0.683323549
 21
0.9413550711
 31
0.0
  0
LINE
  5
6BA
330
54B
100
AcDbEntity
  8
0
  6
Continuous
 62
     7
370
    25
100
AcDbLine
 10
1.9360717834
 20
1.9860239938
 30
0.0
 11
1.9360717834
 21
1.6645512332
 31
0.0
  0
LINE
  5
6BB
330
54B
100
AcDbEntity
  8
0
  6
Continuous
 62
     7
370
    25
100
AcDbLine
 10
1.6713349314
 20
1.0941844027
 30
0.0
 11
1.9360717834
 21
1.6645512332
 31
0.0
  0
LINE
  5
6BC
330
54B
100
AcDbEntity
  8
0
  6
Continuous
 62
     7
370
    25
100
AcDbLine
 10
0.28907694
 20
2.2136177167
 30
0.0
 11
0.28907694
 21
1.9564395082
 31
0.0
  0
LINE
  5
6BD
330
54B
100
AcDbEntity
  8
0
  6
Continuous
 62
     7
370
    25
100
AcDbLine
 10
1.1892650884
 20
2.3528622188
 30
0.0
 11
1.1892650884
 21
2.0956840103
 31
0.0
  0
LINE
  5
6BE
330
54B
100
AcDbEntity
  8
0
  6
Continuous
 62
     8
370
    25
100
AcDbLine
 10
1.3795625706
 20
1.4393500412
 30
0.0
 11
1.4077422227
 21
1.4219428775
 31
0.0
  0
ARC
  5
6BF
330
54B
100
AcDbEntity
  8
0
  6
Continuous
 62
     7
370
    25
100
AcDbCircle
 10
-4.7587648174
 20
-2.7471764538
 30
0.0
 40
1.444273509294207
100
AcDbArc
 50
195.977966417
 51
224.0166570503
  0
ARC
  5
6C0
330
54B
100
AcDbEntity
  8
0
  6
Continuous
 62
     7
370
    25
100
AcDbCircle
 10
-4.959640609
 20
-2.8631395799
 30
0.0
 40
1.110484624161509
100
AcDbArc
 50
189.3901708373
 51
230.6044526301
  0
ARC
  5
6C1
330
54B
100
AcDbEntity
  8
0
  6
Continuous
 62
     7
370
    25
100
AcDbCircle
 10
-5.4028475171
 20
-3.1189974819
 30
0.0
 40
0.9481089952348231
100
AcDbArc
 50
2.4538204372
 51
57.5408030301
  0
ARC
  5
6C2
330
54B
100
AcDbEntity
  8
0
  6
Continuous
 62
     7
370
    25
100
AcDbCircle
 10
-4.7431822703
 20
-2.1847955989
 30
0.0
 40
0.8051205384103073
100
AcDbArc
 50
180.4045876996
 51
190.4959468944
  0
ARC
  5
6C3
330
54B
100
AcDbEntity
  8
0
  6
Continuous
 62
     7
370
    25
100
AcDbCircle
 10
-0.7933527564
 20
-0.8407219751
 30
0.0
 40
0.5346993005699583
100
AcDbArc
 50
331.9343440129
 51
1.7445785066
  0
ARC
  5
6C4
330
54B
100
AcDbEntity
  8
0
  6
Continuous
 62
     7
370
    25
100
AcDbCircle
 10
-0.0440282132
 20
-0.319015437
 30
0.0
 40
0.5869127893044336
100
AcDbArc
 50
346.6320744425
 51
0.5496643275
  0
ARC
  5
6C5
330
54B
100
AcDbEntity
  8
0
  6
Continuous
 62
     8
370
    25
100
AcDbCircle
 10
0.9488281562
 20
0.6170249695
 30
0.0
 40
0.9283052619887638
100
AcDbArc
 50
62.3544232003
 51
118.7058543483
  0
VIEWPORT
  5
6CA
330
54B
100
AcDbEntity
  8
0
100
AcDbViewport
 10
0.0
 20
0.0
 30
0.0
 40
8.4
 41
6.4
 68
     1
 69
     1
 12
-0.000490236
 22
0.3199743045
 13
0.0
 23
0.0
 14
0.5
 24
0.5
 15
0.5
 25
0.5
 16
0.0
 26
0.0
 36
1.0
 17
0.0
 27
0.0
 37
0.0
 42
50.0
 43
0.0
 44
0.0
 45
2.559850844
 50
0.0
 51
0.0
 72
   100
 90
   557152
  1

281
     0
 71
     1
 74
     0
110
0.0
120
0.0
130
0.0
111
1.0
121
0.0
131
0.0
112
0.0
122
1.0
132
0.0
 79
     0
146
0.0
  0
ENDBLK
  5
54E
330
54B
100
AcDbEntity
  8
0
100
AcDbBlockEnd
  0
ENDSEC
  0
SECTION
  2
ENTITIES
  0
CIRCLE
  5
77
330
1F
100
AcDbEntity
  8
0
  6
Continuous
 62
     7
370
    25
100
AcDbCircle
 10
0.0
 20
0.0
 30
0.0
 40
0.7480314960629922
  0
CIRCLE
  5
78
330
1F
100
AcDbEntity
  8
0
  6
Continuous
 62
     7
370
    25
100
AcDbCircle
 10
0.0
 20
0.0
 30
0.0
 40
0.688976377952756
  0
CIRCLE
  5
79
330
1F
100
AcDbEntity
  8
0
  6
Continuous
 62
     7
370
    25
100
AcDbCircle
 10
0.0
 20
0.0
 30
0.0
 40
0.3934282389989388
  0
CIRCLE
  5
7A
330
1F
100
AcDbEntity
  8
0
  6
Continuous
 62
     7
370
    25
100
AcDbCircle
 10
0.0
 20
0.0
 30
0.0
 40
0.9251968503937005
  0
LWPOLYLINE
  5
7B
330
1F
100
AcDbEntity
  8
0
  6
Continuous
 62
     7
370
    25
100
AcDbPolyline
 90
       80
 70
   128
 43
0.0
 10
-1.2401574803
 20
0.0
 10
-1.2362371429
 20
-0.0742890341
 10
-1.2245009162
 20
-0.148108389
 10
-1.2050230004
 20
-0.2209913549
 10
-1.1779265413
 20
-0.2924771424
 10
-1.1433828513
 20
-0.3621137952
 10
-1.1016103268
 20
-0.429461048
 10
-1.0528730672
 20
-0.4940931098
 10
-0.997479205
 20
-0.5556013558
 10
-0.9357789581
 20
-0.6135969112
 10
-0.8681624153
 20
-0.6677131094
 10
-0.7950570702
 20
-0.7176078103
 10
-0.7169251184
 20
-0.7629655636
 10
-0.6342605351
 20
-0.8034996029
 10
-0.5475859525
 20
-0.838953659
 10
-0.4574493552
 20
-0.86910358
 10
-0.3644206158
 20
-0.8937587484
 10
-0.2690878919
 20
-0.9127632861
 10
-0.1720539078
 20
-0.9259970405
 10
-0.0739321434
 20
-0.9333763434
 10
0.0246570438
 20
-0.9348545406
 10
0.1230903412
 20
-0.9304222864
 10
0.2207454218
 20
-0.9201076029
 10
0.3170048788
 20
-0.9039757029
 10
0.4112601289
 20
-0.8821285775
 10
0.5029152601
 20
-0.8547043512
 10
0.591390799
 20
-0.8218764087
 10
0.6761273749
 20
-0.783852299
 10
0.7565892559
 20
-0.7408724227
 10
0.832267736
 20
-0.6932085124
 10
0.9026843514
 20
-0.6411619147
 10
0.9673939058
 20
-0.5850616849
 10
1.0259872845
 20
-0.5252625068
 10
1.0780940411
 20
-0.46214245
 10
1.1233847402
 20
-0.3961005798
 10
1.1615730392
 20
-0.3275544342
 10
1.1924174995
 20
-0.2569373841
 10
1.2157231124
 20
-0.184695893
 10
1.2313425323
 20
-0.1112866951
 10
1.2391770084
 20
-0.0371739068
 10
1.2391770084
 20
0.0371739068
 10
1.2313425323
 20
0.1112866951
 10
1.2157231124
 20
0.184695893
 10
1.1924174995
 20
0.2569373841
 10
1.1615730392
 20
0.3275544342
 10
1.1233847402
 20
0.3961005798
 10
1.0780940411
 20
0.46214245
 10
1.0259872845
 20
0.5252625068
 10
0.9673939058
 20
0.5850616849
 10
0.9026843514
 20
0.6411619147
 10
0.832267736
 20
0.6932085124
 10
0.7565892559
 20
0.7408724227
 10
0.6761273749
 20
0.783852299
 10
0.591390799
 20
0.8218764087
 10
0.5029152601
 20
0.8547043512
 10
0.4112601289
 20
0.8821285775
 10
0.3170048788
 20
0.9039757029
 10
0.2207454218
 20
0.9201076029
 10
0.1230903412
 20
0.9304222864
 10
0.0246570438
 20
0.9348545406
 10
-0.0739321434
 20
0.9333763434
 10
-0.1720539078
 20
0.9259970405
 10
-0.2690878919
 20
0.9127632861
 10
-0.3644206158
 20
0.8937587484
 10
-0.4574493552
 20
0.86910358
 10
-0.5475859525
 20
0.838953659
 10
-0.6342605351
 20
0.8034996029
 10
-0.7169251184
 20
0.7629655636
 10
-0.7950570702
 20
0.7176078103
 10
-0.8681624153
 20
0.6677131094
 10
-0.9357789581
 20
0.6135969112
 10
-0.997479205
 20
0.5556013558
 10
-1.0528730672
 20
0.4940931098
 10
-1.1016103268
 20
0.429461048
 10
-1.1433828513
 20
0.3621137952
 10
-1.1779265413
 20
0.2924771424
 10
-1.2050230004
 20
0.2209913549
 10
-1.2245009162
 20
0.148108389
 10
-1.2362371429
 20
0.0742890341
 10
-1.2401574803
 20
0.0
  0
LINE
  5
8A
330
1F
100
AcDbEntity
  8
0
  6
Continuous
 62
     7
370
    25
100
AcDbLine
 10
0.688976378
 20
0.7774659924
 30
0.0
 11
0.688976378
 21
1.1811023622
 31
0.0
  0
LINE
  5
8B
330
1F
100
AcDbEntity
  8
0
  6
Continuous
 62
     7
370
    25
100
AcDbLine
 10
-0.688976378
 20
1.1811023622
 30
0.0
 11
-0.688976378
 21
0.7774659924
 31
0.0
  0
LINE
  5
8C
330
1F
100
AcDbEntity
  8
0
  6
Continuous
 62
     7
370
    25
100
AcDbLine
 10
0.3925511011
 20
0.0262566618
 30
0.0
 11
-0.3925511011
 21
0.0262566618
 31
0.0
  0
LINE
  5
8D
330
1F
100
AcDbEntity
  8
0
  6
Continuous
 62
     7
370
    25
100
AcDbLine
 10
-0.3925511011
 20
-0.0262566618
 30
0.0
 11
0.3925511011
 21
-0.0262566618
 31
0.0
  0
LINE
  5
8E
330
1F
100
AcDbEntity
  8
0
  6
Continuous
 62
     7
370
    25
100
AcDbLine
 10
-0.5114323251
 20
1.5748031496
 30
0.0
 11
-0.5114323251
 21
1.1811023622
 31
0.0
  0
LINE
  5
8F
330
1F
100
AcDbEntity
  8
0
  6
Continuous
 62
     7
370
    25
100
AcDbLine
 10
-1.0228646501
 20
1.5748031496
 30
0.0
 11
1.0228646501
 21
1.5748031496
 31
0.0
  0
LINE
  5
90
330
1F
100
AcDbEntity
  8
0
  6
Continuous
 62
     7
370
    25
100
AcDbLine
 10
0.5114323251
 20
1.5748031496
 30
0.0
 11
0.5114323251
 21
1.1811023622
 31
0.0
  0
LINE
  5
91
330
1F
100
AcDbEntity
  8
0
  6
Continuous
 62
     7
370
    25
100
AcDbLine
 10
-1.0228646501
 20
1.1811023622
 30
0.0
 11
1.0228646501
 21
1.1811023622
 31
0.0
  0
LINE
  5
92
330
1F
100
AcDbEntity
  8
0
  6
Continuous
 62
     7
370
    25
100
AcDbLine
 10
1.0228646501
 20
1.5748031496
 30
0.0
 11
1.0228646501
 21
1.1811023622
 31
0.0
  0
LINE
  5
93
330
1F
100
AcDbEntity
  8
0
  6
Continuous
 62
     7
370
    25
100
AcDbLine
 10
-1.0228646501
 20
1.5748031496
 30
0.0
 11
-1.0228646501
 21
1.1811023622
 31
0.0
  0
LINE
  5
94
330
1F
100
AcDbEntity
  8
0
  6
Continuous
 62
     8
370
    25
100
AcDbLine
 10
-0.668833297
 20
0.7874015748
 30
0.0
 11
-0.688976378
 21
0.7874015748
 31
0.0
  0
LINE
  5
95
330
1F
100
AcDbEntity
  8
0
  6
Continuous
 62
     8
370
    25
100
AcDbLine
 10
0.688976378
 20
0.7874015748
 30
0.0
 11
0.668833297
 21
0.7874015748
 31
0.0
  0
SPLINE
  5
98
330
1B
100
AcDbEntity
 67
     1
  8
0
  6
Continuous
 62
     7
370
    25
100
AcDbSpline
210
0.0
220
0.0
230
1.0
 70
     8
 71
     3
 72
    12
 73
     8
 74
     0
 42
0.000000001
 43
0.00000001
 40
0.0
 40
0.0
 40
0.0
 40
0.0
 40
0.1739505928540336
 40
0.3956025683758968
 40
0.5716060176280718
 40
0.772242757852847
 40
1.0
 40
1.0
 40
1.0
 40
1.0
 10
-1.370212472058825
 20
0.5906639448225995
 30
0.0
 10
-1.389100358103279
 20
0.6097829851354242
 30
0.0
 10
-1.432055637000473
 20
0.65326396055804
 30
0.0
 10
-1.493425207602378
 20
0.7191366780736015
 30
0.0
 10
-1.556617336269909
 20
0.7888028014167386
 30
0.0
 10
-1.619322241992952
 20
0.8594611949990304
 30
0.0
 10
-1.662228238596633
 20
0.9087681307749649
 30
0.0
 10
-1.68503937007874
 20
0.9349823451971081
 30
0.0
  0
SPLINE
  5
99
330
1B
100
AcDbEntity
 67
     1
  8
0
  6
Continuous
 62
     7
370
    25
100
AcDbSpline
210
0.0
220
0.0
230
1.0
 70
     8
 71
     3
 72
    11
 73
     7
 74
     0
 42
0.000000001
 43
0.00000001
 40
0.0
 40
0.0
 40
0.0
 40
0.0
 40
0.2829979744278999
 40
0.5422364393189186
 40
0.7801943717561666
 40
1.0
 40
1.0
 40
1.0
 40
1.0
 10
-1.68503937007874
 20
-0.9349823451971078
 30
0.0
 10
-1.656533061925103
 20
-0.9022405352995865
 30
0.0
 10
-1.601913734480784
 20
-0.8395058021214442
 30
0.0
 10
-1.520332241612886
 20
-0.7484592745834807
 30
0.0
 10
-1.4436639551377
 20
-0.6652862735948084
 30
0.0
 10
-1.394040369855079
 20
-0.6148716687346308
 30
0.0
 10
-1.370212472058826
 20
-0.5906639448225997
 30
0.0
  0
SPLINE
  5
E8
330
1B
100
AcDbEntity
 67
     1
  8
0
  6
Continuous
 62
     7
370
    25
100
AcDbSpline
210
0.0
220
0.0
230
1.0
 70
     8
 71
     3
 72
    11
 73
     7
 74
     0
 42
0.000000001
 43
0.00000001
 40
0.0
 40
0.0
 40
0.0
 40
0.0
 40
0.1810365432520549
 40
0.4084574451919983
 40
0.6813275591044123
 40
1.0
 40
1.0
 40
1.0
 40
1.0
 10
-6.606299212598427
 20
0.9350380957893888
 30
0.0
 10
-6.625153069998169
 20
0.9159686047413814
 30
0.0
 10
-6.667691434281839
 20
0.872943724489795
 30
0.0
 10
-6.73892706209899
 20
0.8012251225596217
 30
0.0
 10
-6.825161575259011
 20
0.7148221882724789
 30
0.0
 10
-6.887615187643259
 20
0.6532392485586596
 30
0.0
 10
-6.921259842519686
 20
0.6200636375115418
 30
0.0
  0
SPLINE
  5
E9
330
1B
100
AcDbEntity
 67
     1
  8
0
  6
Continuous
 62
     7
370
    25
100
AcDbSpline
210
0.0
220
0.0
230
1.0
 70
     8
 71
     3
 72
    10
 73
     6
 74
     0
 42
0.000000001
 43
0.00000001
 40
0.0
 40
0.0
 40
0.0
 40
0.0
 40
0.3592509924313694
 40
0.6924632393924715
 40
0.9999999999999999
 40
0.9999999999999999
 40
0.9999999999999999
 40
0.9999999999999999
 10
-6.921259842519687
 20
-0.6200636375115418
 30
0.0
 10
-6.883316137246867
 20
-0.6575112541604092
 30
0.0
 10
-6.810178911125528
 20
-0.7296922598598052
 30
0.0
 10
-6.70507147852534
 20
-0.8352110926728025
 30
0.0
 10
-6.638331859001473
 20
-0.9026633895669396
 30
0.0
 10
-6.606299212598426
 20
-0.9350380957893886
 30
0.0
  0
SPLINE
  5
159
330
1B
100
AcDbEntity
 67
     1
  8
0
  6
Continuous
 62
     7
370
    25
100
AcDbSpline
210
0.0
220
0.0
230
1.0
 70
    24
 71
     3
 72
    14
 73
    10
 74
     0
 42
0.000000001
 43
0.00000001
 40
0.0
 40
0.0
 40
0.0
 40
0.0
 40
0.2500000000000001
 40
0.2500000000000001
 40
0.5000000000000001
 40
0.5000000000000001
 40
0.7500000000000002
 40
0.7500000000000002
 40
1.0
 40
1.0
 40
1.0
 40
1.0
 10
-1.68503937007874
 20
-0.9350393700787402
 30
0.0
 10
-1.68503937007874
 20
-0.9350393700838566
 30
0.0
 10
-1.68503937007874
 20
-0.836521613783379
 30
0.0
 10
-1.68503937007874
 20
-0.4858237447604842
 30
0.0
 10
-1.68503937007874
 20
-0.2479808413556539
 30
0.0
 10
-1.68503937007874
 20
0.2479808413215118
 30
0.0
 10
-1.68503937007874
 20
0.4858237447299394
 30
0.0
 10
-1.68503937007874
 20
0.8365216137656397
 30
0.0
 10
-1.68503937007874
 20
0.935039370074802
 30
0.0
 10
-1.68503937007874
 20
0.9350393700787402
 30
0.0
  0
SPLINE
  5
1C0
330
1B
100
AcDbEntity
 67
     1
  8
0
  6
Continuous
 62
     7
370
    25
100
AcDbSpline
210
0.0
220
0.0
230
1.0
 70
    24
 71
     3
 72
    22
 73
    18
 74
     0
 42
0.000000001
 43
0.00000001
 40
0.0
 40
0.0
 40
0.0
 40
0.0
 40
0.125
 40
0.125
 40
0.25
 40
0.25
 40
0.375
 40
0.375
 40
0.5
 40
0.5
 40
0.625
 40
0.625
 40
0.75
 40
0.75
 40
0.875
 40
0.875
 40
1.0
 40
1.0
 40
1.0
 40
1.0
 10
-7.000000000000001
 20
0.0000000000000001
 30
0.0
 10
-7.000000000000001
 20
0.0457375898960136
 30
0.0
 10
-7.000000000000001
 20
0.0914740488399858
 30
0.0
 10
-7.000000000000002
 20
0.1811915587022449
 30
0.0
 10
-7.000000000000001
 20
0.2251703911783021
 30
0.0
 10
-7.000000000000002
 20
0.3096824375209459
 30
0.0
 10
-7.000000000000001
 20
0.3502135616606458
 30
0.0
 10
-7.000000000000002
 20
0.4262723939376276
 30
0.0
 10
-7.000000000000001
 20
0.4617982213703987
 30
0.0
 10
-7.000000000000002
 20
0.5264809413115988
 30
0.0
 10
-7.000000000000001
 20
0.5556362344123131
 30
0.0
 10
-7.000000000000002
 20
0.6064571213648784
 30
0.0
 10
-7.000000000000001
 20
0.6281214585701516
 30
0.0
 10
-7.000000000000002
 20
0.6631274943491766
 30
0.0
 10
-7.000000000000001
 20
0.676468327329711
 30
0.0
 10
-7.000000000000002
 20
0.6943142496118186
 30
0.0
 10
-7.000000000000001
 20
0.6988188976377966
 30
0.0
 10
-7.000000000000001
 20
0.6988188976377955
 30
0.0
  0
LINE
  5
1CF
330
1B
100
AcDbEntity
 67
     1
  8
0
  6
Continuous
 62
     7
370
    25
100
AcDbLine
 10
-1.6850393701
 20
0.9350393701
 30
0.0
 11
-1.8818897638
 21
0.9350393701
 31
0.0
  0
LINE
  5
1D0
330
1B
100
AcDbEntity
 67
     1
  8
0
  6
Continuous
 62
     7
370
    25
100
AcDbLine
 10
-1.8818897638
 20
-0.9350393701
 30
0.0
 11
-1.6850393701
 21
-0.9350393701
 31
0.0
  0
LINE
  5
1D1
330
1B
100
AcDbEntity
 67
     1
  8
0
  6
Continuous
 62
     7
370
    25
100
AcDbLine
 10
-1.9291338583
 20
0.9350393701
 30
0.0
 11
-2.0
 21
0.9350393701
 31
0.0
  0
LINE
  5
1D2
330
1B
100
AcDbEntity
 67
     1
  8
0
  6
Continuous
 62
     7
370
    25
100
AcDbLine
 10
-2.0
 20
-0.9350393701
 30
0.0
 11
-1.9291338583
 21
-0.9350393701
 31
0.0
  0
LINE
  5
1D3
330
1B
100
AcDbEntity
 67
     1
  8
0
  6
Continuous
 62
     7
370
    25
100
AcDbLine
 10
-3.5826771654
 20
0.9350393701
 30
0.0
 11
-3.6535433071
 21
0.9350393701
 31
0.0
  0
LINE
  5
1D4
330
1B
100
AcDbEntity
 67
     1
  8
0
  6
Continuous
 62
     7
370
    25
100
AcDbLine
 10
-3.6535433071
 20
-0.9350393701
 30
0.0
 11
-3.5826771654
 21
-0.9350393701
 31
0.0
  0
LINE
  5
1D5
330
1B
100
AcDbEntity
 67
     1
  8
0
  6
Continuous
 62
     7
370
    25
100
AcDbLine
 10
-3.4645669291
 20
0.9350393701
 30
0.0
 11
-3.5354330709
 21
0.9350393701
 31
0.0
  0
LINE
  5
1D6
330
1B
100
AcDbEntity
 67
     1
  8
0
  6
Continuous
 62
     7
370
    25
100
AcDbLine
 10
-3.5354330709
 20
-0.9350393701
 30
0.0
 11
-3.4645669291
 21
-0.9350393701
 31
0.0
  0
LINE
  5
1D7
330
1B
100
AcDbEntity
 67
     1
  8
0
  6
Continuous
 62
     7
370
    25
100
AcDbLine
 10
-2.2834645669
 20
0.9350393701
 30
0.0
 11
-2.3543307087
 21
0.9350393701
 31
0.0
  0
LINE
  5
1D8
330
1B
100
AcDbEntity
 67
     1
  8
0
  6
Continuous
 62
     7
370
    25
100
AcDbLine
 10
-2.3543307087
 20
-0.9350393701
 30
0.0
 11
-2.2834645669
 21
-0.9350393701
 31
0.0
  0
LINE
  5
1D9
330
1B
100
AcDbEntity
 67
     1
  8
0
  6
Continuous
 62
     7
370
    25
100
AcDbLine
 10
-5.8267716535
 20
0.9350393701
 30
0.0
 11
-5.8976377953
 21
0.9350393701
 31
0.0
  0
LINE
  5
1DA
330
1B
100
AcDbEntity
 67
     1
  8
0
  6
Continuous
 62
     7
370
    25
100
AcDbLine
 10
-5.8976377953
 20
-0.9350393701
 30
0.0
 11
-5.8267716535
 21
-0.9350393701
 31
0.0
  0
LINE
  5
1DB
330
1B
100
AcDbEntity
 67
     1
  8
0
  6
Continuous
 62
     7
370
    25
100
AcDbLine
 10
-2.4015748031
 20
0.9350393701
 30
0.0
 11
-2.4724409449
 21
0.9350393701
 31
0.0
  0
LINE
  5
1DC
330
1B
100
AcDbEntity
 67
     1
  8
0
  6
Continuous
 62
     7
370
    25
100
AcDbLine
 10
-2.4724409449
 20
-0.9350393701
 30
0.0
 11
-2.4015748031
 21
-0.9350393701
 31
0.0
  0
LINE
  5
1DD
330
1B
100
AcDbEntity
 67
     1
  8
0
  6
Continuous
 62
     7
370
    25
100
AcDbLine
 10
-5.7086614173
 20
0.9350393701
 30
0.0
 11
-5.7795275591
 21
0.9350393701
 31
0.0
  0
LINE
  5
1DE
330
1B
100
AcDbEntity
 67
     1
  8
0
  6
Continuous
 62
     7
370
    25
100
AcDbLine
 10
-5.7795275591
 20
-0.9350393701
 30
0.0
 11
-5.7086614173
 21
-0.9350393701
 31
0.0
  0
LINE
  5
1DF
330
1B
100
AcDbEntity
 67
     1
  8
0
  6
Continuous
 62
     7
370
    25
100
AcDbLine
 10
-5.9448818898
 20
0.9350393701
 30
0.0
 11
-6.0157480315
 21
0.9350393701
 31
0.0
  0
LINE
  5
1E0
330
1B
100
AcDbEntity
 67
     1
  8
0
  6
Continuous
 62
     7
370
    25
100
AcDbLine
 10
-6.0157480315
 20
-0.9350393701
 30
0.0
 11
-5.9448818898
 21
-0.9350393701
 31
0.0
  0
LINE
  5
1E1
330
1B
100
AcDbEntity
 67
     1
  8
0
  6
Continuous
 62
     7
370
    25
100
AcDbLine
 10
-5.5905511811
 20
0.9350393701
 30
0.0
 11
-5.6614173228
 21
0.9350393701
 31
0.0
  0
LINE
  5
1E2
330
1B
100
AcDbEntity
 67
     1
  8
0
  6
Continuous
 62
     7
370
    25
100
AcDbLine
 10
-5.6614173228
 20
-0.9350393701
 30
0.0
 11
-5.5905511811
 21
-0.9350393701
 31
0.0
  0
LINE
  5
1E3
330
1B
100
AcDbEntity
 67
     1
  8
0
  6
Continuous
 62
     7
370
    25
100
AcDbLine
 10
-2.1653543307
 20
0.9350393701
 30
0.0
 11
-2.2362204724
 21
0.9350393701
 31
0.0
  0
LINE
  5
1E4
330
1B
100
AcDbEntity
 67
     1
  8
0
  6
Continuous
 62
     7
370
    25
100
AcDbLine
 10
-2.2362204724
 20
-0.9350393701
 30
0.0
 11
-2.1653543307
 21
-0.9350393701
 31
0.0
  0
LINE
  5
1E5
330
1B
100
AcDbEntity
 67
     1
  8
0
  6
Continuous
 62
     7
370
    25
100
AcDbLine
 10
-6.062992126
 20
0.9350393701
 30
0.0
 11
-6.1338582677
 21
0.9350393701
 31
0.0
  0
LINE
  5
1E6
330
1B
100
AcDbEntity
 67
     1
  8
0
  6
Continuous
 62
     7
370
    25
100
AcDbLine
 10
-6.1338582677
 20
-0.9350393701
 30
0.0
 11
-6.062992126
 21
-0.9350393701
 31
0.0
  0
LINE
  5
1E7
330
1B
100
AcDbEntity
 67
     1
  8
0
  6
Continuous
 62
     7
370
    25
100
AcDbLine
 10
-2.6377952756
 20
0.9350393701
 30
0.0
 11
-2.7086614173
 21
0.9350393701
 31
0.0
  0
LINE
  5
1E8
330
1B
100
AcDbEntity
 67
     1
  8
0
  6
Continuous
 62
     7
370
    25
100
AcDbLine
 10
-2.7086614173
 20
-0.9350393701
 30
0.0
 11
-2.6377952756
 21
-0.9350393701
 31
0.0
  0
LINE
  5
1E9
330
1B
100
AcDbEntity
 67
     1
  8
0
  6
Continuous
 62
     7
370
    25
100
AcDbLine
 10
-6.1811023622
 20
0.9350393701
 30
0.0
 11
-6.2519685039
 21
0.9350393701
 31
0.0
  0
LINE
  5
1EA
330
1B
100
AcDbEntity
 67
     1
  8
0
  6
Continuous
 62
     7
370
    25
100
AcDbLine
 10
-6.2519685039
 20
-0.9350393701
 30
0.0
 11
-6.1811023622
 21
-0.9350393701
 31
0.0
  0
LINE
  5
1EB
330
1B
100
AcDbEntity
 67
     1
  8
0
  6
Continuous
 62
     7
370
    25
100
AcDbLine
 10
-2.7559055118
 20
0.9350393701
 30
0.0
 11
-2.8267716535
 21
0.9350393701
 31
0.0
  0
LINE
  5
1EC
330
1B
100
AcDbEntity
 67
     1
  8
0
  6
Continuous
 62
     7
370
    25
100
AcDbLine
 10
-2.8267716535
 20
-0.9350393701
 30
0.0
 11
-2.7559055118
 21
-0.9350393701
 31
0.0
  0
LINE
  5
1ED
330
1B
100
AcDbEntity
 67
     1
  8
0
  6
Continuous
 62
     7
370
    25
100
AcDbLine
 10
-6.2992125984
 20
0.9350393701
 30
0.0
 11
-6.3700787402
 21
0.9350393701
 31
0.0
  0
LINE
  5
1EE
330
1B
100
AcDbEntity
 67
     1
  8
0
  6
Continuous
 62
     7
370
    25
100
AcDbLine
 10
-6.3700787402
 20
-0.9350393701
 30
0.0
 11
-6.2992125984
 21
-0.9350393701
 31
0.0
  0
LINE
  5
1EF
330
1B
100
AcDbEntity
 67
     1
  8
0
  6
Continuous
 62
     7
370
    25
100
AcDbLine
 10
-2.874015748
 20
0.9350393701
 30
0.0
 11
-2.9448818898
 21
0.9350393701
 31
0.0
  0
LINE
  5
1F0
330
1B
100
AcDbEntity
 67
     1
  8
0
  6
Continuous
 62
     7
370
    25
100
AcDbLine
 10
-2.9448818898
 20
-0.9350393701
 30
0.0
 11
-2.874015748
 21
-0.9350393701
 31
0.0
  0
LINE
  5
1F1
330
1B
100
AcDbEntity
 67
     1
  8
0
  6
Continuous
 62
     7
370
    25
100
AcDbLine
 10
-2.9921259843
 20
0.9350393701
 30
0.0
 11
-3.062992126
 21
0.9350393701
 31
0.0
  0
LINE
  5
1F2
330
1B
100
AcDbEntity
 67
     1
  8
0
  6
Continuous
 62
     7
370
    25
100
AcDbLine
 10
-3.062992126
 20
-0.9350393701
 30
0.0
 11
-2.9921259843
 21
-0.9350393701
 31
0.0
  0
LINE
  5
1F3
330
1B
100
AcDbEntity
 67
     1
  8
0
  6
Continuous
 62
     7
370
    25
100
AcDbLine
 10
-3.1102362205
 20
0.9350393701
 30
0.0
 11
-3.1811023622
 21
0.9350393701
 31
0.0
  0
LINE
  5
1F4
330
1B
100
AcDbEntity
 67
     1
  8
0
  6
Continuous
 62
     7
370
    25
100
AcDbLine
 10
-3.1811023622
 20
-0.9350393701
 30
0.0
 11
-3.1102362205
 21
-0.9350393701
 31
0.0
  0
LINE
  5
1F5
330
1B
100
AcDbEntity
 67
     1
  8
0
  6
Continuous
 62
     7
370
    25
100
AcDbLine
 10
-3.2283464567
 20
0.9350393701
 30
0.0
 11
-3.2992125984
 21
0.9350393701
 31
0.0
  0
LINE
  5
1F6
330
1B
100
AcDbEntity
 67
     1
  8
0
  6
Continuous
 62
     7
370
    25
100
AcDbLine
 10
-3.2992125984
 20
-0.9350393701
 30
0.0
 11
-3.2283464567
 21
-0.9350393701
 31
0.0
  0
LINE
  5
1F7
330
1B
100
AcDbEntity
 67
     1
  8
0
  6
Continuous
 62
     7
370
    25
100
AcDbLine
 10
-3.3464566929
 20
0.9350393701
 30
0.0
 11
-3.4173228346
 21
0.9350393701
 31
0.0
  0
LINE
  5
1F8
330
1B
100
AcDbEntity
 67
     1
  8
0
  6
Continuous
 62
     7
370
    25
100
AcDbLine
 10
-3.4173228346
 20
-0.9350393701
 30
0.0
 11
-3.3464566929
 21
-0.9350393701
 31
0.0
  0
LINE
  5
1F9
330
1B
100
AcDbEntity
 67
     1
  8
0
  6
Continuous
 62
     7
370
    25
100
AcDbLine
 10
-2.5196850394
 20
0.9350393701
 30
0.0
 11
-2.5905511811
 21
0.9350393701
 31
0.0
  0
LINE
  5
1FA
330
1B
100
AcDbEntity
 67
     1
  8
0
  6
Continuous
 62
     7
370
    25
100
AcDbLine
 10
-2.5905511811
 20
-0.9350393701
 30
0.0
 11
-2.5196850394
 21
-0.9350393701
 31
0.0
  0
LINE
  5
1FB
330
1B
100
AcDbEntity
 67
     1
  8
0
  6
Continuous
 62
     7
370
    25
100
AcDbLine
 10
-3.7007874016
 20
0.9350393701
 30
0.0
 11
-3.7716535433
 21
0.9350393701
 31
0.0
  0
LINE
  5
1FC
330
1B
100
AcDbEntity
 67
     1
  8
0
  6
Continuous
 62
     7
370
    25
100
AcDbLine
 10
-3.7716535433
 20
-0.9350393701
 30
0.0
 11
-3.7007874016
 21
-0.9350393701
 31
0.0
  0
LINE
  5
1FD
330
1B
100
AcDbEntity
 67
     1
  8
0
  6
Continuous
 62
     7
370
    25
100
AcDbLine
 10
-5.4724409449
 20
0.9350393701
 30
0.0
 11
-5.5433070866
 21
0.9350393701
 31
0.0
  0
LINE
  5
1FE
330
1B
100
AcDbEntity
 67
     1
  8
0
  6
Continuous
 62
     7
370
    25
100
AcDbLine
 10
-5.5433070866
 20
-0.9350393701
 30
0.0
 11
-5.4724409449
 21
-0.9350393701
 31
0.0
  0
LINE
  5
1FF
330
1B
100
AcDbEntity
 67
     1
  8
0
  6
Continuous
 62
     7
370
    25
100
AcDbLine
 10
-2.0472440945
 20
0.9350393701
 30
0.0
 11
-2.1181102362
 21
0.9350393701
 31
0.0
  0
LINE
  5
200
330
1B
100
AcDbEntity
 67
     1
  8
0
  6
Continuous
 62
     7
370
    25
100
AcDbLine
 10
-2.1181102362
 20
-0.9350393701
 30
0.0
 11
-2.0472440945
 21
-0.9350393701
 31
0.0
  0
LINE
  5
201
330
1B
100
AcDbEntity
 67
     1
  8
0
  6
Continuous
 62
     7
370
    25
100
AcDbLine
 10
-3.8188976378
 20
0.9350393701
 30
0.0
 11
-3.8897637795
 21
0.9350393701
 31
0.0
  0
LINE
  5
202
330
1B
100
AcDbEntity
 67
     1
  8
0
  6
Continuous
 62
     7
370
    25
100
AcDbLine
 10
-3.8897637795
 20
-0.9350393701
 30
0.0
 11
-3.8188976378
 21
-0.9350393701
 31
0.0
  0
LINE
  5
203
330
1B
100
AcDbEntity
 67
     1
  8
0
  6
Continuous
 62
     7
370
    25
100
AcDbLine
 10
-3.937007874
 20
0.9350393701
 30
0.0
 11
-4.0078740157
 21
0.9350393701
 31
0.0
  0
LINE
  5
204
330
1B
100
AcDbEntity
 67
     1
  8
0
  6
Continuous
 62
     7
370
    25
100
AcDbLine
 10
-4.0078740157
 20
-0.9350393701
 30
0.0
 11
-3.937007874
 21
-0.9350393701
 31
0.0
  0
LINE
  5
205
330
1B
100
AcDbEntity
 67
     1
  8
0
  6
Continuous
 62
     7
370
    25
100
AcDbLine
 10
-4.0551181102
 20
0.9350393701
 30
0.0
 11
-4.125984252
 21
0.9350393701
 31
0.0
  0
LINE
  5
206
330
1B
100
AcDbEntity
 67
     1
  8
0
  6
Continuous
 62
     7
370
    25
100
AcDbLine
 10
-4.125984252
 20
-0.9350393701
 30
0.0
 11
-4.0551181102
 21
-0.9350393701
 31
0.0
  0
LINE
  5
207
330
1B
100
AcDbEntity
 67
     1
  8
0
  6
Continuous
 62
     7
370
    25
100
AcDbLine
 10
-4.1732283465
 20
0.9350393701
 30
0.0
 11
-4.2440944882
 21
0.9350393701
 31
0.0
  0
LINE
  5
208
330
1B
100
AcDbEntity
 67
     1
  8
0
  6
Continuous
 62
     7
370
    25
100
AcDbLine
 10
-4.2440944882
 20
-0.9350393701
 30
0.0
 11
-4.1732283465
 21
-0.9350393701
 31
0.0
  0
LINE
  5
209
330
1B
100
AcDbEntity
 67
     1
  8
0
  6
Continuous
 62
     7
370
    25
100
AcDbLine
 10
-4.2913385827
 20
0.9350393701
 30
0.0
 11
-4.3622047244
 21
0.9350393701
 31
0.0
  0
LINE
  5
20A
330
1B
100
AcDbEntity
 67
     1
  8
0
  6
Continuous
 62
     7
370
    25
100
AcDbLine
 10
-4.3622047244
 20
-0.9350393701
 30
0.0
 11
-4.2913385827
 21
-0.9350393701
 31
0.0
  0
LINE
  5
20B
330
1B
100
AcDbEntity
 67
     1
  8
0
  6
Continuous
 62
     7
370
    25
100
AcDbLine
 10
-4.4094488189
 20
0.9350393701
 30
0.0
 11
-4.4803149606
 21
0.9350393701
 31
0.0
  0
LINE
  5
20C
330
1B
100
AcDbEntity
 67
     1
  8
0
  6
Continuous
 62
     7
370
    25
100
AcDbLine
 10
-4.4803149606
 20
-0.9350393701
 30
0.0
 11
-4.4094488189
 21
-0.9350393701
 31
0.0
  0
LINE
  5
20D
330
1B
100
AcDbEntity
 67
     1
  8
0
  6
Continuous
 62
     7
370
    25
100
AcDbLine
 10
-4.5275590551
 20
0.9350393701
 30
0.0
 11
-4.5984251969
 21
0.9350393701
 31
0.0
  0
LINE
  5
20E
330
1B
100
AcDbEntity
 67
     1
  8
0
  6
Continuous
 62
     7
370
    25
100
AcDbLine
 10
-4.5984251969
 20
-0.9350393701
 30
0.0
 11
-4.5275590551
 21
-0.9350393701
 31
0.0
  0
LINE
  5
20F
330
1B
100
AcDbEntity
 67
     1
  8
0
  6
Continuous
 62
     7
370
    25
100
AcDbLine
 10
-4.6456692913
 20
0.9350393701
 30
0.0
 11
-4.7165354331
 21
0.9350393701
 31
0.0
  0
LINE
  5
210
330
1B
100
AcDbEntity
 67
     1
  8
0
  6
Continuous
 62
     7
370
    25
100
AcDbLine
 10
-4.7165354331
 20
-0.9350393701
 30
0.0
 11
-4.6456692913
 21
-0.9350393701
 31
0.0
  0
LINE
  5
211
330
1B
100
AcDbEntity
 67
     1
  8
0
  6
Continuous
 62
     7
370
    25
100
AcDbLine
 10
-4.7637795276
 20
0.9350393701
 30
0.0
 11
-4.8346456693
 21
0.9350393701
 31
0.0
  0
LINE
  5
212
330
1B
100
AcDbEntity
 67
     1
  8
0
  6
Continuous
 62
     7
370
    25
100
AcDbLine
 10
-4.8346456693
 20
-0.9350393701
 30
0.0
 11
-4.7637795276
 21
-0.9350393701
 31
0.0
  0
LINE
  5
213
330
1B
100
AcDbEntity
 67
     1
  8
0
  6
Continuous
 62
     7
370
    25
100
AcDbLine
 10
-4.8818897638
 20
0.9350393701
 30
0.0
 11
-4.9527559055
 21
0.9350393701
 31
0.0
  0
LINE
  5
214
330
1B
100
AcDbEntity
 67
     1
  8
0
  6
Continuous
 62
     7
370
    25
100
AcDbLine
 10
-4.9527559055
 20
-0.9350393701
 30
0.0
 11
-4.8818897638
 21
-0.9350393701
 31
0.0
  0
LINE
  5
215
330
1B
100
AcDbEntity
 67
     1
  8
0
  6
Continuous
 62
     7
370
    25
100
AcDbLine
 10
-5.0
 20
0.9350393701
 30
0.0
 11
-5.0708661417
 21
0.9350393701
 31
0.0
  0
LINE
  5
216
330
1B
100
AcDbEntity
 67
     1
  8
0
  6
Continuous
 62
     7
370
    25
100
AcDbLine
 10
-5.0708661417
 20
-0.9350393701
 30
0.0
 11
-5.0
 21
-0.9350393701
 31
0.0
  0
LINE
  5
217
330
1B
100
AcDbEntity
 67
     1
  8
0
  6
Continuous
 62
     7
370
    25
100
AcDbLine
 10
-5.1181102362
 20
0.9350393701
 30
0.0
 11
-5.188976378
 21
0.9350393701
 31
0.0
  0
LINE
  5
218
330
1B
100
AcDbEntity
 67
     1
  8
0
  6
Continuous
 62
     7
370
    25
100
AcDbLine
 10
-5.188976378
 20
-0.9350393701
 30
0.0
 11
-5.1181102362
 21
-0.9350393701
 31
0.0
  0
LINE
  5
219
330
1B
100
AcDbEntity
 67
     1
  8
0
  6
Continuous
 62
     7
370
    25
100
AcDbLine
 10
-5.2362204724
 20
0.9350393701
 30
0.0
 11
-5.3070866142
 21
0.9350393701
 31
0.0
  0
LINE
  5
21A
330
1B
100
AcDbEntity
 67
     1
  8
0
  6
Continuous
 62
     7
370
    25
100
AcDbLine
 10
-5.3070866142
 20
-0.9350393701
 30
0.0
 11
-5.2362204724
 21
-0.9350393701
 31
0.0
  0
LINE
  5
21B
330
1B
100
AcDbEntity
 67
     1
  8
0
  6
Continuous
 62
     7
370
    25
100
AcDbLine
 10
-6.4173228346
 20
0.9350393701
 30
0.0
 11
-6.6062992126
 21
0.9350393701
 31
0.0
  0
LINE
  5
21C
330
1B
100
AcDbEntity
 67
     1
  8
0
  6
Continuous
 62
     7
370
    25
100
AcDbLine
 10
-6.6062992126
 20
-0.9350393701
 30
0.0
 11
-6.4173228346
 21
-0.9350393701
 31
0.0
  0
LINE
  5
21D
330
1B
100
AcDbEntity
 67
     1
  8
0
  6
Continuous
 62
     7
370
    25
100
AcDbLine
 10
-5.3543307087
 20
0.9350393701
 30
0.0
 11
-5.4251968504
 21
0.9350393701
 31
0.0
  0
LINE
  5
21E
330
1B
100
AcDbEntity
 67
     1
  8
0
  6
Continuous
 62
     7
370
    25
100
AcDbLine
 10
-5.4251968504
 20
-0.9350393701
 30
0.0
 11
-5.3543307087
 21
-0.9350393701
 31
0.0
  0
LINE
  5
21F
330
1B
100
AcDbEntity
 67
     1
  8
0
  6
Continuous
 62
     7
370
    25
100
AcDbLine
 10
-4.9527559055
 20
0.7775590551
 30
0.0
 11
-5.0
 21
0.7775590551
 31
0.0
  0
LINE
  5
220
330
1B
100
AcDbEntity
 67
     1
  8
0
  6
Continuous
 62
     7
370
    25
100
AcDbLine
 10
-5.0
 20
-0.7775590551
 30
0.0
 11
-4.9527559055
 21
-0.7775590551
 31
0.0
  0
LINE
  5
221
330
1B
100
AcDbEntity
 67
     1
  8
0
  6
Continuous
 62
     7
370
    25
100
AcDbLine
 10
-5.3070866142
 20
0.7775590551
 30
0.0
 11
-5.3543307087
 21
0.7775590551
 31
0.0
  0
LINE
  5
222
330
1B
100
AcDbEntity
 67
     1
  8
0
  6
Continuous
 62
     7
370
    25
100
AcDbLine
 10
-5.3543307087
 20
-0.7775590551
 30
0.0
 11
-5.3070866142
 21
-0.7775590551
 31
0.0
  0
LINE
  5
223
330
1B
100
AcDbEntity
 67
     1
  8
0
  6
Continuous
 62
     7
370
    25
100
AcDbLine
 10
-4.7165354331
 20
0.7775590551
 30
0.0
 11
-4.7637795276
 21
0.7775590551
 31
0.0
  0
LINE
  5
224
330
1B
100
AcDbEntity
 67
     1
  8
0
  6
Continuous
 62
     7
370
    25
100
AcDbLine
 10
-4.7637795276
 20
-0.7775590551
 30
0.0
 11
-4.7165354331
 21
-0.7775590551
 31
0.0
  0
LINE
  5
225
330
1B
100
AcDbEntity
 67
     1
  8
0
  6
Continuous
 62
     7
370
    25
100
AcDbLine
 10
-5.188976378
 20
0.7775590551
 30
0.0
 11
-5.2362204724
 21
0.7775590551
 31
0.0
  0
LINE
  5
226
330
1B
100
AcDbEntity
 67
     1
  8
0
  6
Continuous
 62
     7
370
    25
100
AcDbLine
 10
-5.2362204724
 20
-0.7775590551
 30
0.0
 11
-5.188976378
 21
-0.7775590551
 31
0.0
  0
LINE
  5
227
330
1B
100
AcDbEntity
 67
     1
  8
0
  6
Continuous
 62
     7
370
    25
100
AcDbLine
 10
-2.5905511811
 20
0.7775590551
 30
0.0
 11
-2.6377952756
 21
0.7775590551
 31
0.0
  0
LINE
  5
228
330
1B
100
AcDbEntity
 67
     1
  8
0
  6
Continuous
 62
     7
370
    25
100
AcDbLine
 10
-2.6377952756
 20
-0.7775590551
 30
0.0
 11
-2.5905511811
 21
-0.7775590551
 31
0.0
  0
LINE
  5
229
330
1B
100
AcDbEntity
 67
     1
  8
0
  6
Continuous
 62
     7
370
    25
100
AcDbLine
 10
-3.062992126
 20
0.7775590551
 30
0.0
 11
-3.1102362205
 21
0.7775590551
 31
0.0
  0
LINE
  5
22A
330
1B
100
AcDbEntity
 67
     1
  8
0
  6
Continuous
 62
     7
370
    25
100
AcDbLine
 10
-3.1102362205
 20
-0.7775590551
 30
0.0
 11
-3.062992126
 21
-0.7775590551
 31
0.0
  0
LINE
  5
22B
330
1B
100
AcDbEntity
 67
     1
  8
0
  6
Continuous
 62
     7
370
    25
100
AcDbLine
 10
-4.8346456693
 20
0.7775590551
 30
0.0
 11
-4.8818897638
 21
0.7775590551
 31
0.0
  0
LINE
  5
22C
330
1B
100
AcDbEntity
 67
     1
  8
0
  6
Continuous
 62
     7
370
    25
100
AcDbLine
 10
-4.8818897638
 20
-0.7775590551
 30
0.0
 11
-4.8346456693
 21
-0.7775590551
 31
0.0
  0
LINE
  5
22D
330
1B
100
AcDbEntity
 67
     1
  8
0
  6
Continuous
 62
     7
370
    25
100
AcDbLine
 10
-1.8818897638
 20
0.7775590551
 30
0.0
 11
-1.9291338583
 21
0.7775590551
 31
0.0
  0
LINE
  5
22E
330
1B
100
AcDbEntity
 67
     1
  8
0
  6
Continuous
 62
     7
370
    25
100
AcDbLine
 10
-1.9291338583
 20
-0.7775590551
 30
0.0
 11
-1.8818897638
 21
-0.7775590551
 31
0.0
  0
LINE
  5
22F
330
1B
100
AcDbEntity
 67
     1
  8
0
  6
Continuous
 62
     7
370
    25
100
AcDbLine
 10
-4.0078740157
 20
0.7775590551
 30
0.0
 11
-4.0551181102
 21
0.7775590551
 31
0.0
  0
LINE
  5
230
330
1B
100
AcDbEntity
 67
     1
  8
0
  6
Continuous
 62
     7
370
    25
100
AcDbLine
 10
-4.0551181102
 20
-0.7775590551
 30
0.0
 11
-4.0078740157
 21
-0.7775590551
 31
0.0
  0
LINE
  5
231
330
1B
100
AcDbEntity
 67
     1
  8
0
  6
Continuous
 62
     7
370
    25
100
AcDbLine
 10
-3.1811023622
 20
0.7775590551
 30
0.0
 11
-3.2283464567
 21
0.7775590551
 31
0.0
  0
LINE
  5
232
330
1B
100
AcDbEntity
 67
     1
  8
0
  6
Continuous
 62
     7
370
    25
100
AcDbLine
 10
-3.2283464567
 20
-0.7775590551
 30
0.0
 11
-3.1811023622
 21
-0.7775590551
 31
0.0
  0
LINE
  5
233
330
1B
100
AcDbEntity
 67
     1
  8
0
  6
Continuous
 62
     7
370
    25
100
AcDbLine
 10
-5.7795275591
 20
0.7775590551
 30
0.0
 11
-5.8267716535
 21
0.7775590551
 31
0.0
  0
LINE
  5
234
330
1B
100
AcDbEntity
 67
     1
  8
0
  6
Continuous
 62
     7
370
    25
100
AcDbLine
 10
-5.8267716535
 20
-0.7775590551
 30
0.0
 11
-5.7795275591
 21
-0.7775590551
 31
0.0
  0
LINE
  5
235
330
1B
100
AcDbEntity
 67
     1
  8
0
  6
Continuous
 62
     7
370
    25
100
AcDbLine
 10
-2.3543307087
 20
0.7775590551
 30
0.0
 11
-2.4015748031
 21
0.7775590551
 31
0.0
  0
LINE
  5
236
330
1B
100
AcDbEntity
 67
     1
  8
0
  6
Continuous
 62
     7
370
    25
100
AcDbLine
 10
-2.4015748031
 20
-0.7775590551
 30
0.0
 11
-2.3543307087
 21
-0.7775590551
 31
0.0
  0
LINE
  5
237
330
1B
100
AcDbEntity
 67
     1
  8
0
  6
Continuous
 62
     7
370
    25
100
AcDbLine
 10
-5.4251968504
 20
0.7775590551
 30
0.0
 11
-5.4724409449
 21
0.7775590551
 31
0.0
  0
LINE
  5
238
330
1B
100
AcDbEntity
 67
     1
  8
0
  6
Continuous
 62
     7
370
    25
100
AcDbLine
 10
-5.4724409449
 20
-0.7775590551
 30
0.0
 11
-5.4251968504
 21
-0.7775590551
 31
0.0
  0
LINE
  5
239
330
1B
100
AcDbEntity
 67
     1
  8
0
  6
Continuous
 62
     7
370
    25
100
AcDbLine
 10
-5.6614173228
 20
0.7775590551
 30
0.0
 11
-5.7086614173
 21
0.7775590551
 31
0.0
  0
LINE
  5
23A
330
1B
100
AcDbEntity
 67
     1
  8
0
  6
Continuous
 62
     7
370
    25
100
AcDbLine
 10
-5.7086614173
 20
-0.7775590551
 30
0.0
 11
-5.6614173228
 21
-0.7775590551
 31
0.0
  0
LINE
  5
23B
330
1B
100
AcDbEntity
 67
     1
  8
0
  6
Continuous
 62
     7
370
    25
100
AcDbLine
 10
-2.2362204724
 20
0.7775590551
 30
0.0
 11
-2.2834645669
 21
0.7775590551
 31
0.0
  0
LINE
  5
23C
330
1B
100
AcDbEntity
 67
     1
  8
0
  6
Continuous
 62
     7
370
    25
100
AcDbLine
 10
-2.2834645669
 20
-0.7775590551
 30
0.0
 11
-2.2362204724
 21
-0.7775590551
 31
0.0
  0
LINE
  5
23D
330
1B
100
AcDbEntity
 67
     1
  8
0
  6
Continuous
 62
     7
370
    25
100
AcDbLine
 10
-2.9448818898
 20
0.7775590551
 30
0.0
 11
-2.9921259843
 21
0.7775590551
 31
0.0
  0
LINE
  5
23E
330
1B
100
AcDbEntity
 67
     1
  8
0
  6
Continuous
 62
     7
370
    25
100
AcDbLine
 10
-2.9921259843
 20
-0.7775590551
 30
0.0
 11
-2.9448818898
 21
-0.7775590551
 31
0.0
  0
LINE
  5
23F
330
1B
100
AcDbEntity
 67
     1
  8
0
  6
Continuous
 62
     7
370
    25
100
AcDbLine
 10
-5.5433070866
 20
0.7775590551
 30
0.0
 11
-5.5905511811
 21
0.7775590551
 31
0.0
  0
LINE
  5
240
330
1B
100
AcDbEntity
 67
     1
  8
0
  6
Continuous
 62
     7
370
    25
100
AcDbLine
 10
-5.5905511811
 20
-0.7775590551
 30
0.0
 11
-5.5433070866
 21
-0.7775590551
 31
0.0
  0
LINE
  5
241
330
1B
100
AcDbEntity
 67
     1
  8
0
  6
Continuous
 62
     7
370
    25
100
AcDbLine
 10
-2.1181102362
 20
0.7775590551
 30
0.0
 11
-2.1653543307
 21
0.7775590551
 31
0.0
  0
LINE
  5
242
330
1B
100
AcDbEntity
 67
     1
  8
0
  6
Continuous
 62
     7
370
    25
100
AcDbLine
 10
-2.1653543307
 20
-0.7775590551
 30
0.0
 11
-2.1181102362
 21
-0.7775590551
 31
0.0
  0
LINE
  5
243
330
1B
100
AcDbEntity
 67
     1
  8
0
  6
Continuous
 62
     7
370
    25
100
AcDbLine
 10
-3.8897637795
 20
0.7775590551
 30
0.0
 11
-3.937007874
 21
0.7775590551
 31
0.0
  0
LINE
  5
244
330
1B
100
AcDbEntity
 67
     1
  8
0
  6
Continuous
 62
     7
370
    25
100
AcDbLine
 10
-3.937007874
 20
-0.7775590551
 30
0.0
 11
-3.8897637795
 21
-0.7775590551
 31
0.0
  0
LINE
  5
245
330
1B
100
AcDbEntity
 67
     1
  8
0
  6
Continuous
 62
     7
370
    25
100
AcDbLine
 10
-3.4173228346
 20
0.7775590551
 30
0.0
 11
-3.4645669291
 21
0.7775590551
 31
0.0
  0
LINE
  5
246
330
1B
100
AcDbEntity
 67
     1
  8
0
  6
Continuous
 62
     7
370
    25
100
AcDbLine
 10
-3.4645669291
 20
-0.7775590551
 30
0.0
 11
-3.4173228346
 21
-0.7775590551
 31
0.0
  0
LINE
  5
247
330
1B
100
AcDbEntity
 67
     1
  8
0
  6
Continuous
 62
     7
370
    25
100
AcDbLine
 10
-4.3622047244
 20
0.7775590551
 30
0.0
 11
-4.4094488189
 21
0.7775590551
 31
0.0
  0
LINE
  5
248
330
1B
100
AcDbEntity
 67
     1
  8
0
  6
Continuous
 62
     7
370
    25
100
AcDbLine
 10
-4.4094488189
 20
-0.7775590551
 30
0.0
 11
-4.3622047244
 21
-0.7775590551
 31
0.0
  0
LINE
  5
249
330
1B
100
AcDbEntity
 67
     1
  8
0
  6
Continuous
 62
     7
370
    25
100
AcDbLine
 10
-3.5354330709
 20
0.7775590551
 30
0.0
 11
-3.5826771654
 21
0.7775590551
 31
0.0
  0
LINE
  5
24A
330
1B
100
AcDbEntity
 67
     1
  8
0
  6
Continuous
 62
     7
370
    25
100
AcDbLine
 10
-3.5826771654
 20
-0.7775590551
 30
0.0
 11
-3.5354330709
 21
-0.7775590551
 31
0.0
  0
LINE
  5
24B
330
1B
100
AcDbEntity
 67
     1
  8
0
  6
Continuous
 62
     7
370
    25
100
AcDbLine
 10
-6.1338582677
 20
0.7775590551
 30
0.0
 11
-6.1811023622
 21
0.7775590551
 31
0.0
  0
LINE
  5
24C
330
1B
100
AcDbEntity
 67
     1
  8
0
  6
Continuous
 62
     7
370
    25
100
AcDbLine
 10
-6.1811023622
 20
-0.7775590551
 30
0.0
 11
-6.1338582677
 21
-0.7775590551
 31
0.0
  0
LINE
  5
24D
330
1B
100
AcDbEntity
 67
     1
  8
0
  6
Continuous
 62
     7
370
    25
100
AcDbLine
 10
-2.7086614173
 20
0.7775590551
 30
0.0
 11
-2.7559055118
 21
0.7775590551
 31
0.0
  0
LINE
  5
24E
330
1B
100
AcDbEntity
 67
     1
  8
0
  6
Continuous
 62
     7
370
    25
100
AcDbLine
 10
-2.7559055118
 20
-0.7775590551
 30
0.0
 11
-2.7086614173
 21
-0.7775590551
 31
0.0
  0
LINE
  5
24F
330
1B
100
AcDbEntity
 67
     1
  8
0
  6
Continuous
 62
     7
370
    25
100
AcDbLine
 10
-4.4803149606
 20
0.7775590551
 30
0.0
 11
-4.5275590551
 21
0.7775590551
 31
0.0
  0
LINE
  5
250
330
1B
100
AcDbEntity
 67
     1
  8
0
  6
Continuous
 62
     7
370
    25
100
AcDbLine
 10
-4.5275590551
 20
-0.7775590551
 30
0.0
 11
-4.4803149606
 21
-0.7775590551
 31
0.0
  0
LINE
  5
251
330
1B
100
AcDbEntity
 67
     1
  8
0
  6
Continuous
 62
     7
370
    25
100
AcDbLine
 10
-3.6535433071
 20
0.7775590551
 30
0.0
 11
-3.7007874016
 21
0.7775590551
 31
0.0
  0
LINE
  5
252
330
1B
100
AcDbEntity
 67
     1
  8
0
  6
Continuous
 62
     7
370
    25
100
AcDbLine
 10
-3.7007874016
 20
-0.7775590551
 30
0.0
 11
-3.6535433071
 21
-0.7775590551
 31
0.0
  0
LINE
  5
253
330
1B
100
AcDbEntity
 67
     1
  8
0
  6
Continuous
 62
     7
370
    25
100
AcDbLine
 10
-6.2519685039
 20
0.7775590551
 30
0.0
 11
-6.2992125984
 21
0.7775590551
 31
0.0
  0
LINE
  5
254
330
1B
100
AcDbEntity
 67
     1
  8
0
  6
Continuous
 62
     7
370
    25
100
AcDbLine
 10
-6.2992125984
 20
-0.7775590551
 30
0.0
 11
-6.2519685039
 21
-0.7775590551
 31
0.0
  0
LINE
  5
255
330
1B
100
AcDbEntity
 67
     1
  8
0
  6
Continuous
 62
     7
370
    25
100
AcDbLine
 10
-2.8267716535
 20
0.7775590551
 30
0.0
 11
-2.874015748
 21
0.7775590551
 31
0.0
  0
LINE
  5
256
330
1B
100
AcDbEntity
 67
     1
  8
0
  6
Continuous
 62
     7
370
    25
100
AcDbLine
 10
-2.874015748
 20
-0.7775590551
 30
0.0
 11
-2.8267716535
 21
-0.7775590551
 31
0.0
  0
LINE
  5
257
330
1B
100
AcDbEntity
 67
     1
  8
0
  6
Continuous
 62
     7
370
    25
100
AcDbLine
 10
-5.8976377953
 20
0.7775590551
 30
0.0
 11
-5.9448818898
 21
0.7775590551
 31
0.0
  0
LINE
  5
258
330
1B
100
AcDbEntity
 67
     1
  8
0
  6
Continuous
 62
     7
370
    25
100
AcDbLine
 10
-5.9448818898
 20
-0.7775590551
 30
0.0
 11
-5.8976377953
 21
-0.7775590551
 31
0.0
  0
LINE
  5
259
330
1B
100
AcDbEntity
 67
     1
  8
0
  6
Continuous
 62
     7
370
    25
100
AcDbLine
 10
-2.4724409449
 20
0.7775590551
 30
0.0
 11
-2.5196850394
 21
0.7775590551
 31
0.0
  0
LINE
  5
25A
330
1B
100
AcDbEntity
 67
     1
  8
0
  6
Continuous
 62
     7
370
    25
100
AcDbLine
 10
-2.5196850394
 20
-0.7775590551
 30
0.0
 11
-2.4724409449
 21
-0.7775590551
 31
0.0
  0
LINE
  5
25B
330
1B
100
AcDbEntity
 67
     1
  8
0
  6
Continuous
 62
     7
370
    25
100
AcDbLine
 10
-6.3700787402
 20
0.7775590551
 30
0.0
 11
-6.4173228346
 21
0.7775590551
 31
0.0
  0
LINE
  5
25C
330
1B
100
AcDbEntity
 67
     1
  8
0
  6
Continuous
 62
     7
370
    25
100
AcDbLine
 10
-6.4173228346
 20
-0.7775590551
 30
0.0
 11
-6.3700787402
 21
-0.7775590551
 31
0.0
  0
LINE
  5
25D
330
1B
100
AcDbEntity
 67
     1
  8
0
  6
Continuous
 62
     7
370
    25
100
AcDbLine
 10
-4.2440944882
 20
0.7775590551
 30
0.0
 11
-4.2913385827
 21
0.7775590551
 31
0.0
  0
LINE
  5
25E
330
1B
100
AcDbEntity
 67
     1
  8
0
  6
Continuous
 62
     7
370
    25
100
AcDbLine
 10
-4.2913385827
 20
-0.7775590551
 30
0.0
 11
-4.2440944882
 21
-0.7775590551
 31
0.0
  0
LINE
  5
25F
330
1B
100
AcDbEntity
 67
     1
  8
0
  6
Continuous
 62
     7
370
    25
100
AcDbLine
 10
-6.0157480315
 20
0.7775590551
 30
0.0
 11
-6.062992126
 21
0.7775590551
 31
0.0
  0
LINE
  5
260
330
1B
100
AcDbEntity
 67
     1
  8
0
  6
Continuous
 62
     7
370
    25
100
AcDbLine
 10
-6.062992126
 20
-0.7775590551
 30
0.0
 11
-6.0157480315
 21
-0.7775590551
 31
0.0
  0
LINE
  5
261
330
1B
100
AcDbEntity
 67
     1
  8
0
  6
Continuous
 62
     7
370
    25
100
AcDbLine
 10
-3.2992125984
 20
0.7775590551
 30
0.0
 11
-3.3464566929
 21
0.7775590551
 31
0.0
  0
LINE
  5
262
330
1B
100
AcDbEntity
 67
     1
  8
0
  6
Continuous
 62
     7
370
    25
100
AcDbLine
 10
-3.3464566929
 20
-0.7775590551
 30
0.0
 11
-3.2992125984
 21
-0.7775590551
 31
0.0
  0
LINE
  5
263
330
1B
100
AcDbEntity
 67
     1
  8
0
  6
Continuous
 62
     7
370
    25
100
AcDbLine
 10
-4.125984252
 20
0.7775590551
 30
0.0
 11
-4.1732283465
 21
0.7775590551
 31
0.0
  0
LINE
  5
264
330
1B
100
AcDbEntity
 67
     1
  8
0
  6
Continuous
 62
     7
370
    25
100
AcDbLine
 10
-4.1732283465
 20
-0.7775590551
 30
0.0
 11
-4.125984252
 21
-0.7775590551
 31
0.0
  0
LINE
  5
265
330
1B
100
AcDbEntity
 67
     1
  8
0
  6
Continuous
 62
     7
370
    25
100
AcDbLine
 10
-4.5984251969
 20
0.7775590551
 30
0.0
 11
-4.6456692913
 21
0.7775590551
 31
0.0
  0
LINE
  5
266
330
1B
100
AcDbEntity
 67
     1
  8
0
  6
Continuous
 62
     7
370
    25
100
AcDbLine
 10
-4.6456692913
 20
-0.7775590551
 30
0.0
 11
-4.5984251969
 21
-0.7775590551
 31
0.0
  0
LINE
  5
267
330
1B
100
AcDbEntity
 67
     1
  8
0
  6
Continuous
 62
     7
370
    25
100
AcDbLine
 10
-5.0708661417
 20
0.7775590551
 30
0.0
 11
-5.1181102362
 21
0.7775590551
 31
0.0
  0
LINE
  5
268
330
1B
100
AcDbEntity
 67
     1
  8
0
  6
Continuous
 62
     7
370
    25
100
AcDbLine
 10
-5.1181102362
 20
-0.7775590551
 30
0.0
 11
-5.0708661417
 21
-0.7775590551
 31
0.0
  0
LINE
  5
269
330
1B
100
AcDbEntity
 67
     1
  8
0
  6
Continuous
 62
     7
370
    25
100
AcDbLine
 10
-3.7716535433
 20
0.7775590551
 30
0.0
 11
-3.8188976378
 21
0.7775590551
 31
0.0
  0
LINE
  5
26A
330
1B
100
AcDbEntity
 67
     1
  8
0
  6
Continuous
 62
     7
370
    25
100
AcDbLine
 10
-3.8188976378
 20
-0.7775590551
 30
0.0
 11
-3.7716535433
 21
-0.7775590551
 31
0.0
  0
LINE
  5
26B
330
1B
100
AcDbEntity
 67
     1
  8
0
  6
Continuous
 62
     7
370
    25
100
AcDbLine
 10
-2.0
 20
0.7775590551
 30
0.0
 11
-2.0472440945
 21
0.7775590551
 31
0.0
  0
LINE
  5
26C
330
1B
100
AcDbEntity
 67
     1
  8
0
  6
Continuous
 62
     7
370
    25
100
AcDbLine
 10
-2.0472440945
 20
-0.7775590551
 30
0.0
 11
-2.0
 21
-0.7775590551
 31
0.0
  0
LINE
  5
26D
330
1B
100
AcDbEntity
 67
     1
  8
0
  6
Continuous
 62
     7
370
    25
100
AcDbLine
 10
-0.1897579201
 20
0.9350393701
 30
0.0
 11
-0.5118110236
 21
0.9350393701
 31
0.0
  0
LINE
  5
26E
330
1B
100
AcDbEntity
 67
     1
  8
0
  6
Continuous
 62
     7
370
    25
100
AcDbLine
 10
-0.5118110236
 20
-0.9350393701
 30
0.0
 11
-0.1897579201
 21
-0.9350393701
 31
0.0
  0
LINE
  5
26F
330
1B
100
AcDbEntity
 67
     1
  8
0
  6
Continuous
 62
     7
370
    25
100
AcDbLine
 10
-0.1897579201
 20
-0.9350393701
 30
0.0
 11
-0.1288573888
 21
-0.7677165354
 31
0.0
  0
LINE
  5
270
330
1B
100
AcDbEntity
 67
     1
  8
0
  6
Continuous
 62
     7
370
    25
100
AcDbLine
 10
-0.1288573888
 20
0.7677165354
 30
0.0
 11
-0.1897579201
 21
0.9350393701
 31
0.0
  0
LINE
  5
271
330
1B
100
AcDbEntity
 67
     1
  8
0
  6
Continuous
 62
     7
370
    25
100
AcDbLine
 10
-7.8661417323
 20
0.9251968504
 30
0.0
 11
-8.1881948358
 21
0.9251968504
 31
0.0
  0
LINE
  5
272
330
1B
100
AcDbEntity
 67
     1
  8
0
  6
Continuous
 62
     7
370
    25
100
AcDbLine
 10
-8.1881948358
 20
-0.9251968504
 30
0.0
 11
-7.8661417323
 21
-0.9251968504
 31
0.0
  0
LINE
  5
273
330
1B
100
AcDbEntity
 67
     1
  8
0
  6
Continuous
 62
     7
370
    25
100
AcDbLine
 10
-8.1881948358
 20
0.9251968504
 30
0.0
 11
-8.2598425197
 21
0.7283464567
 31
0.0
  0
LINE
  5
274
330
1B
100
AcDbEntity
 67
     1
  8
0
  6
Continuous
 62
     7
370
    25
100
AcDbLine
 10
-8.2598425197
 20
-0.7283464567
 30
0.0
 11
-8.1881948358
 21
-0.9251968504
 31
0.0
  0
LINE
  5
275
330
1B
100
AcDbEntity
 67
     1
  8
0
  6
Continuous
 62
     7
370
    25
100
AcDbLine
 10
-1.1929133858
 20
0.8267716535
 30
0.0
 11
-1.3700787402
 21
0.8267716535
 31
0.0
  0
LINE
  5
276
330
1B
100
AcDbEntity
 67
     1
  8
0
  6
Continuous
 62
     7
370
    25
100
AcDbLine
 10
-1.3700787402
 20
-0.8267716535
 30
0.0
 11
-1.1929133858
 21
-0.8267716535
 31
0.0
  0
LINE
  5
277
330
1B
100
AcDbEntity
 67
     1
  8
0
  6
Continuous
 62
     7
370
    25
100
AcDbLine
 10
0.0
 20
0.7677165354
 30
0.0
 11
-0.1288573888
 21
0.7677165354
 31
0.0
  0
LINE
  5
278
330
1B
100
AcDbEntity
 67
     1
  8
0
  6
Continuous
 62
     7
370
    25
100
AcDbLine
 10
-0.1288573888
 20
-0.7677165354
 30
0.0
 11
0.0
 21
-0.7677165354
 31
0.0
  0
LINE
  5
279
330
1B
100
AcDbEntity
 67
     1
  8
0
  6
Continuous
 62
     7
370
    25
100
AcDbLine
 10
-0.5511811024
 20
0.7578740157
 30
0.0
 11
-1.1929133858
 21
0.7578740157
 31
0.0
  0
LINE
  5
27A
330
1B
100
AcDbEntity
 67
     1
  8
0
  6
Continuous
 62
     7
370
    25
100
AcDbLine
 10
-1.1929133858
 20
-0.7578740157
 30
0.0
 11
-0.5511811024
 21
-0.7578740157
 31
0.0
  0
LINE
  5
27B
330
1B
100
AcDbEntity
 67
     1
  8
0
  6
Continuous
 62
     7
370
    25
100
AcDbLine
 10
-8.2598425197
 20
0.7480314961
 30
0.0
 11
-8.437007874
 21
0.7480314961
 31
0.0
  0
LINE
  5
27C
330
1B
100
AcDbEntity
 67
     1
  8
0
  6
Continuous
 62
     7
370
    25
100
AcDbLine
 10
-8.437007874
 20
-0.7480314961
 30
0.0
 11
-8.2598425197
 21
-0.7480314961
 31
0.0
  0
LINE
  5
27D
330
1B
100
AcDbEntity
 67
     1
  8
0
  6
Continuous
 62
     7
370
    25
100
AcDbLine
 10
-7.157480315
 20
0.7480314961
 30
0.0
 11
-7.8267716535
 21
0.7480314961
 31
0.0
  0
LINE
  5
27E
330
1B
100
AcDbEntity
 67
     1
  8
0
  6
Continuous
 62
     7
370
    25
100
AcDbLine
 10
-7.8267716535
 20
-0.7480314961
 30
0.0
 11
-7.157480315
 21
-0.7480314961
 31
0.0
  0
LINE
  5
27F
330
1B
100
AcDbEntity
 67
     1
  8
0
  6
Continuous
 62
     7
370
    25
100
AcDbLine
 10
-7.0
 20
-0.6988188976
 30
0.0
 11
-6.9212598425
 21
-0.6200787402
 31
0.0
  0
LINE
  5
280
330
1B
100
AcDbEntity
 67
     1
  8
0
  6
Continuous
 62
     7
370
    25
100
AcDbLine
 10
-6.9212598425
 20
0.6200787402
 30
0.0
 11
-7.0
 21
0.6988188976
 31
0.0
  0
LINE
  5
281
330
1B
100
AcDbEntity
 67
     1
  8
0
  6
Continuous
 62
     7
370
    25
100
AcDbLine
 10
-7.0
 20
0.6988188976
 30
0.0
 11
-7.157480315
 21
0.6988188976
 31
0.0
  0
LINE
  5
282
330
1B
100
AcDbEntity
 67
     1
  8
0
  6
Continuous
 62
     7
370
    25
100
AcDbLine
 10
-7.157480315
 20
-0.6988188976
 30
0.0
 11
-7.0
 21
-0.6988188976
 31
0.0
  0
LINE
  5
283
330
1B
100
AcDbEntity
 67
     1
  8
0
  6
Continuous
 62
     7
370
    25
100
AcDbLine
 10
2.029736255
 20
0.7874015748
 30
0.0
 11
2.029736255
 21
1.1811023622
 31
0.0
  0
LINE
  5
284
330
1B
100
AcDbEntity
 67
     1
  8
0
  6
Continuous
 62
     7
370
    25
100
AcDbLine
 10
0.6517834991
 20
1.1811023622
 30
0.0
 11
0.6517834991
 21
0.7874015748
 31
0.0
  0
LINE
  5
285
330
1B
100
AcDbEntity
 67
     1
  8
0
  6
Continuous
 62
     7
370
    25
100
AcDbLine
 10
0.0
 20
-0.688976378
 30
0.0
 11
0.5533583023
 21
-0.688976378
 31
0.0
  0
LINE
  5
286
330
1B
100
AcDbEntity
 67
     1
  8
0
  6
Continuous
 62
     7
370
    25
100
AcDbLine
 10
0.5533583023
 20
0.688976378
 30
0.0
 11
0.0
 21
0.688976378
 31
0.0
  0
LINE
  5
287
330
1B
100
AcDbEntity
 67
     1
  8
0
  6
Continuous
 62
     7
370
    25
100
AcDbLine
 10
-1.8818897638
 20
-0.9350393701
 30
0.0
 11
-1.8818897638
 21
0.9350393701
 31
0.0
  0
LINE
  5
288
330
1B
100
AcDbEntity
 67
     1
  8
0
  6
Continuous
 62
     7
370
    25
100
AcDbLine
 10
-2.0
 20
-0.9350393701
 30
0.0
 11
-2.0
 21
0.9350393701
 31
0.0
  0
LINE
  5
289
330
1B
100
AcDbEntity
 67
     1
  8
0
  6
Continuous
 62
     7
370
    25
100
AcDbLine
 10
-1.9291338583
 20
-0.9350393701
 30
0.0
 11
-1.9291338583
 21
0.9350393701
 31
0.0
  0
LINE
  5
28A
330
1B
100
AcDbEntity
 67
     1
  8
0
  6
Continuous
 62
     7
370
    25
100
AcDbLine
 10
-3.6535433071
 20
-0.9350393701
 30
0.0
 11
-3.6535433071
 21
0.9350393701
 31
0.0
  0
LINE
  5
28B
330
1B
100
AcDbEntity
 67
     1
  8
0
  6
Continuous
 62
     7
370
    25
100
AcDbLine
 10
-3.5826771654
 20
-0.9350393701
 30
0.0
 11
-3.5826771654
 21
0.9350393701
 31
0.0
  0
LINE
  5
28C
330
1B
100
AcDbEntity
 67
     1
  8
0
  6
Continuous
 62
     7
370
    25
100
AcDbLine
 10
-3.5354330709
 20
-0.9350393701
 30
0.0
 11
-3.5354330709
 21
0.9350393701
 31
0.0
  0
LINE
  5
28D
330
1B
100
AcDbEntity
 67
     1
  8
0
  6
Continuous
 62
     7
370
    25
100
AcDbLine
 10
-3.4645669291
 20
-0.9350393701
 30
0.0
 11
-3.4645669291
 21
0.9350393701
 31
0.0
  0
LINE
  5
28E
330
1B
100
AcDbEntity
 67
     1
  8
0
  6
Continuous
 62
     7
370
    25
100
AcDbLine
 10
-2.3543307087
 20
-0.9350393701
 30
0.0
 11
-2.3543307087
 21
0.9350393701
 31
0.0
  0
LINE
  5
28F
330
1B
100
AcDbEntity
 67
     1
  8
0
  6
Continuous
 62
     7
370
    25
100
AcDbLine
 10
-2.2834645669
 20
-0.9350393701
 30
0.0
 11
-2.2834645669
 21
0.9350393701
 31
0.0
  0
LINE
  5
290
330
1B
100
AcDbEntity
 67
     1
  8
0
  6
Continuous
 62
     7
370
    25
100
AcDbLine
 10
-5.8976377953
 20
-0.9350393701
 30
0.0
 11
-5.8976377953
 21
0.9350393701
 31
0.0
  0
LINE
  5
291
330
1B
100
AcDbEntity
 67
     1
  8
0
  6
Continuous
 62
     7
370
    25
100
AcDbLine
 10
-5.8267716535
 20
-0.9350393701
 30
0.0
 11
-5.8267716535
 21
0.9350393701
 31
0.0
  0
LINE
  5
292
330
1B
100
AcDbEntity
 67
     1
  8
0
  6
Continuous
 62
     7
370
    25
100
AcDbLine
 10
-2.4724409449
 20
-0.9350393701
 30
0.0
 11
-2.4724409449
 21
0.9350393701
 31
0.0
  0
LINE
  5
293
330
1B
100
AcDbEntity
 67
     1
  8
0
  6
Continuous
 62
     7
370
    25
100
AcDbLine
 10
-2.4015748031
 20
-0.9350393701
 30
0.0
 11
-2.4015748031
 21
0.9350393701
 31
0.0
  0
LINE
  5
294
330
1B
100
AcDbEntity
 67
     1
  8
0
  6
Continuous
 62
     7
370
    25
100
AcDbLine
 10
-5.7795275591
 20
-0.9350393701
 30
0.0
 11
-5.7795275591
 21
0.9350393701
 31
0.0
  0
LINE
  5
295
330
1B
100
AcDbEntity
 67
     1
  8
0
  6
Continuous
 62
     7
370
    25
100
AcDbLine
 10
-5.7086614173
 20
-0.9350393701
 30
0.0
 11
-5.7086614173
 21
0.9350393701
 31
0.0
  0
LINE
  5
296
330
1B
100
AcDbEntity
 67
     1
  8
0
  6
Continuous
 62
     7
370
    25
100
AcDbLine
 10
-6.0157480315
 20
-0.9350393701
 30
0.0
 11
-6.0157480315
 21
0.9350393701
 31
0.0
  0
LINE
  5
297
330
1B
100
AcDbEntity
 67
     1
  8
0
  6
Continuous
 62
     7
370
    25
100
AcDbLine
 10
-5.9448818898
 20
-0.9350393701
 30
0.0
 11
-5.9448818898
 21
0.9350393701
 31
0.0
  0
LINE
  5
298
330
1B
100
AcDbEntity
 67
     1
  8
0
  6
Continuous
 62
     7
370
    25
100
AcDbLine
 10
-5.6614173228
 20
-0.9350393701
 30
0.0
 11
-5.6614173228
 21
0.9350393701
 31
0.0
  0
LINE
  5
299
330
1B
100
AcDbEntity
 67
     1
  8
0
  6
Continuous
 62
     7
370
    25
100
AcDbLine
 10
-5.5905511811
 20
-0.9350393701
 30
0.0
 11
-5.5905511811
 21
0.9350393701
 31
0.0
  0
LINE
  5
29A
330
1B
100
AcDbEntity
 67
     1
  8
0
  6
Continuous
 62
     7
370
    25
100
AcDbLine
 10
-2.2362204724
 20
-0.9350393701
 30
0.0
 11
-2.2362204724
 21
0.9350393701
 31
0.0
  0
LINE
  5
29B
330
1B
100
AcDbEntity
 67
     1
  8
0
  6
Continuous
 62
     7
370
    25
100
AcDbLine
 10
-2.1653543307
 20
-0.9350393701
 30
0.0
 11
-2.1653543307
 21
0.9350393701
 31
0.0
  0
LINE
  5
29C
330
1B
100
AcDbEntity
 67
     1
  8
0
  6
Continuous
 62
     7
370
    25
100
AcDbLine
 10
-6.1338582677
 20
-0.9350393701
 30
0.0
 11
-6.1338582677
 21
0.9350393701
 31
0.0
  0
LINE
  5
29D
330
1B
100
AcDbEntity
 67
     1
  8
0
  6
Continuous
 62
     7
370
    25
100
AcDbLine
 10
-6.062992126
 20
-0.9350393701
 30
0.0
 11
-6.062992126
 21
0.9350393701
 31
0.0
  0
LINE
  5
29E
330
1B
100
AcDbEntity
 67
     1
  8
0
  6
Continuous
 62
     7
370
    25
100
AcDbLine
 10
-2.7086614173
 20
-0.9350393701
 30
0.0
 11
-2.7086614173
 21
0.9350393701
 31
0.0
  0
LINE
  5
29F
330
1B
100
AcDbEntity
 67
     1
  8
0
  6
Continuous
 62
     7
370
    25
100
AcDbLine
 10
-2.6377952756
 20
-0.9350393701
 30
0.0
 11
-2.6377952756
 21
0.9350393701
 31
0.0
  0
LINE
  5
2A0
330
1B
100
AcDbEntity
 67
     1
  8
0
  6
Continuous
 62
     7
370
    25
100
AcDbLine
 10
-6.2519685039
 20
-0.9350393701
 30
0.0
 11
-6.2519685039
 21
0.9350393701
 31
0.0
  0
LINE
  5
2A1
330
1B
100
AcDbEntity
 67
     1
  8
0
  6
Continuous
 62
     7
370
    25
100
AcDbLine
 10
-6.1811023622
 20
-0.9350393701
 30
0.0
 11
-6.1811023622
 21
0.9350393701
 31
0.0
  0
LINE
  5
2A2
330
1B
100
AcDbEntity
 67
     1
  8
0
  6
Continuous
 62
     7
370
    25
100
AcDbLine
 10
-2.8267716535
 20
-0.9350393701
 30
0.0
 11
-2.8267716535
 21
0.9350393701
 31
0.0
  0
LINE
  5
2A3
330
1B
100
AcDbEntity
 67
     1
  8
0
  6
Continuous
 62
     7
370
    25
100
AcDbLine
 10
-2.7559055118
 20
-0.9350393701
 30
0.0
 11
-2.7559055118
 21
0.9350393701
 31
0.0
  0
LINE
  5
2A4
330
1B
100
AcDbEntity
 67
     1
  8
0
  6
Continuous
 62
     7
370
    25
100
AcDbLine
 10
-6.3700787402
 20
-0.9350393701
 30
0.0
 11
-6.3700787402
 21
0.9350393701
 31
0.0
  0
LINE
  5
2A5
330
1B
100
AcDbEntity
 67
     1
  8
0
  6
Continuous
 62
     7
370
    25
100
AcDbLine
 10
-6.2992125984
 20
-0.9350393701
 30
0.0
 11
-6.2992125984
 21
0.9350393701
 31
0.0
  0
LINE
  5
2A6
330
1B
100
AcDbEntity
 67
     1
  8
0
  6
Continuous
 62
     7
370
    25
100
AcDbLine
 10
-2.9448818898
 20
-0.9350393701
 30
0.0
 11
-2.9448818898
 21
0.9350393701
 31
0.0
  0
LINE
  5
2A7
330
1B
100
AcDbEntity
 67
     1
  8
0
  6
Continuous
 62
     7
370
    25
100
AcDbLine
 10
-2.874015748
 20
-0.9350393701
 30
0.0
 11
-2.874015748
 21
0.9350393701
 31
0.0
  0
LINE
  5
2A8
330
1B
100
AcDbEntity
 67
     1
  8
0
  6
Continuous
 62
     7
370
    25
100
AcDbLine
 10
-3.062992126
 20
-0.9350393701
 30
0.0
 11
-3.062992126
 21
0.9350393701
 31
0.0
  0
LINE
  5
2A9
330
1B
100
AcDbEntity
 67
     1
  8
0
  6
Continuous
 62
     7
370
    25
100
AcDbLine
 10
-2.9921259843
 20
-0.9350393701
 30
0.0
 11
-2.9921259843
 21
0.9350393701
 31
0.0
  0
LINE
  5
2AA
330
1B
100
AcDbEntity
 67
     1
  8
0
  6
Continuous
 62
     7
370
    25
100
AcDbLine
 10
-3.1811023622
 20
-0.9350393701
 30
0.0
 11
-3.1811023622
 21
0.9350393701
 31
0.0
  0
LINE
  5
2AB
330
1B
100
AcDbEntity
 67
     1
  8
0
  6
Continuous
 62
     7
370
    25
100
AcDbLine
 10
-3.1102362205
 20
-0.9350393701
 30
0.0
 11
-3.1102362205
 21
0.9350393701
 31
0.0
  0
LINE
  5
2AC
330
1B
100
AcDbEntity
 67
     1
  8
0
  6
Continuous
 62
     7
370
    25
100
AcDbLine
 10
-3.2992125984
 20
-0.9350393701
 30
0.0
 11
-3.2992125984
 21
0.9350393701
 31
0.0
  0
LINE
  5
2AD
330
1B
100
AcDbEntity
 67
     1
  8
0
  6
Continuous
 62
     7
370
    25
100
AcDbLine
 10
-3.2283464567
 20
-0.9350393701
 30
0.0
 11
-3.2283464567
 21
0.9350393701
 31
0.0
  0
LINE
  5
2AE
330
1B
100
AcDbEntity
 67
     1
  8
0
  6
Continuous
 62
     7
370
    25
100
AcDbLine
 10
-3.4173228346
 20
-0.9350393701
 30
0.0
 11
-3.4173228346
 21
0.9350393701
 31
0.0
  0
LINE
  5
2AF
330
1B
100
AcDbEntity
 67
     1
  8
0
  6
Continuous
 62
     7
370
    25
100
AcDbLine
 10
-3.3464566929
 20
-0.9350393701
 30
0.0
 11
-3.3464566929
 21
0.9350393701
 31
0.0
  0
LINE
  5
2B0
330
1B
100
AcDbEntity
 67
     1
  8
0
  6
Continuous
 62
     7
370
    25
100
AcDbLine
 10
-2.5905511811
 20
-0.9350393701
 30
0.0
 11
-2.5905511811
 21
0.9350393701
 31
0.0
  0
LINE
  5
2B1
330
1B
100
AcDbEntity
 67
     1
  8
0
  6
Continuous
 62
     7
370
    25
100
AcDbLine
 10
-2.5196850394
 20
-0.9350393701
 30
0.0
 11
-2.5196850394
 21
0.9350393701
 31
0.0
  0
LINE
  5
2B2
330
1B
100
AcDbEntity
 67
     1
  8
0
  6
Continuous
 62
     7
370
    25
100
AcDbLine
 10
-3.7716535433
 20
-0.9350393701
 30
0.0
 11
-3.7716535433
 21
0.9350393701
 31
0.0
  0
LINE
  5
2B3
330
1B
100
AcDbEntity
 67
     1
  8
0
  6
Continuous
 62
     7
370
    25
100
AcDbLine
 10
-3.7007874016
 20
-0.9350393701
 30
0.0
 11
-3.7007874016
 21
0.9350393701
 31
0.0
  0
LINE
  5
2B4
330
1B
100
AcDbEntity
 67
     1
  8
0
  6
Continuous
 62
     7
370
    25
100
AcDbLine
 10
-5.5433070866
 20
-0.9350393701
 30
0.0
 11
-5.5433070866
 21
0.9350393701
 31
0.0
  0
LINE
  5
2B5
330
1B
100
AcDbEntity
 67
     1
  8
0
  6
Continuous
 62
     7
370
    25
100
AcDbLine
 10
-5.4724409449
 20
-0.9350393701
 30
0.0
 11
-5.4724409449
 21
0.9350393701
 31
0.0
  0
LINE
  5
2B6
330
1B
100
AcDbEntity
 67
     1
  8
0
  6
Continuous
 62
     7
370
    25
100
AcDbLine
 10
-2.1181102362
 20
-0.9350393701
 30
0.0
 11
-2.1181102362
 21
0.9350393701
 31
0.0
  0
LINE
  5
2B7
330
1B
100
AcDbEntity
 67
     1
  8
0
  6
Continuous
 62
     7
370
    25
100
AcDbLine
 10
-2.0472440945
 20
-0.9350393701
 30
0.0
 11
-2.0472440945
 21
0.9350393701
 31
0.0
  0
LINE
  5
2B8
330
1B
100
AcDbEntity
 67
     1
  8
0
  6
Continuous
 62
     7
370
    25
100
AcDbLine
 10
-3.8897637795
 20
-0.9350393701
 30
0.0
 11
-3.8897637795
 21
0.9350393701
 31
0.0
  0
LINE
  5
2B9
330
1B
100
AcDbEntity
 67
     1
  8
0
  6
Continuous
 62
     7
370
    25
100
AcDbLine
 10
-3.8188976378
 20
-0.9350393701
 30
0.0
 11
-3.8188976378
 21
0.9350393701
 31
0.0
  0
LINE
  5
2BA
330
1B
100
AcDbEntity
 67
     1
  8
0
  6
Continuous
 62
     7
370
    25
100
AcDbLine
 10
-4.0078740157
 20
-0.9350393701
 30
0.0
 11
-4.0078740157
 21
0.9350393701
 31
0.0
  0
LINE
  5
2BB
330
1B
100
AcDbEntity
 67
     1
  8
0
  6
Continuous
 62
     7
370
    25
100
AcDbLine
 10
-3.937007874
 20
-0.9350393701
 30
0.0
 11
-3.937007874
 21
0.9350393701
 31
0.0
  0
LINE
  5
2BC
330
1B
100
AcDbEntity
 67
     1
  8
0
  6
Continuous
 62
     7
370
    25
100
AcDbLine
 10
-4.125984252
 20
-0.9350393701
 30
0.0
 11
-4.125984252
 21
0.9350393701
 31
0.0
  0
LINE
  5
2BD
330
1B
100
AcDbEntity
 67
     1
  8
0
  6
Continuous
 62
     7
370
    25
100
AcDbLine
 10
-4.0551181102
 20
-0.9350393701
 30
0.0
 11
-4.0551181102
 21
0.9350393701
 31
0.0
  0
LINE
  5
2BE
330
1B
100
AcDbEntity
 67
     1
  8
0
  6
Continuous
 62
     7
370
    25
100
AcDbLine
 10
-4.2440944882
 20
-0.9350393701
 30
0.0
 11
-4.2440944882
 21
0.9350393701
 31
0.0
  0
LINE
  5
2BF
330
1B
100
AcDbEntity
 67
     1
  8
0
  6
Continuous
 62
     7
370
    25
100
AcDbLine
 10
-4.1732283465
 20
-0.9350393701
 30
0.0
 11
-4.1732283465
 21
0.9350393701
 31
0.0
  0
LINE
  5
2C0
330
1B
100
AcDbEntity
 67
     1
  8
0
  6
Continuous
 62
     7
370
    25
100
AcDbLine
 10
-4.3622047244
 20
-0.9350393701
 30
0.0
 11
-4.3622047244
 21
0.9350393701
 31
0.0
  0
LINE
  5
2C1
330
1B
100
AcDbEntity
 67
     1
  8
0
  6
Continuous
 62
     7
370
    25
100
AcDbLine
 10
-4.2913385827
 20
-0.9350393701
 30
0.0
 11
-4.2913385827
 21
0.9350393701
 31
0.0
  0
LINE
  5
2C2
330
1B
100
AcDbEntity
 67
     1
  8
0
  6
Continuous
 62
     7
370
    25
100
AcDbLine
 10
-4.4803149606
 20
-0.9350393701
 30
0.0
 11
-4.4803149606
 21
0.9350393701
 31
0.0
  0
LINE
  5
2C3
330
1B
100
AcDbEntity
 67
     1
  8
0
  6
Continuous
 62
     7
370
    25
100
AcDbLine
 10
-4.4094488189
 20
-0.9350393701
 30
0.0
 11
-4.4094488189
 21
0.9350393701
 31
0.0
  0
LINE
  5
2C4
330
1B
100
AcDbEntity
 67
     1
  8
0
  6
Continuous
 62
     7
370
    25
100
AcDbLine
 10
-4.5984251969
 20
-0.9350393701
 30
0.0
 11
-4.5984251969
 21
0.9350393701
 31
0.0
  0
LINE
  5
2C5
330
1B
100
AcDbEntity
 67
     1
  8
0
  6
Continuous
 62
     7
370
    25
100
AcDbLine
 10
-4.5275590551
 20
-0.9350393701
 30
0.0
 11
-4.5275590551
 21
0.9350393701
 31
0.0
  0
LINE
  5
2C6
330
1B
100
AcDbEntity
 67
     1
  8
0
  6
Continuous
 62
     7
370
    25
100
AcDbLine
 10
-4.7165354331
 20
-0.9350393701
 30
0.0
 11
-4.7165354331
 21
0.9350393701
 31
0.0
  0
LINE
  5
2C7
330
1B
100
AcDbEntity
 67
     1
  8
0
  6
Continuous
 62
     7
370
    25
100
AcDbLine
 10
-4.6456692913
 20
-0.9350393701
 30
0.0
 11
-4.6456692913
 21
0.9350393701
 31
0.0
  0
LINE
  5
2C8
330
1B
100
AcDbEntity
 67
     1
  8
0
  6
Continuous
 62
     7
370
    25
100
AcDbLine
 10
-4.8346456693
 20
-0.9350393701
 30
0.0
 11
-4.8346456693
 21
0.9350393701
 31
0.0
  0
LINE
  5
2C9
330
1B
100
AcDbEntity
 67
     1
  8
0
  6
Continuous
 62
     7
370
    25
100
AcDbLine
 10
-4.7637795276
 20
-0.9350393701
 30
0.0
 11
-4.7637795276
 21
0.9350393701
 31
0.0
  0
LINE
  5
2CA
330
1B
100
AcDbEntity
 67
     1
  8
0
  6
Continuous
 62
     7
370
    25
100
AcDbLine
 10
-4.9527559055
 20
-0.9350393701
 30
0.0
 11
-4.9527559055
 21
0.9350393701
 31
0.0
  0
LINE
  5
2CB
330
1B
100
AcDbEntity
 67
     1
  8
0
  6
Continuous
 62
     7
370
    25
100
AcDbLine
 10
-4.8818897638
 20
-0.9350393701
 30
0.0
 11
-4.8818897638
 21
0.9350393701
 31
0.0
  0
LINE
  5
2CC
330
1B
100
AcDbEntity
 67
     1
  8
0
  6
Continuous
 62
     7
370
    25
100
AcDbLine
 10
-5.0708661417
 20
-0.9350393701
 30
0.0
 11
-5.0708661417
 21
0.9350393701
 31
0.0
  0
LINE
  5
2CD
330
1B
100
AcDbEntity
 67
     1
  8
0
  6
Continuous
 62
     7
370
    25
100
AcDbLine
 10
-5.0
 20
-0.9350393701
 30
0.0
 11
-5.0
 21
0.9350393701
 31
0.0
  0
LINE
  5
2CE
330
1B
100
AcDbEntity
 67
     1
  8
0
  6
Continuous
 62
     7
370
    25
100
AcDbLine
 10
-5.1181102362
 20
-0.9350393701
 30
0.0
 11
-5.1181102362
 21
0.9350393701
 31
0.0
  0
LINE
  5
2CF
330
1B
100
AcDbEntity
 67
     1
  8
0
  6
Continuous
 62
     7
370
    25
100
AcDbLine
 10
-5.188976378
 20
-0.9350393701
 30
0.0
 11
-5.188976378
 21
0.9350393701
 31
0.0
  0
LINE
  5
2D0
330
1B
100
AcDbEntity
 67
     1
  8
0
  6
Continuous
 62
     7
370
    25
100
AcDbLine
 10
-5.2362204724
 20
-0.9350393701
 30
0.0
 11
-5.2362204724
 21
0.9350393701
 31
0.0
  0
LINE
  5
2D1
330
1B
100
AcDbEntity
 67
     1
  8
0
  6
Continuous
 62
     7
370
    25
100
AcDbLine
 10
-5.3070866142
 20
-0.9350393701
 30
0.0
 11
-5.3070866142
 21
0.9350393701
 31
0.0
  0
LINE
  5
2D2
330
1B
100
AcDbEntity
 67
     1
  8
0
  6
Continuous
 62
     7
370
    25
100
AcDbLine
 10
-6.6062992126
 20
-0.9350393701
 30
0.0
 11
-6.6062992126
 21
0.9350393701
 31
0.0
  0
LINE
  5
2D3
330
1B
100
AcDbEntity
 67
     1
  8
0
  6
Continuous
 62
     7
370
    25
100
AcDbLine
 10
-6.4173228346
 20
-0.9350393701
 30
0.0
 11
-6.4173228346
 21
0.9350393701
 31
0.0
  0
LINE
  5
2D4
330
1B
100
AcDbEntity
 67
     1
  8
0
  6
Continuous
 62
     7
370
    25
100
AcDbLine
 10
-5.4251968504
 20
-0.9350393701
 30
0.0
 11
-5.4251968504
 21
0.9350393701
 31
0.0
  0
LINE
  5
2D5
330
1B
100
AcDbEntity
 67
     1
  8
0
  6
Continuous
 62
     7
370
    25
100
AcDbLine
 10
-5.3543307087
 20
-0.9350393701
 30
0.0
 11
-5.3543307087
 21
0.9350393701
 31
0.0
  0
LINE
  5
2D6
330
1B
100
AcDbEntity
 67
     1
  8
0
  6
Continuous
 62
     7
370
    25
100
AcDbLine
 10
-6.9212598425
 20
-0.6200638569
 30
0.0
 11
-6.9212598425
 21
0.6200787402
 31
0.0
  0
LINE
  5
2D7
330
1B
100
AcDbEntity
 67
     1
  8
0
  6
Continuous
 62
     7
370
    25
100
AcDbLine
 10
-0.1897579201
 20
-0.9350393701
 30
0.0
 11
-0.1897579201
 21
0.9350393701
 31
0.0
  0
LINE
  5
2D8
330
1B
100
AcDbEntity
 67
     1
  8
0
  6
Continuous
 62
     7
370
    25
100
AcDbLine
 10
-0.1288573888
 20
0.7677165354
 30
0.0
 11
-0.1288573888
 21
-0.7677165354
 31
0.0
  0
LINE
  5
2D9
330
1B
100
AcDbEntity
 67
     1
  8
0
  6
Continuous
 62
     7
370
    25
100
AcDbLine
 10
-0.5511811024
 20
-0.8956692913
 30
0.0
 11
-0.5511811024
 21
0.8956692913
 31
0.0
  0
LINE
  5
2DA
330
1B
100
AcDbEntity
 67
     1
  8
0
  6
Continuous
 62
     7
370
    25
100
AcDbLine
 10
-7.8267716535
 20
0.8858267717
 30
0.0
 11
-7.8267716535
 21
-0.8858267717
 31
0.0
  0
LINE
  5
2DB
330
1B
100
AcDbEntity
 67
     1
  8
0
  6
Continuous
 62
     7
370
    25
100
AcDbLine
 10
-8.1881948358
 20
0.9251968504
 30
0.0
 11
-8.1881948358
 21
-0.9251968504
 31
0.0
  0
LINE
  5
2DC
330
1B
100
AcDbEntity
 67
     1
  8
0
  6
Continuous
 62
     7
370
    25
100
AcDbLine
 10
-1.1929133858
 20
-0.8267716535
 30
0.0
 11
-1.1929133858
 21
0.8267716535
 31
0.0
  0
LINE
  5
2DD
330
1B
100
AcDbEntity
 67
     1
  8
0
  6
Continuous
 62
     7
370
    25
100
AcDbLine
 10
-1.3700787402
 20
-0.8267716535
 30
0.0
 11
-1.3700787402
 21
0.8267716535
 31
0.0
  0
LINE
  5
2DE
330
1B
100
AcDbEntity
 67
     1
  8
0
  6
Continuous
 62
     7
370
    25
100
AcDbLine
 10
0.0
 20
-0.7677165354
 30
0.0
 11
0.0
 21
0.7677165354
 31
0.0
  0
LINE
  5
2DF
330
1B
100
AcDbEntity
 67
     1
  8
0
  6
Continuous
 62
     7
370
    25
100
AcDbLine
 10
-8.2598425197
 20
-0.7480314961
 30
0.0
 11
-8.2598425197
 21
0.7480314961
 31
0.0
  0
LINE
  5
2E0
330
1B
100
AcDbEntity
 67
     1
  8
0
  6
Continuous
 62
     7
370
    25
100
AcDbLine
 10
-8.437007874
 20
-0.7480314961
 30
0.0
 11
-8.437007874
 21
0.7480314961
 31
0.0
  0
LINE
  5
2E1
330
1B
100
AcDbEntity
 67
     1
  8
0
  6
Continuous
 62
     7
370
    25
100
AcDbLine
 10
-7.157480315
 20
-0.7480314961
 30
0.0
 11
-7.157480315
 21
0.7480314961
 31
0.0
  0
LINE
  5
2E2
330
1B
100
AcDbEntity
 67
     1
  8
0
  6
Continuous
 62
     7
370
    25
100
AcDbLine
 10
-7.0
 20
-0.6988188976
 30
0.0
 11
-7.0
 21
0.0
 31
0.0
  0
LINE
  5
2E3
330
1B
100
AcDbEntity
 67
     1
  8
0
  6
Continuous
 62
     7
370
    25
100
AcDbLine
 10
1.3407598771
 20
1.5748031496
 30
0.0
 11
1.3407598771
 21
1.1811023622
 31
0.0
  0
LINE
  5
2E4
330
1B
100
AcDbEntity
 67
     1
  8
0
  6
Continuous
 62
     7
370
    25
100
AcDbLine
 10
0.4549331054
 20
1.5748031496
 30
0.0
 11
2.2265866487
 21
1.5748031496
 31
0.0
  0
LINE
  5
2E5
330
1B
100
AcDbEntity
 67
     1
  8
0
  6
Continuous
 62
     7
370
    25
100
AcDbLine
 10
2.2265866487
 20
1.5748031496
 30
0.0
 11
2.2265866487
 21
1.1811023622
 31
0.0
  0
LINE
  5
2E6
330
1B
100
AcDbEntity
 67
     1
  8
0
  6
Continuous
 62
     7
370
    25
100
AcDbLine
 10
0.4549331054
 20
1.1811023622
 30
0.0
 11
2.2265866487
 21
1.1811023622
 31
0.0
  0
LINE
  5
2E7
330
1B
100
AcDbEntity
 67
     1
  8
0
  6
Continuous
 62
     7
370
    25
100
AcDbLine
 10
0.4549331054
 20
1.5748031496
 30
0.0
 11
0.4549331054
 21
1.1811023622
 31
0.0
  0
LINE
  5
2E8
330
1B
100
AcDbEntity
 67
     1
  8
0
  6
Continuous
 62
     8
370
    25
100
AcDbLine
 10
-0.5118110236
 20
0.9350393701
 30
0.0
 11
-0.5118110236
 21
-0.9350393701
 31
0.0
  0
LINE
  5
2E9
330
1B
100
AcDbEntity
 67
     1
  8
0
  6
Continuous
 62
     8
370
    25
100
AcDbLine
 10
-7.8661417323
 20
-0.9251968504
 30
0.0
 11
-7.8661417323
 21
0.9251968504
 31
0.0
  0
LINE
  5
2EA
330
1B
100
AcDbEntity
 67
     1
  8
0
  6
Continuous
 62
     8
370
    25
100
AcDbLine
 10
2.029736255
 20
0.7874015748
 30
0.0
 11
0.6517834991
 21
0.7874015748
 31
0.0
  0
LINE
  5
2EB
330
1B
100
AcDbEntity
 67
     1
  8
0
  6
Continuous
 62
     8
370
    25
100
AcDbLine
 10
0.5533583023
 20
-0.688976378
 30
0.0
 11
0.5533583023
 21
0.688976378
 31
0.0
  0
ARC
  5
2EC
330
1B
100
AcDbEntity
 67
     1
  8
0
  6
Continuous
 62
     7
370
    25
100
AcDbCircle
 10
-0.5118110236
 20
-0.8956692913
 30
0.0
 40
0.0393700787401575
100
AcDbArc
 50
180.0
 51
270.0
  0
ARC
  5
2ED
330
1B
100
AcDbEntity
 67
     1
  8
0
  6
Continuous
 62
     7
370
    25
100
AcDbCircle
 10
-0.5118110236
 20
0.8956692913
 30
0.0
 40
0.0393700787401574
100
AcDbArc
 50
90.0
 51
180.0
  0
ARC
  5
2EE
330
1B
100
AcDbEntity
 67
     1
  8
0
  6
Continuous
 62
     7
370
    25
100
AcDbCircle
 10
-7.8661417323
 20
-0.8858267717
 30
0.0
 40
0.0393700787401593
100
AcDbArc
 50
270.0
 51
360.0
  0
ARC
  5
2EF
330
1B
100
AcDbEntity
 67
     1
  8
0
  6
Continuous
 62
     7
370
    25
100
AcDbCircle
 10
-7.8661417323
 20
0.8858267717
 30
0.0
 40
0.0393700787401593
100
AcDbArc
 50
0.0
 51
90.0
  0
ARC
  5
2F0
330
1B
100
AcDbEntity
 67
     1
  8
0
  6
Continuous
 62
     7
370
    25
100
AcDbCircle
 10
0.5533583023
 20
0.7874015748
 30
0.0
 40
0.0984251968503942
100
AcDbArc
 50
270.0
 51
0.0
  0
ARC
  5
2F1
330
1B
100
AcDbEntity
 67
     1
  8
0
  6
Continuous
 62
     7
370
    25
100
AcDbCircle
 10
0.5533583023
 20
0.7874015748
 30
0.0
 40
1.476377952755906
100
AcDbArc
 50
270.0
 51
0.0
  0
VIEWPORT
  5
6C6
330
1B
100
AcDbEntity
 67
     1
  8
0
100
AcDbViewport
 10
0.0
 20
0.0
 30
0.0
 40
8.4
 41
6.4
 68
     1
 69
     1
 12
-0.000490236
 22
0.3199743045
 13
0.0
 23
0.0
 14
0.5
 24
0.5
 15
0.5
 25
0.5
 16
0.0
 26
0.0
 36
1.0
 17
0.0
 27
0.0
 37
0.0
 42
50.0
 43
0.0
 44
0.0
 45
2.559850844
 50
0.0
 51
0.0
 72
   100
 90
   557152
  1

281
     0
 71
     1
 74
     0
110
0.0
120
0.0
130
0.0
111
1.0
121
0.0
131
0.0
112
0.0
122
1.0
132
0.0
 79
     0
146
0.0
  0
ENDSEC
  0
SECTION
  2
OBJECTS
  0
DICTIONARY
  5
C
330
0
100
AcDbDictionary
281
     1
  3
ACAD_GROUP
350
D
  3
ACAD_LAYOUT
350
1A
  3
ACAD_MLINESTYLE
350
17
  3
ACAD_PLOTSETTINGS
350
19
  3
ACAD_PLOTSTYLENAME
350
E
  3
ACAD_SCALELIST
350
47
  0
DICTIONARY
  5
D
102
{ACAD_REACTORS
330
C
102
}
330
C
100
AcDbDictionary
281
     1
  0
DICTIONARY
  5
1A
102
{ACAD_REACTORS
330
C
102
}
330
C
100
AcDbDictionary
281
     1
  3
_Isometric
350
54C
  3
_Right
350
1E
  3
_Top
350
26
  3
Model
350
22
  0
DICTIONARY
  5
17
102
{ACAD_REACTORS
330
C
102
}
330
C
100
AcDbDictionary
281
     1
  3
Standard
350
18
  0
DICTIONARY
  5
19
102
{ACAD_REACTORS
330
C
102
}
330
C
100
AcDbDictionary
281
     1
  0
ACDBDICTIONARYWDFLT
  5
E
102
{ACAD_REACTORS
330
C
102
}
330
C
100
AcDbDictionary
281
     1
  3
Normal
350
F
100
AcDbDictionaryWithDefault
340
F
  0
DICTIONARY
  5
47
102
{ACAD_REACTORS
330
C
102
}
330
C
100
AcDbDictionary
281
     1
  3
A0
350
48
  3
A1
350
49
  3
A2
350
4A
  3
A3
350
4B
  3
A4
350
4C
  3
A5
350
4D
  3
A6
350
4E
  3
A7
350
4F
  3
A8
350
50
  3
A9
350
51
  3
B0
350
52
  3
B1
350
53
  3
B2
350
54
  3
B3
350
55
  3
B4
350
56
  3
B5
350
57
  3
B6
350
58
  3
B7
350
59
  3
B8
350
5A
  3
B9
350
5B
  3
C0
350
5C
  3
C1
350
5D
  3
C2
350
5E
  3
C3
350
5F
  3
C4
350
60
  3
C5
350
61
  3
C6
350
62
  3
C7
350
63
  3
C8
350
64
  3
C9
350
65
  3
D0
350
66
  3
D1
350
67
  3
D2
350
68
  0
LAYOUT
  5
54C
102
{ACAD_REACTORS
330
1A
102
}
330
1A
100
AcDbPlotSettings
  1

  2
none_device
  4
Letter_(8.50_x_11.00_Inches)
  6

 40
6.35
 41
6.35
 42
6.35001
 43
6.35001
 44
215.9
 45
279.4
 46
0.0
 47
0.0
 48
0.0
 49
0.0
140
0.0
141
0.0
142
1.0
143
1.0155804688
 70
   688
 72
     0
 73
     1
 74
     1
  7

 75
     0
147
0.984658558
148
214.3
149
23.75
100
AcDbLayout
  1
_Isometric
 70
     1
 71
     3
 10
0.0
 20
0.0
 11
0.0
 21
0.0
 12
0.0
 22
0.0
 32
0.0
 14
0.0
 24
0.0
 34
0.0
 15
0.0
 25
0.0
 35
0.0
146
0.0
 13
0.0
 23
0.0
 33
0.0
 16
1.0
 26
0.0
 36
0.0
 17
0.0
 27
1.0
 37
0.0
 76
     0
330
54B
331
6CA
  0
LAYOUT
  5
1E
102
{ACAD_REACTORS
330
1A
102
}
330
1A
100
AcDbPlotSettings
  1

  2
none_device
  4
Letter_(8.50_x_11.00_Inches)
  6

 40
6.35
 41
6.35
 42
6.35001
 43
6.35001
 44
215.9
 45
279.4
 46
0.0
 47
0.0
 48
0.0
 49
0.0
140
0.0
141
0.0
142
1.0
143
1.0155804688
 70
   688
 72
     0
 73
     1
 74
     1
  7

 75
     0
147
0.984658558
148
214.3
149
23.75
100
AcDbLayout
  1
_Right
 70
     1
 71
     1
 10
-8.6909033911
 20
-1.1889344873
 11
2.4804817659
 21
7.4434994976
 12
0.0
 22
0.0
 32
0.0
 14
-8.437007874
 24
-0.9350393701
 34
0.0
 15
2.2265866487
 25
1.5748031496
 35
0.0
146
0.0
 13
0.0
 23
0.0
 33
0.0
 16
1.0
 26
0.0
 36
0.0
 17
0.0
 27
1.0
 37
0.0
 76
     0
330
1B
331
6C6
  0
LAYOUT
  5
26
102
{ACAD_REACTORS
330
1A
102
}
330
1A
100
AcDbPlotSettings
  1

  2
none_device
  4
Letter_(8.50_x_11.00_Inches)
  6

 40
6.35
 41
6.35
 42
6.35001
 43
6.35001
 44
215.9
 45
279.4
 46
0.0
 47
0.0
 48
0.0
 49
0.0
140
0.0
141
0.0
142
1.0
143
1.0155804688
 70
   688
 72
     0
 73
     1
 74
     1
  7

 75
     0
147
0.984658558
148
214.3
149
23.75
100
AcDbLayout
  1
_Top
 70
     1
 71
     2
 10
0.0
 20
0.0
 11
0.0
 21
0.0
 12
0.0
 22
0.0
 32
0.0
 14
0.0
 24
0.0
 34
0.0
 15
0.0
 25
0.0
 35
0.0
146
0.0
 13
0.0
 23
0.0
 33
0.0
 16
1.0
 26
0.0
 36
0.0
 17
0.0
 27
1.0
 37
0.0
 76
     0
330
23
331
6C8
  0
LAYOUT
  5
22
102
{ACAD_REACTORS
330
1A
102
}
330
1A
100
AcDbPlotSettings
  1

  2
none_device
  4
ANSI_A_(11.00_x_8.50_Inches)
  6

 40
6.35
 41
19.05
 42
6.35000508
 43
19.05000254
 44
279.4
 45
215.9
 46
133.3917495791
 47
61.6486217468
 48
0.0
 49
0.0
140
0.0
141
0.0
142
3.3530469246
143
1.0
 70
  1696
 72
     0
 73
     0
 74
     0
  7

 75
     0
147
0.5913241897
148
-39.4088153714
149
0.0
100
AcDbLayout
  1
Model
 70
     1
 71
     0
 10
0.0
 20
0.0
 11
12.0
 21
9.0
 12
0.0
 22
0.0
 32
0.0
 14
-1.2401574803
 24
-0.9348545406
 34
0.0
 15
1.2391770084
 25
1.5748031496
 35
0.0
146
0.0
 13
0.0
 23
0.0
 33
0.0
 16
1.0
 26
0.0
 36
0.0
 17
0.0
 27
1.0
 37
0.0
 76
     0
330
1F
331
29
  0
MLINESTYLE
  5
18
102
{ACAD_REACTORS
330
17
102
}
330
17
100
AcDbMlineStyle
  2
Standard
 70
     0
  3

 62
   256
 51
90.0
 52
90.0
 71
     2
 49
0.5
 62
   256
  6
BYLAYER
 49
-0.5
 62
   256
  6
BYLAYER
  0
ACDBPLACEHOLDER
  5
F
102
{ACAD_REACTORS
330
E
102
}
330
E
  0
SCALE
  5
48
102
{ACAD_REACTORS
330
47
102
}
330
47
100
AcDbScale
 70
     0
300
1:1
140
1.0
141
1.0
290
     1
  0
SCALE
  5
49
102
{ACAD_REACTORS
330
47
102
}
330
47
100
AcDbScale
 70
     0
300
1:2
140
1.0
141
2.0
290
     0
  0
SCALE
  5
4A
102
{ACAD_REACTORS
330
47
102
}
330
47
100
AcDbScale
 70
     0
300
1:4
140
1.0
141
4.0
290
     0
  0
SCALE
  5
4B
102
{ACAD_REACTORS
330
47
102
}
330
47
100
AcDbScale
 70
     0
300
1:5
140
1.0
141
5.0
290
     0
  0
SCALE
  5
4C
102
{ACAD_REACTORS
330
47
102
}
330
47
100
AcDbScale
 70
     0
300
1:8
140
1.0
141
8.0
290
     0
  0
SCALE
  5
4D
102
{ACAD_REACTORS
330
47
102
}
330
47
100
AcDbScale
 70
     0
300
1:10
140
1.0
141
10.0
290
     0
  0
SCALE
  5
4E
102
{ACAD_REACTORS
330
47
102
}
330
47
100
AcDbScale
 70
     0
300
1:16
140
1.0
141
16.0
290
     0
  0
SCALE
  5
4F
102
{ACAD_REACTORS
330
47
102
}
330
47
100
AcDbScale
 70
     0
300
1:20
140
1.0
141
20.0
290
     0
  0
SCALE
  5
50
102
{ACAD_REACTORS
330
47
102
}
330
47
100
AcDbScale
 70
     0
300
1:30
140
1.0
141
30.0
290
     0
  0
SCALE
  5
51
102
{ACAD_REACTORS
330
47
102
}
330
47
100
AcDbScale
 70
     0
300
1:40
140
1.0
141
40.0
290
     0
  0
SCALE
  5
52
102
{ACAD_REACTORS
330
47
102
}
330
47
100
AcDbScale
 70
     0
300
1:50
140
1.0
141
50.0
290
     0
  0
SCALE
  5
53
102
{ACAD_REACTORS
330
47
102
}
330
47
100
AcDbScale
 70
     0
300
1:100
140
1.0
141
100.0
290
     0
  0
SCALE
  5
54
102
{ACAD_REACTORS
330
47
102
}
330
47
100
AcDbScale
 70
     0
300
2:1
140
2.0
141
1.0
290
     0
  0
SCALE
  5
55
102
{ACAD_REACTORS
330
47
102
}
330
47
100
AcDbScale
 70
     0
300
4:1
140
4.0
141
1.0
290
     0
  0
SCALE
  5
56
102
{ACAD_REACTORS
330
47
102
}
330
47
100
AcDbScale
 70
     0
300
8:1
140
8.0
141
1.0
290
     0
  0
SCALE
  5
57
102
{ACAD_REACTORS
330
47
102
}
330
47
100
AcDbScale
 70
     0
300
10:1
140
10.0
141
1.0
290
     0
  0
SCALE
  5
58
102
{ACAD_REACTORS
330
47
102
}
330
47
100
AcDbScale
 70
     0
300
100:1
140
100.0
141
1.0
290
     0
  0
SCALE
  5
59
102
{ACAD_REACTORS
330
47
102
}
330
47
100
AcDbScale
 70
     0
300
1/128" = 1'-0"
140
0.0078125
141
12.0
290
     0
  0
SCALE
  5
5A
102
{ACAD_REACTORS
330
47
102
}
330
47
100
AcDbScale
 70
     0
300
1/64" = 1'-0"
140
0.015625
141
12.0
290
     0
  0
SCALE
  5
5B
102
{ACAD_REACTORS
330
47
102
}
330
47
100
AcDbScale
 70
     0
300
1/32" = 1'-0"
140
0.03125
141
12.0
290
     0
  0
SCALE
  5
5C
102
{ACAD_REACTORS
330
47
102
}
330
47
100
AcDbScale
 70
     0
300
1/16" = 1'-0"
140
0.0625
141
12.0
290
     0
  0
SCALE
  5
5D
102
{ACAD_REACTORS
330
47
102
}
330
47
100
AcDbScale
 70
     0
300
3/32" = 1'-0"
140
0.09375
141
12.0
290
     0
  0
SCALE
  5
5E
102
{ACAD_REACTORS
330
47
102
}
330
47
100
AcDbScale
 70
     0
300
1/8" = 1'-0"
140
0.125
141
12.0
290
     0
  0
SCALE
  5
5F
102
{ACAD_REACTORS
330
47
102
}
330
47
100
AcDbScale
 70
     0
300
3/16" = 1'-0"
140
0.1875
141
12.0
290
     0
  0
SCALE
  5
60
102
{ACAD_REACTORS
330
47
102
}
330
47
100
AcDbScale
 70
     0
300
1/4" = 1'-0"
140
0.25
141
12.0
290
     0
  0
SCALE
  5
61
102
{ACAD_REACTORS
330
47
102
}
330
47
100
AcDbScale
 70
     0
300
3/8" = 1'-0"
140
0.375
141
12.0
290
     0
  0
SCALE
  5
62
102
{ACAD_REACTORS
330
47
102
}
330
47
100
AcDbScale
 70
     0
300
1/2" = 1'-0"
140
0.5
141
12.0
290
     0
  0
SCALE
  5
63
102
{ACAD_REACTORS
330
47
102
}
330
47
100
AcDbScale
 70
     0
300
3/4" = 1'-0"
140
0.75
141
12.0
290
     0
  0
SCALE
  5
64
102
{ACAD_REACTORS
330
47
102
}
330
47
100
AcDbScale
 70
     0
300
1" = 1'-0"
140
1.0
141
12.0
290
     0
  0
SCALE
  5
65
102
{ACAD_REACTORS
330
47
102
}
330
47
100
AcDbScale
 70
     0
300
1-1/2" = 1'-0"
140
1.5
141
12.0
290
     0
  0
SCALE
  5
66
102
{ACAD_REACTORS
330
47
102
}
330
47
100
AcDbScale
 70
     0
300
3" = 1'-0"
140
3.0
141
12.0
290
     0
  0
SCALE
  5
67
102
{ACAD_REACTORS
330
47
102
}
330
47
100
AcDbScale
 70
     0
300
6" = 1'-0"
140
6.0
141
12.0
290
     0
  0
SCALE
  5
68
102
{ACAD_REACTORS
330
47
102
}
330
47
100
AcDbScale
 70
     0
300
1'-0" = 1'-0"
140
12.0
141
12.0
290
     0
  0
ENDSEC
  0
EOF
