  0
SECTION
  2
HEADER
  9
$ACADVER
  1
AC1015
  9
$ACADMAINTVER
 70
     6
  9
$DWGCODEPAGE
  3
ANSI_1252
  9
$INSBASE
 10
0.0
 20
0.0
 30
0.0
  9
$EXTMIN
 10
7.8720020787
 20
-11.4665354331
 30
0.0
  9
$EXTMAX
 10
27.5599609763
 20
47.687007874
 30
0.0
  9
$LIMMIN
 10
0.0
 20
0.0
  9
$LIMMAX
 10
12.0
 20
9.0
  9
$ORTHOMODE
 70
     0
  9
$REGENMODE
 70
     1
  9
$FILLMODE
 70
     1
  9
$QTEXTMODE
 70
     0
  9
$MIRRTEXT
 70
     1
  9
$LTSCALE
 40
1.0
  9
$ATTMODE
 70
     1
  9
$TEXTSIZE
 40
0.1377952756
  9
$TRACEWID
 40
0.05
  9
$TEXTSTYLE
  7
Standard
  9
$CLAYER
  8
0
  9
$CELTYPE
  6
ByLayer
  9
$CECOLOR
 62
   256
  9
$CELTSCALE
 40
1.0
  9
$DISPSILH
 70
     0
  9
$DIMSCALE
 40
1.0
  9
$DIMASZ
 40
0.13
  9
$DIMEXO
 40
0.0393700787
  9
$DIMDLI
 40
0.38
  9
$DIMRND
 40
0.0
  9
$DIMDLE
 40
0.0
  9
$DIMEXE
 40
0.0393700787
  9
$DIMTP
 40
0.0
  9
$DIMTM
 40
0.0
  9
$DIMTXT
 40
0.1377952756
  9
$DIMCEN
 40
0.09
  9
$DIMTSZ
 40
0.0
  9
$DIMTOL
 70
     0
  9
$DIMLIM
 70
     0
  9
$DIMTIH
 70
     1
  9
$DIMTOH
 70
     1
  9
$DIMSE1
 70
     0
  9
$DIMSE2
 70
     0
  9
$DIMTAD
 70
     1
  9
$DIMZIN
 70
     1
  9
$DIMBLK
  1

  9
$DIMASO
 70
     1
  9
$DIMSHO
 70
     1
  9
$DIMPOST
  1

  9
$DIMAPOST
  1

  9
$DIMALT
 70
     0
  9
$DIMALTD
 70
     2
  9
$DIMALTF
 40
25.4
  9
$DIMLFAC
 40
1.0
  9
$DIMTOFL
 70
     0
  9
$DIMTVP
 40
0.0
  9
$DIMTIX
 70
     0
  9
$DIMSOXD
 70
     0
  9
$DIMSAH
 70
     0
  9
$DIMBLK1
  1

  9
$DIMBLK2
  1

  9
$DIMSTYLE
  2
Standard
  9
$DIMCLRD
 70
     0
  9
$DIMCLRE
 70
     0
  9
$DIMCLRT
 70
     0
  9
$DIMTFAC
 40
1.0
  9
$DIMGAP
 40
0.06
  9
$DIMJUST
 70
     0
  9
$DIMSD1
 70
     0
  9
$DIMSD2
 70
     0
  9
$DIMTOLJ
 70
     1
  9
$DIMTZIN
 70
     1
  9
$DIMALTZ
 70
     0
  9
$DIMALTTZ
 70
     0
  9
$DIMUPT
 70
     0
  9
$DIMDEC
 70
     2
  9
$DIMTDEC
 70
     2
  9
$DIMALTU
 70
     2
  9
$DIMALTTD
 70
     2
  9
$DIMTXSTY
  7
Standard
  9
$DIMAUNIT
 70
     0
  9
$DIMADEC
 70
     2
  9
$DIMALTRND
 40
0.0
  9
$DIMAZIN
 70
     0
  9
$DIMDSEP
 70
    46
  9
$DIMATFIT
 70
     3
  9
$DIMFRAC
 70
     0
  9
$DIMLDRBLK
  1

  9
$DIMLUNIT
 70
     2
  9
$DIMLWD
 70
    -2
  9
$DIMLWE
 70
    -2
  9
$DIMTMOVE
 70
     0
  9
$LUNITS
 70
     2
  9
$LUPREC
 70
     2
  9
$SKETCHINC
 40
0.1
  9
$FILLETRAD
 40
0.5
  9
$AUNITS
 70
     0
  9
$AUPREC
 70
     2
  9
$MENU
  1
.
  9
$ELEVATION
 40
0.0
  9
$PELEVATION
 40
0.0
  9
$THICKNESS
 40
0.0
  9
$LIMCHECK
 70
     0
  9
$CHAMFERA
 40
0.0
  9
$CHAMFERB
 40
0.0
  9
$CHAMFERC
 40
0.0
  9
$CHAMFERD
 40
0.0
  9
$SKPOLY
 70
     0
  9
$TDCREATE
 40
2460538.635135706
  9
$TDUCREATE
 40
2460538.59346904
  9
$TDUPDATE
 40
2460538.635179687
  9
$TDUUPDATE
 40
2460538.593513021
  9
$TDINDWG
 40
0.0000000116
  9
$TDUSRTIMER
 40
0.0000000116
  9
$USRTIMER
 70
     1
  9
$ANGBASE
 50
0.0
  9
$ANGDIR
 70
     0
  9
$PDMODE
 70
     0
  9
$PDSIZE
 40
-1.0
  9
$PLINEWID
 40
0.0
  9
$SPLFRAME
 70
     0
  9
$SPLINETYPE
 70
     6
  9
$SPLINESEGS
 70
     8
  9
$HANDSEED
  5
505
  9
$SURFTAB1
 70
     6
  9
$SURFTAB2
 70
     6
  9
$SURFTYPE
 70
     6
  9
$SURFU
 70
     6
  9
$SURFV
 70
     6
  9
$UCSBASE
  2

  9
$UCSNAME
  2

  9
$UCSORG
 10
0.0
 20
0.0
 30
0.0
  9
$UCSXDIR
 10
1.0
 20
0.0
 30
0.0
  9
$UCSYDIR
 10
0.0
 20
1.0
 30
0.0
  9
$UCSORTHOREF
  2

  9
$UCSORTHOVIEW
 70
     0
  9
$UCSORGTOP
 10
0.0
 20
0.0
 30
0.0
  9
$UCSORGBOTTOM
 10
0.0
 20
0.0
 30
0.0
  9
$UCSORGLEFT
 10
0.0
 20
0.0
 30
0.0
  9
$UCSORGRIGHT
 10
0.0
 20
0.0
 30
0.0
  9
$UCSORGFRONT
 10
0.0
 20
0.0
 30
0.0
  9
$UCSORGBACK
 10
0.0
 20
0.0
 30
0.0
  9
$PUCSBASE
  2

  9
$PUCSNAME
  2

  9
$PUCSORG
 10
0.0
 20
0.0
 30
0.0
  9
$PUCSXDIR
 10
1.0
 20
0.0
 30
0.0
  9
$PUCSYDIR
 10
0.0
 20
1.0
 30
0.0
  9
$PUCSORTHOREF
  2

  9
$PUCSORTHOVIEW
 70
     0
  9
$PUCSORGTOP
 10
0.0
 20
0.0
 30
0.0
  9
$PUCSORGBOTTOM
 10
0.0
 20
0.0
 30
0.0
  9
$PUCSORGLEFT
 10
0.0
 20
0.0
 30
0.0
  9
$PUCSORGRIGHT
 10
0.0
 20
0.0
 30
0.0
  9
$PUCSORGFRONT
 10
0.0
 20
0.0
 30
0.0
  9
$PUCSORGBACK
 10
0.0
 20
0.0
 30
0.0
  9
$USERI1
 70
     0
  9
$USERI2
 70
     0
  9
$USERI3
 70
     0
  9
$USERI4
 70
     0
  9
$USERI5
 70
     0
  9
$USERR1
 40
0.0
  9
$USERR2
 40
0.0
  9
$USERR3
 40
0.0
  9
$USERR4
 40
0.0
  9
$USERR5
 40
0.0
  9
$WORLDVIEW
 70
     1
  9
$SHADEDGE
 70
     3
  9
$SHADEDIF
 70
    70
  9
$TILEMODE
 70
     1
  9
$MAXACTVP
 70
    64
  9
$PINSBASE
 10
0.0
 20
0.0
 30
0.0
  9
$PLIMCHECK
 70
     0
  9
$PEXTMIN
 10
-27.5599609763
 20
-11.4665354331
 30
0.0
  9
$PEXTMAX
 10
-7.8720020787
 20
47.687007874
 30
0.0
  9
$PLIMMIN
 10
-29.4085122067
 20
-13.3150837524
  9
$PLIMMAX
 10
51.9276138433
 20
49.5355591044
  9
$UNITMODE
 70
     0
  9
$VISRETAIN
 70
     1
  9
$PLINEGEN
 70
     0
  9
$PSLTSCALE
 70
     1
  9
$TREEDEPTH
 70
  3020
  9
$CMLSTYLE
  2
Standard
  9
$CMLJUST
 70
     0
  9
$CMLSCALE
 40
1.0
  9
$PROXYGRAPHICS
 70
     1
  9
$MEASUREMENT
 70
     0
  9
$CELWEIGHT
370
    -1
  9
$ENDCAPS
280
     0
  9
$JOINSTYLE
280
     0
  9
$LWDISPLAY
290
     1
  9
$INSUNITS
 70
     1
  9
$HYPERLINKBASE
  1

  9
$STYLESHEET
  1

  9
$XEDIT
290
     1
  9
$CEPSNTYPE
380
     0
  9
$PSTYLEMODE
290
     1
  9
$FINGERPRINTGUID
  2
{cee89ea1-f137-4e52-94d2-f4b05ee90ed8}
  9
$VERSIONGUID
  2
{FAEB1C32-E019-11D5-929B-00C0DF256EC4}
  9
$EXTNAMES
290
     1
  9
$PSVPSCALE
 40
0.0
  9
$OLESTARTUP
290
     0
  0
ENDSEC
  0
SECTION
  2
CLASSES
  0
CLASS
  1
ACDBDICTIONARYWDFLT
  2
AcDbDictionaryWithDefault
  3
ObjectDBX Classes
 90
        0
280
     0
281
     0
  0
CLASS
  1
VISUALSTYLE
  2
AcDbVisualStyle
  3
ObjectDBX Classes
 90
     4095
280
     0
281
     0
  0
CLASS
  1
MATERIAL
  2
AcDbMaterial
  3
ObjectDBX Classes
 90
     1153
280
     0
281
     0
  0
CLASS
  1
SCALE
  2
AcDbScale
  3
ObjectDBX Classes
 90
     1153
280
     0
281
     0
  0
CLASS
  1
TABLESTYLE
  2
AcDbTableStyle
  3
ObjectDBX Classes
 90
     4095
280
     0
281
     0
  0
CLASS
  1
MLEADERSTYLE
  2
AcDbMLeaderStyle
  3
ACDB_MLEADERSTYLE_CLASS
 90
     4095
280
     0
281
     0
  0
CLASS
  1
SUN
  2
AcDbSun
  3
SCENEOE
 90
     1153
280
     0
281
     0
  0
CLASS
  1
ACDBPLACEHOLDER
  2
AcDbPlaceHolder
  3
ObjectDBX Classes
 90
        0
280
     0
281
     0
  0
CLASS
  1
LAYOUT
  2
AcDbLayout
  3
ObjectDBX Classes
 90
        0
280
     0
281
     0
  0
ENDSEC
  0
SECTION
  2
TABLES
  0
TABLE
  2
VPORT
  5
8
330
0
100
AcDbSymbolTable
 70
     1
  0
VPORT
  5
29
330
8
100
AcDbSymbolTableRecord
100
AcDbViewportTableRecord
  2
*Active
 70
     0
 10
0.0
 20
0.0
 11
1.0
 21
1.0
 12
17.7159815275
 22
18.1102362205
 13
0.0
 23
0.0
 14
0.5
 24
0.5
 15
0.5
 25
0.5
 16
0.0
 26
0.0
 36
1.0
 17
0.0
 27
0.0
 37
0.0
 40
60.3366141732
 41
0.3328280572
 42
50.0
 43
0.0
 44
0.0
 50
0.0
 51
0.0
 71
     0
 72
   100
 73
     1
 74
     3
 75
     0
 76
     0
 77
     0
 78
     0
281
     0
 65
     1
110
0.0
120
0.0
130
0.0
111
1.0
121
0.0
131
0.0
112
0.0
122
1.0
132
0.0
 79
     0
146
0.0
  0
ENDTAB
  0
TABLE
  2
LTYPE
  5
5
330
0
100
AcDbSymbolTable
 70
     6
  0
LTYPE
  5
14
330
5
100
AcDbSymbolTableRecord
100
AcDbLinetypeTableRecord
  2
ByBlock
 70
     0
  3

 72
    65
 73
     0
 40
0.0
  0
LTYPE
  5
15
330
5
100
AcDbSymbolTableRecord
100
AcDbLinetypeTableRecord
  2
ByLayer
 70
     0
  3

 72
    65
 73
     0
 40
0.0
  0
LTYPE
  5
16
330
5
100
AcDbSymbolTableRecord
100
AcDbLinetypeTableRecord
  2
Continuous
 70
     0
  3
Solid line
 72
    65
 73
     0
 40
0.0
  0
LTYPE
  5
6E
330
5
100
AcDbSymbolTableRecord
100
AcDbLinetypeTableRecord
  2
HIDDEN
 70
     0
  3
Hidden __ __ __ __ __ __ __ __ __ __ __ __ __ __
 72
    65
 73
     2
 40
0.075
 49
0.05
 74
     0
 49
-0.025
 74
     0
  0
LTYPE
  5
6F
330
5
100
AcDbSymbolTableRecord
100
AcDbLinetypeTableRecord
  2
PHANTOM
 70
     0
  3
Phantom ______  __  __  ______  __  __  ______
 72
    65
 73
     6
 40
0.5
 49
0.25
 74
     0
 49
-0.05
 74
     0
 49
0.05
 74
     0
 49
-0.05
 74
     0
 49
0.05
 74
     0
 49
-0.05
 74
     0
  0
LTYPE
  5
70
330
5
100
AcDbSymbolTableRecord
100
AcDbLinetypeTableRecord
  2
CENTER
 70
     0
  3
Center ____ _ ____ _ ____ _ ____ _ ____ _ ____
 72
    65
 73
     4
 40
0.4
 49
0.25
 74
     0
 49
-0.05
 74
     0
 49
0.05
 74
     0
 49
-0.05
 74
     0
  0
LTYPE
  5
71
330
5
100
AcDbSymbolTableRecord
100
AcDbLinetypeTableRecord
  2
CENTERX2
 70
     0
  3
Center (2x) ________  __  ________  __  _____
 72
    65
 73
     4
 40
0.8
 49
0.5
 74
     0
 49
-0.1
 74
     0
 49
0.1
 74
     0
 49
-0.1
 74
     0
  0
LTYPE
  5
72
330
5
100
AcDbSymbolTableRecord
100
AcDbLinetypeTableRecord
  2
DOT2
 70
     0
  3
Dot (.5x) ........................................
 72
    65
 73
     2
 40
0.025
 49
0.0
 74
     0
 49
-0.025
 74
     0
  0
ENDTAB
  0
TABLE
  2
LAYER
  5
2
330
0
100
AcDbSymbolTable
 70
     1
  0
LAYER
  5
10
330
2
100
AcDbSymbolTableRecord
100
AcDbLayerTableRecord
  2
0
 70
     0
 62
     7
  6
Continuous
370
    -3
390
F
  0
ENDTAB
  0
TABLE
  2
STYLE
  5
3
330
0
100
AcDbSymbolTable
 70
     1
  0
STYLE
  5
11
330
3
100
AcDbSymbolTableRecord
100
AcDbTextStyleTableRecord
  2
Standard
 70
     0
 40
0.0
 41
1.0
 50
0.0
 71
     0
 42
0.1377952756
  3
txt
  4

  0
ENDTAB
  0
TABLE
  2
VIEW
  5
6
330
0
100
AcDbSymbolTable
 70
     0
  0
ENDTAB
  0
TABLE
  2
UCS
  5
7
330
0
100
AcDbSymbolTable
 70
     0
  0
ENDTAB
  0
TABLE
  2
APPID
  5
9
330
0
100
AcDbSymbolTable
 70
     1
  0
APPID
  5
12
330
9
100
AcDbSymbolTableRecord
100
AcDbRegAppTableRecord
  2
ACAD
 70
     0
  0
ENDTAB
  0
TABLE
  2
DIMSTYLE
  5
A
330
0
100
AcDbSymbolTable
 70
     1
100
AcDbDimStyleTable
  0
DIMSTYLE
105
27
330
A
100
AcDbSymbolTableRecord
100
AcDbDimStyleTableRecord
  2
Standard
 70
     0
178
     0
340
11
  0
ENDTAB
  0
TABLE
  2
BLOCK_RECORD
  5
1
330
0
100
AcDbSymbolTable
 70
     3
  0
BLOCK_RECORD
  5
1F
330
1
100
AcDbSymbolTableRecord
100
AcDbBlockTableRecord
  2
*Model_Space
340
22
  0
BLOCK_RECORD
  5
1B
330
1
100
AcDbSymbolTableRecord
100
AcDbBlockTableRecord
  2
*Paper_Space
340
1E
  0
BLOCK_RECORD
  5
23
330
1
100
AcDbSymbolTableRecord
100
AcDbBlockTableRecord
  2
*Paper_Space0
340
26
  0
BLOCK_RECORD
  5
3C0
330
1
100
AcDbSymbolTableRecord
100
AcDbBlockTableRecord
  2
*Paper_Space1
340
3C1
  0
BLOCK_RECORD
  5
44C
330
1
100
AcDbSymbolTableRecord
100
AcDbBlockTableRecord
  2
*Paper_Space2
340
44D
  0
ENDTAB
  0
ENDSEC
  0
SECTION
  2
BLOCKS
  0
BLOCK
  5
20
330
1F
100
AcDbEntity
  8
0
100
AcDbBlockBegin
  2
*Model_Space
 70
     0
 10
0.0
 20
0.0
 30
0.0
  3
*Model_Space
  1

  0
ENDBLK
  5
21
330
1F
100
AcDbEntity
  8
0
100
AcDbBlockEnd
  0
BLOCK
  5
1C
330
1B
100
AcDbEntity
 67
     1
  8
0
100
AcDbBlockBegin
  2
*Paper_Space
 70
     0
 10
0.0
 20
0.0
 30
0.0
  3
*Paper_Space
  1

  0
ENDBLK
  5
1D
330
1B
100
AcDbEntity
 67
     1
  8
0
100
AcDbBlockEnd
  0
BLOCK
  5
24
330
23
100
AcDbEntity
  8
0
100
AcDbBlockBegin
  2
*Paper_Space0
 70
     0
 10
0.0
 20
0.0
 30
0.0
  3
*Paper_Space0
  1

  0
LINE
  5
352
330
23
100
AcDbEntity
  8
0
  6
Continuous
 62
     7
370
    25
100
AcDbLine
 10
-8.7598425197
 20
47.687007874
 30
0.0
 11
-8.7598425197
 21
27.9035433071
 31
0.0
  0
LINE
  5
353
330
23
100
AcDbEntity
  8
0
  6
Continuous
 62
     7
370
    25
100
AcDbLine
 10
-8.1299212598
 20
27.9035433071
 30
0.0
 11
-8.1299212598
 21
47.687007874
 31
0.0
  0
LINE
  5
354
330
23
100
AcDbEntity
  8
0
  6
Continuous
 62
     7
370
    25
100
AcDbLine
 10
-7.6545275591
 20
19.6850393701
 30
0.0
 11
-7.6545275591
 21
19.6456692913
 31
0.0
  0
LINE
  5
355
330
23
100
AcDbEntity
  8
0
  6
Continuous
 62
     7
370
    25
100
AcDbLine
 10
-7.2667322835
 20
19.6456692913
 30
0.0
 11
-7.2667322835
 21
19.6850393701
 31
0.0
  0
LINE
  5
356
330
23
100
AcDbEntity
  8
0
  6
Continuous
 62
     7
370
    25
100
AcDbLine
 10
-7.2667322835
 20
0.8070866142
 30
0.0
 11
-7.2667322835
 21
0.8464566929
 31
0.0
  0
LINE
  5
357
330
23
100
AcDbEntity
  8
0
  6
Continuous
 62
     7
370
    25
100
AcDbLine
 10
-7.6545275591
 20
0.8464566929
 30
0.0
 11
-7.6545275591
 21
0.8070866142
 31
0.0
  0
LINE
  5
358
330
23
100
AcDbEntity
  8
0
  6
Continuous
 62
     7
370
    25
100
AcDbLine
 10
-7.5590551181
 20
1.2401574803
 30
0.0
 11
-7.5590551181
 21
1.0826771654
 31
0.0
  0
LINE
  5
359
330
23
100
AcDbEntity
  8
0
  6
Continuous
 62
     7
370
    25
100
AcDbLine
 10
-7.3622047244
 20
19.9212598425
 30
0.0
 11
-7.3622047244
 21
20.0787401575
 31
0.0
  0
LINE
  5
35A
330
23
100
AcDbEntity
  8
0
  6
Continuous
 62
     7
370
    25
100
AcDbLine
 10
-7.5590551181
 20
20.0787401575
 30
0.0
 11
-7.5590551181
 21
19.9212598425
 31
0.0
  0
LINE
  5
35B
330
23
100
AcDbEntity
  8
0
  6
Continuous
 62
     7
370
    25
100
AcDbLine
 10
-7.3622047244
 20
1.0826771654
 30
0.0
 11
-7.3622047244
 21
1.2401574803
 31
0.0
  0
LINE
  5
35C
330
23
100
AcDbEntity
  8
0
  6
Continuous
 62
     7
370
    25
100
AcDbLine
 10
-7.9527567714
 20
-11.25
 30
0.0
 11
-7.9527567714
 21
-11.3287401575
 31
0.0
  0
LINE
  5
35D
330
23
100
AcDbEntity
  8
0
  6
Continuous
 62
     7
370
    25
100
AcDbLine
 10
-9.5415239417
 20
-11.3484251969
 30
0.0
 11
-11.870079606
 21
-11.3484251969
 31
0.0
  0
LINE
  5
35E
330
23
100
AcDbEntity
  8
0
  6
Continuous
 62
     7
370
    25
100
AcDbLine
 10
-11.870079606
 20
-11.2303149606
 30
0.0
 11
-11.870079606
 21
-11.3484251969
 31
0.0
  0
LINE
  5
35F
330
23
100
AcDbEntity
  8
0
  6
Continuous
 62
     7
370
    25
100
AcDbLine
 10
-9.5420850676
 20
-11.25
 30
0.0
 11
-11.8897646454
 21
-11.25
 31
0.0
  0
LINE
  5
360
330
23
100
AcDbEntity
  8
0
  6
Continuous
 62
     7
370
    25
100
AcDbLine
 10
-11.870079606
 20
-11.2303149606
 30
0.0
 11
-9.5421790659
 21
-11.2303149606
 31
0.0
  0
LINE
  5
361
330
23
100
AcDbEntity
  8
0
  6
Continuous
 62
     7
370
    25
100
AcDbLine
 10
-11.8897646454
 20
-11.3287401575
 30
0.0
 11
-9.5416520885
 21
-11.3287401575
 31
0.0
  0
LINE
  5
362
330
23
100
AcDbEntity
  8
0
  6
Continuous
 62
     7
370
    25
100
AcDbLine
 10
-11.8897646454
 20
-11.3287401575
 30
0.0
 11
-11.8897646454
 21
-11.25
 31
0.0
  0
LINE
  5
363
330
23
100
AcDbEntity
  8
0
  6
Continuous
 62
     7
370
    25
100
AcDbLine
 10
-9.539890781
 20
-11.4665354331
 30
0.0
 11
-7.9404231405
 21
-11.4665354331
 31
0.0
  0
LINE
  5
364
330
23
100
AcDbEntity
  8
0
  6
Continuous
 62
     7
370
    25
100
AcDbLine
 10
-9.5460206694
 20
-8.1988188976
 30
0.0
 11
-9.539890781
 21
-11.4665354331
 31
0.0
  0
LINE
  5
365
330
23
100
AcDbEntity
  8
0
  6
Continuous
 62
     7
370
    25
100
AcDbLine
 10
-9.5460206694
 20
-8.1988188976
 30
0.0
 11
-7.9712202907
 21
-8.1988188976
 31
0.0
  0
LINE
  5
366
330
23
100
AcDbEntity
  8
0
  6
Continuous
 62
     7
370
    25
100
AcDbLine
 10
-7.9712202907
 20
-8.1988188976
 30
0.0
 11
-7.9650904023
 21
-11.4665354331
 31
0.0
  0
LINE
  5
367
330
23
100
AcDbEntity
  8
0
  6
Continuous
 62
     7
370
    25
100
AcDbLine
 10
-9.5460206694
 20
24.6358267717
 30
0.0
 11
-7.9712202907
 21
24.6358267717
 31
0.0
  0
LINE
  5
368
330
23
100
AcDbEntity
  8
0
  6
Continuous
 62
     7
370
    25
100
AcDbLine
 10
-9.539890781
 20
27.9035433071
 30
0.0
 11
-9.5460206694
 21
24.6358267717
 31
0.0
  0
LINE
  5
369
330
23
100
AcDbEntity
  8
0
  6
Continuous
 62
     7
370
    25
100
AcDbLine
 10
-9.539890781
 20
27.9035433071
 30
0.0
 11
-7.9404231405
 21
27.9035433071
 31
0.0
  0
LINE
  5
36A
330
23
100
AcDbEntity
  8
0
  6
Continuous
 62
     7
370
    25
100
AcDbLine
 10
-7.9650904023
 20
27.9035433071
 30
0.0
 11
-7.9712202907
 21
24.6358267717
 31
0.0
  0
LINE
  5
36B
330
23
100
AcDbEntity
  8
0
  6
Continuous
 62
     7
370
    25
100
AcDbLine
 10
-7.9650904023
 20
27.7854330709
 30
0.0
 11
-7.9709987284
 21
24.6358267717
 31
0.0
  0
LINE
  5
36C
330
23
100
AcDbEntity
  8
0
  6
Continuous
 62
     7
370
    25
100
AcDbLine
 10
-7.9709987284
 20
24.6358267717
 30
0.0
 11
-7.9709987284
 21
19.9212598425
 31
0.0
  0
LINE
  5
36D
330
23
100
AcDbEntity
  8
0
  6
Continuous
 62
     7
370
    25
100
AcDbLine
 10
-6.4944917399
 20
19.9212598425
 30
0.0
 11
-7.9709987284
 21
19.9212598425
 31
0.0
  0
LINE
  5
36E
330
23
100
AcDbEntity
  8
0
  6
Continuous
 62
     7
370
    25
100
AcDbLine
 10
-7.9557746296
 20
19.9212598425
 30
0.0
 11
-7.9557746296
 21
19.8031496063
 31
0.0
  0
LINE
  5
36F
330
23
100
AcDbEntity
  8
0
  6
Continuous
 62
     7
370
    25
100
AcDbLine
 10
-7.9709987284
 20
19.8031496063
 30
0.0
 11
-7.9709987284
 21
1.0826771654
 31
0.0
  0
LINE
  5
370
330
23
100
AcDbEntity
  8
0
  6
Continuous
 62
     7
370
    25
100
AcDbLine
 10
-6.4944917399
 20
1.0826771654
 30
0.0
 11
-7.9709987284
 21
1.0826771654
 31
0.0
  0
LINE
  5
371
330
23
100
AcDbEntity
  8
0
  6
Continuous
 62
     7
370
    25
100
AcDbLine
 10
-7.9557746296
 20
1.0826771654
 30
0.0
 11
-7.9557746296
 21
0.9645669291
 31
0.0
  0
LINE
  5
372
330
23
100
AcDbEntity
  8
0
  6
Continuous
 62
     7
370
    25
100
AcDbLine
 10
-7.9709987284
 20
0.9645669291
 30
0.0
 11
-7.9709987284
 21
-8.1988188976
 31
0.0
  0
LINE
  5
373
330
23
100
AcDbEntity
  8
0
  6
Continuous
 62
     7
370
    25
100
AcDbLine
 10
-7.9709987284
 20
-8.1988188976
 30
0.0
 11
-7.9650904023
 21
-11.3484251969
 31
0.0
  0
LINE
  5
374
330
23
100
AcDbEntity
  8
0
  6
Continuous
 62
     7
370
    25
100
AcDbLine
 10
-7.9404231405
 20
-11.3484251969
 30
0.0
 11
-7.9650904023
 21
-11.3484251969
 31
0.0
  0
LINE
  5
375
330
23
100
AcDbEntity
  8
0
  6
Continuous
 62
     7
370
    25
100
AcDbLine
 10
-7.9404231405
 20
-11.3484251969
 30
0.0
 11
-7.9345148144
 21
-8.1988188976
 31
0.0
  0
LINE
  5
376
330
23
100
AcDbEntity
  8
0
  6
Continuous
 62
     7
370
    25
100
AcDbLine
 10
-7.9345148144
 20
0.8464566929
 30
0.0
 11
-7.9345148144
 21
-8.1988188976
 31
0.0
  0
LINE
  5
377
330
23
100
AcDbEntity
  8
0
  6
Continuous
 62
     7
370
    25
100
AcDbLine
 10
-7.9345148144
 20
19.6850393701
 30
0.0
 11
-7.9345148144
 21
1.0826771654
 31
0.0
  0
LINE
  5
378
330
23
100
AcDbEntity
  8
0
  6
Continuous
 62
     7
370
    25
100
AcDbLine
 10
-7.9345148144
 20
24.6358267717
 30
0.0
 11
-7.9345148144
 21
19.9212598425
 31
0.0
  0
LINE
  5
379
330
23
100
AcDbEntity
  8
0
  6
Continuous
 62
     7
370
    25
100
AcDbLine
 10
-7.9345148144
 20
24.6358267717
 30
0.0
 11
-7.9404231405
 21
27.7854330709
 31
0.0
  0
LINE
  5
37A
330
23
100
AcDbEntity
  8
0
  6
Continuous
 62
     7
370
    25
100
AcDbLine
 10
-7.9404231405
 20
27.7854330709
 30
0.0
 11
-7.9650904023
 21
27.7854330709
 31
0.0
  0
LINE
  5
37B
330
23
100
AcDbEntity
  8
0
  6
Continuous
 62
     7
370
    25
100
AcDbLine
 10
-7.9342932521
 20
24.6358267717
 30
0.0
 11
-7.9404231405
 21
27.9035433071
 31
0.0
  0
LINE
  5
37C
330
23
100
AcDbEntity
  8
0
  6
Continuous
 62
     7
370
    25
100
AcDbLine
 10
-7.9342932521
 20
24.6358267717
 30
0.0
 11
-7.9342932521
 21
19.9212598425
 31
0.0
  0
LINE
  5
37D
330
23
100
AcDbEntity
  8
0
  6
Continuous
 62
     7
370
    25
100
AcDbLine
 10
-7.9342932521
 20
19.6850393701
 30
0.0
 11
-7.9342932521
 21
1.0826771654
 31
0.0
  0
LINE
  5
37E
330
23
100
AcDbEntity
  8
0
  6
Continuous
 62
     7
370
    25
100
AcDbLine
 10
-7.9342932521
 20
0.8464566929
 30
0.0
 11
-7.9342932521
 21
-8.1988188976
 31
0.0
  0
LINE
  5
37F
330
23
100
AcDbEntity
  8
0
  6
Continuous
 62
     7
370
    25
100
AcDbLine
 10
-7.9404231405
 20
-11.4665354331
 30
0.0
 11
-7.9342932521
 21
-8.1988188976
 31
0.0
  0
LINE
  5
380
330
23
100
AcDbEntity
  8
0
  6
Continuous
 62
     7
370
    25
100
AcDbLine
 10
-7.9712202907
 20
24.6358267717
 30
0.0
 11
-7.9712202907
 21
-8.1988188976
 31
0.0
  0
LINE
  5
381
330
23
100
AcDbEntity
  8
0
  6
Continuous
 62
     7
370
    25
100
AcDbLine
 10
-9.5460206694
 20
24.6358267717
 30
0.0
 11
-9.5460206694
 21
-8.1988188976
 31
0.0
  0
LINE
  5
382
330
23
100
AcDbEntity
  8
0
  6
Continuous
 62
     7
370
    25
100
AcDbLine
 10
-5.905511811
 20
0.7874015748
 30
0.0
 11
-5.905511811
 21
-1.3976377953
 31
0.0
  0
LINE
  5
383
330
23
100
AcDbEntity
  8
0
  6
Continuous
 62
     7
370
    25
100
AcDbLine
 10
-6.4696839802
 20
-1.2007874016
 30
0.0
 11
-5.905511811
 21
-1.2007874016
 31
0.0
  0
LINE
  5
384
330
23
100
AcDbEntity
  8
0
  6
Continuous
 62
     7
370
    25
100
AcDbLine
 10
-6.0236220472
 20
0.7874015748
 30
0.0
 11
-6.0236220472
 21
-1.3976377953
 31
0.0
  0
LINE
  5
385
330
23
100
AcDbEntity
  8
0
  6
Continuous
 62
     7
370
    25
100
AcDbLine
 10
-6.0826771654
 20
0.8464566929
 30
0.0
 11
-7.9709987284
 21
0.8464566929
 31
0.0
  0
LINE
  5
386
330
23
100
AcDbEntity
  8
0
  6
Continuous
 62
     7
370
    25
100
AcDbLine
 10
-6.5235661766
 20
0.9645669291
 30
0.0
 11
-6.5235661766
 21
0.8464566929
 31
0.0
  0
LINE
  5
387
330
23
100
AcDbEntity
  8
0
  6
Continuous
 62
     7
370
    25
100
AcDbLine
 10
-6.0826771654
 20
0.9645669291
 30
0.0
 11
-7.9709987284
 21
0.9645669291
 31
0.0
  0
LINE
  5
388
330
23
100
AcDbEntity
  8
0
  6
Continuous
 62
     7
370
    25
100
AcDbLine
 10
-5.905511811
 20
17.4409448819
 30
0.0
 11
-6.0236220472
 21
17.4409448819
 31
0.0
  0
LINE
  5
389
330
23
100
AcDbEntity
  8
0
  6
Continuous
 62
     7
370
    25
100
AcDbLine
 10
-6.0236220472
 20
19.625984252
 30
0.0
 11
-6.0236220472
 21
17.4409448819
 31
0.0
  0
LINE
  5
38A
330
23
100
AcDbEntity
  8
0
  6
Continuous
 62
     7
370
    25
100
AcDbLine
 10
-6.4696839802
 20
17.6377952756
 30
0.0
 11
-5.905511811
 21
17.6377952756
 31
0.0
  0
LINE
  5
38B
330
23
100
AcDbEntity
  8
0
  6
Continuous
 62
     7
370
    25
100
AcDbLine
 10
-5.905511811
 20
19.625984252
 30
0.0
 11
-5.905511811
 21
17.4409448819
 31
0.0
  0
LINE
  5
38C
330
23
100
AcDbEntity
  8
0
  6
Continuous
 62
     7
370
    25
100
AcDbLine
 10
-6.6514724687
 20
19.6850393701
 30
0.0
 11
-6.6514724687
 21
19.8031496063
 31
0.0
  0
LINE
  5
38D
330
23
100
AcDbEntity
  8
0
  6
Continuous
 62
     7
370
    25
100
AcDbLine
 10
-6.5235661766
 20
19.8031496063
 30
0.0
 11
-6.5235661766
 21
19.6850393701
 31
0.0
  0
LINE
  5
38E
330
23
100
AcDbEntity
  8
0
  6
Continuous
 62
     7
370
    25
100
AcDbLine
 10
-6.0826771654
 20
19.6850393701
 30
0.0
 11
-7.9709987284
 21
19.6850393701
 31
0.0
  0
LINE
  5
38F
330
23
100
AcDbEntity
  8
0
  6
Continuous
 62
     7
370
    25
100
AcDbLine
 10
-6.0826771654
 20
19.8031496063
 30
0.0
 11
-7.9709987284
 21
19.8031496063
 31
0.0
  0
LINE
  5
390
330
23
100
AcDbEntity
  8
0
  6
Continuous
 62
     7
370
    25
100
AcDbLine
 10
-5.905511811
 20
-1.3976377953
 30
0.0
 11
-6.0236220472
 21
-1.3976377953
 31
0.0
  0
LINE
  5
391
330
23
100
AcDbEntity
  8
0
  6
Continuous
 62
     7
370
    25
100
AcDbLine
 10
-6.6514724687
 20
0.8464566929
 30
0.0
 11
-6.6514724687
 21
0.9645669291
 31
0.0
  0
LINE
  5
392
330
23
100
AcDbEntity
  8
0
  6
Continuous
 62
     7
370
    25
100
AcDbLine
 10
-7.8208237123
 20
1.0826771654
 30
0.0
 11
-7.8208237123
 21
0.9645669291
 31
0.0
  0
LINE
  5
393
330
23
100
AcDbEntity
  8
0
  6
Continuous
 62
     7
370
    25
100
AcDbLine
 10
-7.8208237123
 20
19.9212598425
 30
0.0
 11
-7.8208237123
 21
19.8031496063
 31
0.0
  0
LINE
  5
394
330
23
100
AcDbEntity
  8
0
  6
Continuous
 62
     7
370
    25
100
AcDbLine
 10
-6.6325920195
 20
1.0826771654
 30
0.0
 11
-6.6325920195
 21
0.9645669291
 31
0.0
  0
LINE
  5
395
330
23
100
AcDbEntity
  8
0
  6
Continuous
 62
     7
370
    25
100
AcDbLine
 10
-6.6325920195
 20
19.9212598425
 30
0.0
 11
-6.6325920195
 21
19.8031496063
 31
0.0
  0
LINE
  5
396
330
23
100
AcDbEntity
  8
0
  6
Continuous
 62
     7
370
    25
100
AcDbLine
 10
-6.4976411022
 20
0.9645669291
 30
0.0
 11
-6.4976411022
 21
1.0826771654
 31
0.0
  0
LINE
  5
397
330
23
100
AcDbEntity
  8
0
  6
Continuous
 62
     7
370
    25
100
AcDbLine
 10
-6.4976411022
 20
19.8031496063
 30
0.0
 11
-6.4976411022
 21
19.9212598425
 31
0.0
  0
LINE
  5
398
330
23
100
AcDbEntity
  8
0
  6
Continuous
 62
     7
370
    25
100
AcDbLine
 10
-6.4976266118
 20
1.0826771654
 30
0.0
 11
-6.4976266118
 21
0.9645669291
 31
0.0
  0
LINE
  5
399
330
23
100
AcDbEntity
  8
0
  6
Continuous
 62
     7
370
    25
100
AcDbLine
 10
-6.4976266118
 20
19.9212598425
 30
0.0
 11
-6.4976266118
 21
19.8031496063
 31
0.0
  0
LINE
  5
39A
330
23
100
AcDbEntity
  8
0
  6
Continuous
 62
     7
370
    25
100
AcDbLine
 10
-8.7598425197
 20
47.687007874
 30
0.0
 11
-8.1299212598
 21
47.687007874
 31
0.0
  0
LINE
  5
39B
330
23
100
AcDbEntity
  8
0
  6
Continuous
 62
     7
370
    25
100
AcDbLine
 10
-7.4606299213
 20
19.6850393701
 30
0.0
 11
-7.4606299213
 21
19.5767716535
 31
0.0
  0
LINE
  5
39C
330
23
100
AcDbEntity
  8
0
  6
Continuous
 62
     7
370
    25
100
AcDbLine
 10
-7.6545275591
 20
19.6456692913
 30
0.0
 11
-7.2667322835
 21
19.6456692913
 31
0.0
  0
LINE
  5
39D
330
23
100
AcDbEntity
  8
0
  6
Continuous
 62
     7
370
    25
100
AcDbLine
 10
-7.6545275591
 20
0.8070866142
 30
0.0
 11
-7.2667322835
 21
0.8070866142
 31
0.0
  0
LINE
  5
39E
330
23
100
AcDbEntity
  8
0
  6
Continuous
 62
     7
370
    25
100
AcDbLine
 10
-7.4606299213
 20
0.8464566929
 30
0.0
 11
-7.4606299213
 21
0.7381889764
 31
0.0
  0
LINE
  5
39F
330
23
100
AcDbEntity
  8
0
  6
Continuous
 62
     7
370
    25
100
AcDbLine
 10
-7.5797244094
 20
0.7381889764
 30
0.0
 11
-7.3415354331
 21
0.7381889764
 31
0.0
  0
LINE
  5
3A0
330
23
100
AcDbEntity
  8
0
  6
Continuous
 62
     7
370
    25
100
AcDbLine
 10
-7.5797244094
 20
19.5767716535
 30
0.0
 11
-7.3415354331
 21
19.5767716535
 31
0.0
  0
LINE
  5
3A1
330
23
100
AcDbEntity
  8
0
  6
Continuous
 62
     7
370
    25
100
AcDbLine
 10
-7.3622047244
 20
1.2401574803
 30
0.0
 11
-7.5590551181
 21
1.2401574803
 31
0.0
  0
LINE
  5
3A2
330
23
100
AcDbEntity
  8
0
  6
Continuous
 62
     7
370
    25
100
AcDbLine
 10
-7.3622047244
 20
20.0787401575
 30
0.0
 11
-7.5590551181
 21
20.0787401575
 31
0.0
  0
LINE
  5
3A3
330
23
100
AcDbEntity
  8
0
  6
Continuous
 62
     7
370
    25
100
AcDbLine
 10
-6.0236220472
 20
19.562700104
 30
0.0
 11
-6.171871539
 21
19.6850393701
 31
0.0
  0
LINE
  5
3A4
330
23
100
AcDbEntity
  8
0
  6
Continuous
 62
     7
370
    25
100
AcDbLine
 10
-7.228680491
 20
19.6850393701
 30
0.0
 11
-6.6582770293
 21
17.7782298975
 31
0.0
  0
LINE
  5
3A5
330
23
100
AcDbEntity
  8
0
  6
Continuous
 62
     7
370
    25
100
AcDbLine
 10
-6.0236220472
 20
0.7241174269
 30
0.0
 11
-6.171871539
 21
0.8464566929
 31
0.0
  0
LINE
  5
3A6
330
23
100
AcDbEntity
  8
0
  6
Continuous
 62
     7
370
    25
100
AcDbLine
 10
-7.228680491
 20
0.8464566929
 30
0.0
 11
-6.6582770293
 21
-1.0603527797
 31
0.0
  0
LINE
  5
3A7
330
23
100
AcDbEntity
  8
0
  6
Continuous
 62
     7
370
    25
100
AcDbLine
 10
-6.4945062303
 20
1.0826771654
 30
0.0
 11
-6.4945062303
 21
0.9645669291
 31
0.0
  0
LINE
  5
3A8
330
23
100
AcDbEntity
  8
0
  6
Continuous
 62
     7
370
    25
100
AcDbLine
 10
-6.4945062303
 20
19.9212598425
 30
0.0
 11
-6.4945062303
 21
19.8031496063
 31
0.0
  0
LINE
  5
3A9
330
23
100
AcDbEntity
  8
0
  6
Continuous
 62
     7
370
    25
100
AcDbLine
 10
-6.4944917399
 20
0.9645669291
 30
0.0
 11
-6.4944917399
 21
1.0826771654
 31
0.0
  0
LINE
  5
3AA
330
23
100
AcDbEntity
  8
0
  6
Continuous
 62
     7
370
    25
100
AcDbLine
 10
-6.4944917399
 20
19.8031496063
 30
0.0
 11
-6.4944917399
 21
19.9212598425
 31
0.0
  0
LINE
  5
3AB
330
23
100
AcDbEntity
  8
0
  6
Continuous
 62
     8
370
    25
100
AcDbLine
 10
-7.9527567714
 20
-11.3287401575
 30
0.0
 11
-7.9657499403
 21
-11.3287401575
 31
0.0
  0
LINE
  5
3AC
330
23
100
AcDbEntity
  8
0
  6
Continuous
 62
     8
370
    25
100
AcDbLine
 10
-7.9527567714
 20
-11.25
 30
0.0
 11
-7.9665558987
 21
-11.25
 31
0.0
  0
LINE
  5
3AD
330
23
100
AcDbEntity
  8
0
  6
Continuous
 62
     8
370
    25
100
AcDbLine
 10
-8.2225892661
 20
47.687007874
 30
0.0
 11
-8.2225892661
 21
27.9035433071
 31
0.0
  0
LINE
  5
3AE
330
23
100
AcDbEntity
  8
0
  6
Continuous
 62
     8
370
    25
100
AcDbLine
 10
-7.4606299213
 20
1.2401574803
 30
0.0
 11
-7.4606299213
 21
1.0826771654
 31
0.0
  0
LINE
  5
3AF
330
23
100
AcDbEntity
  8
0
  6
Continuous
 62
     8
370
    25
100
AcDbLine
 10
-7.4606299213
 20
20.0787401575
 30
0.0
 11
-7.4606299213
 21
19.9212598425
 31
0.0
  0
LINE
  5
3B0
330
23
100
AcDbEntity
  8
0
  6
Continuous
 62
     8
370
    25
100
AcDbLine
 10
-7.9709987284
 20
-8.1988188976
 30
0.0
 11
-7.9345148144
 21
-8.1988188976
 31
0.0
  0
LINE
  5
3B1
330
23
100
AcDbEntity
  8
0
  6
Continuous
 62
     8
370
    25
100
AcDbLine
 10
-7.9709987284
 20
24.6358267717
 30
0.0
 11
-7.9345148144
 21
24.6358267717
 31
0.0
  0
ARC
  5
3B2
330
23
100
AcDbEntity
  8
0
  6
Continuous
 62
     7
370
    25
100
AcDbCircle
 10
-7.467519685
 20
0.9350674916
 30
0.0
 40
0.2266077004903156
100
AcDbArc
 50
214.386212883
 51
240.3203808492
  0
ARC
  5
3B3
330
23
100
AcDbEntity
  8
0
  6
Continuous
 62
     7
370
    25
100
AcDbCircle
 10
-7.467519685
 20
19.7736501687
 30
0.0
 40
0.2266077004902214
100
AcDbArc
 50
214.386212883
 51
240.3203808492
  0
ARC
  5
3B4
330
23
100
AcDbEntity
  8
0
  6
Continuous
 62
     7
370
    25
100
AcDbCircle
 10
-7.4537401575
 20
19.7736501687
 30
0.0
 40
0.2266077004902912
100
AcDbArc
 50
299.6796191508
 51
325.613787117
  0
ARC
  5
3B5
330
23
100
AcDbEntity
  8
0
  6
Continuous
 62
     7
370
    25
100
AcDbCircle
 10
-7.4537401575
 20
0.9350674916
 30
0.0
 40
0.2266077004902936
100
AcDbArc
 50
299.6796191508
 51
325.613787117
  0
ARC
  5
3B6
330
23
100
AcDbEntity
  8
0
  6
Continuous
 62
     7
370
    25
100
AcDbCircle
 10
-7.9724418108
 20
-11.3287401575
 30
0.0
 40
0.0196850393700808
100
AcDbArc
 50
291.3858670297
 51
0.0
  0
ARC
  5
3B7
330
23
100
AcDbEntity
  8
0
  6
Continuous
 62
     7
370
    25
100
AcDbCircle
 10
-11.870079606
 20
-11.25
 30
0.0
 40
0.0196850393700796
100
AcDbArc
 50
90.0
 51
180.0
  0
ARC
  5
3B8
330
23
100
AcDbEntity
  8
0
  6
Continuous
 62
     7
370
    25
100
AcDbCircle
 10
-7.9724418108
 20
-11.25
 30
0.0
 40
0.0196850393700867
100
AcDbArc
 50
0.0
 51
73.0031254906
  0
ARC
  5
3B9
330
23
100
AcDbEntity
  8
0
  6
Continuous
 62
     7
370
    25
100
AcDbCircle
 10
-11.870079606
 20
-11.3287401575
 30
0.0
 40
0.0196850393700743
100
AcDbArc
 50
180.0
 51
270.0
  0
ARC
  5
3BA
330
23
100
AcDbEntity
  8
0
  6
Continuous
 62
     7
370
    25
100
AcDbCircle
 10
-6.0826771654
 20
0.7874015748
 30
0.0
 40
0.1771653543307092
100
AcDbArc
 50
0.0
 51
90.0
  0
ARC
  5
3BB
330
23
100
AcDbEntity
  8
0
  6
Continuous
 62
     7
370
    25
100
AcDbCircle
 10
-6.0826771654
 20
0.7874015748
 30
0.0
 40
0.0590551181102388
100
AcDbArc
 50
360.0
 51
90.0
  0
ARC
  5
3BC
330
23
100
AcDbEntity
  8
0
  6
Continuous
 62
     7
370
    25
100
AcDbCircle
 10
-6.0826771654
 20
19.625984252
 30
0.0
 40
0.1771653543307146
100
AcDbArc
 50
0.0
 51
90.0
  0
ARC
  5
3BD
330
23
100
AcDbEntity
  8
0
  6
Continuous
 62
     7
370
    25
100
AcDbCircle
 10
-6.0826771654
 20
19.625984252
 30
0.0
 40
0.0590551181102406
100
AcDbArc
 50
0.0
 51
90.0
  0
ARC
  5
3BE
330
23
100
AcDbEntity
  8
0
  6
Continuous
 62
     7
370
    25
100
AcDbCircle
 10
-6.4696839802
 20
17.8346456693
 30
0.0
 40
0.1968503937008292
100
AcDbArc
 50
196.6540408252
 51
270.0
  0
ARC
  5
3BF
330
23
100
AcDbEntity
  8
0
  6
Continuous
 62
     7
370
    25
100
AcDbCircle
 10
-6.4696839802
 20
-1.0039370079
 30
0.0
 40
0.1968503937008155
100
AcDbArc
 50
196.6540408252
 51
270.0
  0
VIEWPORT
  5
4FF
330
23
100
AcDbEntity
  8
0
100
AcDbViewport
 10
0.0
 20
0.0
 30
0.0
 40
8.4
 41
6.4
 68
     1
 69
     1
 12
17.7159815275
 22
18.1102362205
 13
0.0
 23
0.0
 14
0.5
 24
0.5
 15
0.5
 25
0.5
 16
0.0
 26
0.0
 36
1.0
 17
0.0
 27
0.0
 37
0.0
 42
50.0
 43
0.0
 44
0.0
 45
60.3366141732
 50
0.0
 51
0.0
 72
   100
 90
   557152
  1

281
     0
 71
     1
 74
     0
110
0.0
120
0.0
130
0.0
111
1.0
121
0.0
131
0.0
112
0.0
122
1.0
132
0.0
 79
     0
146
0.0
  0
ENDBLK
  5
25
330
23
100
AcDbEntity
  8
0
100
AcDbBlockEnd
  0
BLOCK
  5
3C2
330
3C0
100
AcDbEntity
  8
0
100
AcDbBlockBegin
  2
*Paper_Space1
 70
     0
 10
0.0
 20
0.0
 30
0.0
  3
*Paper_Space1
  1

  0
LINE
  5
413
330
3C0
100
AcDbEntity
  8
0
  6
Continuous
 62
     7
370
    25
100
AcDbLine
 10
24.0166712075
 20
11.870079606
 30
0.0
 11
24.0166712075
 21
9.539379365
 31
0.0
  0
LINE
  5
414
330
3C0
100
AcDbEntity
  8
0
  6
Continuous
 62
     7
370
    25
100
AcDbLine
 10
11.43793105
 20
11.8897646454
 30
0.0
 11
11.43793105
 21
9.5157829458
 31
0.0
  0
LINE
  5
415
330
3C0
100
AcDbEntity
  8
0
  6
Continuous
 62
     7
370
    25
100
AcDbLine
 10
24.0166712075
 20
11.870079606
 30
0.0
 11
11.4182460106
 21
11.870079606
 31
0.0
  0
LINE
  5
416
330
3C0
100
AcDbEntity
  8
0
  6
Continuous
 62
     7
370
    25
100
AcDbLine
 10
23.9969861681
 20
9.5393424379
 30
0.0
 11
23.9969861681
 21
11.8897646454
 31
0.0
  0
LINE
  5
417
330
3C0
100
AcDbEntity
  8
0
  6
Continuous
 62
     7
370
    25
100
AcDbLine
 10
11.4182460106
 20
9.5157460187
 30
0.0
 11
11.4182460106
 21
11.870079606
 31
0.0
  0
LINE
  5
418
330
3C0
100
AcDbEntity
  8
0
  6
Continuous
 62
     7
370
    25
100
AcDbLine
 10
23.9969861681
 20
7.9527567714
 30
0.0
 11
17.717458609
 21
7.9527567714
 31
0.0
  0
LINE
  5
419
330
3C0
100
AcDbEntity
  8
0
  6
Continuous
 62
     7
370
    25
100
AcDbLine
 10
11.43793105
 20
11.8897646454
 30
0.0
 11
23.9969861681
 21
11.8897646454
 31
0.0
  0
LINE
  5
41A
330
3C0
100
AcDbEntity
  8
0
  6
Continuous
 62
     7
370
    25
100
AcDbLine
 10
24.2892960273
 20
9.539890781
 30
0.0
 11
24.2922501903
 21
7.9650904023
 31
0.0
  0
LINE
  5
41B
330
3C0
100
AcDbEntity
  8
0
  6
Continuous
 62
     7
370
    25
100
AcDbLine
 10
7.8749562418
 20
7.9342932521
 30
0.0
 11
27.5599609763
 21
7.9712202907
 31
0.0
  0
LINE
  5
41C
330
3C0
100
AcDbEntity
  8
0
  6
Continuous
 62
     7
370
    25
100
AcDbLine
 10
11.1397128646
 20
9.5152235193
 30
0.0
 11
11.1426670277
 21
7.9404231405
 31
0.0
  0
LINE
  5
41D
330
3C0
100
AcDbEntity
  8
0
  6
Continuous
 62
     7
370
    25
100
AcDbLine
 10
11.4462760167
 20
9.5157986001
 30
0.0
 11
11.4462322372
 21
9.5391364885
 31
0.0
  0
LINE
  5
41E
330
3C0
100
AcDbEntity
  8
0
  6
Continuous
 62
     7
370
    25
100
AcDbLine
 10
7.8720020787
 20
9.5090936309
 30
0.0
 11
11.4462760167
 21
9.5157986001
 31
0.0
  0
LINE
  5
41F
330
3C0
100
AcDbEntity
  8
0
  6
Continuous
 62
     7
370
    25
100
AcDbLine
 10
27.5570068132
 20
9.5460206694
 30
0.0
 11
23.8871990088
 21
9.5391364885
 31
0.0
  0
LINE
  5
420
330
3C0
100
AcDbEntity
  8
0
  6
Continuous
 62
     7
370
    25
100
AcDbLine
 10
23.8871990088
 20
9.5391364885
 30
0.0
 11
11.4462322372
 21
9.5391364885
 31
0.0
  0
LINE
  5
421
330
3C0
100
AcDbEntity
  8
0
  6
Continuous
 62
     7
370
    25
100
AcDbLine
 10
7.8720020787
 20
9.5090936309
 30
0.0
 11
7.8749562418
 21
7.9342932521
 31
0.0
  0
LINE
  5
422
330
3C0
100
AcDbEntity
  8
0
  6
Continuous
 62
     7
370
    25
100
AcDbLine
 10
27.5570068132
 20
9.5460206694
 30
0.0
 11
27.5599609763
 21
7.9712202907
 31
0.0
  0
LINE
  5
423
330
3C0
100
AcDbEntity
  8
0
  6
Continuous
 62
     7
370
    25
100
AcDbLine
 10
19.4881889764
 20
5.905511811
 30
0.0
 11
19.4881889764
 21
6.0236220472
 31
0.0
  0
LINE
  5
424
330
3C0
100
AcDbEntity
  8
0
  6
Continuous
 62
     7
370
    25
100
AcDbLine
 10
15.9448818898
 20
6.0236220472
 30
0.0
 11
15.9448818898
 21
5.905511811
 31
0.0
  0
LINE
  5
425
330
3C0
100
AcDbEntity
  8
0
  6
Continuous
 62
     7
370
    25
100
AcDbLine
 10
19.6850393701
 20
6.0236220472
 30
0.0
 11
15.7480314961
 21
6.0236220472
 31
0.0
  0
LINE
  5
426
330
3C0
100
AcDbEntity
  8
0
  6
Continuous
 62
     7
370
    25
100
AcDbLine
 10
19.6850393701
 20
5.905511811
 30
0.0
 11
15.7480314961
 21
5.905511811
 31
0.0
  0
LINE
  5
427
330
3C0
100
AcDbEntity
  8
0
  6
Continuous
 62
     7
370
    25
100
AcDbLine
 10
15.7480314961
 20
5.905511811
 30
0.0
 11
15.7480314961
 21
6.52357156
 31
0.0
  0
LINE
  5
428
330
3C0
100
AcDbEntity
  8
0
  6
Continuous
 62
     7
370
    25
100
AcDbLine
 10
19.6850393701
 20
6.5235661766
 30
0.0
 11
19.6850393701
 21
5.905511811
 31
0.0
  0
LINE
  5
429
330
3C0
100
AcDbEntity
  8
0
  6
Continuous
 62
     7
370
    25
100
AcDbLine
 10
17.7755905512
 20
6.4696839802
 30
0.0
 11
17.657480315
 21
6.4696839802
 31
0.0
  0
LINE
  5
42A
330
3C0
100
AcDbEntity
  8
0
  6
Continuous
 62
     7
370
    25
100
AcDbLine
 10
17.7755905512
 20
7.228680491
 30
0.0
 11
17.7755905512
 21
6.0236220472
 31
0.0
  0
LINE
  5
42B
330
3C0
100
AcDbEntity
  8
0
  6
Continuous
 62
     7
370
    25
100
AcDbLine
 10
17.657480315
 20
7.228680491
 30
0.0
 11
17.657480315
 21
6.0236220472
 31
0.0
  0
LINE
  5
42C
330
3C0
100
AcDbEntity
  8
0
  6
Continuous
 62
     7
370
    25
100
AcDbLine
 10
17.7755905512
 20
6.6582770293
 30
0.0
 11
17.657480315
 21
6.6582770293
 31
0.0
  0
LINE
  5
42D
330
3C0
100
AcDbEntity
  8
0
  6
Continuous
 62
     7
370
    25
100
AcDbLine
 10
17.7755905512
 20
7.228680491
 30
0.0
 11
17.657480315
 21
7.228680491
 31
0.0
  0
LINE
  5
42E
330
3C0
100
AcDbEntity
  8
0
  6
Continuous
 62
     7
370
    25
100
AcDbLine
 10
17.9104330709
 20
7.4606299213
 30
0.0
 11
17.8356299213
 21
7.4606299213
 31
0.0
  0
LINE
  5
42F
330
3C0
100
AcDbEntity
  8
0
  6
Continuous
 62
     7
370
    25
100
AcDbLine
 10
17.5974409449
 20
7.4606299213
 30
0.0
 11
17.5226377953
 21
7.4606299213
 31
0.0
  0
LINE
  5
430
330
3C0
100
AcDbEntity
  8
0
  6
Continuous
 62
     7
370
    25
100
AcDbLine
 10
17.7362204724
 20
7.4409448819
 30
0.0
 11
17.7847264097
 21
7.4409448819
 31
0.0
  0
LINE
  5
431
330
3C0
100
AcDbEntity
  8
0
  6
Continuous
 62
     7
370
    25
100
AcDbLine
 10
17.7847264097
 20
7.4409448819
 30
0.0
 11
17.7847264097
 21
7.4803149606
 31
0.0
  0
LINE
  5
432
330
3C0
100
AcDbEntity
  8
0
  6
Continuous
 62
     7
370
    25
100
AcDbLine
 10
17.7847264097
 20
7.4803149606
 30
0.0
 11
17.7362204724
 21
7.4803149606
 31
0.0
  0
LINE
  5
433
330
3C0
100
AcDbEntity
  8
0
  6
Continuous
 62
     7
370
    25
100
AcDbLine
 10
17.7362204724
 20
7.5196850394
 30
0.0
 11
17.6968503937
 21
7.5196850394
 31
0.0
  0
LINE
  5
434
330
3C0
100
AcDbEntity
  8
0
  6
Continuous
 62
     7
370
    25
100
AcDbLine
 10
17.6968503937
 20
7.5196850394
 30
0.0
 11
17.6968503937
 21
7.4803149606
 31
0.0
  0
LINE
  5
435
330
3C0
100
AcDbEntity
  8
0
  6
Continuous
 62
     7
370
    25
100
AcDbLine
 10
17.6968503937
 20
7.4803149606
 30
0.0
 11
17.6483444564
 21
7.4803149606
 31
0.0
  0
LINE
  5
436
330
3C0
100
AcDbEntity
  8
0
  6
Continuous
 62
     7
370
    25
100
AcDbLine
 10
17.6483444564
 20
7.4409448819
 30
0.0
 11
17.6968503937
 21
7.4409448819
 31
0.0
  0
LINE
  5
437
330
3C0
100
AcDbEntity
  8
0
  6
Continuous
 62
     7
370
    25
100
AcDbLine
 10
17.6968503937
 20
7.4409448819
 30
0.0
 11
17.6968503937
 21
7.4015748031
 31
0.0
  0
LINE
  5
438
330
3C0
100
AcDbEntity
  8
0
  6
Continuous
 62
     7
370
    25
100
AcDbLine
 10
17.6968503937
 20
7.4015748031
 30
0.0
 11
17.7362204724
 21
7.4015748031
 31
0.0
  0
LINE
  5
439
330
3C0
100
AcDbEntity
  8
0
  6
Continuous
 62
     7
370
    25
100
AcDbLine
 10
17.7362204724
 20
7.4015748031
 30
0.0
 11
17.7362204724
 21
7.4409448819
 31
0.0
  0
LINE
  5
43A
330
3C0
100
AcDbEntity
  8
0
  6
Continuous
 62
     7
370
    25
100
AcDbLine
 10
17.6483444564
 20
7.4803149606
 30
0.0
 11
17.6483444564
 21
7.4409448819
 31
0.0
  0
LINE
  5
43B
330
3C0
100
AcDbEntity
  8
0
  6
Continuous
 62
     7
370
    25
100
AcDbLine
 10
17.7362204724
 20
7.4803149606
 30
0.0
 11
17.7362204724
 21
7.5196850394
 31
0.0
  0
LINE
  5
43C
330
3C0
100
AcDbEntity
  8
0
  6
Continuous
 62
     7
370
    25
100
AcDbLine
 10
19.637822054
 20
6.6514724687
 30
0.0
 11
18.5254847765
 21
7.9527567714
 31
0.0
  0
LINE
  5
43D
330
3C0
100
AcDbEntity
  8
0
  6
Continuous
 62
     7
370
    25
100
AcDbLine
 10
16.9061722996
 20
7.951234882
 30
0.0
 11
15.7952426553
 21
6.6514706492
 31
0.0
  0
LINE
  5
43E
330
3C0
100
AcDbEntity
  8
0
  6
Continuous
 62
     7
370
    25
100
AcDbLine
 10
16.4350548234
 20
7.4000373799
 30
0.0
 11
16.2957045917
 21
7.8154886372
 31
0.0
  0
LINE
  5
43F
330
3C0
100
AcDbEntity
  8
0
  6
Continuous
 62
     7
370
    25
100
AcDbLine
 10
18.9996664912
 20
7.3980282422
 30
0.0
 11
19.13971762
 21
7.8208237123
 31
0.0
  0
LINE
  5
440
330
3C0
100
AcDbEntity
  8
0
  6
Continuous
 62
     8
370
    25
100
AcDbLine
 10
23.9969861681
 20
7.9645365174
 30
0.0
 11
23.9969861681
 21
7.9527567714
 31
0.0
  0
LINE
  5
441
330
3C0
100
AcDbEntity
  8
0
  6
Continuous
 62
     8
370
    25
100
AcDbLine
 10
19.6850393701
 20
6.0826771654
 30
0.0
 11
17.7755905512
 21
6.0826771654
 31
0.0
  0
LINE
  5
442
330
3C0
100
AcDbEntity
  8
0
  6
Continuous
 62
     8
370
    25
100
AcDbLine
 10
17.657480315
 20
6.0826771654
 30
0.0
 11
15.7480314961
 21
6.0826771654
 31
0.0
  0
ARC
  5
443
330
3C0
100
AcDbEntity
  8
0
  6
Continuous
 62
     7
370
    25
100
AcDbCircle
 10
23.9969861681
 20
7.9724418108
 30
0.0
 40
0.0196850393700798
100
AcDbArc
 50
270.0
 51
336.4299789676
  0
ARC
  5
444
330
3C0
100
AcDbEntity
  8
0
  6
Continuous
 62
     7
370
    25
100
AcDbCircle
 10
11.43793105
 20
11.870079606
 30
0.0
 40
0.0196850393700778
100
AcDbArc
 50
90.0
 51
180.0
  0
ARC
  5
445
330
3C0
100
AcDbEntity
  8
0
  6
Continuous
 62
     7
370
    25
100
AcDbCircle
 10
23.9969861681
 20
11.870079606
 30
0.0
 40
0.0196850393700831
100
AcDbArc
 50
0.0
 51
90.0
  0
ARC
  5
446
330
3C0
100
AcDbEntity
  8
0
  6
Continuous
 62
     7
370
    25
100
AcDbCircle
 10
17.7165354331
 20
7.4606299213
 30
0.0
 40
0.1938976377952777
100
AcDbArc
 50
0.0
 51
180.0
  0
ARC
  5
447
330
3C0
100
AcDbEntity
  8
0
  6
Continuous
 62
     7
370
    25
100
AcDbCircle
 10
17.7165354331
 20
7.4606299213
 30
0.0
 40
0.1190944881889777
100
AcDbArc
 50
0.0
 51
180.0
  0
ARC
  5
448
330
3C0
100
AcDbEntity
  8
0
  6
Continuous
 62
     7
370
    25
100
AcDbCircle
 10
19.4881889764
 20
6.5235661766
 30
0.0
 40
0.1968503937007641
100
AcDbArc
 50
0.0
 51
40.5238081494
  0
ARC
  5
449
330
3C0
100
AcDbEntity
  8
0
  6
Continuous
 62
     7
370
    25
100
AcDbCircle
 10
15.9448818898
 20
6.52357156
 30
0.0
 40
0.1968503937008403
100
AcDbArc
 50
139.4789498804
 51
180.0
  0
ARC
  5
44A
330
3C0
100
AcDbEntity
  8
0
  6
Continuous
 62
     7
370
    25
100
AcDbCircle
 10
16.1090730131
 20
7.7528888659
 30
0.0
 40
0.1968503937008722
100
AcDbArc
 50
18.5424296696
 51
90.1074808466
  0
ARC
  5
44B
330
3C0
100
AcDbEntity
  8
0
  6
Continuous
 62
     7
370
    25
100
AcDbCircle
 10
19.3265827457
 20
7.7589245823
 30
0.0
 40
0.1968503937008991
100
AcDbArc
 50
100.0461645829
 51
161.6725320237
  0
VIEWPORT
  5
501
330
3C0
100
AcDbEntity
  8
0
100
AcDbViewport
 10
0.0
 20
0.0
 30
0.0
 40
8.4
 41
6.4
 68
     1
 69
     1
 12
17.7159815275
 22
18.1102362205
 13
0.0
 23
0.0
 14
0.5
 24
0.5
 15
0.5
 25
0.5
 16
0.0
 26
0.0
 36
1.0
 17
0.0
 27
0.0
 37
0.0
 42
50.0
 43
0.0
 44
0.0
 45
60.3366141732
 50
0.0
 51
0.0
 72
   100
 90
   557152
  1

281
     0
 71
     1
 74
     0
110
0.0
120
0.0
130
0.0
111
1.0
121
0.0
131
0.0
112
0.0
122
1.0
132
0.0
 79
     0
146
0.0
  0
ENDBLK
  5
3C3
330
3C0
100
AcDbEntity
  8
0
100
AcDbBlockEnd
  0
BLOCK
  5
44E
330
44C
100
AcDbEntity
  8
0
100
AcDbBlockBegin
  2
*Paper_Space2
 70
     0
 10
0.0
 20
0.0
 30
0.0
  3
*Paper_Space2
  1

  0
LWPOLYLINE
  5
471
330
44C
100
AcDbEntity
  8
0
  6
Continuous
 62
     7
370
    25
100
AcDbPolyline
 90
       15
 70
   128
 43
0.0
 10
6.2410890175
 20
28.2595325467
 10
6.2488542516
 20
28.2190646644
 10
6.2720235177
 20
28.1806089076
 10
6.3094350122
 20
28.1460936084
 10
6.3592127665
 20
28.117249508
 10
6.4188607162
 20
28.0955229701
 10
6.4853878639
 20
28.082003454
 10
6.5554582607
 20
28.0773688848
 10
6.6255582843
 20
28.081851659
 10
6.6921728268
 20
28.0952269916
 10
6.751961557
 20
28.1168241877
 10
6.8019264181
 20
28.1455602735
 10
6.8395619635
 20
28.1799943019
 10
6.8629809897
 20
28.2183996068
 10
6.871009169
 20
28.2588503859
  0
LWPOLYLINE
  5
474
330
44C
100
AcDbEntity
  8
0
  6
Continuous
 62
     7
370
    25
100
AcDbPolyline
 90
       14
 70
   128
 43
0.0
 10
6.8119541548
 20
28.2589143384
 10
6.804403135
 20
28.2235680854
 10
6.782418681
 20
28.1902921337
 10
6.7472784493
 20
28.1610203608
 10
6.7010246626
 20
28.1374539357
 10
6.6463454228
 20
28.1209624534
 10
6.5864184885
 20
28.1125043389
 10
6.5247265953
 20
28.1125711471
 10
6.4648550519
 20
28.1211589952
 10
6.4102833747
 20
28.1377687889
 10
6.3641830712
 20
28.1614352271
 10
6.3292333235
 20
28.1907829027
 10
6.3074652839
 20
28.2241062354
 10
6.3001440317
 20
28.2594685941
  0
LWPOLYLINE
  5
475
330
44C
100
AcDbEntity
  8
0
  6
Continuous
 62
     7
370
    25
100
AcDbPolyline
 90
       14
 70
   128
 43
0.0
 10
6.3001440317
 20
28.2594685941
 10
6.3076950516
 20
28.2948148472
 10
6.3296795056
 20
28.3280907988
 10
6.3648197372
 20
28.3573625717
 10
6.4110735239
 20
28.3809289968
 10
6.4657527638
 20
28.3974204791
 10
6.5256796981
 20
28.4058785936
 10
6.5873715912
 20
28.4058117855
 10
6.6472431347
 20
28.3972239373
 10
6.7018148119
 20
28.3806141437
 10
6.7479151154
 20
28.3569477054
 10
6.7828648631
 20
28.3276000298
 10
6.8046329027
 20
28.2942766972
 10
6.8119541548
 20
28.2589143384
  0
LWPOLYLINE
  5
476
330
44C
100
AcDbEntity
  8
0
  6
Continuous
 62
     7
370
    25
100
AcDbPolyline
 90
       15
 70
   128
 43
0.0
 10
6.871009169
 20
28.2588503859
 10
6.863243935
 20
28.2993182681
 10
6.8400746688
 20
28.337774025
 10
6.8026631743
 20
28.3722893242
 10
6.75288542
 20
28.4011334246
 10
6.6932374704
 20
28.4228599625
 10
6.6267103227
 20
28.4363794785
 10
6.5566399259
 20
28.4410140478
 10
6.4865399023
 20
28.4365312736
 10
6.4199253597
 20
28.423155941
 10
6.3601366296
 20
28.4015587449
 10
6.3101717685
 20
28.372822659
 10
6.2725362231
 20
28.3383886306
 10
6.2491171968
 20
28.2999833257
 10
6.2410890175
 20
28.2595325467
  0
LWPOLYLINE
  5
478
330
44C
100
AcDbEntity
  8
0
  6
Continuous
 62
     7
370
    25
100
AcDbPolyline
 90
       25
 70
   128
 43
0.0
 10
10.4294044681
 20
8.9751706431
 10
10.5802427874
 20
8.8820533533
 10
10.7304351939
 20
8.7779090616
 10
10.8793385406
 20
8.6631837298
 10
11.0263152006
 20
8.5383686295
 10
11.1707357971
 20
8.403998238
 10
11.3119818991
 20
8.26064795
 10
11.449448669
 20
8.1089316134
 10
11.5825474531
 20
7.949498901
 10
11.7107083019
 20
7.7830325279
 10
11.8333824109
 20
7.6102453289
 10
11.9500444708
 20
7.4318772052
 10
12.0601949168
 20
7.2486919565
 10
12.1633620678
 20
7.0614740101
 10
12.2591041461
 20
6.8710250621
 10
12.3470111694
 20
6.6781606441
 10
12.4267067065
 20
6.4837066311
 10
12.4978494888
 20
6.2884957051
 10
12.5601348719
 20
6.0933637892
 10
12.6132961403
 20
5.8991464683
 10
12.6571056493
 20
5.7066754107
 10
12.6913757999
 20
5.516774807
 10
12.7159598419
 20
5.3302578408
 10
12.7307525028
 20
5.1479232064
 10
12.7356904381
 20
4.9705516886
  0
LWPOLYLINE
  5
47A
330
44C
100
AcDbEntity
  8
0
  6
Continuous
 62
     7
370
    25
100
AcDbPolyline
 90
       25
 70
   128
 43
0.0
 10
11.5450454037
 20
9.6168046436
 10
11.695883723
 20
9.5236873538
 10
11.8460761295
 20
9.4195430621
 10
11.9949794762
 20
9.3048177303
 10
12.1419561362
 20
9.18000263
 10
12.2863767327
 20
9.0456322385
 10
12.4276228347
 20
8.9022819505
 10
12.5650896046
 20
8.7505656139
 10
12.6981883887
 20
8.5911329015
 10
12.8263492374
 20
8.4246665284
 10
12.9490233465
 20
8.2518793294
 10
13.0656854064
 20
8.0735112057
 10
13.1758358524
 20
7.890325957
 10
13.2790030034
 20
7.7031080106
 10
13.3747450816
 20
7.5126590626
 10
13.462652105
 20
7.3197946446
 10
13.5423476421
 20
7.1253406316
 10
13.6134904244
 20
6.9301297056
 10
13.6757758075
 20
6.7349977897
 10
13.7289370759
 20
6.5407804688
 10
13.7727465849
 20
6.3483094112
 10
13.8070167355
 20
6.1584088075
 10
13.8316007775
 20
5.9718918413
 10
13.8463934384
 20
5.7895572069
 10
13.8513313737
 20
5.6121856891
  0
LWPOLYLINE
  5
47C
330
44C
100
AcDbEntity
  8
0
  6
Continuous
 62
     7
370
    25
100
AcDbPolyline
 90
       25
 70
   128
 43
0.0
 10
-1.157598538
 20
-13.789704004
 10
-1.1526606027
 20
-13.9670755218
 10
-1.1378679418
 20
-14.1494101562
 10
-1.1132838997
 20
-14.3359271224
 10
-1.0790137492
 20
-14.5258277261
 10
-1.0352042402
 20
-14.7182987837
 10
-0.9820429718
 20
-14.9125161046
 10
-0.9197575886
 20
-15.1076480205
 10
-0.8486148064
 20
-15.3028589466
 10
-0.7689192693
 20
-15.4973129595
 10
-0.6810122459
 20
-15.6901773775
 10
-0.5852701676
 20
-15.8806263255
 10
-0.4821030167
 20
-16.0678442719
 10
-0.3719525707
 20
-16.2510295206
 10
-0.2552905108
 20
-16.4293976443
 10
-0.1326164017
 20
-16.6021848434
 10
-0.0044555529
 20
-16.7686512164
 10
0.1286432311
 20
-16.9280839288
 10
0.266110001
 20
-17.0798002654
 10
0.407356103
 20
-17.2231505534
 10
0.5517766996
 20
-17.3575209449
 10
0.6987533595
 20
-17.4823360452
 10
0.8476567062
 20
-17.597061377
 10
0.9978491127
 20
-17.7012056687
 10
1.1486874321
 20
-17.7943229586
  0
LWPOLYLINE
  5
47E
330
44C
100
AcDbEntity
  8
0
  6
Continuous
 62
     7
370
    25
100
AcDbPolyline
 90
       25
 70
   128
 43
0.0
 10
1.1486874321
 20
14.3529530999
 10
0.9978491127
 20
14.4346446453
 10
0.8476567062
 20
14.5045606306
 10
0.6987533595
 20
14.5624016647
 10
0.5517766996
 20
14.6079200634
 10
0.407356103
 20
14.64092091
 10
0.266110001
 20
14.6612628899
 10
0.1286432311
 20
14.6688588954
 10
-0.0044555529
 20
14.6636763994
 10
-0.1326164017
 20
14.6457375941
 10
-0.2552905108
 20
14.6151192963
 10
-0.3719525707
 20
14.5719526181
 10
-0.4821030167
 20
14.5164224059
 10
-0.5852701676
 20
14.4487664486
 10
-0.6810122459
 20
14.3692744594
 10
-0.7689192693
 20
14.2782868353
 10
-0.8486148064
 20
14.1761931991
 10
-0.9197575886
 20
14.0634307315
 10
-0.9820429718
 20
13.9404822987
 10
-1.0352042402
 20
13.8078743848
 10
-1.0790137492
 20
13.6661748372
 10
-1.1132838997
 20
13.5159904351
 10
-1.1378679418
 20
13.3579642912
 10
-1.1526606027
 20
13.1927730978
 10
-1.157598538
 20
13.0211242288
  0
LWPOLYLINE
  5
481
330
44C
100
AcDbEntity
  8
0
  6
Continuous
 62
     7
370
    25
100
AcDbPolyline
 90
       25
 70
   128
 43
0.0
 10
12.7356904381
 20
-21.8402765442
 10
12.7307525028
 20
-22.0119254132
 10
12.7159598419
 20
-22.1771166067
 10
12.6913757999
 20
-22.3351427505
 10
12.6571056493
 20
-22.4853271526
 10
12.6132961403
 20
-22.6270267002
 10
12.5601348719
 20
-22.7596346141
 10
12.4978494888
 20
-22.8825830469
 10
12.4267067065
 20
-22.9953455145
 10
12.3470111694
 20
-23.0974391507
 10
12.2591041461
 20
-23.1884267749
 10
12.1633620678
 20
-23.267918764
 10
12.0601949168
 20
-23.3355747213
 10
11.9500444708
 20
-23.3911049335
 10
11.8333824109
 20
-23.4342716117
 10
11.7107083019
 20
-23.4648899096
 10
11.5825474531
 20
-23.4828287149
 10
11.449448669
 20
-23.4880112108
 10
11.3119818991
 20
-23.4804152053
 10
11.1707357971
 20
-23.4600732255
 10
11.0263152006
 20
-23.4270723788
 10
10.8793385406
 20
-23.3815539801
 10
10.7304351939
 20
-23.323712946
 10
10.5802427874
 20
-23.2537969608
 10
10.4294044681
 20
-23.1721054154
  0
LWPOLYLINE
  5
484
330
44C
100
AcDbEntity
  8
0
  6
Continuous
 62
     7
370
    25
100
AcDbPolyline
 90
       24
 70
   128
 43
0.0
 10
12.6523307043
 20
-21.7919731089
 10
12.6471485501
 20
-21.9644748862
 10
12.6316262493
 20
-22.1301667029
 10
12.605836174
 20
-22.2882760272
 10
12.5698985694
 20
-22.4380656806
 10
12.5239809932
 20
-22.5788372745
 10
12.4682975343
 20
-22.7099344667
 10
12.4031078148
 20
-22.8307460216
 10
12.3287157791
 20
-22.9407086601
 10
12.2454682774
 20
-23.0393096854
 10
12.1537534479
 20
-23.1260893741
 10
12.0539989074
 20
-23.2006431193
 10
11.9466697577
 20
-23.262623317
 10
11.8322664169
 20
-23.3117409868
 10
11.711322286
 20
-23.3477671196
 10
11.5844012625
 20
-23.3705337448
 10
11.4520951108
 20
-23.379934714
 10
11.3150207032
 20
-23.3759261954
 10
11.1738171439
 20
-23.3585268787
 10
11.0291427891
 20
-23.3278178875
 10
10.8816721774
 20
-23.2839424013
 10
10.7320928848
 20
-23.2271049878
 10
10.5811023192
 20
-23.1575706494
 10
10.4294044681
 20
-23.0756635872
  0
LWPOLYLINE
  5
486
330
44C
100
AcDbEntity
  8
0
  6
Continuous
 62
     7
370
    25
100
AcDbPolyline
 90
       24
 70
   128
 43
0.0
 10
10.4294044681
 20
8.878728815
 10
10.5811023192
 20
8.7848309175
 10
10.7320928848
 20
8.6793799801
 10
10.8816721774
 20
8.5628676637
 10
11.0291427891
 20
8.4358372025
 10
11.1738171439
 20
8.2988808713
 10
11.3150207032
 20
8.1526372235
 10
11.4520951108
 20
7.9977881147
 10
11.5844012625
 20
7.8350555228
 10
11.711322286
 20
7.6651981823
 10
11.8322664169
 20
7.4890080466
 10
11.9466697577
 20
7.3073065953
 10
12.0539989074
 20
7.1209410046
 10
12.1537534479
 20
6.9307801968
 10
12.2454682774
 20
6.7377107894
 10
12.3287157791
 20
6.5426329611
 10
12.4031078148
 20
6.3464562548
 10
12.4682975343
 20
6.1500953369
 10
12.5239809932
 20
5.9544657325
 10
12.5698985694
 20
5.7604795573
 10
12.605836174
 20
5.5690412643
 10
12.6316262493
 20
5.3810434273
 10
12.6471485501
 20
5.1973625788
 10
12.6523307043
 20
5.0188551239
  0
LWPOLYLINE
  5
488
330
44C
100
AcDbEntity
  8
0
  6
Continuous
 62
     7
370
    25
100
AcDbPolyline
 90
       24
 70
   128
 43
0.0
 10
1.1486874321
 20
14.2565112718
 10
0.996989581
 20
14.338418334
 10
0.8459990153
 20
14.4079526724
 10
0.6964197227
 20
14.4647900859
 10
0.548949111
 20
14.5086655721
 10
0.4042747562
 20
14.5393745633
 10
0.2630711969
 20
14.55677388
 10
0.1259967893
 20
14.5607823985
 10
-0.0063093624
 20
14.5513814294
 10
-0.1332303858
 20
14.5286148042
 10
-0.2541745167
 20
14.4925886714
 10
-0.3685778576
 20
14.4434710016
 10
-0.4759070073
 20
14.3814908039
 10
-0.5756615477
 20
14.3069370587
 10
-0.6673763773
 20
14.22015737
 10
-0.750623879
 20
14.1215563446
 10
-0.8250159146
 20
14.0115937062
 10
-0.8902056342
 20
13.8907821513
 10
-0.945889093
 20
13.759684959
 10
-0.9918066692
 20
13.6189133652
 10
-1.0277442739
 20
13.4691237118
 10
-1.0535343492
 20
13.3110143875
 10
-1.06905665
 20
13.1453225708
 10
-1.0742388041
 20
12.9728207935
  0
LWPOLYLINE
  5
48A
330
44C
100
AcDbEntity
  8
0
  6
Continuous
 62
     7
370
    25
100
AcDbPolyline
 90
       24
 70
   128
 43
0.0
 10
-1.0742388041
 20
-13.8380074393
 10
-1.06905665
 20
-14.0165148942
 10
-1.0535343492
 20
-14.2001957427
 10
-1.0277442739
 20
-14.3881935798
 10
-0.9918066692
 20
-14.5796318728
 10
-0.945889093
 20
-14.773618048
 10
-0.8902056342
 20
-14.9692476523
 10
-0.8250159146
 20
-15.1656085702
 10
-0.750623879
 20
-15.3617852765
 10
-0.6673763773
 20
-15.5568631048
 10
-0.5756615477
 20
-15.7499325122
 10
-0.4759070073
 20
-15.94009332
 10
-0.3685778576
 20
-16.1264589107
 10
-0.2541745167
 20
-16.308160362
 10
-0.1332303858
 20
-16.4843504978
 10
-0.0063093624
 20
-16.6542078382
 10
0.1259967893
 20
-16.8169404301
 10
0.2630711969
 20
-16.971789539
 10
0.4042747562
 20
-17.1180331867
 10
0.548949111
 20
-17.254989518
 10
0.6964197227
 20
-17.3820199791
 10
0.8459990153
 20
-17.4985322955
 10
0.996989581
 20
-17.6039832329
 10
1.1486874321
 20
-17.6978811304
  0
LWPOLYLINE
  5
48C
330
44C
100
AcDbEntity
  8
0
  6
Continuous
 62
     7
370
    25
100
AcDbPolyline
 90
       17
 70
   128
 43
0.0
 10
10.6804236784
 20
-21.2917848609
 10
10.8321215295
 20
-21.3736919231
 10
10.9831120952
 20
-21.4432262615
 10
11.1326913877
 20
-21.500063675
 10
11.2801619994
 20
-21.5439391612
 10
11.4248363542
 20
-21.5746481524
 10
11.5660399135
 20
-21.5920474691
 10
11.7031143211
 20
-21.5960559877
 10
11.8354204728
 20
-21.5866550185
 10
11.9623414963
 20
-21.5638883933
 10
12.0832856272
 20
-21.5278622605
 10
12.197688968
 20
-21.4787445907
 10
12.3050181177
 20
-21.416764393
 10
12.4047726582
 20
-21.3422106478
 10
12.4964874877
 20
-21.2554309591
 10
12.5797349895
 20
-21.1568299338
 10
12.6523307043
 20
-21.0498286059
  0
LWPOLYLINE
  5
48E
330
44C
100
AcDbEntity
  8
0
  6
Continuous
 62
     7
370
    25
100
AcDbPolyline
 90
       24
 70
   128
 43
0.0
 10
-0.820440936
 20
-12.0557388275
 10
-0.8152587819
 20
-12.2342462824
 10
-0.7997364811
 20
-12.4179271309
 10
-0.7739464058
 20
-12.605924968
 10
-0.7380088011
 20
-12.797363261
 10
-0.6920912249
 20
-12.9913494362
 10
-0.6364077661
 20
-13.1869790405
 10
-0.5712180465
 20
-13.3833399584
 10
-0.4968260109
 20
-13.5795166647
 10
-0.4135785092
 20
-13.774594493
 10
-0.3218636796
 20
-13.9676639004
 10
-0.2221091392
 20
-14.1578247082
 10
-0.1147799895
 20
-14.344190299
 10
-0.0003766486
 20
-14.5258917502
 10
0.1205674823
 20
-14.702081886
 10
0.2474885057
 20
-14.8719392264
 10
0.3797946575
 20
-15.0346718183
 10
0.516869065
 20
-15.1895209272
 10
0.6580726243
 20
-15.3357645749
 10
0.8027469791
 20
-15.4727209062
 10
0.9502175909
 20
-15.5997513673
 10
1.0997968834
 20
-15.7162636837
 10
1.2507874491
 20
-15.8217146211
 10
1.4024853002
 20
-15.9156125186
  0
LWPOLYLINE
  5
490
330
44C
100
AcDbEntity
  8
0
  6
Continuous
 62
     7
370
    25
100
AcDbPolyline
 90
       12
 70
   128
 43
0.0
 10
-0.2809440189
 20
14.4824993561
 10
-0.3218636796
 20
14.4496945915
 10
-0.4135785092
 20
14.3629149028
 10
-0.4968260109
 20
14.2643138774
 10
-0.5712180465
 20
14.154351239
 10
-0.6364077661
 20
14.0335396841
 10
-0.6920912249
 20
13.9024424918
 10
-0.7380088011
 20
13.761670898
 10
-0.7739464058
 20
13.6118812446
 10
-0.7997364811
 20
13.4537719203
 10
-0.8152587819
 20
13.2880801036
 10
-0.820440936
 20
13.1155783263
  0
LWPOLYLINE
  5
493
330
44C
100
AcDbEntity
  8
0
  6
Continuous
 62
     7
370
    25
100
AcDbPolyline
 90
       16
 70
   128
 43
0.0
 10
6.8906941738
 20
12.104822849
 10
6.8832508573
 20
12.0646650378
 10
6.8615072536
 20
12.0262781543
 10
6.8264136626
 20
11.9913398893
 10
6.7795038426
 20
11.9613772128
 10
6.7228279777
 20
11.9376996374
 10
6.6588630753
 20
11.9213419869
 10
6.5904047086
 20
11.9130191689
 10
6.5204448366
 20
11.9130949307
 10
6.4520410414
 20
11.9215659611
 10
6.3881828972
 20
11.9380620354
 10
6.3316613113
 20
11.9618621959
 10
6.2849465482
 20
11.9919262615
 10
6.2500802672
 20
12.0269402883
 10
6.2285862921
 20
12.0653739952
 10
6.2214040128
 20
12.1055476448
  0
LWPOLYLINE
  5
494
330
44C
100
AcDbEntity
  8
0
  6
Continuous
 62
     7
370
    25
100
AcDbPolyline
 90
        3
 70
   128
 43
0.0
 10
6.2214040128
 20
12.1055476448
 10
6.2288473293
 20
12.1457054559
 10
6.2410890175
 20
12.1704669534
  0
LWPOLYLINE
  5
495
330
44C
100
AcDbEntity
  8
0
  6
Continuous
 62
     7
370
    25
100
AcDbPolyline
 90
        3
 70
   128
 43
0.0
 10
6.871009169
 20
12.1704669534
 10
6.8835118944
 20
12.1449964986
 10
6.8906941738
 20
12.104822849
  0
LWPOLYLINE
  5
499
330
44C
100
AcDbEntity
  8
0
  6
Continuous
 62
     7
370
    25
100
AcDbPolyline
 90
       13
 70
   128
 43
0.0
 10
2.2643283676
 20
14.9945871005
 10
2.1134900483
 20
15.0762786458
 10
1.9632976418
 20
15.1461946311
 10
1.8143942951
 20
15.2040356652
 10
1.6674176352
 20
15.2495540639
 10
1.5229970386
 20
15.2825549105
 10
1.3817509366
 20
15.3028968904
 10
1.2442841667
 20
15.3104928959
 10
1.1111853826
 20
15.3053103999
 10
0.9830245339
 20
15.2873715947
 10
0.8603504248
 20
15.2567532968
 10
0.7436883649
 20
15.2135866186
 10
0.635198016
 20
15.1590131224
  0
LWPOLYLINE
  5
49B
330
44C
100
AcDbEntity
  8
0
  6
Continuous
 62
     7
370
    25
100
AcDbPolyline
 90
       14
 70
   128
 43
0.0
 10
13.8513313737
 20
-21.1986425437
 10
13.8463934384
 20
-21.3702914127
 10
13.8316007775
 20
-21.5354826062
 10
13.8070167355
 20
-21.69350875
 10
13.7727465849
 20
-21.8436931521
 10
13.7289370759
 20
-21.9853926997
 10
13.6757758075
 20
-22.1180006136
 10
13.6134904244
 20
-22.2409490464
 10
13.5423476421
 20
-22.353711514
 10
13.462652105
 20
-22.4558051502
 10
13.3747450816
 20
-22.5467927744
 10
13.2790030034
 20
-22.6262847635
 10
13.1758358524
 20
-22.6939407208
 10
13.1741757553
 20
-22.6948974368
  0
LWPOLYLINE
  5
4A2
330
44C
100
AcDbEntity
  8
0
  6
Continuous
 62
     7
370
    25
100
AcDbPolyline
 90
       13
 70
   128
 43
0.0
 10
0.6633928791
 20
-15.3410261961
 10
0.747063078
 20
-15.4848249102
 10
0.8614664189
 20
-15.6665263615
 10
0.9824105497
 20
-15.8427164973
 10
1.1093315732
 20
-16.0125738377
 10
1.2416377249
 20
-16.1753064296
 10
1.3787121325
 20
-16.3301555384
 10
1.5199156918
 20
-16.4763991862
 10
1.6645900466
 20
-16.6133555175
 10
1.8120606583
 20
-16.7403859786
 10
1.9616399509
 20
-16.856898295
 10
2.1126305166
 20
-16.9623492324
 10
2.2643283676
 20
-17.0562471299
  0
LINE
  5
4B2
330
44C
100
AcDbEntity
  8
0
  6
Continuous
 62
     7
370
    25
100
AcDbLine
 10
8.5848595846
 20
-23.9085086144
 30
0.0
 11
11.3409057003
 21
-22.3174770579
 31
0.0
  0
LINE
  5
4B3
330
44C
100
AcDbEntity
  8
0
  6
Continuous
 62
     7
370
    25
100
AcDbLine
 10
-0.3154168943
 20
-18.7818513768
 30
0.0
 11
8.565176145
 21
-23.9085086144
 31
0.0
  0
LINE
  5
4B4
330
44C
100
AcDbEntity
  8
0
  6
Continuous
 62
     7
370
    25
100
AcDbLine
 10
11.3507490199
 20
-22.300428852
 30
0.0
 11
11.3507490199
 21
-22.2361342999
 31
0.0
  0
LINE
  5
4B5
330
44C
100
AcDbEntity
  8
0
  6
Continuous
 62
     7
370
    25
100
AcDbLine
 10
11.3409057003
 20
-22.2190860939
 30
0.0
 11
2.460312661
 21
-17.0924288563
 31
0.0
  0
LINE
  5
4B6
330
44C
100
AcDbEntity
  8
0
  6
Continuous
 62
     7
370
    25
100
AcDbLine
 10
-0.3252602138
 20
-18.7005086187
 30
0.0
 11
-0.3252602138
 21
-18.7648031708
 31
0.0
  0
LINE
  5
4B7
330
44C
100
AcDbEntity
  8
0
  6
Continuous
 62
     7
370
    25
100
AcDbLine
 10
2.4406292214
 20
-17.0924288563
 30
0.0
 11
-0.3154168943
 21
-18.6834604128
 31
0.0
  0
LINE
  5
4B8
330
44C
100
AcDbEntity
  8
0
  6
Continuous
 62
     7
370
    25
100
AcDbLine
 10
0.635198016
 20
15.1590131224
 30
0.0
 11
-0.4804429196
 21
14.5173791219
 31
0.0
  0
LINE
  5
4B9
330
44C
100
AcDbEntity
  8
0
  6
Continuous
 62
     7
370
    25
100
AcDbLine
 10
12.2506698009
 20
-21.4502677707
 30
0.0
 11
12.418015941
 21
-21.3540226707
 31
0.0
  0
LINE
  5
4BA
330
44C
100
AcDbEntity
  8
0
  6
Continuous
 62
     7
370
    25
100
AcDbLine
 10
12.0585348197
 20
-23.3365314373
 30
0.0
 11
13.1741757553
 21
-22.6948974368
 31
0.0
  0
LINE
  5
4BB
330
44C
100
AcDbEntity
  8
0
  6
Continuous
 62
     7
370
    25
100
AcDbLine
 10
8.5889372897
 20
-23.8352013693
 30
0.0
 11
8.5889372897
 21
-23.8994959214
 31
0.0
  0
LINE
  5
4BC
330
44C
100
AcDbEntity
  8
0
  6
Continuous
 62
     7
370
    25
100
AcDbLine
 10
8.56109844
 20
-23.8994959214
 30
0.0
 11
8.56109844
 21
-23.8352013693
 31
0.0
  0
LINE
  5
4BD
330
44C
100
AcDbEntity
  8
0
  6
Continuous
 62
     7
370
    25
100
AcDbLine
 10
11.3449834053
 20
-22.2441698128
 30
0.0
 11
8.5889372897
 21
-23.8352013693
 31
0.0
  0
LINE
  5
4BE
330
44C
100
AcDbEntity
  8
0
  6
Continuous
 62
     7
370
    25
100
AcDbLine
 10
8.5750178648
 20
-23.8110922183
 30
0.0
 11
11.3310639805
 21
-22.2200606618
 31
0.0
  0
LINE
  5
4BF
330
44C
100
AcDbEntity
  8
0
  6
Continuous
 62
     7
370
    25
100
AcDbLine
 10
-0.3055751745
 20
-18.6844349807
 30
0.0
 11
8.5750178648
 21
-23.8110922183
 31
0.0
  0
LINE
  5
4C0
330
44C
100
AcDbEntity
  8
0
  6
Continuous
 62
     7
370
    25
100
AcDbLine
 10
8.56109844
 20
-23.8352013693
 30
0.0
 11
-0.3194945993
 21
-18.7085441316
 31
0.0
  0
LINE
  5
4C1
330
44C
100
AcDbEntity
  8
0
  6
Continuous
 62
     7
370
    25
100
AcDbLine
 10
11.3449834053
 20
-22.3084643649
 30
0.0
 11
11.3449834053
 21
-22.2441698128
 31
0.0
  0
LINE
  5
4C2
330
44C
100
AcDbEntity
  8
0
  6
Continuous
 62
     7
370
    25
100
AcDbLine
 10
8.5889372897
 20
-23.8994959214
 30
0.0
 11
11.3449834053
 21
-22.3084643649
 31
0.0
  0
LINE
  5
4C3
330
44C
100
AcDbEntity
  8
0
  6
Continuous
 62
     7
370
    25
100
AcDbLine
 10
-0.3194945993
 20
-18.7728386838
 30
0.0
 11
8.56109844
 21
-23.8994959214
 31
0.0
  0
LINE
  5
4C4
330
44C
100
AcDbEntity
  8
0
  6
Continuous
 62
     7
370
    25
100
AcDbLine
 10
-0.3194945993
 20
-18.7085441316
 30
0.0
 11
-0.3194945993
 21
-18.7728386838
 31
0.0
  0
LINE
  5
4C5
330
44C
100
AcDbEntity
  8
0
  6
Continuous
 62
     7
370
    25
100
AcDbLine
 10
2.4504709412
 20
-17.0934034242
 30
0.0
 11
-0.3055751745
 21
-18.6844349807
 31
0.0
  0
LINE
  5
4C6
330
44C
100
AcDbEntity
  8
0
  6
Continuous
 62
     7
370
    25
100
AcDbLine
 10
11.3310639805
 20
-22.2200606618
 30
0.0
 11
2.4504709412
 21
-17.0934034242
 31
0.0
  0
LINE
  5
4C7
330
44C
100
AcDbEntity
  8
0
  6
Continuous
 62
     7
370
    25
100
AcDbLine
 10
6.871009169
 20
28.2588503859
 30
0.0
 11
6.871009169
 21
12.0399035404
 31
0.0
  0
LINE
  5
4C8
330
44C
100
AcDbEntity
  8
0
  6
Continuous
 62
     7
370
    25
100
AcDbLine
 10
6.2410890175
 20
12.0399035404
 30
0.0
 11
6.2410890175
 21
28.2595325467
 31
0.0
  0
LINE
  5
4C9
330
44C
100
AcDbEntity
  8
0
  6
Continuous
 62
     7
370
    25
100
AcDbLine
 10
12.7356904381
 20
4.9705516886
 30
0.0
 11
13.8513313737
 21
5.6121856891
 31
0.0
  0
LINE
  5
4CA
330
44C
100
AcDbEntity
  8
0
  6
Continuous
 62
     7
370
    25
100
AcDbLine
 10
10.4294044681
 20
8.9751706431
 30
0.0
 11
11.5450454037
 21
9.6168046436
 31
0.0
  0
LINE
  5
4CB
330
44C
100
AcDbEntity
  8
0
  6
Continuous
 62
     7
370
    25
100
AcDbLine
 10
1.1866629615
 20
-17.8163281695
 30
0.0
 11
1.1486874321
 21
-17.7943229586
 31
0.0
  0
LINE
  5
4CC
330
44C
100
AcDbEntity
  8
0
  6
Continuous
 62
     7
370
    25
100
AcDbLine
 10
-1.157598538
 20
13.0211242288
 30
0.0
 11
-1.157598538
 21
-13.789704004
 31
0.0
  0
LINE
  5
4CD
330
44C
100
AcDbEntity
  8
0
  6
Continuous
 62
     7
370
    25
100
AcDbLine
 10
1.1486874321
 20
14.3529530999
 30
0.0
 11
10.4294044681
 21
8.9751706431
 31
0.0
  0
LINE
  5
4CE
330
44C
100
AcDbEntity
  8
0
  6
Continuous
 62
     7
370
    25
100
AcDbLine
 10
12.7356904381
 20
4.9705516886
 30
0.0
 11
12.7356904381
 21
-21.8402765442
 31
0.0
  0
LINE
  5
4CF
330
44C
100
AcDbEntity
  8
0
  6
Continuous
 62
     7
370
    25
100
AcDbLine
 10
10.4294044681
 20
-23.1721054154
 30
0.0
 11
10.1454783779
 21
-23.0075825618
 31
0.0
  0
LINE
  5
4D0
330
44C
100
AcDbEntity
  8
0
  6
Continuous
 62
     7
370
    25
100
AcDbLine
 10
10.4294044681
 20
-23.0756635872
 30
0.0
 11
10.2288520591
 21
-22.9594519602
 31
0.0
  0
LINE
  5
4D1
330
44C
100
AcDbEntity
  8
0
  6
Continuous
 62
     7
370
    25
100
AcDbLine
 10
12.6523307043
 20
5.0188551239
 30
0.0
 11
12.6523307043
 21
-21.7919731089
 31
0.0
  0
LINE
  5
4D2
330
44C
100
AcDbEntity
  8
0
  6
Continuous
 62
     7
370
    25
100
AcDbLine
 10
1.1486874321
 20
14.2565112718
 30
0.0
 11
10.4294044681
 21
8.878728815
 31
0.0
  0
LINE
  5
4D3
330
44C
100
AcDbEntity
  8
0
  6
Continuous
 62
     7
370
    25
100
AcDbLine
 10
-1.0742388041
 20
12.9728207935
 30
0.0
 11
-1.0742388041
 21
-13.8380074393
 31
0.0
  0
LINE
  5
4D4
330
44C
100
AcDbEntity
  8
0
  6
Continuous
 62
     7
370
    25
100
AcDbLine
 10
1.2700363914
 20
-17.7681977128
 30
0.0
 11
1.1486874321
 21
-17.6978811304
 31
0.0
  0
LINE
  5
4D5
330
44C
100
AcDbEntity
  8
0
  6
Continuous
 62
     7
370
    25
100
AcDbLine
 10
1.4024853002
 20
-15.9156125186
 30
0.0
 11
10.6804236784
 21
-21.2917848609
 31
0.0
  0
LINE
  5
4D6
330
44C
100
AcDbEntity
  8
0
  6
Continuous
 62
     7
370
    25
100
AcDbLine
 10
-0.820440936
 20
13.1155783263
 30
0.0
 11
-0.820440936
 21
-12.0557388275
 31
0.0
  0
LINE
  5
4D7
330
44C
100
AcDbEntity
  8
0
  6
Continuous
 62
     7
370
    25
100
AcDbLine
 10
12.7356904381
 20
-21.8402765442
 30
0.0
 11
13.8513313737
 21
-21.1986425437
 31
0.0
  0
LINE
  5
4D8
330
44C
100
AcDbEntity
  8
0
  6
Continuous
 62
     7
370
    25
100
AcDbLine
 10
13.8513313737
 20
5.6121856891
 30
0.0
 11
13.8513313737
 21
-21.1986425437
 31
0.0
  0
LINE
  5
4D9
330
44C
100
AcDbEntity
  8
0
  6
Continuous
 62
     7
370
    25
100
AcDbLine
 10
1.1486874321
 20
14.3529530999
 30
0.0
 11
2.2643283676
 21
14.9945871005
 31
0.0
  0
LINE
  5
4DA
330
44C
100
AcDbEntity
  8
0
  6
Continuous
 62
     7
370
    25
100
AcDbLine
 10
11.5450454037
 20
9.6168046436
 30
0.0
 11
6.871009169
 21
12.3252106825
 31
0.0
  0
LINE
  5
4DB
330
44C
100
AcDbEntity
  8
0
  6
Continuous
 62
     7
370
    25
100
AcDbLine
 10
6.2410890175
 20
12.6902227313
 30
0.0
 11
2.2643283676
 21
14.9945871005
 31
0.0
  0
LINE
  5
4DC
330
44C
100
AcDbEntity
  8
0
  6
Continuous
 62
     7
370
    25
100
AcDbLine
 10
10.4294044681
 20
-23.0756635872
 30
0.0
 11
11.5450454037
 21
-22.4340295867
 31
0.0
  0
LINE
  5
4DD
330
44C
100
AcDbEntity
  8
0
  6
Continuous
 62
     7
370
    25
100
AcDbLine
 10
1.1486874321
 20
-17.6978811304
 30
0.0
 11
2.2643283676
 21
-17.0562471299
 31
0.0
  0
LINE
  5
4DE
330
44C
100
AcDbEntity
  8
0
  6
Continuous
 62
     7
370
    25
100
AcDbLine
 10
2.2643283676
 20
-17.0562471299
 30
0.0
 11
2.3835923368
 21
-17.1253555488
 31
0.0
  0
LINE
  5
4DF
330
44C
100
AcDbEntity
  8
0
  6
Continuous
 62
     7
370
    25
100
AcDbLine
 10
11.342335222
 20
-22.3165676218
 30
0.0
 11
11.5450454037
 21
-22.4340295867
 31
0.0
  0
LINE
  5
4E0
330
44C
100
AcDbEntity
  8
0
  6
Continuous
 62
     8
370
    25
100
AcDbLine
 10
10.145612305
 20
-23.0075052473
 30
0.0
 11
10.145612305
 21
-23.0076598763
 31
0.0
  0
LINE
  5
4E1
330
44C
100
AcDbEntity
  8
0
  6
Continuous
 62
     8
370
    25
100
AcDbLine
 10
-1.0742388041
 20
12.9728207935
 30
0.0
 11
-0.8204392042
 21
13.1187875176
 31
0.0
  0
LINE
  5
4E2
330
44C
100
AcDbEntity
  8
0
  6
Continuous
 62
     8
370
    25
100
AcDbLine
 10
-1.0742388041
 20
-13.8380074393
 30
0.0
 11
-0.520545866
 21
-13.5195642882
 31
0.0
  0
ARC
  5
4E3
330
44C
100
AcDbEntity
  8
0
  6
Continuous
 62
     7
370
    25
100
AcDbCircle
 10
8.5750178648
 20
-23.8914604085
 30
0.0
 40
0.0196850393700652
100
AcDbArc
 50
240.0026882663
 51
299.9973117337
  0
ARC
  5
4E4
330
44C
100
AcDbEntity
  8
0
  6
Continuous
 62
     7
370
    25
100
AcDbCircle
 10
11.3310639805
 20
-22.2361342999
 30
0.0
 40
0.0196850393700992
100
AcDbArc
 50
360.0
 51
60.0026882663
  0
ARC
  5
4E5
330
44C
100
AcDbEntity
  8
0
  6
Continuous
 62
     7
370
    25
100
AcDbCircle
 10
11.3310639805
 20
-22.300428852
 30
0.0
 40
0.0196850393701098
100
AcDbArc
 50
299.9973117337
 51
360.0
  0
ARC
  5
4E6
330
44C
100
AcDbEntity
  8
0
  6
Continuous
 62
     7
370
    25
100
AcDbCircle
 10
-0.3055751745
 20
-18.7005086187
 30
0.0
 40
0.0196850393700668
100
AcDbArc
 50
119.9973117336
 51
180.0
  0
ARC
  5
4E7
330
44C
100
AcDbEntity
  8
0
  6
Continuous
 62
     7
370
    25
100
AcDbCircle
 10
-0.3055751745
 20
-18.7648031708
 30
0.0
 40
0.019685039370084
100
AcDbArc
 50
180.0
 51
240.0026882663
  0
ARC
  5
4E8
330
44C
100
AcDbEntity
  8
0
  6
Continuous
 62
     7
370
    25
100
AcDbCircle
 10
2.4504709412
 20
-17.1094770622
 30
0.0
 40
0.0196850393700901
100
AcDbArc
 50
60.0026882664
 51
119.9973117336
  0
ARC
  5
4E9
330
44C
100
AcDbEntity
  8
0
  6
Continuous
 62
     7
370
    25
100
AcDbCircle
 10
8.5750178648
 20
-23.8083369778
 30
0.0
 40
0.0302563367698942
100
AcDbArc
 50
242.6096722366
 51
297.3903277634
  0
ARC
  5
4EA
330
44C
100
AcDbEntity
  8
0
  6
Continuous
 62
     7
370
    25
100
AcDbCircle
 10
8.5913192294
 20
-23.8365765829
 30
0.0
 40
0.030252063141196
100
AcDbArc
 50
122.60547834
 51
177.3945215143
  0
ARC
  5
4EB
330
44C
100
AcDbEntity
  8
0
  6
Continuous
 62
     7
370
    25
100
AcDbCircle
 10
8.5587165003
 20
-23.8365765829
 30
0.0
 40
0.030252063141209
100
AcDbArc
 50
2.6054784857
 51
57.3945216599
  0
ARC
  5
4EC
330
44C
100
AcDbEntity
  8
0
  6
Continuous
 62
     7
370
    25
100
AcDbCircle
 10
8.5750178648
 20
-23.8726315299
 30
0.0
 40
0.0302563367698989
100
AcDbArc
 50
242.6096722366
 51
297.3903277634
  0
ARC
  5
4ED
330
44C
100
AcDbEntity
  8
0
  6
Continuous
 62
     7
370
    25
100
AcDbCircle
 10
11.3147626159
 20
-22.2455450264
 30
0.0
 40
0.0302520631411782
100
AcDbArc
 50
2.6054784857
 51
57.39452166
  0
ARC
  5
4EE
330
44C
100
AcDbEntity
  8
0
  6
Continuous
 62
     7
370
    25
100
AcDbCircle
 10
-0.2892738099
 20
-18.7099193453
 30
0.0
 40
0.0302520631411821
100
AcDbArc
 50
122.60547834
 51
177.3945215144
  0
ARC
  5
4EF
330
44C
100
AcDbEntity
  8
0
  6
Continuous
 62
     7
370
    25
100
AcDbCircle
 10
11.8839682393
 20
-20.4280085014
 30
0.0
 40
1.06897576651922
100
AcDbArc
 50
299.9727606691
 51
315.9541598944
  0
ARC
  5
4F0
330
44C
100
AcDbEntity
  8
0
  6
Continuous
 62
     7
370
    25
100
AcDbCircle
 10
12.6465100815
 20
-20.6365409205
 30
0.0
 40
2.108124745220029
100
AcDbArc
 50
238.500875807
 51
264.8009478494
  0
ARC
  5
4F1
330
44C
100
AcDbEntity
  8
0
  6
Continuous
 62
     8
370
    25
100
AcDbCircle
 10
8.5795734008
 20
-23.9006881267
 30
0.0
 40
0.0094394792509904
100
AcDbArc
 50
304.0563507974
 51
7.255829596
  0
ARC
  5
4F2
330
44C
100
AcDbEntity
  8
0
  6
Continuous
 62
     8
370
    25
100
AcDbCircle
 10
8.5704623289
 20
-23.9006881267
 30
0.0
 40
0.0094394792589326
100
AcDbArc
 50
172.7441704337
 51
235.9436491729
  0
ARC
  5
4F3
330
44C
100
AcDbEntity
  8
0
  6
Continuous
 62
     8
370
    25
100
AcDbCircle
 10
11.3353376986
 20
-22.3095290644
 30
0.0
 40
0.0097042899732549
100
AcDbArc
 50
305.013332919
 51
6.2988474745
  0
ARC
  5
4F4
330
44C
100
AcDbEntity
  8
0
  6
Continuous
 62
     8
370
    25
100
AcDbCircle
 10
-0.3101307104
 20
-18.774030889
 30
0.0
 40
0.0094394792713358
100
AcDbArc
 50
172.74417048
 51
235.9436491266
  0
ARC
  5
4F5
330
44C
100
AcDbEntity
  8
0
  6
Continuous
 62
     8
370
    25
100
AcDbCircle
 10
11.3408975029
 20
-22.2351518909
 30
0.0
 40
0.0099003794978676
100
AcDbArc
 50
294.3746582934
 51
354.3052007489
  0
ARC
  5
4F6
330
44C
100
AcDbEntity
  8
0
  6
Continuous
 62
     8
370
    25
100
AcDbCircle
 10
11.3368301233
 20
-22.2281095069
 30
0.0
 40
0.0099011266910287
100
AcDbArc
 50
65.6928809541
 51
125.6175774751
  0
ARC
  5
4F7
330
44C
100
AcDbEntity
  8
0
  6
Continuous
 62
     8
370
    25
100
AcDbCircle
 10
11.3408975029
 20
-22.299446443
 30
0.0
 40
0.0099003794978725
100
AcDbArc
 50
294.3746582935
 51
354.3052007489
  0
ARC
  5
4F8
330
44C
100
AcDbEntity
  8
0
  6
Continuous
 62
     8
370
    25
100
AcDbCircle
 10
2.456237084
 20
-17.1014522693
 30
0.0
 40
0.0099011266909886
100
AcDbArc
 50
65.692880954
 51
125.6175774752
  0
ARC
  5
4F9
330
44C
100
AcDbEntity
  8
0
  6
Continuous
 62
     8
370
    25
100
AcDbCircle
 10
-0.3154086969
 20
-18.6995262097
 30
0.0
 40
0.0099003794979307
100
AcDbArc
 50
185.6947992513
 51
245.6253417064
  0
ARC
  5
4FA
330
44C
100
AcDbEntity
  8
0
  6
Continuous
 62
     8
370
    25
100
AcDbCircle
 10
-0.3113413173
 20
-18.6924838258
 30
0.0
 40
0.0099011266909723
100
AcDbArc
 50
54.3824225248
 51
114.3071190461
  0
ARC
  5
4FB
330
44C
100
AcDbEntity
  8
0
  6
Continuous
 62
     8
370
    25
100
AcDbCircle
 10
-0.3154086969
 20
-18.7638207619
 30
0.0
 40
0.0099003794979259
100
AcDbArc
 50
185.6947992512
 51
245.6253417064
  0
ARC
  5
4FC
330
44C
100
AcDbEntity
  8
0
  6
Continuous
 62
     8
370
    25
100
AcDbCircle
 10
2.4447047984
 20
-17.1014522693
 30
0.0
 40
0.0099011266909948
100
AcDbArc
 50
54.3824225248
 51
114.307119046
  0
VIEWPORT
  5
503
330
44C
100
AcDbEntity
  8
0
100
AcDbViewport
 10
0.0
 20
0.0
 30
0.0
 40
8.4
 41
6.4
 68
     1
 69
     1
 12
17.7159815275
 22
18.1102362205
 13
0.0
 23
0.0
 14
0.5
 24
0.5
 15
0.5
 25
0.5
 16
0.0
 26
0.0
 36
1.0
 17
0.0
 27
0.0
 37
0.0
 42
50.0
 43
0.0
 44
0.0
 45
60.3366141732
 50
0.0
 51
0.0
 72
   100
 90
   557152
  1

281
     0
 71
     1
 74
     0
110
0.0
120
0.0
130
0.0
111
1.0
121
0.0
131
0.0
112
0.0
122
1.0
132
0.0
 79
     0
146
0.0
  0
ENDBLK
  5
44F
330
44C
100
AcDbEntity
  8
0
100
AcDbBlockEnd
  0
ENDSEC
  0
SECTION
  2
ENTITIES
  0
LINE
  5
B7
330
1F
100
AcDbEntity
  8
0
  6
Continuous
 62
     7
370
    25
100
AcDbLine
 10
18.031496063
 20
27.9035433071
 30
0.0
 11
18.031496063
 21
47.687007874
 31
0.0
  0
LINE
  5
B8
330
1F
100
AcDbEntity
  8
0
  6
Continuous
 62
     7
370
    25
100
AcDbLine
 10
17.4015748031
 20
47.687007874
 30
0.0
 11
17.4015748031
 21
27.9035433071
 31
0.0
  0
LINE
  5
B9
330
1F
100
AcDbEntity
  8
0
  6
Continuous
 62
     7
370
    25
100
AcDbLine
 10
11.43793105
 20
-11.2303149606
 30
0.0
 11
11.43793105
 21
-11.3484251969
 31
0.0
  0
LINE
  5
BA
330
1F
100
AcDbEntity
  8
0
  6
Continuous
 62
     7
370
    25
100
AcDbLine
 10
11.4182460106
 20
-11.3287401575
 30
0.0
 11
24.0166712075
 21
-11.3287401575
 31
0.0
  0
LINE
  5
BB
330
1F
100
AcDbEntity
  8
0
  6
Continuous
 62
     7
370
    25
100
AcDbLine
 10
11.4182460106
 20
-11.3287401575
 30
0.0
 11
11.4182460106
 21
-11.25
 31
0.0
  0
LINE
  5
BC
330
1F
100
AcDbEntity
  8
0
  6
Continuous
 62
     7
370
    25
100
AcDbLine
 10
24.0166712075
 20
-11.25
 30
0.0
 11
11.4182460106
 21
-11.25
 31
0.0
  0
LINE
  5
BD
330
1F
100
AcDbEntity
  8
0
  6
Continuous
 62
     7
370
    25
100
AcDbLine
 10
23.9969861681
 20
-11.3484251969
 30
0.0
 11
23.9969861681
 21
-11.2303149606
 31
0.0
  0
LINE
  5
BE
330
1F
100
AcDbEntity
  8
0
  6
Continuous
 62
     7
370
    25
100
AcDbLine
 10
24.0166712075
 20
-11.25
 30
0.0
 11
24.0166712075
 21
-11.3287401575
 31
0.0
  0
LINE
  5
BF
330
1F
100
AcDbEntity
  8
0
  6
Continuous
 62
     7
370
    25
100
AcDbLine
 10
24.2892960273
 20
-11.3484251969
 30
0.0
 11
11.1397128646
 21
-11.3484251969
 31
0.0
  0
LINE
  5
C0
330
1F
100
AcDbEntity
  8
0
  6
Continuous
 62
     7
370
    25
100
AcDbLine
 10
11.43793105
 20
-11.2303149606
 30
0.0
 11
23.9969861681
 21
-11.2303149606
 31
0.0
  0
LINE
  5
C1
330
1F
100
AcDbEntity
  8
0
  6
Continuous
 62
     7
370
    25
100
AcDbLine
 10
7.8720020787
 20
24.6358267717
 30
0.0
 11
7.8720020787
 21
-8.1988188976
 31
0.0
  0
LINE
  5
C2
330
1F
100
AcDbEntity
  8
0
  6
Continuous
 62
     7
370
    25
100
AcDbLine
 10
11.1397128646
 20
27.9035433071
 30
0.0
 11
24.2922501903
 21
27.9035433071
 31
0.0
  0
LINE
  5
C3
330
1F
100
AcDbEntity
  8
0
  6
Continuous
 62
     7
370
    25
100
AcDbLine
 10
27.5570068132
 20
24.6358267717
 30
0.0
 11
27.5570068132
 21
-8.1988188976
 31
0.0
  0
LINE
  5
C4
330
1F
100
AcDbEntity
  8
0
  6
Continuous
 62
     7
370
    25
100
AcDbLine
 10
24.2922501903
 20
-11.4665354331
 30
0.0
 11
11.1397128646
 21
-11.4665354331
 31
0.0
  0
LINE
  5
C5
330
1F
100
AcDbEntity
  8
0
  6
Continuous
 62
     7
370
    25
100
AcDbLine
 10
23.8871990088
 20
-11.3484251969
 30
0.0
 11
23.8871990088
 21
-11.4665354331
 31
0.0
  0
LINE
  5
C6
330
1F
100
AcDbEntity
  8
0
  6
Continuous
 62
     7
370
    25
100
AcDbLine
 10
27.4388967848
 20
24.6358267717
 30
0.0
 11
27.4388967848
 21
-8.1988188976
 31
0.0
  0
LINE
  5
C7
330
1F
100
AcDbEntity
  8
0
  6
Continuous
 62
     7
370
    25
100
AcDbLine
 10
11.1397128646
 20
27.7854330709
 30
0.0
 11
24.2892960273
 21
27.7854330709
 31
0.0
  0
LINE
  5
C8
330
1F
100
AcDbEntity
  8
0
  6
Continuous
 62
     7
370
    25
100
AcDbLine
 10
7.9901121071
 20
24.6358267717
 30
0.0
 11
7.9901121071
 21
-8.1988188976
 31
0.0
  0
LINE
  5
C9
330
1F
100
AcDbEntity
  8
0
  6
Continuous
 62
     7
370
    25
100
AcDbLine
 10
27.5570068132
 20
24.6358267717
 30
0.0
 11
27.5599609763
 21
24.6358267717
 31
0.0
  0
LINE
  5
CA
330
1F
100
AcDbEntity
  8
0
  6
Continuous
 62
     7
370
    25
100
AcDbLine
 10
27.5570068132
 20
-8.1988188976
 30
0.0
 11
27.5599609763
 21
-8.1988188976
 31
0.0
  0
LINE
  5
CB
330
1F
100
AcDbEntity
  8
0
  6
Continuous
 62
     7
370
    25
100
AcDbLine
 10
27.5599609763
 20
24.6358267717
 30
0.0
 11
27.5599609763
 21
-8.1988188976
 31
0.0
  0
LINE
  5
CC
330
1F
100
AcDbEntity
  8
0
  6
Continuous
 62
     7
370
    25
100
AcDbLine
 10
11.4462322372
 20
-11.3484251969
 30
0.0
 11
11.4462322372
 21
-11.4665354331
 31
0.0
  0
LINE
  5
CD
330
1F
100
AcDbEntity
  8
0
  6
Continuous
 62
     7
370
    25
100
AcDbLine
 10
7.9901121071
 20
-8.1988188976
 30
0.0
 11
7.9930662702
 21
-8.1988188976
 31
0.0
  0
LINE
  5
CE
330
1F
100
AcDbEntity
  8
0
  6
Continuous
 62
     7
370
    25
100
AcDbLine
 10
7.9901121071
 20
24.6358267717
 30
0.0
 11
7.9911460642
 21
24.6358267717
 31
0.0
  0
LINE
  5
CF
330
1F
100
AcDbEntity
  8
0
  6
Continuous
 62
     7
370
    25
100
AcDbLine
 10
7.9930662702
 20
-6.3009090578
 30
0.0
 11
7.9930662702
 21
-8.1988188976
 31
0.0
  0
LINE
  5
D0
330
1F
100
AcDbEntity
  8
0
  6
Continuous
 62
     7
370
    25
100
AcDbLine
 10
7.9911460642
 20
-6.1909448819
 30
0.0
 11
7.9911460642
 21
24.6358267717
 31
0.0
  0
LINE
  5
D1
330
1F
100
AcDbEntity
  8
0
  6
Continuous
 62
     7
370
    25
100
AcDbLine
 10
11.1407468217
 20
-9.3405511811
 30
0.0
 11
24.2904038384
 21
-9.3405511811
 31
0.0
  0
LINE
  5
D2
330
1F
100
AcDbEntity
  8
0
  6
Continuous
 62
     7
370
    25
100
AcDbLine
 10
7.9947137942
 20
24.6358267678
 30
0.0
 11
7.9947137942
 21
-6.1909448858
 31
0.0
  0
LINE
  5
D3
330
1F
100
AcDbEntity
  8
0
  6
Continuous
 62
     7
370
    25
100
AcDbLine
 10
17.4015748031
 20
47.687007874
 30
0.0
 11
18.031496063
 21
47.687007874
 31
0.0
  0
LINE
  5
D4
330
1F
100
AcDbEntity
  8
0
  6
Continuous
 62
     8
370
    25
100
AcDbLine
 10
17.493407246
 20
27.9035433071
 30
0.0
 11
17.493407246
 21
47.687007874
 31
0.0
  0
ARC
  5
D5
330
1F
100
AcDbEntity
  8
0
  6
Continuous
 62
     7
370
    25
100
AcDbCircle
 10
11.43793105
 20
-11.25
 30
0.0
 40
0.0196850393700814
100
AcDbArc
 50
90.0
 51
180.0
  0
ARC
  5
D6
330
1F
100
AcDbEntity
  8
0
  6
Continuous
 62
     7
370
    25
100
AcDbCircle
 10
23.9969861681
 20
-11.25
 30
0.0
 40
0.0196850393700814
100
AcDbArc
 50
0.0
 51
90.0
  0
ARC
  5
D7
330
1F
100
AcDbEntity
  8
0
  6
Continuous
 62
     7
370
    25
100
AcDbCircle
 10
23.9969861681
 20
-11.3287401575
 30
0.0
 40
0.0196850393700849
100
AcDbArc
 50
270.0
 51
360.0
  0
ARC
  5
D8
330
1F
100
AcDbEntity
  8
0
  6
Continuous
 62
     7
370
    25
100
AcDbCircle
 10
11.43793105
 20
-11.3287401575
 30
0.0
 40
0.019685039370076
100
AcDbArc
 50
180.0
 51
270.0
  0
ARC
  5
D9
330
1F
100
AcDbEntity
  8
0
  6
Continuous
 62
     7
370
    25
100
AcDbCircle
 10
11.1397157394
 20
-8.1988217724
 30
0.0
 40
3.26771366067981
100
AcDbArc
 50
179.9999495943
 51
269.9999495942
  0
ARC
  5
DA
330
1F
100
AcDbEntity
  8
0
  6
Continuous
 62
     7
370
    25
100
AcDbCircle
 10
11.1397157394
 20
24.6358296464
 30
0.0
 40
3.267713660679785
100
AcDbArc
 50
90.0000504058
 51
180.0000504057
  0
ARC
  5
DB
330
1F
100
AcDbEntity
  8
0
  6
Continuous
 62
     7
370
    25
100
AcDbCircle
 10
24.2892931525
 20
24.6358296464
 30
0.0
 40
3.267713660679799
100
AcDbArc
 50
359.9999495943
 51
89.9999495942
  0
ARC
  5
DC
330
1F
100
AcDbEntity
  8
0
  6
Continuous
 62
     7
370
    25
100
AcDbCircle
 10
24.2892931525
 20
-8.1988217724
 30
0.0
 40
3.267713660679792
100
AcDbArc
 50
270.0000504058
 51
0.0000504057
  0
ARC
  5
DD
330
1F
100
AcDbEntity
  8
0
  6
Continuous
 62
     7
370
    25
100
AcDbCircle
 10
24.2892933828
 20
-8.1988217949
 30
0.0
 40
3.149603401965493
100
AcDbArc
 50
270.0000481064
 51
0.0000527051
  0
ARC
  5
DE
330
1F
100
AcDbEntity
  8
0
  6
Continuous
 62
     7
370
    25
100
AcDbCircle
 10
24.28929313
 20
24.6358294161
 30
0.0
 40
3.149603654766672
100
AcDbArc
 50
359.9999518937
 51
89.9999472948
  0
ARC
  5
DF
330
1F
100
AcDbEntity
  8
0
  6
Continuous
 62
     7
370
    25
100
AcDbCircle
 10
11.1397157619
 20
24.6358294161
 30
0.0
 40
3.149603654766676
100
AcDbArc
 50
90.0000527052
 51
180.0000481063
  0
ARC
  5
E0
330
1F
100
AcDbEntity
  8
0
  6
Continuous
 62
     7
370
    25
100
AcDbCircle
 10
11.1397155091
 20
-8.1988217949
 30
0.0
 40
3.149603401965501
100
AcDbArc
 50
179.9999472949
 51
269.9999518936
  0
ARC
  5
E1
330
1F
100
AcDbEntity
  8
0
  6
Continuous
 62
     7
370
    25
100
AcDbCircle
 10
24.2922473156
 20
24.6358296464
 30
0.0
 40
3.267713660679795
100
AcDbArc
 50
359.9999495943
 51
89.9999495942
  0
ARC
  5
E2
330
1F
100
AcDbEntity
  8
0
  6
Continuous
 62
     7
370
    25
100
AcDbCircle
 10
24.2922473156
 20
-8.1988217724
 30
0.0
 40
3.267713660679811
100
AcDbArc
 50
270.0000504058
 51
0.0000504057
  0
ARC
  5
E3
330
1F
100
AcDbEntity
  8
0
  6
Continuous
 62
     7
370
    25
100
AcDbCircle
 10
11.1426696722
 20
-8.1988217949
 30
0.0
 40
3.149603401965239
100
AcDbArc
 50
179.9999472949
 51
269.9999518937
  0
ARC
  5
E4
330
1F
100
AcDbEntity
  8
0
  6
Continuous
 62
     7
370
    25
100
AcDbCircle
 10
11.1407494662
 20
24.6358296689
 30
0.0
 40
3.149603401954681
100
AcDbArc
 50
90.0000481062
 51
180.0000527053
  0
ARC
  5
E5
330
1F
100
AcDbEntity
  8
0
  6
Continuous
 62
     7
370
    25
100
AcDbCircle
 10
24.2899578556
 20
-6.1909476242
 30
0.0
 40
3.1496035607318
100
AcDbArc
 50
270.0000519864
 51
358.8229150391
  0
ARC
  5
E6
330
1F
100
AcDbEntity
  8
0
  6
Continuous
 62
     7
370
    25
100
AcDbCircle
 10
11.1443171962
 20
-6.190947783
 30
0.0
 40
3.149603401965498
100
AcDbArc
 50
179.9999472949
 51
269.9999518936
  0
ARC
  5
E7
330
1F
100
AcDbEntity
  8
0
  6
Continuous
 62
     7
370
    25
100
AcDbCircle
 10
11.144317449
 20
24.6358294122
 30
0.0
 40
3.14960365476667
100
AcDbArc
 50
90.0000527052
 51
180.0000481063
  0
ARC
  5
E8
330
1F
100
AcDbEntity
  8
0
  6
Continuous
 62
     7
370
    25
100
AcDbCircle
 10
24.2904012416
 20
-6.190947904
 30
0.0
 40
3.14960327711217
100
AcDbArc
 50
270.0000472388
 51
358.4803619021
  0
ARC
  5
E9
330
1F
100
AcDbEntity
  8
0
  6
Continuous
 62
     7
370
    25
100
AcDbCircle
 10
11.140749719
 20
-6.1909475263
 30
0.0
 40
3.149603654766922
100
AcDbArc
 50
179.9999518937
 51
269.9999472948
  0
SPLINE
  5
EA
330
1B
100
AcDbEntity
 67
     1
  8
0
  6
Continuous
 62
     7
370
    25
100
AcDbSpline
210
0.0
220
0.0
230
1.0
 70
     8
 71
     3
 72
    11
 73
     7
 74
     0
 42
0.000000001
 43
0.00000001
 40
0.0
 40
0.0
 40
0.0
 40
0.0
 40
0.2573954307473298
 40
0.5678125643462147
 40
0.8911396099079818
 40
1.0
 40
1.0
 40
1.0
 40
1.0
 10
-18.1174388179138
 20
26.52260515354495
 30
0.0
 10
-18.12469662194634
 20
26.52206958008556
 30
0.0
 10
-18.14070728813133
 20
26.52088810868768
 30
0.0
 10
-18.16224141779829
 20
26.50517120657026
 30
0.0
 10
-18.17576210894959
 20
26.48669941263494
 30
0.0
 10
-18.18106683055163
 20
26.47393127506907
 30
0.0
 10
-18.18240299633362
 20
26.47071520648053
 30
0.0
  0
SPLINE
  5
EB
330
1B
100
AcDbEntity
 67
     1
  8
0
  6
Continuous
 62
     7
370
    25
100
AcDbSpline
210
0.0
220
0.0
230
1.0
 70
     8
 71
     3
 72
    11
 73
     7
 74
     0
 42
0.000000001
 43
0.00000001
 40
0.0
 40
0.0
 40
0.0
 40
0.0
 40
0.257395430747225
 40
0.5678125643461163
 40
0.8911396099080328
 40
1.0
 40
1.0
 40
1.0
 40
1.0
 10
-18.1174388179138
 20
27.50685712204888
 30
0.0
 10
-18.12469662194634
 20
27.50632154858949
 30
0.0
 10
-18.14070728813132
 20
27.50514007719162
 30
0.0
 10
-18.1622414177983
 20
27.48942317507421
 30
0.0
 10
-18.17576210894958
 20
27.47095138113888
 30
0.0
 10
-18.18106683055163
 20
27.458183243573
 30
0.0
 10
-18.18240299633362
 20
27.45496717498446
 30
0.0
  0
SPLINE
  5
F0
330
1B
100
AcDbEntity
 67
     1
  8
0
  6
Continuous
 62
     7
370
    25
100
AcDbSpline
210
0.0
220
0.0
230
1.0
 70
     8
 71
     3
 72
    11
 73
     7
 74
     0
 42
0.000000001
 43
0.00000001
 40
0.0
 40
0.0
 40
0.0
 40
0.0
 40
0.197599649475968
 40
0.5685026626012943
 40
0.9244808167185133
 40
1.0
 40
1.0
 40
1.0
 40
1.0
 10
-18.17435244693243
 20
26.36981234822251
 30
0.0
 10
-18.1719416562362
 20
26.36500275733363
 30
0.0
 10
-18.165005708053
 20
26.35116535816009
 30
0.0
 10
-18.14610746192416
 20
26.33761773563534
 30
0.0
 10
-18.1272511643131
 20
26.32935952689056
 30
0.0
 10
-18.11705622193701
 20
26.33137313954034
 30
0.0
 10
-18.11527193810693
 20
26.33172555511647
 30
0.0
  0
SPLINE
  5
F3
330
1B
100
AcDbEntity
 67
     1
  8
0
  6
Continuous
 62
     7
370
    25
100
AcDbSpline
210
0.0
220
0.0
230
1.0
 70
     8
 71
     3
 72
    11
 73
     7
 74
     0
 42
0.000000001
 43
0.00000001
 40
0.0
 40
0.0
 40
0.0
 40
0.0
 40
0.1975996494757745
 40
0.5685026626011913
 40
0.9244808167185472
 40
1.0
 40
1.0
 40
1.0
 40
1.0
 10
-18.17435244693242
 20
27.35406431672643
 30
0.0
 10
-18.17194165623619
 20
27.34925472583756
 30
0.0
 10
-18.165005708053
 20
27.33541732666402
 30
0.0
 10
-18.14610746192417
 20
27.32186970413929
 30
0.0
 10
-18.12725116431309
 20
27.31361149539449
 30
0.0
 10
-18.11705622193701
 20
27.31562510804428
 30
0.0
 10
-18.11527193810694
 20
27.31597752362041
 30
0.0
  0
SPLINE
  5
1B4
330
1B
100
AcDbEntity
 67
     1
  8
0
  6
Continuous
 62
     7
370
    25
100
AcDbSpline
210
0.0
220
0.0
230
1.0
 70
     8
 71
     3
 72
    16
 73
    12
 74
     0
 42
0.000000001
 43
0.00000001
 40
0.0
 40
0.0
 40
0.0
 40
0.0
 40
0.0826052814245144
 40
0.1653568234454321
 40
0.2484377548550888
 40
0.3320292163752106
 40
0.4163091884298104
 40
0.5014514204618019
 40
0.6695023800548043
 40
0.8352128589017475
 40
1.0
 40
1.0
 40
1.0
 40
1.0
 10
-18.07776813065217
 20
26.38751236786728
 30
0.0
 10
-18.07753686580534
 20
26.3897710028899
 30
0.0
 10
-18.07707392663499
 20
26.39429227206569
 30
0.0
 10
-18.07642664451378
 20
26.40117486702308
 30
0.0
 10
-18.07589810194311
 20
26.40813003206772
 30
0.0
 10
-18.07553114417368
 20
26.41516498914871
 30
0.0
 10
-18.07535731674647
 20
26.4222774311747
 30
0.0
 10
-18.07540399199637
 20
26.43177122798447
 30
0.0
 10
-18.07598615034599
 20
26.44353355339157
 30
0.0
 10
-18.07747178068631
 20
26.4574083320729
 30
0.0
 10
-18.07875730986786
 20
26.46635703318322
 30
0.0
 10
-18.07939827871557
 20
26.47081888338582
 30
0.0
  0
SPLINE
  5
1B5
330
1B
100
AcDbEntity
 67
     1
  8
0
  6
Continuous
 62
     7
370
    25
100
AcDbSpline
210
0.0
220
0.0
230
1.0
 70
     8
 71
     3
 72
    16
 73
    12
 74
     0
 42
0.000000001
 43
0.00000001
 40
0.0
 40
0.0
 40
0.0
 40
0.0
 40
0.0824427481604606
 40
0.1650182069265442
 40
0.247908266272852
 40
0.331292932458303
 40
0.4153491645070774
 40
0.5002498083998399
 40
0.6687657829584436
 40
0.8348739398028834
 40
1.0
 40
1.0
 40
1.0
 40
1.0
 10
-18.07939827871558
 20
26.47081888338583
 30
0.0
 10
-18.08072610226715
 20
26.47238977604945
 30
0.0
 10
-18.08338388680835
 20
26.47553409009049
 30
0.0
 10
-18.08735690274479
 20
26.4800027298754
 30
0.0
 10
-18.09139143592238
 20
26.48426138187435
 30
0.0
 10
-18.09552289173394
 20
26.48828501664403
 30
0.0
 10
-18.09978133401766
 20
26.4920726230896
 30
0.0
 10
-18.10560989234436
 20
26.49677531563764
 30
0.0
 10
-18.11308804448756
 20
26.50192513380171
 30
0.0
 10
-18.12228987832417
 20
26.50694980511999
 30
0.0
 10
-18.12819057710236
 20
26.50930017118827
 30
0.0
 10
-18.13113217881958
 20
26.51047186985016
 30
0.0
  0
SPLINE
  5
1B6
330
1B
100
AcDbEntity
 67
     1
  8
0
  6
Continuous
 62
     7
370
    25
100
AcDbSpline
210
0.0
220
0.0
230
1.0
 70
     8
 71
     3
 72
    16
 73
    12
 74
     0
 42
0.000000001
 43
0.00000001
 40
0.0
 40
0.0
 40
0.0
 40
0.0
 40
0.0823785258696431
 40
0.1649103643169054
 40
0.2477772537452754
 40
0.3311589157451444
 40
0.4152319002779383
 40
0.5001685321242653
 40
0.6686322111911556
 40
0.8347665447526796
 40
1.0
 40
1.0
 40
1.0
 40
1.0
 10
-18.13113217881936
 20
26.51047186985024
 30
0.0
 10
-18.13282037320075
 20
26.50978910458447
 30
0.0
 10
-18.13619990381911
 20
26.50842230337587
 30
0.0
 10
-18.14101373405644
 20
26.50602437054528
 30
0.0
 10
-18.14569021533794
 20
26.50334485634488
 30
0.0
 10
-18.15024136873891
 20
26.50035156602747
 30
0.0
 10
-18.15469728815735
 20
26.49704569852313
 30
0.0
 10
-18.16049064193997
 20
26.4922564062666
 30
0.0
 10
-18.16736655687268
 20
26.485627481035
 30
0.0
 10
-18.17499694535135
 20
26.47674134621852
 30
0.0
 10
-18.17916004171396
 20
26.47012000886809
 30
0.0
 10
-18.18123593086117
 20
26.46681834079497
 30
0.0
  0
SPLINE
  5
1B8
330
1B
100
AcDbEntity
 67
     1
  8
0
  6
Continuous
 62
     7
370
    25
100
AcDbSpline
210
0.0
220
0.0
230
1.0
 70
     8
 71
     3
 72
    16
 73
    12
 74
     0
 42
0.000000001
 43
0.00000001
 40
0.0
 40
0.0
 40
0.0
 40
0.0
 40
0.0826052814067301
 40
0.1653568234170952
 40
0.2484377548233051
 40
0.3320292163468639
 40
0.4163091884118242
 40
0.5014514204609979
 40
0.6695023800268469
 40
0.835212858873805
 40
1.0
 40
1.0
 40
1.0
 40
1.0
 10
-18.07776813065217
 20
27.37176433637121
 30
0.0
 10
-18.07753686580538
 20
27.37402297139334
 30
0.0
 10
-18.07707392663514
 20
27.37854424056837
 30
0.0
 10
-18.0764266445141
 20
27.38542683552491
 30
0.0
 10
-18.07589810194351
 20
27.39238200056923
 30
0.0
 10
-18.07553114417407
 20
27.39941695765054
 30
0.0
 10
-18.07535731674674
 20
27.40652939967736
 30
0.0
 10
-18.07540399199625
 20
27.41602319648715
 30
0.0
 10
-18.07598615034551
 20
27.42778552189403
 30
0.0
 10
-18.07747178068599
 20
27.44166030057535
 30
0.0
 10
-18.07875730986773
 20
27.45060900168642
 30
0.0
 10
-18.07939827871557
 20
27.45507085188976
 30
0.0
  0
SPLINE
  5
1B9
330
1B
100
AcDbEntity
 67
     1
  8
0
  6
Continuous
 62
     7
370
    25
100
AcDbSpline
210
0.0
220
0.0
230
1.0
 70
     8
 71
     3
 72
    16
 73
    12
 74
     0
 42
0.000000001
 43
0.00000001
 40
0.0
 40
0.0
 40
0.0
 40
0.0
 40
0.0824427480972194
 40
0.1650182068254404
 40
0.247908266159195
 40
0.3312929323571681
 40
0.4153491644431266
 40
0.5002498083971842
 40
0.6687657828578977
 40
0.8348739397023666
 40
1.0
 40
1.0
 40
1.0
 40
1.0
 10
-18.07939827871558
 20
27.45507085188977
 30
0.0
 10
-18.08072610226615
 20
27.45664174455215
 30
0.0
 10
-18.08338388680576
 20
27.45978605859122
 30
0.0
 10
-18.08735690274057
 20
27.46425469837382
 30
0.0
 10
-18.09139143591771
 20
27.46851335037197
 30
0.0
 10
-18.09552289172991
 20
27.47253698514234
 30
0.0
 10
-18.09978133401536
 20
27.47632459159006
 30
0.0
 10
-18.10560989234139
 20
27.48102728413993
 30
0.0
 10
-18.1130880444835
 20
27.4861771023053
 30
0.0
 10
-18.12228987832051
 20
27.49120177362298
 30
0.0
 10
-18.12819057710054
 20
27.49355213969165
 30
0.0
 10
-18.13113217881958
 20
27.4947238383541
 30
0.0
  0
SPLINE
  5
1BA
330
1B
100
AcDbEntity
 67
     1
  8
0
  6
Continuous
 62
     7
370
    25
100
AcDbSpline
210
0.0
220
0.0
230
1.0
 70
     8
 71
     3
 72
    16
 73
    12
 74
     0
 42
0.000000001
 43
0.00000001
 40
0.0
 40
0.0
 40
0.0
 40
0.0
 40
0.0823785258769591
 40
0.1649103643285953
 40
0.2477772537584181
 40
0.3311589157568535
 40
0.4152319002853545
 40
0.500168532124622
 40
0.6686322112026621
 40
0.8347665447642104
 40
1.0
 40
1.0
 40
1.0
 40
1.0
 10
-18.13113217881936
 20
27.49472383835418
 30
0.0
 10
-18.1328203732009
 20
27.49404107308836
 30
0.0
 10
-18.1361999038195
 20
27.49267427187968
 30
0.0
 10
-18.1410137340571
 20
27.49027633904898
 30
0.0
 10
-18.14569021533866
 20
27.48759682484855
 30
0.0
 10
-18.15024136873955
 20
27.48460353453119
 30
0.0
 10
-18.15469728815774
 20
27.48129766702695
 30
0.0
 10
-18.16049064194026
 20
27.47650837477021
 30
0.0
 10
-18.16736655687293
 20
27.46987944953838
 30
0.0
 10
-18.17499694535161
 20
27.46099331472196
 30
0.0
 10
-18.1791600417141
 20
27.45437197737178
 30
0.0
 10
-18.18123593086117
 20
27.45107030929891
 30
0.0
  0
SPLINE
  5
1BC
330
1B
100
AcDbEntity
 67
     1
  8
0
  6
Continuous
 62
     7
370
    25
100
AcDbSpline
210
0.0
220
0.0
230
1.0
 70
     8
 71
     3
 72
     9
 73
     5
 74
     0
 42
0.000000001
 43
0.00000001
 40
0.0
 40
0.0
 40
0.0
 40
0.0
 40
0.7697528991214448
 40
1.0
 40
1.0
 40
1.0
 40
1.0
 10
-18.07939827871559
 20
26.47081888338582
 30
0.0
 10
-18.08026519578171
 20
26.46955929615814
 30
0.0
 10
-18.08139142351935
 20
26.46792294346738
 30
0.0
 10
-18.0810423023748
 20
26.46676932343641
 30
0.0
 10
-18.08096191824342
 20
26.46650370576876
 30
0.0
  0
SPLINE
  5
1BD
330
1B
100
AcDbEntity
 67
     1
  8
0
  6
Continuous
 62
     7
370
    25
100
AcDbSpline
210
0.0
220
0.0
230
1.0
 70
     8
 71
     3
 72
     9
 73
     5
 74
     0
 42
0.000000001
 43
0.00000001
 40
0.0
 40
0.0
 40
0.0
 40
0.0
 40
0.7697528991058203
 40
1.0
 40
1.0
 40
1.0
 40
1.0
 10
-18.07776813065189
 20
26.38751236786728
 30
0.0
 10
-18.07868208432031
 20
26.38865652267819
 30
0.0
 10
-18.07986941816404
 20
26.39014291501559
 30
0.0
 10
-18.07956337650247
 20
26.39119081378713
 30
0.0
 10
-18.07949291129714
 20
26.39143208944131
 30
0.0
  0
SPLINE
  5
1BE
330
1B
100
AcDbEntity
 67
     1
  8
0
  6
Continuous
 62
     7
370
    25
100
AcDbSpline
210
0.0
220
0.0
230
1.0
 70
     8
 71
     3
 72
     9
 73
     5
 74
     0
 42
0.000000001
 43
0.00000001
 40
0.0
 40
0.0
 40
0.0
 40
0.0
 40
0.7697528991214754
 40
1.0
 40
1.0
 40
1.0
 40
1.0
 10
-18.07939827871559
 20
27.45507085188976
 30
0.0
 10
-18.08026519578171
 20
27.45381126466208
 30
0.0
 10
-18.08139142351934
 20
27.45217491197133
 30
0.0
 10
-18.08104230237481
 20
27.45102129194036
 30
0.0
 10
-18.08096191824342
 20
27.45075567427271
 30
0.0
  0
SPLINE
  5
1BF
330
1B
100
AcDbEntity
 67
     1
  8
0
  6
Continuous
 62
     7
370
    25
100
AcDbSpline
210
0.0
220
0.0
230
1.0
 70
     8
 71
     3
 72
     9
 73
     5
 74
     0
 42
0.000000001
 43
0.00000001
 40
0.0
 40
0.0
 40
0.0
 40
0.0
 40
0.7697528991067438
 40
1.0
 40
1.0
 40
1.0
 40
1.0
 10
-18.07776813065189
 20
27.37176433637122
 30
0.0
 10
-18.07868208432031
 20
27.37290849118214
 30
0.0
 10
-18.07986941816403
 20
27.37439488351952
 30
0.0
 10
-18.07956337650248
 20
27.37544278229109
 30
0.0
 10
-18.07949291129715
 20
27.37568405794526
 30
0.0
  0
SPLINE
  5
1C0
330
1B
100
AcDbEntity
 67
     1
  8
0
  6
Continuous
 62
     7
370
    25
100
AcDbSpline
210
0.0
220
0.0
230
1.0
 70
     8
 71
     3
 72
    21
 73
    17
 74
     0
 42
0.000000001
 43
0.00000001
 40
0.0
 40
0.0
 40
0.0
 40
0.0
 40
0.0393975351464156
 40
0.0796953358033505
 40
0.1209032924166526
 40
0.1630306527007468
 40
0.2060860702572215
 40
0.2500776493254721
 40
0.3535689102714784
 40
0.5001434422578206
 40
0.6430743102776526
 40
0.7499540758339827
 40
0.8151058905901439
 40
0.8784782291168206
 40
0.9400993493217048
 40
1.0
 40
1.0
 40
1.0
 40
1.0
 10
-17.91886822571635
 20
26.42716535433071
 30
0.0
 10
-17.9189004544241
 20
26.4291610811513
 30
0.0
 10
-17.91896564829161
 20
26.43319813876284
 30
0.0
 10
-17.91949651780862
 20
26.43929717994495
 30
0.0
 10
-17.92036310294572
 20
26.44548057798149
 30
0.0
 10
-17.92161242633111
 20
26.4517181154751
 30
0.0
 10
-17.92325075571848
 20
26.4579766613624
 30
0.0
 10
-17.92619363658341
 20
26.46698825603696
 30
0.0
 10
-17.9321139535737
 20
26.48022093514501
 30
0.0
 10
-17.94257901897554
 20
26.49583851226269
 30
0.0
 10
-17.95539321469605
 20
26.50837116270819
 30
0.0
 10
-17.96656170962498
 20
26.5156946736983
 30
0.0
 10
-17.9751315621978
 20
26.51969668607232
 30
0.0
 10
-17.98211933610454
 20
26.52198472044351
 30
0.0
 10
-17.98891150950994
 20
26.52337077758456
 30
0.0
 10
-17.99328826944122
 20
26.5235390849731
 30
0.0
 10
-17.9954456669663
 20
26.52362204724409
 30
0.0
  0
SPLINE
  5
1C1
330
1B
100
AcDbEntity
 67
     1
  8
0
  6
Continuous
 62
     7
370
    25
100
AcDbSpline
210
0.0
220
0.0
230
1.0
 70
     8
 71
     3
 72
    16
 73
    12
 74
     0
 42
0.000000001
 43
0.00000001
 40
0.0
 40
0.0
 40
0.0
 40
0.0
 40
0.1208241204769017
 40
0.2391886276803298
 40
0.3551056740364136
 40
0.4685882014822252
 40
0.5796500062788993
 40
0.6883058100327318
 40
0.794571337559866
 40
0.8984634022944006
 40
1.0
 40
1.0
 40
1.0
 40
1.0
 10
-17.92901573780669
 20
26.38127066415568
 30
0.0
 10
-17.92825222765378
 20
26.38297553284243
 30
0.0
 10
-17.926740750103
 20
26.38635056425131
 30
0.0
 10
-17.92481442516965
 20
26.39155154651562
 30
0.0
 10
-17.92316098236038
 20
26.39675643301148
 30
0.0
 10
-17.92179375195693
 20
26.40195619232829
 30
0.0
 10
-17.92069823004875
 20
26.40712510473502
 30
0.0
 10
-17.91986422555528
 20
26.41224413763684
 30
0.0
 10
-17.91928659250025
 20
26.41729486625555
 30
0.0
 10
-17.91893307971932
 20
26.42226101957691
 30
0.0
 10
-17.91888967783379
 20
26.42554312038583
 30
0.0
 10
-17.91886822571635
 20
26.42716535433071
 30
0.0
  0
SPLINE
  5
1C3
330
1B
100
AcDbEntity
 67
     1
  8
0
  6
Continuous
 62
     7
370
    25
100
AcDbSpline
210
0.0
220
0.0
230
1.0
 70
     8
 71
     3
 72
    21
 73
    17
 74
     0
 42
0.000000001
 43
0.00000001
 40
0.0
 40
0.0
 40
0.0
 40
0.0
 40
0.0393975353061782
 40
0.0796953360589187
 40
0.1209032927041539
 40
0.1630306529562807
 40
0.2060860704171185
 40
0.2500776493261047
 40
0.3535689113058313
 40
0.50014344226219
 40
0.6430743093762462
 40
0.7499540758384201
 40
0.8151058904269058
 40
0.8784782288967651
 40
0.9400993491560119
 40
0.9999999999999999
 40
0.9999999999999999
 40
0.9999999999999999
 40
0.9999999999999999
 10
-17.91886822571635
 20
27.41141732283465
 30
0.0
 10
-17.91890045442428
 20
27.41341304966335
 30
0.0
 10
-17.91896564829212
 20
27.41745010728787
 30
0.0
 10
-17.91949651781155
 20
27.42354914848438
 30
0.0
 10
-17.92036310295099
 20
27.42973254652534
 30
0.0
 10
-17.92161242633753
 20
27.43597008401366
 30
0.0
 10
-17.92325075572322
 20
27.44222862988643
 30
0.0
 10
-17.92619363660384
 20
27.45124022459702
 30
0.0
 10
-17.93211395359745
 20
27.46447290369434
 30
0.0
 10
-17.94257901898521
 20
27.48009048076343
 30
0.0
 10
-17.95539321466634
 20
27.49262313118607
 30
0.0
 10
-17.96656170958554
 20
27.49994664218324
 30
0.0
 10
-17.97513156218531
 20
27.50394865457005
 30
0.0
 10
-17.98211933608535
 20
27.50623668894209
 30
0.0
 10
-17.98891150949622
 20
27.50762274608729
 30
0.0
 10
-17.99328826943531
 20
27.50779105347659
 30
0.0
 10
-17.9954456669663
 20
27.50787401574804
 30
0.0
  0
SPLINE
  5
1C4
330
1B
100
AcDbEntity
 67
     1
  8
0
  6
Continuous
 62
     7
370
    25
100
AcDbSpline
210
0.0
220
0.0
230
1.0
 70
     8
 71
     3
 72
    16
 73
    12
 74
     0
 42
0.000000001
 43
0.00000001
 40
0.0
 40
0.0
 40
0.0
 40
0.0
 40
0.1208241204764852
 40
0.2391886276795385
 40
0.3551056740353618
 40
0.4685882014810104
 40
0.579650006277788
 40
0.6883058100316247
 40
0.7945713375590383
 40
0.8984634022939444
 40
1.0
 40
1.0
 40
1.0
 40
1.0
 10
-17.92901573780669
 20
27.36552263265962
 30
0.0
 10
-17.92825222765378
 20
27.36722750134636
 30
0.0
 10
-17.926740750103
 20
27.37060253275522
 30
0.0
 10
-17.92481442516966
 20
27.37580351501953
 30
0.0
 10
-17.92316098236038
 20
27.38100840151537
 30
0.0
 10
-17.92179375195694
 20
27.38620816083218
 30
0.0
 10
-17.92069823004876
 20
27.3913770732389
 30
0.0
 10
-17.91986422555528
 20
27.39649610614072
 30
0.0
 10
-17.91928659250026
 20
27.40154683475946
 30
0.0
 10
-17.91893307971932
 20
27.40651298808083
 30
0.0
 10
-17.91888967783379
 20
27.40979508888976
 30
0.0
 10
-17.91886822571635
 20
27.41141732283465
 30
0.0
  0
SPLINE
  5
1C6
330
1B
100
AcDbEntity
 67
     1
  8
0
  6
Continuous
 62
     7
370
    25
100
AcDbSpline
210
0.0
220
0.0
230
1.0
 70
     8
 71
     3
 72
    16
 73
    12
 74
     0
 42
0.000000001
 43
0.00000001
 40
0.0
 40
0.0
 40
0.0
 40
0.0
 40
0.0826052814256666
 40
0.1653568234471286
 40
0.2484377548569206
 40
0.3320292163767512
 40
0.4163091884309283
 40
0.5014514204623447
 40
0.6695023800599862
 40
0.8352128589071709
 40
1.0
 40
1.0
 40
1.0
 40
1.0
 10
-18.18123593086117
 20
26.46681834079495
 30
0.0
 10
-18.1817293674369
 20
26.46455970577233
 30
0.0
 10
-18.1827171142653
 20
26.46003843659655
 30
0.0
 10
-18.1837583710925
 20
26.45315584163913
 30
0.0
 10
-18.18451642749551
 20
26.44620067659449
 30
0.0
 10
-18.18498730794586
 20
26.43916571951349
 30
0.0
 10
-18.18520271077518
 20
26.43205327748752
 30
0.0
 10
-18.18517117562016
 20
26.42255948067762
 30
0.0
 10
-18.18454113120574
 20
26.41079715527041
 30
0.0
 10
-18.18288168985899
 20
26.39692237658903
 30
0.0
 10
-18.1806957161085
 20
26.38797367547871
 30
0.0
 10
-18.17960578279849
 20
26.38351182527618
 30
0.0
  0
SPLINE
  5
1C7
330
1B
100
AcDbEntity
 67
     1
  8
0
  6
Continuous
 62
     7
370
    25
100
AcDbSpline
210
0.0
220
0.0
230
1.0
 70
     8
 71
     3
 72
    16
 73
    12
 74
     0
 42
0.000000001
 43
0.00000001
 40
0.0
 40
0.0
 40
0.0
 40
0.0
 40
0.0824427481214926
 40
0.1650182068642378
 40
0.2479082662028139
 40
0.3312929323959583
 40
0.4153491644675763
 40
0.5002498083980522
 40
0.6687657829069704
 40
0.8348739397513117
 40
1.0
 40
1.0
 40
1.0
 40
1.0
 10
-18.17960578279838
 20
26.38351182527618
 30
0.0
 10
-18.17853970211182
 20
26.38194093261329
 30
0.0
 10
-18.1764058246359
 20
26.37879661857338
 30
0.0
 10
-18.17282683064161
 20
26.3743279787898
 30
0.0
 10
-18.16902212779926
 20
26.37006932679124
 30
0.0
 10
-18.1649950144872
 20
26.36604569202104
 30
0.0
 10
-18.16077846748964
 20
26.36225808557407
 30
0.0
 10
-18.15496535865897
 20
26.35755539302464
 30
0.0
 10
-18.14743960792411
 20
26.35240557485952
 30
0.0
 10
-18.13806548025088
 20
26.34738090354158
 30
0.0
 10
-18.13126302554112
 20
26.3450305374734
 30
0.0
 10
-18.12787188269332
 20
26.34385883881138
 30
0.0
  0
SPLINE
  5
1C8
330
1B
100
AcDbEntity
 67
     1
  8
0
  6
Continuous
 62
     7
370
    25
100
AcDbSpline
210
0.0
220
0.0
230
1.0
 70
     8
 71
     3
 72
    16
 73
    12
 74
     0
 42
0.000000001
 43
0.00000001
 40
0.0
 40
0.0
 40
0.0
 40
0.0
 40
0.0823785258288725
 40
0.1649103642517277
 40
0.2477772536720644
 40
0.3311589156800274
 40
0.4152319002366892
 40
0.500168532122295
 40
0.6686322111200305
 40
0.8347665446816095
 40
1.0
 40
1.0
 40
1.0
 40
1.0
 10
-18.12787188269344
 20
26.34385883881142
 30
0.0
 10
-18.12644523557775
 20
26.34454160407694
 30
0.0
 10
-18.12358928624947
 20
26.34590840528515
 30
0.0
 10
-18.11916942827591
 20
26.34830633811537
 30
0.0
 10
-18.1147229139807
 20
26.3509858523157
 30
0.0
 10
-18.11027628635702
 20
26.35397914263337
 30
0.0
 10
-18.10586240308405
 20
26.35728501013832
 30
0.0
 10
-18.10008464604779
 20
26.36207430239352
 30
0.0
 10
-18.09316130829506
 20
26.36870322762362
 30
0.0
 10
-18.08535899605105
 20
26.37758936244061
 30
0.0
 10
-18.08029382895291
 20
26.38421069979265
 30
0.0
 10
-18.07776813065189
 20
26.38751236786728
 30
0.0
  0
SPLINE
  5
1C9
330
1B
100
AcDbEntity
 67
     1
  8
0
  6
Continuous
 62
     7
370
    25
100
AcDbSpline
210
0.0
220
0.0
230
1.0
 70
     8
 71
     3
 72
    10
 73
     6
 74
     0
 42
0.000000001
 43
0.00000001
 40
0.0
 40
0.0
 40
0.0
 40
0.0
 40
0.465046417614649
 40
0.9306651390038578
 40
0.9999999999999999
 40
0.9999999999999999
 40
0.9999999999999999
 40
0.9999999999999999
 10
-18.12787188269331
 20
26.34385883881138
 30
0.0
 10
-18.12724705445375
 20
26.34613218340414
 30
0.0
 10
-18.12599662903729
 20
26.35068167025382
 30
0.0
 10
-18.12345963155185
 20
26.35490458181931
 30
0.0
 10
-18.12165826901279
 20
26.3561073497725
 30
0.0
 10
-18.12142479600623
 20
26.35626323946385
 30
0.0
  0
SPLINE
  5
1CA
330
1B
100
AcDbEntity
 67
     1
  8
0
  6
Continuous
 62
     7
370
    25
100
AcDbSpline
210
0.0
220
0.0
230
1.0
 70
     8
 71
     3
 72
    16
 73
    12
 74
     0
 42
0.000000001
 43
0.00000001
 40
0.0
 40
0.0
 40
0.0
 40
0.0
 40
0.0823785258385137
 40
0.1649103642672095
 40
0.2477772536894468
 40
0.3311589156954885
 40
0.4152319002464499
 40
0.5001685321226572
 40
0.6686322111357682
 40
0.8347665446973609
 40
1.0
 40
1.0
 40
1.0
 40
1.0
 10
-18.12787188269344
 20
27.32811080731535
 30
0.0
 10
-18.12644523557758
 20
27.32879357258094
 30
0.0
 10
-18.12358928624903
 20
27.33016037378928
 30
0.0
 10
-18.11916942827513
 20
27.33255830661962
 30
0.0
 10
-18.1147229139798
 20
27.33523782081999
 30
0.0
 10
-18.11027628635621
 20
27.3382311111376
 30
0.0
 10
-18.10586240308356
 20
27.34153697864241
 30
0.0
 10
-18.10008464604741
 20
27.3463262708979
 30
0.0
 10
-18.09316130829467
 20
27.35295519612832
 30
0.0
 10
-18.08535899605059
 20
27.36184133094522
 30
0.0
 10
-18.08029382895268
 20
27.36846266829691
 30
0.0
 10
-18.07776813065189
 20
27.37176433637122
 30
0.0
  0
SPLINE
  5
1CB
330
1B
100
AcDbEntity
 67
     1
  8
0
  6
Continuous
 62
     7
370
    25
100
AcDbSpline
210
0.0
220
0.0
230
1.0
 70
     8
 71
     3
 72
    10
 73
     6
 74
     0
 42
0.000000001
 43
0.00000001
 40
0.0
 40
0.0
 40
0.0
 40
0.0
 40
0.4650464176147252
 40
0.9306651390037629
 40
1.0
 40
1.0
 40
1.0
 40
1.0
 10
-18.12787188269331
 20
27.32811080731532
 30
0.0
 10
-18.12724705445376
 20
27.33038415190809
 30
0.0
 10
-18.1259966290373
 20
27.33493363875777
 30
0.0
 10
-18.12345963155184
 20
27.33915655032323
 30
0.0
 10
-18.12165826901279
 20
27.34035931827643
 30
0.0
 10
-18.12142479600623
 20
27.34051520796779
 30
0.0
  0
SPLINE
  5
1CC
330
1B
100
AcDbEntity
 67
     1
  8
0
  6
Continuous
 62
     7
370
    25
100
AcDbSpline
210
0.0
220
0.0
230
1.0
 70
     8
 71
     3
 72
    16
 73
    12
 74
     0
 42
0.000000001
 43
0.00000001
 40
0.0
 40
0.0
 40
0.0
 40
0.0
 40
0.0826052814212707
 40
0.165356823440118
 40
0.2484377548490623
 40
0.3320292163697412
 40
0.4163091884264842
 40
0.501451420462145
 40
0.6695023800527093
 40
0.835212858899851
 40
1.0
 40
1.0
 40
1.0
 40
1.0
 10
-18.18123593086117
 20
27.4510703092989
 30
0.0
 10
-18.18172936743688
 20
27.4488116742764
 30
0.0
 10
-18.18271711426522
 20
27.4442904051008
 30
0.0
 10
-18.18375837109238
 20
27.43740781014361
 30
0.0
 10
-18.18451642749538
 20
27.43045264509903
 30
0.0
 10
-18.18498730794574
 20
27.42341768801795
 30
0.0
 10
-18.18520271077509
 20
27.41630524599177
 30
0.0
 10
-18.1851711756202
 20
27.40681144918188
 30
0.0
 10
-18.18454113120589
 20
27.39504912377474
 30
0.0
 10
-18.18288168985911
 20
27.38117434509336
 30
0.0
 10
-18.18069571610854
 20
27.37222564398284
 30
0.0
 10
-18.17960578279849
 20
27.36776379378013
 30
0.0
  0
SPLINE
  5
1CD
330
1B
100
AcDbEntity
 67
     1
  8
0
  6
Continuous
 62
     7
370
    25
100
AcDbSpline
210
0.0
220
0.0
230
1.0
 70
     8
 71
     3
 72
    16
 73
    12
 74
     0
 42
0.000000001
 43
0.00000001
 40
0.0
 40
0.0
 40
0.0
 40
0.0
 40
0.0824427480962303
 40
0.1650182068238626
 40
0.2479082661574222
 40
0.3312929323556043
 40
0.4153491644420549
 40
0.5002498083970565
 40
0.6687657828669931
 40
0.8348739397113379
 40
1.0
 40
1.0
 40
1.0
 40
1.0
 10
-18.17960578279838
 20
27.36776379378012
 30
0.0
 10
-18.17853970211214
 20
27.36619290111772
 30
0.0
 10
-18.17640582463673
 20
27.36304858707861
 30
0.0
 10
-18.17282683064307
 20
27.35857994729593
 30
0.0
 10
-18.16902212780094
 20
27.35432129529772
 30
0.0
 10
-18.1649950144887
 20
27.3502976605272
 30
0.0
 10
-18.1607784674905
 20
27.34651005407941
 30
0.0
 10
-18.15496535866017
 20
27.34180736152921
 30
0.0
 10
-18.14743960792583
 20
27.3366575433636
 30
0.0
 10
-18.13806548025256
 20
27.33163287204588
 30
0.0
 10
-18.13126302554195
 20
27.32928250597755
 30
0.0
 10
-18.12787188269332
 20
27.32811080731531
 30
0.0
  0
SPLINE
  5
1CE
330
1B
100
AcDbEntity
 67
     1
  8
0
  6
Continuous
 62
     7
370
    25
100
AcDbSpline
210
0.0
220
0.0
230
1.0
 70
     8
 71
     3
 72
    10
 73
     6
 74
     0
 42
0.000000001
 43
0.00000001
 40
0.0
 40
0.0
 40
0.0
 40
0.0
 40
0.300104988294107
 40
0.652390685311949
 40
0.9999999999999999
 40
0.9999999999999999
 40
0.9999999999999999
 40
0.9999999999999999
 10
-18.12365687398319
 20
27.48206254778253
 30
0.0
 10
-18.1247118111734
 20
27.4828917217048
 30
0.0
 10
-18.12700511259566
 20
27.48469424203765
 30
0.0
 10
-18.12953054669348
 20
27.48928514688708
 30
0.0
 10
-18.13060068483731
 20
27.49291903453042
 30
0.0
 10
-18.13113217881937
 20
27.49472383835418
 30
0.0
  0
SPLINE
  5
1CF
330
1B
100
AcDbEntity
 67
     1
  8
0
  6
Continuous
 62
     7
370
    25
100
AcDbSpline
210
0.0
220
0.0
230
1.0
 70
     8
 71
     3
 72
    10
 73
     6
 74
     0
 42
0.000000001
 43
0.00000001
 40
0.0
 40
0.0
 40
0.0
 40
0.0
 40
0.3001049882946452
 40
0.6523906853131237
 40
1.0
 40
1.0
 40
1.0
 40
1.0
 10
-18.12365687398318
 20
26.49781057927859
 30
0.0
 10
-18.12471181117339
 20
26.49863975320086
 30
0.0
 10
-18.12700511259566
 20
26.50044227353371
 30
0.0
 10
-18.12953054669349
 20
26.50503317838319
 30
0.0
 10
-18.13060068483731
 20
26.5086670660265
 30
0.0
 10
-18.13113217881937
 20
26.51047186985024
 30
0.0
  0
SPLINE
  5
1D0
330
1B
100
AcDbEntity
 67
     1
  8
0
  6
Continuous
 62
     7
370
    25
100
AcDbSpline
210
0.0
220
0.0
230
1.0
 70
     8
 71
     3
 72
    20
 73
    16
 74
     0
 42
0.000000001
 43
0.00000001
 40
0.0
 40
0.0
 40
0.0
 40
0.0
 40
0.0568912759660322
 40
0.1154633779424189
 40
0.175730297250024
 40
0.2377048721950998
 40
0.3013989033304474
 40
0.3668232556375641
 40
0.4339879492148149
 40
0.5029022398663504
 40
0.6047523367427458
 40
0.7503632672369333
 40
0.8499467764745381
 40
0.9331601360264337
 40
1.0
 40
1.0
 40
1.0
 40
1.0
 10
-17.9954456669663
 20
27.31496062992126
 30
0.0
 10
-17.99404488966866
 20
27.31499574056792
 30
0.0
 10
-17.99120194976647
 20
27.3150669991888
 30
0.0
 10
-17.98680410963529
 20
27.31565536637346
 30
0.0
 10
-17.98225524230019
 20
27.31663160025627
 30
0.0
 10
-17.97757063316027
 20
27.31806012121935
 30
0.0
 10
-17.9727774648104
 20
27.31995864620854
 30
0.0
 10
-17.9679035088195
 20
27.32235517685397
 30
0.0
 10
-17.96298025834082
 20
27.32527141298111
 30
0.0
 10
-17.95729753135068
 20
27.32924728242658
 30
0.0
 10
-17.95001137414679
 20
27.33538475761853
 30
0.0
 10
-17.94263975050415
 20
27.34338209111043
 30
0.0
 10
-17.93644604533563
 20
27.35198148773771
 30
0.0
 10
-17.9322037984254
 20
27.35901406544256
 30
0.0
 10
-17.92999820128929
 20
27.36351688986502
 30
0.0
 10
-17.92901573780669
 20
27.36552263265962
 30
0.0
  0
SPLINE
  5
1D1
330
1B
100
AcDbEntity
 67
     1
  8
0
  6
Continuous
 62
     7
370
    25
100
AcDbSpline
210
0.0
220
0.0
230
1.0
 70
     8
 71
     3
 72
    20
 73
    16
 74
     0
 42
0.000000001
 43
0.00000001
 40
0.0
 40
0.0
 40
0.0
 40
0.0
 40
0.0568912763379638
 40
0.1154633785799031
 40
0.1757302980466662
 40
0.2377048730446415
 40
0.3013989041267979
 40
0.3668232562748214
 40
0.4339879495872666
 40
0.502902239868613
 40
0.6047523354156183
 40
0.7503632672365681
 40
0.8499467785481308
 40
0.9331601381007852
 40
1.0
 40
1.0
 40
1.0
 40
1.0
 10
-17.9954456669663
 20
26.33070866141733
 30
0.0
 10
-17.99404488965956
 20
26.33074377206444
 30
0.0
 10
-17.99120194974178
 20
26.33081503068615
 30
0.0
 10
-17.98680410959145
 20
26.33140339787695
 30
0.0
 10
-17.98225524224533
 20
26.33237963176709
 30
0.0
 10
-17.97757063310254
 20
26.333808152737
 30
0.0
 10
-17.97277746475768
 20
26.33570667773026
 30
0.0
 10
-17.9679035087791
 20
26.33810320837472
 30
0.0
 10
-17.96298025831945
 20
26.34101944449372
 30
0.0
 10
-17.95729753137354
 20
26.34499531390752
 30
0.0
 10
-17.95001137417254
 20
26.35113278908497
 30
0.0
 10
-17.94263975048485
 20
26.35913012261928
 30
0.0
 10
-17.93644604526179
 20
26.36772951934501
 30
0.0
 10
-17.93220379836257
 20
26.37476209706117
 30
0.0
 10
-17.92999820125822
 20
26.37926492142273
 30
0.0
 10
-17.92901573780669
 20
26.38127066415568
 30
0.0
  0
SPLINE
  5
1D2
330
1B
100
AcDbEntity
 67
     1
  8
0
  6
Continuous
 62
     7
370
    25
100
AcDbSpline
210
0.0
220
0.0
230
1.0
 70
     8
 71
     3
 72
    10
 73
     6
 74
     0
 42
0.000000001
 43
0.00000001
 40
0.0
 40
0.0
 40
0.0
 40
0.0
 40
0.5
 40
0.5
 40
1.0
 40
1.0
 40
1.0
 40
1.0
 10
-18.15735230769315
 20
26.39144625968878
 30
0.0
 10
-18.16003559140925
 20
26.3914462596888
 30
0.0
 10
-18.16382533977241
 20
26.39071829414828
 30
0.0
 10
-18.17199215403536
 20
26.38780643198632
 30
0.0
 10
-18.17623183836986
 20
26.38567151850189
 30
0.0
 10
-18.17960578279839
 20
26.38351182527618
 30
0.0
  0
SPLINE
  5
1D3
330
1B
100
AcDbEntity
 67
     1
  8
0
  6
Continuous
 62
     7
370
    25
100
AcDbSpline
210
0.0
220
0.0
230
1.0
 70
     8
 71
     3
 72
    10
 73
     6
 74
     0
 42
0.000000001
 43
0.00000001
 40
0.0
 40
0.0
 40
0.0
 40
0.0
 40
0.5
 40
0.5
 40
1.0
 40
1.0
 40
1.0
 40
1.0
 10
-18.15735230769315
 20
27.37569822819272
 30
0.0
 10
-18.16003559140925
 20
27.37569822819273
 30
0.0
 10
-18.16382533977241
 20
27.37497026265222
 30
0.0
 10
-18.17199215403536
 20
27.37205840049025
 30
0.0
 10
-18.17623183836986
 20
27.36992348700583
 30
0.0
 10
-18.17960578279839
 20
27.36776379378012
 30
0.0
  0
SPLINE
  5
1D4
330
1B
100
AcDbEntity
 67
     1
  8
0
  6
Continuous
 62
     7
370
    25
100
AcDbSpline
210
0.0
220
0.0
230
1.0
 70
     8
 71
     3
 72
    10
 73
     6
 74
     0
 42
0.000000001
 43
0.00000001
 40
0.0
 40
0.0
 40
0.0
 40
0.0
 40
0.5
 40
0.5
 40
1.0
 40
1.0
 40
1.0
 40
1.0
 10
-18.15868616120303
 20
27.44386301066358
 30
0.0
 10
-18.16136944491909
 20
27.44386301066358
 30
0.0
 10
-18.16518637760481
 20
27.44452426322092
 30
0.0
 10
-18.17346192915798
 20
27.44716927345028
 30
0.0
 10
-18.17778133728924
 20
27.44910853694946
 30
0.0
 10
-18.18123593086118
 20
27.4510703092989
 30
0.0
  0
SPLINE
  5
1D5
330
1B
100
AcDbEntity
 67
     1
  8
0
  6
Continuous
 62
     7
370
    25
100
AcDbSpline
210
0.0
220
0.0
230
1.0
 70
     8
 71
     3
 72
    10
 73
     6
 74
     0
 42
0.000000001
 43
0.00000001
 40
0.0
 40
0.0
 40
0.0
 40
0.0
 40
0.5
 40
0.5
 40
1.0
 40
1.0
 40
1.0
 40
1.0
 10
-18.15868616120303
 20
26.45961104215965
 30
0.0
 10
-18.16136944491909
 20
26.45961104215965
 30
0.0
 10
-18.16518637760481
 20
26.46027229471699
 30
0.0
 10
-18.17346192915798
 20
26.46291730494636
 30
0.0
 10
-18.17778133728924
 20
26.46485656844552
 30
0.0
 10
-18.18123593086118
 20
26.46681834079496
 30
0.0
  0
LWPOLYLINE
  5
1F4
330
1B
100
AcDbEntity
 67
     1
  8
0
  6
Continuous
 62
     8
370
    25
100
AcDbPolyline
 90
        7
 70
   128
 43
0.0
 10
-18.1172996389
 20
26.5236127682
 10
-18.1093435499
 20
26.5231090453
 10
-18.0839638658
 20
26.512003854
 10
-18.0635154958
 20
26.4879827702
 10
-18.0511115189
 20
26.4547027861
 10
-18.0486403281
 20
26.4172304777
 10
-18.0564781398
 20
26.3812706642
  0
LWPOLYLINE
  5
1F5
330
1B
100
AcDbEntity
 67
     1
  8
0
  6
Continuous
 62
     8
370
    25
100
AcDbPolyline
 90
        7
 70
   128
 43
0.0
 10
-18.1172996389
 20
27.5078647367
 10
-18.1093435499
 20
27.5073610138
 10
-18.0839638658
 20
27.4962558225
 10
-18.0635154958
 20
27.4722347387
 10
-18.0511115189
 20
27.4389547546
 10
-18.0486403281
 20
27.4014824462
 10
-18.0564781398
 20
27.3655226327
  0
LINE
  5
203
330
1B
100
AcDbEntity
 67
     1
  8
0
  6
Continuous
 62
     7
370
    25
100
AcDbLine
 10
-18.0812193446
 20
26.4664983091
 30
0.0
 11
-18.0797503376
 21
26.3914266928
 31
0.0
  0
LINE
  5
204
330
1B
100
AcDbEntity
 67
     1
  8
0
  6
Continuous
 62
     7
370
    25
100
AcDbLine
 10
-18.0812193446
 20
27.4507502776
 30
0.0
 11
-18.0797503376
 21
27.3756786613
 31
0.0
  0
LINE
  5
205
330
1B
100
AcDbEntity
 67
     1
  8
0
  6
Continuous
 62
     7
370
    25
100
AcDbLine
 10
-17.995445667
 20
26.5236220472
 30
0.0
 11
-18.116355378
 21
26.5236220472
 31
0.0
  0
LINE
  5
206
330
1B
100
AcDbEntity
 67
     1
  8
0
  6
Continuous
 62
     7
370
    25
100
AcDbLine
 10
-17.995445667
 20
27.5078740157
 30
0.0
 11
-18.116355378
 21
27.5078740157
 31
0.0
  0
LINE
  5
207
330
1B
100
AcDbEntity
 67
     1
  8
0
  6
Continuous
 62
     7
370
    25
100
AcDbLine
 10
-18.0797754236
 20
26.3927086787
 30
0.0
 11
-18.1214984975
 21
26.3563569217
 31
0.0
  0
LINE
  5
208
330
1B
100
AcDbEntity
 67
     1
  8
0
  6
Continuous
 62
     7
370
    25
100
AcDbLine
 10
-18.0797754236
 20
27.3769606472
 30
0.0
 11
-18.1214984975
 21
27.3406088902
 31
0.0
  0
LINE
  5
209
330
1B
100
AcDbEntity
 67
     1
  8
0
  6
Continuous
 62
     7
370
    25
100
AcDbLine
 10
-18.123824064
 20
27.481862834
 30
0.0
 11
-18.0811886893
 21
27.449183683
 31
0.0
  0
LINE
  5
20A
330
1B
100
AcDbEntity
 67
     1
  8
0
  6
Continuous
 62
     7
370
    25
100
AcDbLine
 10
-18.123824064
 20
26.4976108655
 30
0.0
 11
-18.0811886893
 21
26.4649317145
 31
0.0
  0
LINE
  5
20B
330
1B
100
AcDbEntity
 67
     1
  8
0
  6
Continuous
 62
     7
370
    25
100
AcDbLine
 10
-18.116355378
 20
27.3149606299
 30
0.0
 11
-17.995445667
 21
27.3149606299
 31
0.0
  0
LINE
  5
20C
330
1B
100
AcDbEntity
 67
     1
  8
0
  6
Continuous
 62
     7
370
    25
100
AcDbLine
 10
-18.116355378
 20
26.3307086614
 30
0.0
 11
-17.995445667
 21
26.3307086614
 31
0.0
  0
LINE
  5
20D
330
1B
100
AcDbEntity
 67
     1
  8
0
  6
Continuous
 62
     7
370
    25
100
AcDbLine
 10
-17.3228346457
 20
25.9350393701
 30
0.0
 11
-17.3228346457
 21
27.7854330709
 31
0.0
  0
LINE
  5
20E
330
1B
100
AcDbEntity
 67
     1
  8
0
  6
Continuous
 62
     7
370
    25
100
AcDbLine
 10
-17.4015748031
 20
27.9035433071
 30
0.0
 11
-17.4015748031
 21
47.687007874
 31
0.0
  0
LINE
  5
20F
330
1B
100
AcDbEntity
 67
     1
  8
0
  6
Continuous
 62
     7
370
    25
100
AcDbLine
 10
-18.1102362205
 20
27.7854330709
 30
0.0
 11
-18.1102362205
 21
27.5078740157
 31
0.0
  0
LINE
  5
210
330
1B
100
AcDbEntity
 67
     1
  8
0
  6
Continuous
 62
     7
370
    25
100
AcDbLine
 10
-18.1102362205
 20
27.3149606299
 30
0.0
 11
-18.1102362205
 21
26.5236220472
 31
0.0
  0
LINE
  5
211
330
1B
100
AcDbEntity
 67
     1
  8
0
  6
Continuous
 62
     7
370
    25
100
AcDbLine
 10
-18.1102362205
 20
26.3307086614
 30
0.0
 11
-18.1102362205
 21
25.9350393701
 31
0.0
  0
LINE
  5
212
330
1B
100
AcDbEntity
 67
     1
  8
0
  6
Continuous
 62
     7
370
    25
100
AcDbLine
 10
-18.031496063
 20
47.687007874
 30
0.0
 11
-18.031496063
 21
27.9035433071
 31
0.0
  0
LINE
  5
213
330
1B
100
AcDbEntity
 67
     1
  8
0
  6
Continuous
 62
     7
370
    25
100
AcDbLine
 10
-17.8346456693
 20
1.5551181102
 30
0.0
 11
-17.8346456693
 21
1.0826771654
 31
0.0
  0
LINE
  5
214
330
1B
100
AcDbEntity
 67
     1
  8
0
  6
Continuous
 62
     7
370
    25
100
AcDbLine
 10
-17.5984251969
 20
1.0826771654
 30
0.0
 11
-17.5984251969
 21
1.5551181102
 31
0.0
  0
LINE
  5
215
330
1B
100
AcDbEntity
 67
     1
  8
0
  6
Continuous
 62
     7
370
    25
100
AcDbLine
 10
-17.5984251969
 20
19.9212598425
 30
0.0
 11
-17.5984251969
 21
20.3937007874
 31
0.0
  0
LINE
  5
216
330
1B
100
AcDbEntity
 67
     1
  8
0
  6
Continuous
 62
     7
370
    25
100
AcDbLine
 10
-17.8346456693
 20
20.3937007874
 30
0.0
 11
-17.8346456693
 21
19.9212598425
 31
0.0
  0
LINE
  5
217
330
1B
100
AcDbEntity
 67
     1
  8
0
  6
Continuous
 62
     7
370
    25
100
AcDbLine
 10
-11.4182460106
 20
-11.25
 30
0.0
 11
-24.0166712075
 21
-11.25
 31
0.0
  0
LINE
  5
218
330
1B
100
AcDbEntity
 67
     1
  8
0
  6
Continuous
 62
     7
370
    25
100
AcDbLine
 10
-11.43793105
 20
-11.3484251969
 30
0.0
 11
-11.43793105
 21
-11.2303149606
 31
0.0
  0
LINE
  5
219
330
1B
100
AcDbEntity
 67
     1
  8
0
  6
Continuous
 62
     7
370
    25
100
AcDbLine
 10
-24.0166712075
 20
-11.3287401575
 30
0.0
 11
-11.4182460106
 21
-11.3287401575
 31
0.0
  0
LINE
  5
21A
330
1B
100
AcDbEntity
 67
     1
  8
0
  6
Continuous
 62
     7
370
    25
100
AcDbLine
 10
-23.9969861681
 20
-11.2303149606
 30
0.0
 11
-23.9969861681
 21
-11.3484251969
 31
0.0
  0
LINE
  5
21B
330
1B
100
AcDbEntity
 67
     1
  8
0
  6
Continuous
 62
     7
370
    25
100
AcDbLine
 10
-11.4182460106
 20
-11.25
 30
0.0
 11
-11.4182460106
 21
-11.3287401575
 31
0.0
  0
LINE
  5
21C
330
1B
100
AcDbEntity
 67
     1
  8
0
  6
Continuous
 62
     7
370
    25
100
AcDbLine
 10
-23.9969861681
 20
-11.2303149606
 30
0.0
 11
-11.43793105
 21
-11.2303149606
 31
0.0
  0
LINE
  5
21D
330
1B
100
AcDbEntity
 67
     1
  8
0
  6
Continuous
 62
     7
370
    25
100
AcDbLine
 10
-24.0166712075
 20
-11.3287401575
 30
0.0
 11
-24.0166712075
 21
-11.25
 31
0.0
  0
LINE
  5
21E
330
1B
100
AcDbEntity
 67
     1
  8
0
  6
Continuous
 62
     7
370
    25
100
AcDbLine
 10
-19.6850393701
 20
0.9645669291
 30
0.0
 11
-19.6850393701
 21
-1.2007874016
 31
0.0
  0
LINE
  5
21F
330
1B
100
AcDbEntity
 67
     1
  8
0
  6
Continuous
 62
     7
370
    25
100
AcDbLine
 10
-15.7480314961
 20
0.7874015748
 30
0.0
 11
-19.6850393701
 21
0.7874015748
 31
0.0
  0
LINE
  5
220
330
1B
100
AcDbEntity
 67
     1
  8
0
  6
Continuous
 62
     7
370
    25
100
AcDbLine
 10
-15.7480314961
 20
-1.2007874016
 30
0.0
 11
-15.7480314961
 21
0.9645669291
 31
0.0
  0
LINE
  5
221
330
1B
100
AcDbEntity
 67
     1
  8
0
  6
Continuous
 62
     7
370
    25
100
AcDbLine
 10
-19.4881889764
 20
-1.3976377953
 30
0.0
 11
-15.9448818898
 21
-1.3976377953
 31
0.0
  0
LINE
  5
222
330
1B
100
AcDbEntity
 67
     1
  8
0
  6
Continuous
 62
     7
370
    25
100
AcDbLine
 10
-15.7480314961
 20
19.625984252
 30
0.0
 11
-19.6850393701
 21
19.625984252
 31
0.0
  0
LINE
  5
223
330
1B
100
AcDbEntity
 67
     1
  8
0
  6
Continuous
 62
     7
370
    25
100
AcDbLine
 10
-7.9930662702
 20
19.8031496063
 30
0.0
 11
-27.4418509479
 21
19.8031496063
 31
0.0
  0
LINE
  5
224
330
1B
100
AcDbEntity
 67
     1
  8
0
  6
Continuous
 62
     7
370
    25
100
AcDbLine
 10
-19.6850393701
 20
19.8031496063
 30
0.0
 11
-19.6850393701
 21
17.6377952756
 31
0.0
  0
LINE
  5
225
330
1B
100
AcDbEntity
 67
     1
  8
0
  6
Continuous
 62
     7
370
    25
100
AcDbLine
 10
-15.7480314961
 20
17.6377952756
 30
0.0
 11
-15.7480314961
 21
19.8031496063
 31
0.0
  0
LINE
  5
226
330
1B
100
AcDbEntity
 67
     1
  8
0
  6
Continuous
 62
     7
370
    25
100
AcDbLine
 10
-7.9930662702
 20
0.9645669291
 30
0.0
 11
-27.4418509479
 21
0.9645669291
 31
0.0
  0
LINE
  5
227
330
1B
100
AcDbEntity
 67
     1
  8
0
  6
Continuous
 62
     7
370
    25
100
AcDbLine
 10
-19.4881889764
 20
17.4409448819
 30
0.0
 11
-15.9448818898
 21
17.4409448819
 31
0.0
  0
LINE
  5
228
330
1B
100
AcDbEntity
 67
     1
  8
0
  6
Continuous
 62
     7
370
    25
100
AcDbLine
 10
-16.6937619179
 20
19.9212598425
 30
0.0
 11
-16.6937619179
 21
19.8031496063
 31
0.0
  0
LINE
  5
229
330
1B
100
AcDbEntity
 67
     1
  8
0
  6
Continuous
 62
     7
370
    25
100
AcDbLine
 10
-16.8807627669
 20
19.8031496063
 30
0.0
 11
-16.8807627669
 21
19.9212598425
 31
0.0
  0
LINE
  5
22A
330
1B
100
AcDbEntity
 67
     1
  8
0
  6
Continuous
 62
     7
370
    25
100
AcDbLine
 10
-7.9930662702
 20
19.9212598425
 30
0.0
 11
-17.6181102362
 21
19.9212598425
 31
0.0
  0
LINE
  5
22B
330
1B
100
AcDbEntity
 67
     1
  8
0
  6
Continuous
 62
     7
370
    25
100
AcDbLine
 10
-16.6937619179
 20
1.0826771654
 30
0.0
 11
-16.6937619179
 21
0.9645669291
 31
0.0
  0
LINE
  5
22C
330
1B
100
AcDbEntity
 67
     1
  8
0
  6
Continuous
 62
     7
370
    25
100
AcDbLine
 10
-16.8807627669
 20
0.9645669291
 30
0.0
 11
-16.8807627669
 21
1.0826771654
 31
0.0
  0
LINE
  5
22D
330
1B
100
AcDbEntity
 67
     1
  8
0
  6
Continuous
 62
     7
370
    25
100
AcDbLine
 10
-7.9930662702
 20
1.0826771654
 30
0.0
 11
-17.6181102362
 21
1.0826771654
 31
0.0
  0
LINE
  5
22E
330
1B
100
AcDbEntity
 67
     1
  8
0
  6
Continuous
 62
     7
370
    25
100
AcDbLine
 10
-16.8884873163
 20
19.9212598425
 30
0.0
 11
-16.8884873163
 21
19.8031496063
 31
0.0
  0
LINE
  5
22F
330
1B
100
AcDbEntity
 67
     1
  8
0
  6
Continuous
 62
     7
370
    25
100
AcDbLine
 10
-16.8884873163
 20
1.0826771654
 30
0.0
 11
-16.8884873163
 21
0.9645669291
 31
0.0
  0
LINE
  5
230
330
1B
100
AcDbEntity
 67
     1
  8
0
  6
Continuous
 62
     7
370
    25
100
AcDbLine
 10
-17.0849680932
 20
19.9212598425
 30
0.0
 11
-17.0849680932
 21
19.8031496063
 31
0.0
  0
LINE
  5
231
330
1B
100
AcDbEntity
 67
     1
  8
0
  6
Continuous
 62
     7
370
    25
100
AcDbLine
 10
-17.0849680932
 20
1.0826771654
 30
0.0
 11
-17.0849680932
 21
0.9645669291
 31
0.0
  0
LINE
  5
232
330
1B
100
AcDbEntity
 67
     1
  8
0
  6
Continuous
 62
     7
370
    25
100
AcDbLine
 10
-18.3546757857
 20
19.9212598425
 30
0.0
 11
-18.3546757857
 21
19.8031496063
 31
0.0
  0
LINE
  5
233
330
1B
100
AcDbEntity
 67
     1
  8
0
  6
Continuous
 62
     7
370
    25
100
AcDbLine
 10
-18.5518951035
 20
19.9212598425
 30
0.0
 11
-18.5518951035
 21
19.8031496063
 31
0.0
  0
LINE
  5
234
330
1B
100
AcDbEntity
 67
     1
  8
0
  6
Continuous
 62
     7
370
    25
100
AcDbLine
 10
-27.4418509479
 20
19.9212598425
 30
0.0
 11
-17.8149606299
 21
19.9212598425
 31
0.0
  0
LINE
  5
235
330
1B
100
AcDbEntity
 67
     1
  8
0
  6
Continuous
 62
     7
370
    25
100
AcDbLine
 10
-18.3546757857
 20
1.0826771654
 30
0.0
 11
-18.3546757857
 21
0.9645669291
 31
0.0
  0
LINE
  5
236
330
1B
100
AcDbEntity
 67
     1
  8
0
  6
Continuous
 62
     7
370
    25
100
AcDbLine
 10
-18.5518951035
 20
1.0826771654
 30
0.0
 11
-18.5518951035
 21
0.9645669291
 31
0.0
  0
LINE
  5
237
330
1B
100
AcDbEntity
 67
     1
  8
0
  6
Continuous
 62
     7
370
    25
100
AcDbLine
 10
-27.4418509479
 20
1.0826771654
 30
0.0
 11
-17.8149606299
 21
1.0826771654
 31
0.0
  0
LINE
  5
238
330
1B
100
AcDbEntity
 67
     1
  8
0
  6
Continuous
 62
     7
370
    25
100
AcDbLine
 10
-18.5596196529
 20
19.8031496063
 30
0.0
 11
-18.5596196529
 21
19.9212598425
 31
0.0
  0
LINE
  5
239
330
1B
100
AcDbEntity
 67
     1
  8
0
  6
Continuous
 62
     7
370
    25
100
AcDbLine
 10
-18.5596196529
 20
0.9645669291
 30
0.0
 11
-18.5596196529
 21
1.0826771654
 31
0.0
  0
LINE
  5
23A
330
1B
100
AcDbEntity
 67
     1
  8
0
  6
Continuous
 62
     7
370
    25
100
AcDbLine
 10
-18.7461155082
 20
19.9212598425
 30
0.0
 11
-18.7461155082
 21
19.8031496063
 31
0.0
  0
LINE
  5
23B
330
1B
100
AcDbEntity
 67
     1
  8
0
  6
Continuous
 62
     7
370
    25
100
AcDbLine
 10
-18.7461155082
 20
1.0826771654
 30
0.0
 11
-18.7461155082
 21
0.9645669291
 31
0.0
  0
LINE
  5
23C
330
1B
100
AcDbEntity
 67
     1
  8
0
  6
Continuous
 62
     7
370
    25
100
AcDbLine
 10
-16.2957045917
 20
19.9212598425
 30
0.0
 11
-16.2957045917
 21
19.8031496063
 31
0.0
  0
LINE
  5
23D
330
1B
100
AcDbEntity
 67
     1
  8
0
  6
Continuous
 62
     7
370
    25
100
AcDbLine
 10
-16.2957045917
 20
1.0826771654
 30
0.0
 11
-16.2957045917
 21
0.9645669291
 31
0.0
  0
LINE
  5
23E
330
1B
100
AcDbEntity
 67
     1
  8
0
  6
Continuous
 62
     7
370
    25
100
AcDbLine
 10
-19.13971762
 20
19.9212598425
 30
0.0
 11
-19.13971762
 21
19.8031496063
 31
0.0
  0
LINE
  5
23F
330
1B
100
AcDbEntity
 67
     1
  8
0
  6
Continuous
 62
     7
370
    25
100
AcDbLine
 10
-19.13971762
 20
1.0826771654
 30
0.0
 11
-19.13971762
 21
0.9645669291
 31
0.0
  0
LINE
  5
240
330
1B
100
AcDbEntity
 67
     1
  8
0
  6
Continuous
 62
     7
370
    25
100
AcDbLine
 10
-18.3539629069
 20
19.8031496063
 30
0.0
 11
-18.3539629069
 21
19.9212598425
 31
0.0
  0
LINE
  5
241
330
1B
100
AcDbEntity
 67
     1
  8
0
  6
Continuous
 62
     7
370
    25
100
AcDbLine
 10
-18.3539629069
 20
0.9645669291
 30
0.0
 11
-18.3539629069
 21
1.0826771654
 31
0.0
  0
LINE
  5
242
330
1B
100
AcDbEntity
 67
     1
  8
0
  6
Continuous
 62
     7
370
    25
100
AcDbLine
 10
-17.1106465962
 20
19.8031496063
 30
0.0
 11
-17.1106465962
 21
19.9212598425
 31
0.0
  0
LINE
  5
243
330
1B
100
AcDbEntity
 67
     1
  8
0
  6
Continuous
 62
     7
370
    25
100
AcDbLine
 10
-17.1106465962
 20
0.9645669291
 30
0.0
 11
-17.1106465962
 21
1.0826771654
 31
0.0
  0
LINE
  5
244
330
1B
100
AcDbEntity
 67
     1
  8
0
  6
Continuous
 62
     7
370
    25
100
AcDbLine
 10
-18.3273323014
 20
19.8031496063
 30
0.0
 11
-18.3273323014
 21
19.9212598425
 31
0.0
  0
LINE
  5
245
330
1B
100
AcDbEntity
 67
     1
  8
0
  6
Continuous
 62
     7
370
    25
100
AcDbLine
 10
-18.3273323014
 20
0.9645669291
 30
0.0
 11
-18.3273323014
 21
1.0826771654
 31
0.0
  0
LINE
  5
246
330
1B
100
AcDbEntity
 67
     1
  8
0
  6
Continuous
 62
     7
370
    25
100
AcDbLine
 10
-17.6055423538
 20
19.8031496063
 30
0.0
 11
-17.6055423538
 21
19.9212598425
 31
0.0
  0
LINE
  5
247
330
1B
100
AcDbEntity
 67
     1
  8
0
  6
Continuous
 62
     7
370
    25
100
AcDbLine
 10
-17.6055423538
 20
0.9645669291
 30
0.0
 11
-17.6055423538
 21
1.0826771654
 31
0.0
  0
LINE
  5
248
330
1B
100
AcDbEntity
 67
     1
  8
0
  6
Continuous
 62
     7
370
    25
100
AcDbLine
 10
-17.8303596746
 20
19.8031496063
 30
0.0
 11
-17.8303596746
 21
19.9212598425
 31
0.0
  0
LINE
  5
249
330
1B
100
AcDbEntity
 67
     1
  8
0
  6
Continuous
 62
     7
370
    25
100
AcDbLine
 10
-17.8303596746
 20
0.9645669291
 30
0.0
 11
-17.8303596746
 21
1.0826771654
 31
0.0
  0
LINE
  5
24A
330
1B
100
AcDbEntity
 67
     1
  8
0
  6
Continuous
 62
     7
370
    25
100
AcDbLine
 10
-17.6181102362
 20
20.0787401575
 30
0.0
 11
-17.8149606299
 21
20.0787401575
 31
0.0
  0
LINE
  5
24B
330
1B
100
AcDbEntity
 67
     1
  8
0
  6
Continuous
 62
     7
370
    25
100
AcDbLine
 10
-17.6181102362
 20
19.8031496063
 30
0.0
 11
-17.6181102362
 21
20.0787401575
 31
0.0
  0
LINE
  5
24C
330
1B
100
AcDbEntity
 67
     1
  8
0
  6
Continuous
 62
     7
370
    25
100
AcDbLine
 10
-17.8149606299
 20
20.0787401575
 30
0.0
 11
-17.8149606299
 21
19.8031496063
 31
0.0
  0
LINE
  5
24D
330
1B
100
AcDbEntity
 67
     1
  8
0
  6
Continuous
 62
     7
370
    25
100
AcDbLine
 10
-17.6181102362
 20
1.2401574803
 30
0.0
 11
-17.8149606299
 21
1.2401574803
 31
0.0
  0
LINE
  5
24E
330
1B
100
AcDbEntity
 67
     1
  8
0
  6
Continuous
 62
     7
370
    25
100
AcDbLine
 10
-17.6181102362
 20
0.9645669291
 30
0.0
 11
-17.6181102362
 21
1.2401574803
 31
0.0
  0
LINE
  5
24F
330
1B
100
AcDbEntity
 67
     1
  8
0
  6
Continuous
 62
     7
370
    25
100
AcDbLine
 10
-17.8149606299
 20
1.2401574803
 30
0.0
 11
-17.8149606299
 21
0.9645669291
 31
0.0
  0
LINE
  5
250
330
1B
100
AcDbEntity
 67
     1
  8
0
  6
Continuous
 62
     7
370
    25
100
AcDbLine
 10
-17.6155397089
 20
19.9212598425
 30
0.0
 11
-17.6155397089
 21
19.8031496063
 31
0.0
  0
LINE
  5
251
330
1B
100
AcDbEntity
 67
     1
  8
0
  6
Continuous
 62
     7
370
    25
100
AcDbLine
 10
-17.6155397089
 20
1.0826771654
 30
0.0
 11
-17.6155397089
 21
0.9645669291
 31
0.0
  0
LINE
  5
252
330
1B
100
AcDbEntity
 67
     1
  8
0
  6
Continuous
 62
     7
370
    25
100
AcDbLine
 10
-17.8202637581
 20
19.9212598425
 30
0.0
 11
-17.8202637581
 21
19.8031496063
 31
0.0
  0
LINE
  5
253
330
1B
100
AcDbEntity
 67
     1
  8
0
  6
Continuous
 62
     7
370
    25
100
AcDbLine
 10
-17.8202637581
 20
1.0826771654
 30
0.0
 11
-17.8202637581
 21
0.9645669291
 31
0.0
  0
LINE
  5
254
330
1B
100
AcDbEntity
 67
     1
  8
0
  6
Continuous
 62
     7
370
    25
100
AcDbLine
 10
-17.8198206337
 20
19.9212598425
 30
0.0
 11
-17.8198206337
 21
19.8031496063
 31
0.0
  0
LINE
  5
255
330
1B
100
AcDbEntity
 67
     1
  8
0
  6
Continuous
 62
     7
370
    25
100
AcDbLine
 10
-17.8198206337
 20
1.0826771654
 30
0.0
 11
-17.8198206337
 21
0.9645669291
 31
0.0
  0
LINE
  5
256
330
1B
100
AcDbEntity
 67
     1
  8
0
  6
Continuous
 62
     7
370
    25
100
AcDbLine
 10
-16.1087037427
 20
19.9212598425
 30
0.0
 11
-16.1087037427
 21
19.8031496063
 31
0.0
  0
LINE
  5
257
330
1B
100
AcDbEntity
 67
     1
  8
0
  6
Continuous
 62
     7
370
    25
100
AcDbLine
 10
-16.1087037427
 20
1.0826771654
 30
0.0
 11
-16.1087037427
 21
0.9645669291
 31
0.0
  0
LINE
  5
258
330
1B
100
AcDbEntity
 67
     1
  8
0
  6
Continuous
 62
     7
370
    25
100
AcDbLine
 10
-19.3262134753
 20
19.9212598425
 30
0.0
 11
-19.3262134753
 21
19.8031496063
 31
0.0
  0
LINE
  5
259
330
1B
100
AcDbEntity
 67
     1
  8
0
  6
Continuous
 62
     7
370
    25
100
AcDbLine
 10
-19.3262134753
 20
1.0826771654
 30
0.0
 11
-19.3262134753
 21
0.9645669291
 31
0.0
  0
LINE
  5
25A
330
1B
100
AcDbEntity
 67
     1
  8
0
  6
Continuous
 62
     7
370
    25
100
AcDbLine
 10
-27.4418509479
 20
24.6358267717
 30
0.0
 11
-27.4418509479
 21
19.9212598425
 31
0.0
  0
LINE
  5
25B
330
1B
100
AcDbEntity
 67
     1
  8
0
  6
Continuous
 62
     7
370
    25
100
AcDbLine
 10
-27.4418509479
 20
19.8031496063
 30
0.0
 11
-27.4418509479
 21
1.0826771654
 31
0.0
  0
LINE
  5
25C
330
1B
100
AcDbEntity
 67
     1
  8
0
  6
Continuous
 62
     7
370
    25
100
AcDbLine
 10
-27.4418509479
 20
0.9645669291
 30
0.0
 11
-27.4418509479
 21
-8.1988188976
 31
0.0
  0
LINE
  5
25D
330
1B
100
AcDbEntity
 67
     1
  8
0
  6
Continuous
 62
     7
370
    25
100
AcDbLine
 10
-11.1426670277
 20
-11.3484251969
 30
0.0
 11
-24.2922501903
 21
-11.3484251969
 31
0.0
  0
LINE
  5
25E
330
1B
100
AcDbEntity
 67
     1
  8
0
  6
Continuous
 62
     7
370
    25
100
AcDbLine
 10
-7.9930662702
 20
0.9645669291
 30
0.0
 11
-7.9930662702
 21
-8.1988188976
 31
0.0
  0
LINE
  5
25F
330
1B
100
AcDbEntity
 67
     1
  8
0
  6
Continuous
 62
     7
370
    25
100
AcDbLine
 10
-7.9930662702
 20
19.8031496063
 30
0.0
 11
-7.9930662702
 21
1.0826771654
 31
0.0
  0
LINE
  5
260
330
1B
100
AcDbEntity
 67
     1
  8
0
  6
Continuous
 62
     7
370
    25
100
AcDbLine
 10
-7.9930662702
 20
24.6358267717
 30
0.0
 11
-7.9930662702
 21
19.9212598425
 31
0.0
  0
LINE
  5
261
330
1B
100
AcDbEntity
 67
     1
  8
0
  6
Continuous
 62
     7
370
    25
100
AcDbLine
 10
-11.1426670277
 20
27.7854330709
 30
0.0
 11
-24.2922501903
 21
27.7854330709
 31
0.0
  0
LINE
  5
262
330
1B
100
AcDbEntity
 67
     1
  8
0
  6
Continuous
 62
     7
370
    25
100
AcDbLine
 10
-7.8749562418
 20
24.6358267717
 30
0.0
 11
-7.8749562418
 21
-8.1988188976
 31
0.0
  0
LINE
  5
263
330
1B
100
AcDbEntity
 67
     1
  8
0
  6
Continuous
 62
     7
370
    25
100
AcDbLine
 10
-11.1397128646
 20
-11.4665354331
 30
0.0
 11
-24.2922501903
 21
-11.4665354331
 31
0.0
  0
LINE
  5
264
330
1B
100
AcDbEntity
 67
     1
  8
0
  6
Continuous
 62
     7
370
    25
100
AcDbLine
 10
-27.5599609763
 20
24.6358267717
 30
0.0
 11
-27.5599609763
 21
-8.1988188976
 31
0.0
  0
LINE
  5
265
330
1B
100
AcDbEntity
 67
     1
  8
0
  6
Continuous
 62
     7
370
    25
100
AcDbLine
 10
-24.2922501903
 20
27.9035433071
 30
0.0
 11
-11.1397128646
 21
27.9035433071
 31
0.0
  0
LINE
  5
266
330
1B
100
AcDbEntity
 67
     1
  8
0
  6
Continuous
 62
     7
370
    25
100
AcDbLine
 10
-7.8720020787
 20
24.6358267717
 30
0.0
 11
-7.8749562418
 21
24.6358267717
 31
0.0
  0
LINE
  5
267
330
1B
100
AcDbEntity
 67
     1
  8
0
  6
Continuous
 62
     7
370
    25
100
AcDbLine
 10
-7.8720020787
 20
24.6358267717
 30
0.0
 11
-7.8720020787
 21
-8.1988188976
 31
0.0
  0
LINE
  5
268
330
1B
100
AcDbEntity
 67
     1
  8
0
  6
Continuous
 62
     7
370
    25
100
AcDbLine
 10
-7.8720020787
 20
-8.1988188976
 30
0.0
 11
-7.8749562418
 21
-8.1988188976
 31
0.0
  0
LINE
  5
269
330
1B
100
AcDbEntity
 67
     1
  8
0
  6
Continuous
 62
     7
370
    25
100
AcDbLine
 10
-27.4388967848
 20
-8.1988188976
 30
0.0
 11
-27.4418509479
 21
-8.1988188976
 31
0.0
  0
LINE
  5
26A
330
1B
100
AcDbEntity
 67
     1
  8
0
  6
Continuous
 62
     7
370
    25
100
AcDbLine
 10
-27.4400045959
 20
24.6358267717
 30
0.0
 11
-27.4418509479
 21
24.6358267717
 31
0.0
  0
LINE
  5
26B
330
1B
100
AcDbEntity
 67
     1
  8
0
  6
Continuous
 62
     7
370
    25
100
AcDbLine
 10
-27.4403369393
 20
1.0826771654
 30
0.0
 11
-27.4402261582
 21
1.1417322835
 31
0.0
  0
LINE
  5
26C
330
1B
100
AcDbEntity
 67
     1
  8
0
  6
Continuous
 62
     7
370
    25
100
AcDbLine
 10
-27.4400045959
 20
2.1456692913
 30
0.0
 11
-27.4400045959
 21
19.8031496063
 31
0.0
  0
LINE
  5
26D
330
1B
100
AcDbEntity
 67
     1
  8
0
  6
Continuous
 62
     7
370
    25
100
AcDbLine
 10
-27.4402261582
 20
1.1417322835
 30
0.0
 11
-27.4402261582
 21
2.1456692913
 31
0.0
  0
LINE
  5
26E
330
1B
100
AcDbEntity
 67
     1
  8
0
  6
Continuous
 62
     7
370
    25
100
AcDbLine
 10
-27.4403369393
 20
19.9212598425
 30
0.0
 11
-27.4402261582
 21
19.9803149606
 31
0.0
  0
LINE
  5
26F
330
1B
100
AcDbEntity
 67
     1
  8
0
  6
Continuous
 62
     7
370
    25
100
AcDbLine
 10
-27.4400045959
 20
20.9842519685
 30
0.0
 11
-27.4400045959
 21
24.6358267717
 31
0.0
  0
LINE
  5
270
330
1B
100
AcDbEntity
 67
     1
  8
0
  6
Continuous
 62
     7
370
    25
100
AcDbLine
 10
-27.4402261582
 20
19.9803149606
 30
0.0
 11
-27.4402261582
 21
20.9842519685
 31
0.0
  0
LINE
  5
271
330
1B
100
AcDbEntity
 67
     1
  8
0
  6
Continuous
 62
     7
370
    25
100
AcDbLine
 10
-27.4388967848
 20
-6.2744740562
 30
0.0
 11
-27.4388967848
 21
-8.1988188976
 31
0.0
  0
LINE
  5
272
330
1B
100
AcDbEntity
 67
     1
  8
0
  6
Continuous
 62
     7
370
    25
100
AcDbLine
 10
-27.4400045959
 20
-6.1909448819
 30
0.0
 11
-27.4400045959
 21
0.9645669291
 31
0.0
  0
LINE
  5
273
330
1B
100
AcDbEntity
 67
     1
  8
0
  6
Continuous
 62
     7
370
    25
100
AcDbLine
 10
-18.0564781398
 20
26.3812706642
 30
0.0
 11
-17.9290157378
 21
26.3812706642
 31
0.0
  0
LINE
  5
274
330
1B
100
AcDbEntity
 67
     1
  8
0
  6
Continuous
 62
     7
370
    25
100
AcDbLine
 10
-18.0564781398
 20
27.3655226327
 30
0.0
 11
-17.9290157378
 21
27.3655226327
 31
0.0
  0
LINE
  5
275
330
1B
100
AcDbEntity
 67
     1
  8
0
  6
Continuous
 62
     7
370
    25
100
AcDbLine
 10
-18.081224377
 20
26.3914462597
 30
0.0
 11
-18.1573523077
 21
26.3914462597
 31
0.0
  0
LINE
  5
276
330
1B
100
AcDbEntity
 67
     1
  8
0
  6
Continuous
 62
     7
370
    25
100
AcDbLine
 10
-18.081224377
 20
27.3756982282
 30
0.0
 11
-18.1573523077
 21
27.3756982282
 31
0.0
  0
LINE
  5
277
330
1B
100
AcDbEntity
 67
     1
  8
0
  6
Continuous
 62
     7
370
    25
100
AcDbLine
 10
-18.081084574
 20
26.4596110422
 30
0.0
 11
-18.1586861612
 21
26.4596110422
 31
0.0
  0
LINE
  5
278
330
1B
100
AcDbEntity
 67
     1
  8
0
  6
Continuous
 62
     7
370
    25
100
AcDbLine
 10
-18.081084574
 20
27.4438630107
 30
0.0
 11
-18.1586861612
 21
27.4438630107
 31
0.0
  0
LINE
  5
279
330
1B
100
AcDbEntity
 67
     1
  8
0
  6
Continuous
 62
     7
370
    25
100
AcDbLine
 10
-17.3228346457
 20
25.9350393701
 30
0.0
 11
-18.1102362205
 21
25.9350393701
 31
0.0
  0
LINE
  5
27A
330
1B
100
AcDbEntity
 67
     1
  8
0
  6
Continuous
 62
     7
370
    25
100
AcDbLine
 10
-17.995445667
 20
25.9350393701
 30
0.0
 11
-17.995445667
 21
26.3307086614
 31
0.0
  0
LINE
  5
27B
330
1B
100
AcDbEntity
 67
     1
  8
0
  6
Continuous
 62
     7
370
    25
100
AcDbLine
 10
-17.995445667
 20
26.5236220472
 30
0.0
 11
-17.995445667
 21
27.3149606299
 31
0.0
  0
LINE
  5
27C
330
1B
100
AcDbEntity
 67
     1
  8
0
  6
Continuous
 62
     7
370
    25
100
AcDbLine
 10
-17.995445667
 20
27.5078740157
 30
0.0
 11
-17.995445667
 21
27.7854330709
 31
0.0
  0
LINE
  5
27D
330
1B
100
AcDbEntity
 67
     1
  8
0
  6
Continuous
 62
     7
370
    25
100
AcDbLine
 10
-18.1586861612
 20
27.4438630107
 30
0.0
 11
-18.1573523077
 21
27.3756982282
 31
0.0
  0
LINE
  5
27E
330
1B
100
AcDbEntity
 67
     1
  8
0
  6
Continuous
 62
     7
370
    25
100
AcDbLine
 10
-18.1586861612
 20
26.4596110422
 30
0.0
 11
-18.1573523077
 21
26.3914462597
 31
0.0
  0
LINE
  5
27F
330
1B
100
AcDbEntity
 67
     1
  8
0
  6
Continuous
 62
     7
370
    25
100
AcDbLine
 10
-18.031496063
 20
47.687007874
 30
0.0
 11
-17.4015748031
 21
47.687007874
 31
0.0
  0
LINE
  5
280
330
1B
100
AcDbEntity
 67
     1
  8
0
  6
Continuous
 62
     7
370
    25
100
AcDbLine
 10
-17.5984251969
 20
1.5551181102
 30
0.0
 11
-17.8346456693
 21
1.5551181102
 31
0.0
  0
LINE
  5
281
330
1B
100
AcDbEntity
 67
     1
  8
0
  6
Continuous
 62
     7
370
    25
100
AcDbLine
 10
-17.5984251969
 20
20.3937007874
 30
0.0
 11
-17.8346456693
 21
20.3937007874
 31
0.0
  0
LINE
  5
282
330
1B
100
AcDbEntity
 67
     1
  8
0
  6
Continuous
 62
     7
370
    25
100
AcDbLine
 10
-7.9930662702
 20
20.9842519685
 30
0.0
 11
-27.4402261582
 21
20.9842519685
 31
0.0
  0
LINE
  5
283
330
1B
100
AcDbEntity
 67
     1
  8
0
  6
Continuous
 62
     7
370
    25
100
AcDbLine
 10
-7.9930662702
 20
2.1456692913
 30
0.0
 11
-27.4402261582
 21
2.1456692913
 31
0.0
  0
LINE
  5
284
330
1B
100
AcDbEntity
 67
     1
  8
0
  6
Continuous
 62
     7
370
    25
100
AcDbLine
 10
-24.2904038384
 20
-9.3405511811
 30
0.0
 11
-11.1407468217
 21
-9.3405511811
 31
0.0
  0
LINE
  5
285
330
1B
100
AcDbEntity
 67
     1
  8
0
  6
Continuous
 62
     7
370
    25
100
AcDbLine
 10
-26.0478571136
 20
2.5393700787
 30
0.0
 11
-26.0478571136
 21
19.4685181519
 31
0.0
  0
LINE
  5
286
330
1B
100
AcDbEntity
 67
     1
  8
0
  6
Continuous
 62
     7
370
    25
100
AcDbLine
 10
-9.9062550758
 20
2.5393700787
 30
0.0
 11
-26.0478571136
 21
2.5393700787
 31
0.0
  0
LINE
  5
287
330
1B
100
AcDbEntity
 67
     1
  8
0
  6
Continuous
 62
     7
370
    25
100
AcDbLine
 10
-9.9062550758
 20
19.4685181519
 30
0.0
 11
-9.9062550758
 21
2.5393700787
 31
0.0
  0
LINE
  5
288
330
1B
100
AcDbEntity
 67
     1
  8
0
  6
Continuous
 62
     7
370
    25
100
AcDbLine
 10
-26.0478571136
 20
19.4685181519
 30
0.0
 11
-19.6850393701
 21
19.4685181519
 31
0.0
  0
LINE
  5
289
330
1B
100
AcDbEntity
 67
     1
  8
0
  6
Continuous
 62
     7
370
    25
100
AcDbLine
 10
-15.7480314961
 20
19.4685181519
 30
0.0
 11
-9.9062550758
 21
19.4685181519
 31
0.0
  0
LINE
  5
28A
330
1B
100
AcDbEntity
 67
     1
  8
0
  6
Continuous
 62
     7
370
    25
100
AcDbLine
 10
-26.0477832595
 20
19.4685181519
 30
0.0
 11
-26.0477832595
 21
2.5393700787
 31
0.0
  0
LINE
  5
28B
330
1B
100
AcDbEntity
 67
     1
  8
0
  6
Continuous
 62
     8
370
    25
100
AcDbLine
 10
-18.1573523077
 20
26.3914462597
 30
0.0
 11
-18.1168530059
 21
26.3604043652
 31
0.0
  0
LINE
  5
28C
330
1B
100
AcDbEntity
 67
     1
  8
0
  6
Continuous
 62
     8
370
    25
100
AcDbLine
 10
-18.1573523077
 20
27.3756982282
 30
0.0
 11
-18.1168530059
 21
27.3446563337
 31
0.0
  0
LINE
  5
28D
330
1B
100
AcDbEntity
 67
     1
  8
0
  6
Continuous
 62
     8
370
    25
100
AcDbLine
 10
-18.1191677889
 20
27.4782938935
 30
0.0
 11
-18.1586861612
 21
27.4438630107
 31
0.0
  0
LINE
  5
28E
330
1B
100
AcDbEntity
 67
     1
  8
0
  6
Continuous
 62
     8
370
    25
100
AcDbLine
 10
-18.1191677889
 20
26.494041925
 30
0.0
 11
-18.1586861612
 21
26.4596110422
 31
0.0
  0
LINE
  5
28F
330
1B
100
AcDbEntity
 67
     1
  8
0
  6
Continuous
 62
     8
370
    25
100
AcDbLine
 10
-17.9396636202
 20
47.687007874
 30
0.0
 11
-17.9396636202
 21
27.9035433071
 31
0.0
  0
LINE
  5
290
330
1B
100
AcDbEntity
 67
     1
  8
0
  6
Continuous
 62
     8
370
    25
100
AcDbLine
 10
-17.7165354331
 20
1.2401574803
 30
0.0
 11
-17.7165354331
 21
1.5551181102
 31
0.0
  0
LINE
  5
291
330
1B
100
AcDbEntity
 67
     1
  8
0
  6
Continuous
 62
     8
370
    25
100
AcDbLine
 10
-17.7165354331
 20
20.0787401575
 30
0.0
 11
-17.7165354331
 21
20.3937007874
 31
0.0
  0
LINE
  5
292
330
1B
100
AcDbEntity
 67
     1
  8
0
  6
Continuous
 62
     8
370
    25
100
AcDbLine
 10
-7.9930662702
 20
19.9803149606
 30
0.0
 11
-17.5984251969
 21
19.9803149606
 31
0.0
  0
LINE
  5
293
330
1B
100
AcDbEntity
 67
     1
  8
0
  6
Continuous
 62
     8
370
    25
100
AcDbLine
 10
-17.8346456693
 20
19.9803149606
 30
0.0
 11
-27.4402261582
 21
19.9803149606
 31
0.0
  0
LINE
  5
294
330
1B
100
AcDbEntity
 67
     1
  8
0
  6
Continuous
 62
     8
370
    25
100
AcDbLine
 10
-7.9930662702
 20
1.1417322835
 30
0.0
 11
-17.5984251969
 21
1.1417322835
 31
0.0
  0
LINE
  5
295
330
1B
100
AcDbEntity
 67
     1
  8
0
  6
Continuous
 62
     8
370
    25
100
AcDbLine
 10
-17.8346456693
 20
1.1417322835
 30
0.0
 11
-27.4402261582
 21
1.1417322835
 31
0.0
  0
ARC
  5
296
330
1B
100
AcDbEntity
 67
     1
  8
0
  6
Continuous
 62
     7
370
    25
100
AcDbCircle
 10
-23.9969861681
 20
-11.25
 30
0.0
 40
0.0196850393700814
100
AcDbArc
 50
90.0
 51
180.0
  0
ARC
  5
297
330
1B
100
AcDbEntity
 67
     1
  8
0
  6
Continuous
 62
     7
370
    25
100
AcDbCircle
 10
-23.9969861681
 20
-11.3287401575
 30
0.0
 40
0.0196850393700778
100
AcDbArc
 50
180.0
 51
270.0
  0
ARC
  5
298
330
1B
100
AcDbEntity
 67
     1
  8
0
  6
Continuous
 62
     7
370
    25
100
AcDbCircle
 10
-11.43793105
 20
-11.3287401575
 30
0.0
 40
0.019685039370076
100
AcDbArc
 50
270.0
 51
0.0
  0
ARC
  5
299
330
1B
100
AcDbEntity
 67
     1
  8
0
  6
Continuous
 62
     7
370
    25
100
AcDbCircle
 10
-11.43793105
 20
-11.25
 30
0.0
 40
0.0196850393700796
100
AcDbArc
 50
0.0
 51
90.0
  0
ARC
  5
29A
330
1B
100
AcDbEntity
 67
     1
  8
0
  6
Continuous
 62
     7
370
    25
100
AcDbCircle
 10
-16.5354330709
 20
-0.3051181102
 30
0.0
 40
0.1318897637795273
100
AcDbArc
 50
90.0
 51
270.0
  0
ARC
  5
29B
330
1B
100
AcDbEntity
 67
     1
  8
0
  6
Continuous
 62
     7
370
    25
100
AcDbCircle
 10
-18.8976377953
 20
-0.3051181102
 30
0.0
 40
0.1318897637795272
100
AcDbArc
 50
90.0
 51
270.0
  0
ARC
  5
29C
330
1B
100
AcDbEntity
 67
     1
  8
0
  6
Continuous
 62
     7
370
    25
100
AcDbCircle
 10
-19.4881889764
 20
-1.2007874016
 30
0.0
 40
0.1968503937007866
100
AcDbArc
 50
180.0
 51
270.0
  0
ARC
  5
29D
330
1B
100
AcDbEntity
 67
     1
  8
0
  6
Continuous
 62
     7
370
    25
100
AcDbCircle
 10
-15.9448818898
 20
-1.2007874016
 30
0.0
 40
0.1968503937007906
100
AcDbArc
 50
270.0
 51
0.0
  0
ARC
  5
29E
330
1B
100
AcDbEntity
 67
     1
  8
0
  6
Continuous
 62
     7
370
    25
100
AcDbCircle
 10
-19.4881889764
 20
17.6377952756
 30
0.0
 40
0.1968503937007853
100
AcDbArc
 50
180.0
 51
270.0
  0
ARC
  5
29F
330
1B
100
AcDbEntity
 67
     1
  8
0
  6
Continuous
 62
     7
370
    25
100
AcDbCircle
 10
-18.8976377953
 20
18.5334645669
 30
0.0
 40
0.1318897637795295
100
AcDbArc
 50
270.0
 51
90.0
  0
ARC
  5
2A0
330
1B
100
AcDbEntity
 67
     1
  8
0
  6
Continuous
 62
     7
370
    25
100
AcDbCircle
 10
-16.5354330709
 20
18.5334645669
 30
0.0
 40
0.1318897637795295
100
AcDbArc
 50
270.0
 51
90.0
  0
ARC
  5
2A1
330
1B
100
AcDbEntity
 67
     1
  8
0
  6
Continuous
 62
     7
370
    25
100
AcDbCircle
 10
-15.9448818898
 20
17.6377952756
 30
0.0
 40
0.1968503937007906
100
AcDbArc
 50
270.0
 51
0.0
  0
ARC
  5
2A2
330
1B
100
AcDbEntity
 67
     1
  8
0
  6
Continuous
 62
     7
370
    25
100
AcDbCircle
 10
-24.2922472931
 20
24.6358294161
 30
0.0
 40
3.149603654766674
100
AcDbArc
 50
90.0000527052
 51
180.0000481063
  0
ARC
  5
2A3
330
1B
100
AcDbEntity
 67
     1
  8
0
  6
Continuous
 62
     7
370
    25
100
AcDbCircle
 10
-24.2922475459
 20
-8.1988217949
 30
0.0
 40
3.149603401965541
100
AcDbArc
 50
179.9999472949
 51
269.9999518936
  0
ARC
  5
2A4
330
1B
100
AcDbEntity
 67
     1
  8
0
  6
Continuous
 62
     7
370
    25
100
AcDbCircle
 10
-11.1426696722
 20
-8.1988217949
 30
0.0
 40
3.149603401965239
100
AcDbArc
 50
270.0000481064
 51
0.0000527051
  0
ARC
  5
2A5
330
1B
100
AcDbEntity
 67
     1
  8
0
  6
Continuous
 62
     7
370
    25
100
AcDbCircle
 10
-11.142669925
 20
24.6358294161
 30
0.0
 40
3.149603654766678
100
AcDbArc
 50
359.9999518937
 51
89.9999472948
  0
ARC
  5
2A6
330
1B
100
AcDbEntity
 67
     1
  8
0
  6
Continuous
 62
     7
370
    25
100
AcDbCircle
 10
-11.1426699025
 20
24.6358296464
 30
0.0
 40
3.267713660679788
100
AcDbArc
 50
359.9999495943
 51
89.9999495942
  0
ARC
  5
2A7
330
1B
100
AcDbEntity
 67
     1
  8
0
  6
Continuous
 62
     7
370
    25
100
AcDbCircle
 10
-11.1426699025
 20
-8.1988217724
 30
0.0
 40
3.26771366067952
100
AcDbArc
 50
270.0000504058
 51
0.0000504057
  0
ARC
  5
2A8
330
1B
100
AcDbEntity
 67
     1
  8
0
  6
Continuous
 62
     7
370
    25
100
AcDbCircle
 10
-24.2922473156
 20
-8.1988217724
 30
0.0
 40
3.267713660679811
100
AcDbArc
 50
179.9999495943
 51
269.9999495942
  0
ARC
  5
2A9
330
1B
100
AcDbEntity
 67
     1
  8
0
  6
Continuous
 62
     7
370
    25
100
AcDbCircle
 10
-24.2922473156
 20
24.6358296464
 30
0.0
 40
3.267713660679795
100
AcDbArc
 50
90.0000504058
 51
180.0000504057
  0
ARC
  5
2AA
330
1B
100
AcDbEntity
 67
     1
  8
0
  6
Continuous
 62
     7
370
    25
100
AcDbCircle
 10
-11.1397157394
 20
24.6358296464
 30
0.0
 40
3.267713660679785
100
AcDbArc
 50
359.9999495943
 51
89.9999495942
  0
ARC
  5
2AB
330
1B
100
AcDbEntity
 67
     1
  8
0
  6
Continuous
 62
     7
370
    25
100
AcDbCircle
 10
-11.1397157394
 20
-8.1988217724
 30
0.0
 40
3.26771366067981
100
AcDbArc
 50
270.0000504058
 51
0.0000504057
  0
ARC
  5
2AC
330
1B
100
AcDbEntity
 67
     1
  8
0
  6
Continuous
 62
     7
370
    25
100
AcDbCircle
 10
-24.2892933828
 20
-8.1988217949
 30
0.0
 40
3.149603401965493
100
AcDbArc
 50
179.9999472949
 51
269.9999518936
  0
ARC
  5
2AD
330
1B
100
AcDbEntity
 67
     1
  8
0
  6
Continuous
 62
     7
370
    25
100
AcDbCircle
 10
-24.2904011939
 20
24.6358296689
 30
0.0
 40
3.149603401975535
100
AcDbArc
 50
90.0000481065
 51
180.0000527049
  0
ARC
  5
2AE
330
1B
100
AcDbEntity
 67
     1
  8
0
  6
Continuous
 62
     7
370
    25
100
AcDbCircle
 10
-18.0536735483
 20
26.4302670647
 30
0.0
 40
0.0490766033994645
100
AcDbArc
 50
240.5963904581
 51
266.723920622
  0
ARC
  5
2AF
330
1B
100
AcDbEntity
 67
     1
  8
0
  6
Continuous
 62
     7
370
    25
100
AcDbCircle
 10
-18.0536735483
 20
27.4145190332
 30
0.0
 40
0.0490766033994769
100
AcDbArc
 50
240.5963904581
 51
266.723920622
  0
ARC
  5
2B0
330
1B
100
AcDbEntity
 67
     1
  8
0
  6
Continuous
 62
     7
370
    25
100
AcDbCircle
 10
-11.140823507
 20
-6.1909476835
 30
0.0
 40
3.149603497607942
100
AcDbArc
 50
270.0000515031
 51
358.0380974284
  0
ARC
  5
2B1
330
1B
100
AcDbEntity
 67
     1
  8
0
  6
Continuous
 62
     7
370
    25
100
AcDbCircle
 10
-11.1407496516
 20
-6.1909476866
 30
0.0
 40
3.149603494473872
100
AcDbArc
 50
270.0000514791
 51
357.9992392367
  0
ARC
  5
2B2
330
1B
100
AcDbEntity
 67
     1
  8
0
  6
Continuous
 62
     7
370
    25
100
AcDbCircle
 10
-24.290401194
 20
-6.1909477791
 30
0.0
 40
3.149603401965731
100
AcDbArc
 50
179.9999472949
 51
269.9999518936
  0
ARC
  5
2B3
330
1B
100
AcDbEntity
 67
     1
  8
0
  6
Continuous
 62
     8
370
    25
100
AcDbCircle
 10
-18.1227110057
 20
26.3988555355
 30
0.0
 40
0.0685275143307533
100
AcDbArc
 50
276.115031336
 51
345.1309714564
  0
ARC
  5
2B4
330
1B
100
AcDbEntity
 67
     1
  8
0
  6
Continuous
 62
     8
370
    25
100
AcDbCircle
 10
-18.1227110057
 20
27.383107504
 30
0.0
 40
0.0685275143307412
100
AcDbArc
 50
276.115031336
 51
345.1309714564
  0
VIEWPORT
  5
4FD
330
1B
100
AcDbEntity
 67
     1
  8
0
100
AcDbViewport
 10
0.0
 20
0.0
 30
0.0
 40
8.4
 41
6.4
 68
     1
 69
     1
 12
17.7159815275
 22
18.1102362205
 13
0.0
 23
0.0
 14
0.5
 24
0.5
 15
0.5
 25
0.5
 16
0.0
 26
0.0
 36
1.0
 17
0.0
 27
0.0
 37
0.0
 42
50.0
 43
0.0
 44
0.0
 45
60.3366141732
 50
0.0
 51
0.0
 72
   100
 90
   557152
  1

281
     0
 71
     1
 74
     0
110
0.0
120
0.0
130
0.0
111
1.0
121
0.0
131
0.0
112
0.0
122
1.0
132
0.0
 79
     0
146
0.0
  0
ENDSEC
  0
SECTION
  2
OBJECTS
  0
DICTIONARY
  5
C
330
0
100
AcDbDictionary
281
     1
  3
ACAD_GROUP
350
D
  3
ACAD_LAYOUT
350
1A
  3
ACAD_MLINESTYLE
350
17
  3
ACAD_PLOTSETTINGS
350
19
  3
ACAD_PLOTSTYLENAME
350
E
  3
ACAD_SCALELIST
350
47
  0
DICTIONARY
  5
D
102
{ACAD_REACTORS
330
C
102
}
330
C
100
AcDbDictionary
281
     1
  0
DICTIONARY
  5
1A
102
{ACAD_REACTORS
330
C
102
}
330
C
100
AcDbDictionary
281
     1
  3
_Back
350
1E
  3
_Bottom
350
3C1
  3
_Isometric
350
44D
  3
_Right
350
26
  3
Model
350
22
  0
DICTIONARY
  5
17
102
{ACAD_REACTORS
330
C
102
}
330
C
100
AcDbDictionary
281
     1
  3
Standard
350
18
  0
DICTIONARY
  5
19
102
{ACAD_REACTORS
330
C
102
}
330
C
100
AcDbDictionary
281
     1
  0
ACDBDICTIONARYWDFLT
  5
E
102
{ACAD_REACTORS
330
C
102
}
330
C
100
AcDbDictionary
281
     1
  3
Normal
350
F
100
AcDbDictionaryWithDefault
340
F
  0
DICTIONARY
  5
47
102
{ACAD_REACTORS
330
C
102
}
330
C
100
AcDbDictionary
281
     1
  3
A0
350
48
  3
A1
350
49
  3
A2
350
4A
  3
A3
350
4B
  3
A4
350
4C
  3
A5
350
4D
  3
A6
350
4E
  3
A7
350
4F
  3
A8
350
50
  3
A9
350
51
  3
B0
350
52
  3
B1
350
53
  3
B2
350
54
  3
B3
350
55
  3
B4
350
56
  3
B5
350
57
  3
B6
350
58
  3
B7
350
59
  3
B8
350
5A
  3
B9
350
5B
  3
C0
350
5C
  3
C1
350
5D
  3
C2
350
5E
  3
C3
350
5F
  3
C4
350
60
  3
C5
350
61
  3
C6
350
62
  3
C7
350
63
  3
C8
350
64
  3
C9
350
65
  3
D0
350
66
  3
D1
350
67
  3
D2
350
68
  0
LAYOUT
  5
1E
102
{ACAD_REACTORS
330
1A
102
}
330
1A
100
AcDbPlotSettings
  1

  2
none_device
  4
Letter_(8.50_x_11.00_Inches)
  6

 40
6.35
 41
6.35
 42
6.35001
 43
6.35001
 44
215.9
 45
279.4
 46
0.0
 47
0.0
 48
0.0
 49
0.0
140
0.0
141
0.0
142
1.0
143
7.3941932773
 70
   688
 72
     0
 73
     1
 74
     1
  7

 75
     0
147
0.1352412579
148
700.023008797
149
291.25
100
AcDbLayout
  1
_Back
 70
     1
 71
     1
 10
-29.4085122067
 20
-13.3150837524
 11
51.9276138433
 21
49.5355591044
 12
0.0
 22
0.0
 32
0.0
 14
-27.5599609763
 24
-11.4665354331
 34
0.0
 15
-7.8720020787
 25
47.687007874
 35
0.0
146
0.0
 13
0.0
 23
0.0
 33
0.0
 16
1.0
 26
0.0
 36
0.0
 17
0.0
 27
1.0
 37
0.0
 76
     0
330
1B
331
4FD
  0
LAYOUT
  5
3C1
102
{ACAD_REACTORS
330
1A
102
}
330
1A
100
AcDbPlotSettings
  1

  2
none_device
  4
Letter_(8.50_x_11.00_Inches)
  6

 40
6.35
 41
6.35
 42
6.35001
 43
6.35001
 44
215.9
 45
279.4
 46
0.0
 47
0.0
 48
0.0
 49
0.0
140
0.0
141
0.0
142
1.0
143
7.3941932773
 70
   688
 72
     0
 73
     1
 74
     1
  7

 75
     0
147
0.1352412579
148
700.023008797
149
291.25
100
AcDbLayout
  1
_Bottom
 70
     1
 71
     3
 10
0.0
 20
0.0
 11
0.0
 21
0.0
 12
0.0
 22
0.0
 32
0.0
 14
0.0
 24
0.0
 34
0.0
 15
0.0
 25
0.0
 35
0.0
146
0.0
 13
0.0
 23
0.0
 33
0.0
 16
1.0
 26
0.0
 36
0.0
 17
0.0
 27
1.0
 37
0.0
 76
     0
330
3C0
331
501
  0
LAYOUT
  5
44D
102
{ACAD_REACTORS
330
1A
102
}
330
1A
100
AcDbPlotSettings
  1

  2
none_device
  4
Letter_(8.50_x_11.00_Inches)
  6

 40
6.35
 41
6.35
 42
6.35001
 43
6.35001
 44
215.9
 45
279.4
 46
0.0
 47
0.0
 48
0.0
 49
0.0
140
0.0
141
0.0
142
1.0
143
7.3941932773
 70
   688
 72
     0
 73
     1
 74
     1
  7

 75
     0
147
0.1352412579
148
700.023008797
149
291.25
100
AcDbLayout
  1
_Isometric
 70
     1
 71
     4
 10
0.0
 20
0.0
 11
0.0
 21
0.0
 12
0.0
 22
0.0
 32
0.0
 14
0.0
 24
0.0
 34
0.0
 15
0.0
 25
0.0
 35
0.0
146
0.0
 13
0.0
 23
0.0
 33
0.0
 16
1.0
 26
0.0
 36
0.0
 17
0.0
 27
1.0
 37
0.0
 76
     0
330
44C
331
503
  0
LAYOUT
  5
26
102
{ACAD_REACTORS
330
1A
102
}
330
1A
100
AcDbPlotSettings
  1

  2
none_device
  4
Letter_(8.50_x_11.00_Inches)
  6

 40
6.35
 41
6.35
 42
6.35001
 43
6.35001
 44
215.9
 45
279.4
 46
0.0
 47
0.0
 48
0.0
 49
0.0
140
0.0
141
0.0
142
1.0
143
7.3941932773
 70
   688
 72
     0
 73
     1
 74
     1
  7

 75
     0
147
0.1352412579
148
700.023008797
149
291.25
100
AcDbLayout
  1
_Right
 70
     1
 71
     2
 10
0.0
 20
0.0
 11
0.0
 21
0.0
 12
0.0
 22
0.0
 32
0.0
 14
0.0
 24
0.0
 34
0.0
 15
0.0
 25
0.0
 35
0.0
146
0.0
 13
0.0
 23
0.0
 33
0.0
 16
1.0
 26
0.0
 36
0.0
 17
0.0
 27
1.0
 37
0.0
 76
     0
330
23
331
4FF
  0
LAYOUT
  5
22
102
{ACAD_REACTORS
330
1A
102
}
330
1A
100
AcDbPlotSettings
  1

  2
none_device
  4
ANSI_A_(11.00_x_8.50_Inches)
  6

 40
6.35
 41
19.05
 42
6.35000508
 43
19.05000254
 44
279.4
 45
215.9
 46
69.33639158
 47
23.4618223573
 48
0.0
 49
0.0
140
0.0
141
0.0
142
0.1422569052
143
1.0
 70
  1696
 72
     0
 73
     0
 74
     0
  7

 75
     0
147
0.5913241897
148
-39.4088153714
149
0.0
100
AcDbLayout
  1
Model
 70
     1
 71
     0
 10
0.0
 20
0.0
 11
12.0
 21
9.0
 12
0.0
 22
0.0
 32
0.0
 14
7.8720020787
 24
-11.4665354331
 34
0.0
 15
27.5599609763
 25
47.687007874
 35
0.0
146
0.0
 13
0.0
 23
0.0
 33
0.0
 16
1.0
 26
0.0
 36
0.0
 17
0.0
 27
1.0
 37
0.0
 76
     0
330
1F
331
29
  0
MLINESTYLE
  5
18
102
{ACAD_REACTORS
330
17
102
}
330
17
100
AcDbMlineStyle
  2
Standard
 70
     0
  3

 62
   256
 51
90.0
 52
90.0
 71
     2
 49
0.5
 62
   256
  6
BYLAYER
 49
-0.5
 62
   256
  6
BYLAYER
  0
ACDBPLACEHOLDER
  5
F
102
{ACAD_REACTORS
330
E
102
}
330
E
  0
SCALE
  5
48
102
{ACAD_REACTORS
330
47
102
}
330
47
100
AcDbScale
 70
     0
300
1:1
140
1.0
141
1.0
290
     1
  0
SCALE
  5
49
102
{ACAD_REACTORS
330
47
102
}
330
47
100
AcDbScale
 70
     0
300
1:2
140
1.0
141
2.0
290
     0
  0
SCALE
  5
4A
102
{ACAD_REACTORS
330
47
102
}
330
47
100
AcDbScale
 70
     0
300
1:4
140
1.0
141
4.0
290
     0
  0
SCALE
  5
4B
102
{ACAD_REACTORS
330
47
102
}
330
47
100
AcDbScale
 70
     0
300
1:5
140
1.0
141
5.0
290
     0
  0
SCALE
  5
4C
102
{ACAD_REACTORS
330
47
102
}
330
47
100
AcDbScale
 70
     0
300
1:8
140
1.0
141
8.0
290
     0
  0
SCALE
  5
4D
102
{ACAD_REACTORS
330
47
102
}
330
47
100
AcDbScale
 70
     0
300
1:10
140
1.0
141
10.0
290
     0
  0
SCALE
  5
4E
102
{ACAD_REACTORS
330
47
102
}
330
47
100
AcDbScale
 70
     0
300
1:16
140
1.0
141
16.0
290
     0
  0
SCALE
  5
4F
102
{ACAD_REACTORS
330
47
102
}
330
47
100
AcDbScale
 70
     0
300
1:20
140
1.0
141
20.0
290
     0
  0
SCALE
  5
50
102
{ACAD_REACTORS
330
47
102
}
330
47
100
AcDbScale
 70
     0
300
1:30
140
1.0
141
30.0
290
     0
  0
SCALE
  5
51
102
{ACAD_REACTORS
330
47
102
}
330
47
100
AcDbScale
 70
     0
300
1:40
140
1.0
141
40.0
290
     0
  0
SCALE
  5
52
102
{ACAD_REACTORS
330
47
102
}
330
47
100
AcDbScale
 70
     0
300
1:50
140
1.0
141
50.0
290
     0
  0
SCALE
  5
53
102
{ACAD_REACTORS
330
47
102
}
330
47
100
AcDbScale
 70
     0
300
1:100
140
1.0
141
100.0
290
     0
  0
SCALE
  5
54
102
{ACAD_REACTORS
330
47
102
}
330
47
100
AcDbScale
 70
     0
300
2:1
140
2.0
141
1.0
290
     0
  0
SCALE
  5
55
102
{ACAD_REACTORS
330
47
102
}
330
47
100
AcDbScale
 70
     0
300
4:1
140
4.0
141
1.0
290
     0
  0
SCALE
  5
56
102
{ACAD_REACTORS
330
47
102
}
330
47
100
AcDbScale
 70
     0
300
8:1
140
8.0
141
1.0
290
     0
  0
SCALE
  5
57
102
{ACAD_REACTORS
330
47
102
}
330
47
100
AcDbScale
 70
     0
300
10:1
140
10.0
141
1.0
290
     0
  0
SCALE
  5
58
102
{ACAD_REACTORS
330
47
102
}
330
47
100
AcDbScale
 70
     0
300
100:1
140
100.0
141
1.0
290
     0
  0
SCALE
  5
59
102
{ACAD_REACTORS
330
47
102
}
330
47
100
AcDbScale
 70
     0
300
1/128" = 1'-0"
140
0.0078125
141
12.0
290
     0
  0
SCALE
  5
5A
102
{ACAD_REACTORS
330
47
102
}
330
47
100
AcDbScale
 70
     0
300
1/64" = 1'-0"
140
0.015625
141
12.0
290
     0
  0
SCALE
  5
5B
102
{ACAD_REACTORS
330
47
102
}
330
47
100
AcDbScale
 70
     0
300
1/32" = 1'-0"
140
0.03125
141
12.0
290
     0
  0
SCALE
  5
5C
102
{ACAD_REACTORS
330
47
102
}
330
47
100
AcDbScale
 70
     0
300
1/16" = 1'-0"
140
0.0625
141
12.0
290
     0
  0
SCALE
  5
5D
102
{ACAD_REACTORS
330
47
102
}
330
47
100
AcDbScale
 70
     0
300
3/32" = 1'-0"
140
0.09375
141
12.0
290
     0
  0
SCALE
  5
5E
102
{ACAD_REACTORS
330
47
102
}
330
47
100
AcDbScale
 70
     0
300
1/8" = 1'-0"
140
0.125
141
12.0
290
     0
  0
SCALE
  5
5F
102
{ACAD_REACTORS
330
47
102
}
330
47
100
AcDbScale
 70
     0
300
3/16" = 1'-0"
140
0.1875
141
12.0
290
     0
  0
SCALE
  5
60
102
{ACAD_REACTORS
330
47
102
}
330
47
100
AcDbScale
 70
     0
300
1/4" = 1'-0"
140
0.25
141
12.0
290
     0
  0
SCALE
  5
61
102
{ACAD_REACTORS
330
47
102
}
330
47
100
AcDbScale
 70
     0
300
3/8" = 1'-0"
140
0.375
141
12.0
290
     0
  0
SCALE
  5
62
102
{ACAD_REACTORS
330
47
102
}
330
47
100
AcDbScale
 70
     0
300
1/2" = 1'-0"
140
0.5
141
12.0
290
     0
  0
SCALE
  5
63
102
{ACAD_REACTORS
330
47
102
}
330
47
100
AcDbScale
 70
     0
300
3/4" = 1'-0"
140
0.75
141
12.0
290
     0
  0
SCALE
  5
64
102
{ACAD_REACTORS
330
47
102
}
330
47
100
AcDbScale
 70
     0
300
1" = 1'-0"
140
1.0
141
12.0
290
     0
  0
SCALE
  5
65
102
{ACAD_REACTORS
330
47
102
}
330
47
100
AcDbScale
 70
     0
300
1-1/2" = 1'-0"
140
1.5
141
12.0
290
     0
  0
SCALE
  5
66
102
{ACAD_REACTORS
330
47
102
}
330
47
100
AcDbScale
 70
     0
300
3" = 1'-0"
140
3.0
141
12.0
290
     0
  0
SCALE
  5
67
102
{ACAD_REACTORS
330
47
102
}
330
47
100
AcDbScale
 70
     0
300
6" = 1'-0"
140
6.0
141
12.0
290
     0
  0
SCALE
  5
68
102
{ACAD_REACTORS
330
47
102
}
330
47
100
AcDbScale
 70
     0
300
1'-0" = 1'-0"
140
12.0
141
12.0
290
     0
  0
ENDSEC
  0
EOF
