  0
SECTION
  2
HEADER
  9
$ACADVER
  1
AC1015
  9
$ACADMAINTVER
 70
     6
  9
$DWGCODEPAGE
  3
ANSI_1252
  9
$INSBASE
 10
0.0
 20
0.0
 30
0.0
  9
$EXTMIN
 10
-250.0
 20
-500.0
 30
0.0
  9
$EXTMAX
 10
250.0
 20
500.0
 30
0.0
  9
$LIMMIN
 10
0.0
 20
0.0
  9
$LIMMAX
 10
420.0
 20
297.0
  9
$ORTHOMODE
 70
     0
  9
$REGENMODE
 70
     1
  9
$FILLMODE
 70
     1
  9
$QTEXTMODE
 70
     0
  9
$MIRRTEXT
 70
     1
  9
$LTSCALE
 40
1.0
  9
$ATTMODE
 70
     1
  9
$TEXTSIZE
 40
3.5
  9
$TRACEWID
 40
1.0
  9
$TEXTSTYLE
  7
Standard
  9
$CLAYER
  8
0
  9
$CELTYPE
  6
ByLayer
  9
$CECOLOR
 62
   256
  9
$CELTSCALE
 40
1.0
  9
$DISPSILH
 70
     0
  9
$DIMSCALE
 40
1.0
  9
$DIMASZ
 40
3.302
  9
$DIMEXO
 40
1.0
  9
$DIMDLI
 40
3.75
  9
$DIMRND
 40
0.0
  9
$DIMDLE
 40
0.0
  9
$DIMEXE
 40
1.0
  9
$DIMTP
 40
0.0
  9
$DIMTM
 40
0.0
  9
$DIMTXT
 40
3.5
  9
$DIMCEN
 40
2.5
  9
$DIMTSZ
 40
0.0
  9
$DIMTOL
 70
     0
  9
$DIMLIM
 70
     0
  9
$DIMTIH
 70
     1
  9
$DIMTOH
 70
     1
  9
$DIMSE1
 70
     0
  9
$DIMSE2
 70
     0
  9
$DIMTAD
 70
     1
  9
$DIMZIN
 70
     1
  9
$DIMBLK
  1

  9
$DIMASO
 70
     1
  9
$DIMSHO
 70
     1
  9
$DIMPOST
  1

  9
$DIMAPOST
  1

  9
$DIMALT
 70
     0
  9
$DIMALTD
 70
     3
  9
$DIMALTF
 40
0.0393700787
  9
$DIMLFAC
 40
1.0
  9
$DIMTOFL
 70
     1
  9
$DIMTVP
 40
0.0
  9
$DIMTIX
 70
     0
  9
$DIMSOXD
 70
     0
  9
$DIMSAH
 70
     0
  9
$DIMBLK1
  1

  9
$DIMBLK2
  1

  9
$DIMSTYLE
  2
ISO-25
  9
$DIMCLRD
 70
     0
  9
$DIMCLRE
 70
     0
  9
$DIMCLRT
 70
     0
  9
$DIMTFAC
 40
1.0
  9
$DIMGAP
 40
1.524
  9
$DIMJUST
 70
     0
  9
$DIMSD1
 70
     0
  9
$DIMSD2
 70
     0
  9
$DIMTOLJ
 70
     0
  9
$DIMTZIN
 70
     1
  9
$DIMALTZ
 70
     0
  9
$DIMALTTZ
 70
     0
  9
$DIMUPT
 70
     0
  9
$DIMDEC
 70
     2
  9
$DIMTDEC
 70
     2
  9
$DIMALTU
 70
     2
  9
$DIMALTTD
 70
     3
  9
$DIMTXSTY
  7
Standard
  9
$DIMAUNIT
 70
     0
  9
$DIMADEC
 70
     2
  9
$DIMALTRND
 40
0.0
  9
$DIMAZIN
 70
     0
  9
$DIMDSEP
 70
    44
  9
$DIMATFIT
 70
     3
  9
$DIMFRAC
 70
     0
  9
$DIMLDRBLK
  1

  9
$DIMLUNIT
 70
     2
  9
$DIMLWD
 70
    -2
  9
$DIMLWE
 70
    -2
  9
$DIMTMOVE
 70
     0
  9
$LUNITS
 70
     2
  9
$LUPREC
 70
     2
  9
$SKETCHINC
 40
1.0
  9
$FILLETRAD
 40
10.0
  9
$AUNITS
 70
     0
  9
$AUPREC
 70
     2
  9
$MENU
  1
.
  9
$ELEVATION
 40
0.0
  9
$PELEVATION
 40
0.0
  9
$THICKNESS
 40
0.0
  9
$LIMCHECK
 70
     0
  9
$CHAMFERA
 40
0.0
  9
$CHAMFERB
 40
0.0
  9
$CHAMFERC
 40
0.0
  9
$CHAMFERD
 40
0.0
  9
$SKPOLY
 70
     0
  9
$TDCREATE
 40
2459143.426746134
  9
$TDUCREATE
 40
2459143.385079468
  9
$TDUPDATE
 40
2459143.426814919
  9
$TDUUPDATE
 40
2459143.385148252
  9
$TDINDWG
 40
0.0000000116
  9
$TDUSRTIMER
 40
0.0000000116
  9
$USRTIMER
 70
     1
  9
$ANGBASE
 50
0.0
  9
$ANGDIR
 70
     0
  9
$PDMODE
 70
     0
  9
$PDSIZE
 40
-1.0
  9
$PLINEWID
 40
0.0
  9
$SPLFRAME
 70
     0
  9
$SPLINETYPE
 70
     6
  9
$SPLINESEGS
 70
     8
  9
$HANDSEED
  5
132
  9
$SURFTAB1
 70
     6
  9
$SURFTAB2
 70
     6
  9
$SURFTYPE
 70
     6
  9
$SURFU
 70
     6
  9
$SURFV
 70
     6
  9
$UCSBASE
  2

  9
$UCSNAME
  2

  9
$UCSORG
 10
0.0
 20
0.0
 30
0.0
  9
$UCSXDIR
 10
1.0
 20
0.0
 30
0.0
  9
$UCSYDIR
 10
0.0
 20
1.0
 30
0.0
  9
$UCSORTHOREF
  2

  9
$UCSORTHOVIEW
 70
     0
  9
$UCSORGTOP
 10
0.0
 20
0.0
 30
0.0
  9
$UCSORGBOTTOM
 10
0.0
 20
0.0
 30
0.0
  9
$UCSORGLEFT
 10
0.0
 20
0.0
 30
0.0
  9
$UCSORGRIGHT
 10
0.0
 20
0.0
 30
0.0
  9
$UCSORGFRONT
 10
0.0
 20
0.0
 30
0.0
  9
$UCSORGBACK
 10
0.0
 20
0.0
 30
0.0
  9
$PUCSBASE
  2

  9
$PUCSNAME
  2

  9
$PUCSORG
 10
0.0
 20
0.0
 30
0.0
  9
$PUCSXDIR
 10
1.0
 20
0.0
 30
0.0
  9
$PUCSYDIR
 10
0.0
 20
1.0
 30
0.0
  9
$PUCSORTHOREF
  2

  9
$PUCSORTHOVIEW
 70
     0
  9
$PUCSORGTOP
 10
0.0
 20
0.0
 30
0.0
  9
$PUCSORGBOTTOM
 10
0.0
 20
0.0
 30
0.0
  9
$PUCSORGLEFT
 10
0.0
 20
0.0
 30
0.0
  9
$PUCSORGRIGHT
 10
0.0
 20
0.0
 30
0.0
  9
$PUCSORGFRONT
 10
0.0
 20
0.0
 30
0.0
  9
$PUCSORGBACK
 10
0.0
 20
0.0
 30
0.0
  9
$USERI1
 70
     0
  9
$USERI2
 70
     0
  9
$USERI3
 70
     0
  9
$USERI4
 70
     0
  9
$USERI5
 70
     0
  9
$USERR1
 40
0.0
  9
$USERR2
 40
0.0
  9
$USERR3
 40
0.0
  9
$USERR4
 40
0.0
  9
$USERR5
 40
0.0
  9
$WORLDVIEW
 70
     1
  9
$SHADEDGE
 70
     3
  9
$SHADEDIF
 70
    70
  9
$TILEMODE
 70
     1
  9
$MAXACTVP
 70
    64
  9
$PINSBASE
 10
0.0
 20
0.0
 30
0.0
  9
$PLIMCHECK
 70
     0
  9
$PEXTMIN
 10
0.0
 20
-500.0
 30
0.0
  9
$PEXTMAX
 10
120.0
 20
500.0
 30
0.0
  9
$PLIMMIN
 10
-102.5641025641
 20
-538.4615384615
  9
$PLIMMAX
 10
1420.5128205128
 20
538.4615384615
  9
$UNITMODE
 70
     0
  9
$VISRETAIN
 70
     1
  9
$PLINEGEN
 70
     0
  9
$PSLTSCALE
 70
     1
  9
$TREEDEPTH
 70
  3020
  9
$CMLSTYLE
  2
Standard
  9
$CMLJUST
 70
     0
  9
$CMLSCALE
 40
20.0
  9
$PROXYGRAPHICS
 70
     1
  9
$MEASUREMENT
 70
     1
  9
$CELWEIGHT
370
    -1
  9
$ENDCAPS
280
     0
  9
$JOINSTYLE
280
     0
  9
$LWDISPLAY
290
     1
  9
$INSUNITS
 70
     4
  9
$HYPERLINKBASE
  1

  9
$STYLESHEET
  1

  9
$XEDIT
290
     1
  9
$CEPSNTYPE
380
     0
  9
$PSTYLEMODE
290
     1
  9
$FINGERPRINTGUID
  2
{2894ba2a-4170-425c-afbd-66dcb94546f0}
  9
$VERSIONGUID
  2
{FAEB1C32-E019-11D5-929B-00C0DF256EC4}
  9
$EXTNAMES
290
     1
  9
$PSVPSCALE
 40
0.0
  9
$OLESTARTUP
290
     0
  0
ENDSEC
  0
SECTION
  2
CLASSES
  0
CLASS
  1
ACDBDICTIONARYWDFLT
  2
AcDbDictionaryWithDefault
  3
ObjectDBX Classes
 90
        0
280
     0
281
     0
  0
CLASS
  1
VISUALSTYLE
  2
AcDbVisualStyle
  3
ObjectDBX Classes
 90
     4095
280
     0
281
     0
  0
CLASS
  1
MATERIAL
  2
AcDbMaterial
  3
ObjectDBX Classes
 90
     1153
280
     0
281
     0
  0
CLASS
  1
SCALE
  2
AcDbScale
  3
ObjectDBX Classes
 90
     1153
280
     0
281
     0
  0
CLASS
  1
TABLESTYLE
  2
AcDbTableStyle
  3
ObjectDBX Classes
 90
     4095
280
     0
281
     0
  0
CLASS
  1
MLEADERSTYLE
  2
AcDbMLeaderStyle
  3
ACDB_MLEADERSTYLE_CLASS
 90
     4095
280
     0
281
     0
  0
CLASS
  1
SUN
  2
AcDbSun
  3
SCENEOE
 90
     1153
280
     0
281
     0
  0
CLASS
  1
ACDBPLACEHOLDER
  2
AcDbPlaceHolder
  3
ObjectDBX Classes
 90
        0
280
     0
281
     0
  0
CLASS
  1
LAYOUT
  2
AcDbLayout
  3
ObjectDBX Classes
 90
        0
280
     0
281
     0
  0
ENDSEC
  0
SECTION
  2
TABLES
  0
TABLE
  2
VPORT
  5
8
330
0
100
AcDbSymbolTable
 70
     1
  0
VPORT
  5
29
330
8
100
AcDbSymbolTableRecord
100
AcDbViewportTableRecord
  2
*Active
 70
     0
 10
0.0
 20
0.0
 11
1.0
 21
1.0
 12
0.0
 22
0.0
 13
0.0
 23
0.0
 14
10.0
 24
10.0
 15
10.0
 25
10.0
 16
0.0
 26
0.0
 36
1.0
 17
0.0
 27
0.0
 37
0.0
 40
1020.0
 41
0.5
 42
50.0
 43
0.0
 44
0.0
 50
0.0
 51
0.0
 71
     0
 72
   100
 73
     1
 74
     3
 75
     0
 76
     0
 77
     0
 78
     0
281
     0
 65
     1
110
0.0
120
0.0
130
0.0
111
1.0
121
0.0
131
0.0
112
0.0
122
1.0
132
0.0
 79
     0
146
0.0
  0
ENDTAB
  0
TABLE
  2
LTYPE
  5
5
330
0
100
AcDbSymbolTable
 70
     6
  0
LTYPE
  5
14
330
5
100
AcDbSymbolTableRecord
100
AcDbLinetypeTableRecord
  2
ByBlock
 70
     0
  3

 72
    65
 73
     0
 40
0.0
  0
LTYPE
  5
15
330
5
100
AcDbSymbolTableRecord
100
AcDbLinetypeTableRecord
  2
ByLayer
 70
     0
  3

 72
    65
 73
     0
 40
0.0
  0
LTYPE
  5
16
330
5
100
AcDbSymbolTableRecord
100
AcDbLinetypeTableRecord
  2
Continuous
 70
     0
  3
Solid line
 72
    65
 73
     0
 40
0.0
  0
LTYPE
  5
6E
330
5
100
AcDbSymbolTableRecord
100
AcDbLinetypeTableRecord
  2
HIDDEN
 70
     0
  3
Hidden __ __ __ __ __ __ __ __ __ __ __ __ __ __
 72
    65
 73
     2
 40
1.905
 49
1.27
 74
     0
 49
-0.635
 74
     0
  0
LTYPE
  5
6F
330
5
100
AcDbSymbolTableRecord
100
AcDbLinetypeTableRecord
  2
PHANTOM
 70
     0
  3
Phantom ______  __  __  ______  __  __  ______
 72
    65
 73
     6
 40
12.7
 49
6.35
 74
     0
 49
-1.27
 74
     0
 49
1.27
 74
     0
 49
-1.27
 74
     0
 49
1.27
 74
     0
 49
-1.27
 74
     0
  0
LTYPE
  5
70
330
5
100
AcDbSymbolTableRecord
100
AcDbLinetypeTableRecord
  2
CENTER
 70
     0
  3
Center ____ _ ____ _ ____ _ ____ _ ____ _ ____
 72
    65
 73
     4
 40
10.16
 49
6.35
 74
     0
 49
-1.27
 74
     0
 49
1.27
 74
     0
 49
-1.27
 74
     0
  0
LTYPE
  5
71
330
5
100
AcDbSymbolTableRecord
100
AcDbLinetypeTableRecord
  2
CENTERX2
 70
     0
  3
Center (2x) ________  __  ________  __  _____
 72
    65
 73
     4
 40
20.32
 49
12.7
 74
     0
 49
-2.54
 74
     0
 49
2.54
 74
     0
 49
-2.54
 74
     0
  0
LTYPE
  5
72
330
5
100
AcDbSymbolTableRecord
100
AcDbLinetypeTableRecord
  2
DOT2
 70
     0
  3
Dot (.5x) ........................................
 72
    65
 73
     2
 40
0.635
 49
0.0
 74
     0
 49
-0.635
 74
     0
  0
ENDTAB
  0
TABLE
  2
LAYER
  5
2
330
0
100
AcDbSymbolTable
 70
     1
  0
LAYER
  5
10
330
2
100
AcDbSymbolTableRecord
100
AcDbLayerTableRecord
  2
0
 70
     0
 62
     7
  6
Continuous
370
    -3
390
F
  0
ENDTAB
  0
TABLE
  2
STYLE
  5
3
330
0
100
AcDbSymbolTable
 70
     1
  0
STYLE
  5
11
330
3
100
AcDbSymbolTableRecord
100
AcDbTextStyleTableRecord
  2
Standard
 70
     0
 40
0.0
 41
1.0
 50
0.0
 71
     0
 42
3.5
  3
txt
  4

  0
ENDTAB
  0
TABLE
  2
VIEW
  5
6
330
0
100
AcDbSymbolTable
 70
     0
  0
ENDTAB
  0
TABLE
  2
UCS
  5
7
330
0
100
AcDbSymbolTable
 70
     0
  0
ENDTAB
  0
TABLE
  2
APPID
  5
9
330
0
100
AcDbSymbolTable
 70
     1
  0
APPID
  5
12
330
9
100
AcDbSymbolTableRecord
100
AcDbRegAppTableRecord
  2
ACAD
 70
     0
  0
ENDTAB
  0
TABLE
  2
DIMSTYLE
  5
A
330
0
100
AcDbSymbolTable
 70
     1
100
AcDbDimStyleTable
  0
DIMSTYLE
105
27
330
A
100
AcDbSymbolTableRecord
100
AcDbDimStyleTableRecord
  2
ISO-25
 70
     0
 41
2.5
 42
0.625
 43
3.75
 44
1.25
 73
     0
 74
     0
 77
     1
 78
     8
140
2.5
141
2.5
143
0.0393700787
147
0.625
171
     3
172
     1
178
     0
271
     2
272
     2
274
     3
278
    44
283
     0
284
     8
340
11
  0
ENDTAB
  0
TABLE
  2
BLOCK_RECORD
  5
1
330
0
100
AcDbSymbolTable
 70
     3
  0
BLOCK_RECORD
  5
1F
330
1
100
AcDbSymbolTableRecord
100
AcDbBlockTableRecord
  2
*Model_Space
340
22
  0
BLOCK_RECORD
  5
1B
330
1
100
AcDbSymbolTableRecord
100
AcDbBlockTableRecord
  2
*Paper_Space
340
1E
  0
BLOCK_RECORD
  5
23
330
1
100
AcDbSymbolTableRecord
100
AcDbBlockTableRecord
  2
*Paper_Space0
340
26
  0
BLOCK_RECORD
  5
CD
330
1
100
AcDbSymbolTableRecord
100
AcDbBlockTableRecord
  2
*Paper_Space1
340
CE
  0
BLOCK_RECORD
  5
E1
330
1
100
AcDbSymbolTableRecord
100
AcDbBlockTableRecord
  2
*Paper_Space2
340
E2
  0
ENDTAB
  0
ENDSEC
  0
SECTION
  2
BLOCKS
  0
BLOCK
  5
20
330
1F
100
AcDbEntity
  8
0
100
AcDbBlockBegin
  2
*Model_Space
 70
     0
 10
0.0
 20
0.0
 30
0.0
  3
*Model_Space
  1

  0
ENDBLK
  5
21
330
1F
100
AcDbEntity
  8
0
100
AcDbBlockEnd
  0
BLOCK
  5
1C
330
1B
100
AcDbEntity
 67
     1
  8
0
100
AcDbBlockBegin
  2
*Paper_Space
 70
     0
 10
0.0
 20
0.0
 30
0.0
  3
*Paper_Space
  1

  0
ENDBLK
  5
1D
330
1B
100
AcDbEntity
 67
     1
  8
0
100
AcDbBlockEnd
  0
BLOCK
  5
24
330
23
100
AcDbEntity
  8
0
100
AcDbBlockBegin
  2
*Paper_Space0
 70
     0
 10
0.0
 20
0.0
 30
0.0
  3
*Paper_Space0
  1

  0
LINE
  5
C7
330
23
100
AcDbEntity
  8
0
  6
Continuous
 62
     7
370
    25
100
AcDbLine
 10
170.0
 20
-120.0
 30
0.0
 11
170.0
 21
0.0
 31
0.0
  0
LINE
  5
C8
330
23
100
AcDbEntity
  8
0
  6
Continuous
 62
     7
370
    25
100
AcDbLine
 10
250.0
 20
0.0
 30
0.0
 11
250.0
 21
-120.0
 31
0.0
  0
LINE
  5
C9
330
23
100
AcDbEntity
  8
0
  6
Continuous
 62
     7
370
    25
100
AcDbLine
 10
-250.0
 20
-120.0
 30
0.0
 11
-250.0
 21
0.0
 31
0.0
  0
LINE
  5
CA
330
23
100
AcDbEntity
  8
0
  6
Continuous
 62
     7
370
    25
100
AcDbLine
 10
250.0
 20
0.0
 30
0.0
 11
-250.0
 21
0.0
 31
0.0
  0
LINE
  5
CB
330
23
100
AcDbEntity
  8
0
  6
Continuous
 62
     7
370
    25
100
AcDbLine
 10
-170.0
 20
0.0
 30
0.0
 11
-170.0
 21
-120.0
 31
0.0
  0
LINE
  5
CC
330
23
100
AcDbEntity
  8
0
  6
Continuous
 62
     7
370
    25
100
AcDbLine
 10
250.0
 20
-120.0
 30
0.0
 11
-250.0
 21
-120.0
 31
0.0
  0
VIEWPORT
  5
12C
330
23
100
AcDbEntity
  8
0
100
AcDbViewport
 10
0.0
 20
0.0
 30
0.0
 40
205.6
 41
156.0
 68
     1
 69
     1
 12
0.0
 22
0.0
 13
0.0
 23
0.0
 14
10.0
 24
10.0
 15
10.0
 25
10.0
 16
0.0
 26
0.0
 36
1.0
 17
0.0
 27
0.0
 37
0.0
 42
50.0
 43
0.0
 44
0.0
 45
1020.0
 50
0.0
 51
0.0
 72
   100
 90
   557152
  1

281
     0
 71
     1
 74
     0
110
0.0
120
0.0
130
0.0
111
1.0
121
0.0
131
0.0
112
0.0
122
1.0
132
0.0
 79
     0
146
0.0
  0
ENDBLK
  5
25
330
23
100
AcDbEntity
  8
0
100
AcDbBlockEnd
  0
BLOCK
  5
CF
330
CD
100
AcDbEntity
  8
0
100
AcDbBlockBegin
  2
*Paper_Space1
 70
     0
 10
0.0
 20
0.0
 30
0.0
  3
*Paper_Space1
  1

  0
LINE
  5
DB
330
CD
100
AcDbEntity
  8
0
  6
Continuous
 62
     7
370
    25
100
AcDbLine
 10
-170.0
 20
120.0
 30
0.0
 11
-170.0
 21
0.0
 31
0.0
  0
LINE
  5
DC
330
CD
100
AcDbEntity
  8
0
  6
Continuous
 62
     7
370
    25
100
AcDbLine
 10
-250.0
 20
0.0
 30
0.0
 11
-250.0
 21
120.0
 31
0.0
  0
LINE
  5
DD
330
CD
100
AcDbEntity
  8
0
  6
Continuous
 62
     7
370
    25
100
AcDbLine
 10
250.0
 20
120.0
 30
0.0
 11
250.0
 21
0.0
 31
0.0
  0
LINE
  5
DE
330
CD
100
AcDbEntity
  8
0
  6
Continuous
 62
     7
370
    25
100
AcDbLine
 10
-250.0
 20
0.0
 30
0.0
 11
250.0
 21
0.0
 31
0.0
  0
LINE
  5
DF
330
CD
100
AcDbEntity
  8
0
  6
Continuous
 62
     7
370
    25
100
AcDbLine
 10
170.0
 20
0.0
 30
0.0
 11
170.0
 21
120.0
 31
0.0
  0
LINE
  5
E0
330
CD
100
AcDbEntity
  8
0
  6
Continuous
 62
     7
370
    25
100
AcDbLine
 10
-250.0
 20
120.0
 30
0.0
 11
250.0
 21
120.0
 31
0.0
  0
VIEWPORT
  5
12E
330
CD
100
AcDbEntity
  8
0
100
AcDbViewport
 10
0.0
 20
0.0
 30
0.0
 40
205.6
 41
156.0
 68
     1
 69
     1
 12
0.0
 22
0.0
 13
0.0
 23
0.0
 14
10.0
 24
10.0
 15
10.0
 25
10.0
 16
0.0
 26
0.0
 36
1.0
 17
0.0
 27
0.0
 37
0.0
 42
50.0
 43
0.0
 44
0.0
 45
1020.0
 50
0.0
 51
0.0
 72
   100
 90
   557152
  1

281
     0
 71
     1
 74
     0
110
0.0
120
0.0
130
0.0
111
1.0
121
0.0
131
0.0
112
0.0
122
1.0
132
0.0
 79
     0
146
0.0
  0
ENDBLK
  5
D0
330
CD
100
AcDbEntity
  8
0
100
AcDbBlockEnd
  0
BLOCK
  5
E3
330
E1
100
AcDbEntity
  8
0
100
AcDbBlockBegin
  2
*Paper_Space2
 70
     0
 10
0.0
 20
0.0
 30
0.0
  3
*Paper_Space2
  1

  0
LWPOLYLINE
  5
EA
330
E1
100
AcDbEntity
  8
0
  6
Continuous
 62
     7
370
    25
100
AcDbPolyline
 90
       23
 70
   128
 43
0.0
 10
-251.0229073212
 20
-157.1930635423
 10
-250.8877852935
 20
-161.6399194212
 10
-250.4831077611
 20
-166.2201237144
 10
-249.810936868
 20
-170.9103367506
 10
-248.874697843
 20
-175.6866582794
 10
-247.6791615456
 20
-180.524749261
 10
-246.2304201547
 20
-185.3999558928
 10
-244.5358561243
 20
-190.2874352393
 10
-242.6041045644
 20
-195.162281826
 10
-240.445009238
 20
-199.9996545523
 10
-238.0695724001
 20
-204.7749032753
 10
-235.4898987322
 20
-209.4636944224
 10
-232.7191336601
 20
-214.0421349885
 10
-229.7713963675
 20
-218.48689429
 10
-226.6617078479
 20
-222.7753228523
 10
-223.4059143612
 20
-226.8855678265
 10
-220.0206066848
 20
-230.7966843464
 10
-216.5230355705
 20
-234.4887422586
 10
-212.931023839
 20
-237.9429276823
 10
-209.2628755588
 20
-241.1416388804
 10
-205.5372827727
 20
-244.0685759538
 10
-201.7732302476
 20
-246.7088239021
 10
-197.9898987322
 20
-249.048928627
  0
LWPOLYLINE
  5
EC
330
E1
100
AcDbEntity
  8
0
  6
Continuous
 62
     7
370
    25
100
AcDbPolyline
 90
       13
 70
   128
 43
0.0
 10
-233.6023744922
 20
433.3767153927
 10
-235.4898987322
 20
432.3912894399
 10
-238.0695724001
 20
430.6809261121
 10
-240.445009238
 20
428.6482983838
 10
-242.6041045644
 20
426.3037640598
 10
-244.5358561243
 20
423.6592703498
 10
-246.2304201547
 20
420.7282929874
 10
-247.6791615456
 20
417.5257675616
 10
-248.874697843
 20
414.0680134076
 10
-249.810936868
 20
410.3726504483
 10
-250.4831077611
 20
406.458509406
 10
-250.8877852935
 20
402.3455358464
 10
-251.0229073212
 20
398.05468854
  0
LWPOLYLINE
  5
ED
330
E1
100
AcDbEntity
  8
0
  6
Continuous
 62
     7
370
    25
100
AcDbPolyline
 90
       17
 70
   128
 43
0.0
 10
42.4264068712
 20
-387.8383076369
 10
46.2097383865
 20
-389.8663445011
 10
49.9737909117
 20
-391.5719790936
 10
53.6993836978
 20
-392.9465198915
 10
57.367531978
 20
-393.9829625499
 10
60.9595437094
 20
-394.6760255946
 10
64.4571148237
 20
-395.0221773353
 10
67.8424225002
 20
-395.019653862
 10
71.0982159869
 20
-394.6684680337
 10
74.2079045065
 20
-393.9704094129
 10
77.1556417991
 20
-392.9290351464
 10
79.9264068712
 20
-391.5496518387
 10
82.506080539
 20
-389.8392885109
 10
84.881517377
 20
-387.8066607826
 10
87.0406127033
 20
-385.4621264586
 10
88.9723642633
 20
-382.8176327486
 10
89.8025612107
 20
-381.468599199
  0
LWPOLYLINE
  5
F1
330
E1
100
AcDbEntity
  8
0
  6
Continuous
 62
     7
370
    25
100
AcDbPolyline
 90
       24
 70
   128
 43
0.0
 10
120.2081528017
 20
338.8757164379
 10
124.0685266621
 20
336.4948864365
 10
127.9109016775
 20
333.8205897478
 10
131.7173629219
 20
330.8652951777
 10
135.4701629159
 20
327.6427816736
 10
139.1518043735
 20
324.1680740811
 10
142.7451217827
 20
320.4573730909
 10
146.233361439
 20
316.5279797039
 10
149.600259559
 20
312.3982145662
 10
152.8301181093
 20
308.087332549
 10
155.9078779984
 20
303.6154329743
 10
158.8191892889
 20
299.0033659023
 10
161.5504781038
 20
294.2726349187
 10
164.0890099137
 20
289.445296875
 10
166.4229489115
 20
284.5438590498
 10
168.5414131963
 20
279.5911742086
 10
170.4345255095
 20
274.6103340546
 10
172.0934592877
 20
269.6245615636
 10
173.5104798159
 20
264.6571027087
 10
174.6789802901
 20
259.7311180761
 10
175.5935126219
 20
254.86957488
 10
176.2498128392
 20
250.095139879
 10
176.6448209675
 20
245.430073693
 10
176.7766952966
 20
240.8961270142
  0
LWPOLYLINE
  5
F3
330
E1
100
AcDbEntity
  8
0
  6
Continuous
 62
     7
370
    25
100
AcDbPolyline
 90
       24
 70
   128
 43
0.0
 10
91.9238815543
 20
191.9116403048
 10
91.7920072251
 20
196.4455869837
 10
91.3969990968
 20
201.1106531696
 10
90.7406988795
 20
205.8850881706
 10
89.8261665478
 20
210.7466313667
 10
88.6576660735
 20
215.6726159994
 10
87.2406455454
 20
220.6400748543
 10
85.5817117671
 20
225.6258473452
 10
83.6885994539
 20
230.6066874993
 10
81.5701351692
 20
235.5593723404
 10
79.2361961713
 20
240.4608101657
 10
76.6976643614
 20
245.2881482093
 10
73.9663755465
 20
250.0188791929
 10
71.055064256
 20
254.6309462649
 10
67.9773043669
 20
259.1028458396
 10
64.7474458166
 20
263.4137278568
 10
61.3805476967
 20
267.5434929946
 10
57.8923080403
 20
271.4728863815
 10
54.2989906311
 20
275.1835873717
 10
50.6173491735
 20
278.6582949643
 10
46.8645491795
 20
281.8808084684
 10
43.0580879351
 20
284.8361030385
 10
39.2157129197
 20
287.5103997271
 10
35.3553390593
 20
289.8912297286
  0
LWPOLYLINE
  5
F4
330
E1
100
AcDbEntity
  8
0
  6
Continuous
 62
     7
370
    25
100
AcDbPolyline
 90
       24
 70
   128
 43
0.0
 10
89.8025612107
 20
-492.7580295115
 10
89.6756321689
 20
-496.9754040376
 10
89.2954368454
 20
-501.0265660647
 10
88.6637478862
 20
-504.8926272052
 10
87.7835105169
 20
-508.5555620974
 10
86.6588288105
 20
-511.998292448
 10
85.2949465521
 20
-515.2047666589
 10
83.6982227906
 20
-518.1600346672
 10
81.8761021891
 20
-520.8503176491
 10
79.837080315
 20
-523.2630722636
 10
77.5906640296
 20
-525.3870491348
 10
75.1473271626
 20
-527.2123453021
 10
72.5184616783
 20
-528.7304503922
 10
69.7163245611
 20
-529.9342862984
 10
66.7539806678
 20
-530.8182401819
 10
63.6452418132
 20
-531.3781906417
 10
60.4046023728
 20
-531.6115269303
 10
57.0471717035
 20
-531.5171611262
 10
53.5886036972
 20
-531.0955332063
 10
50.0450237942
 20
-530.3486089946
 10
46.4329538
 20
-529.2798709966
 10
42.7692348523
 20
-527.8943021622
 10
39.0709488999
 20
-526.1983626529
 10
35.3553390593
 20
-524.1999597215
  0
LWPOLYLINE
  5
F6
330
E1
100
AcDbEntity
  8
0
  6
Continuous
 62
     7
370
    25
100
AcDbPolyline
 90
       24
 70
   128
 43
0.0
 10
35.3553390593
 20
287.4416072929
 10
39.0709488999
 20
285.1500584165
 10
42.7692348523
 20
282.5760478537
 10
46.4329538
 20
279.73157683
 10
50.0450237942
 20
276.6299075823
 10
53.5886036972
 20
273.2855015244
 10
57.0471717035
 20
269.7139518214
 10
60.4046023728
 20
265.9319106865
 10
63.6452418132
 20
261.9570117413
 10
66.7539806678
 20
257.8077877998
 10
69.7163245611
 20
253.5035844592
 10
72.5184616783
 20
249.0644699024
 10
75.1473271626
 20
244.5111413306
 10
77.5906640296
 20
239.8648284636
 10
79.837080315
 20
235.1471945568
 10
81.8761021891
 20
230.3802353972
 10
83.6982227906
 20
225.5861767489
 10
85.2949465521
 20
220.7873707264
 10
86.6588288105
 20
216.0061915785
 10
87.7835105169
 20
211.2649313696
 10
88.6637478862
 20
206.5856960434
 10
89.2954368454
 20
201.9903023549
 10
89.6756321689
 20
197.5001761509
 10
89.8025612107
 20
193.1362524725
  0
LWPOLYLINE
  5
F8
330
E1
100
AcDbEntity
  8
0
  6
Continuous
 62
     7
370
    25
100
AcDbPolyline
 90
       24
 70
   128
 43
0.0
 10
-259.5081886955
 20
394.7890560928
 10
-259.3812596537
 20
399.0064306189
 10
-259.0010643302
 20
403.0575926459
 10
-258.369375371
 20
406.9236537864
 10
-257.4891380017
 20
410.5865886787
 10
-256.3644562953
 20
414.0293190293
 10
-255.0005740369
 20
417.2357932402
 10
-253.4038502754
 20
420.1910612485
 10
-251.5817296739
 20
422.8813442304
 10
-249.5427077998
 20
425.2940988449
 10
-247.2962915144
 20
427.4180757161
 10
-244.8529546474
 20
429.2433718834
 10
-242.224089163
 20
430.7614769735
 10
-239.4219520459
 20
431.9653128797
 10
-236.4596081526
 20
432.8492667632
 10
-233.350869298
 20
433.409217223
 10
-230.1102298575
 20
433.6425535116
 10
-226.7527991883
 20
433.5481877075
 10
-223.2942311819
 20
433.1265597876
 10
-219.750651279
 20
432.3796355759
 10
-216.1385812848
 20
431.3108975779
 10
-212.474862337
 20
429.9253287435
 10
-208.7765763847
 20
428.2293892341
 10
-205.0609665441
 20
426.2309863028
  0
LWPOLYLINE
  5
FA
330
E1
100
AcDbEntity
  8
0
  6
Continuous
 62
     7
370
    25
100
AcDbPolyline
 90
       24
 70
   128
 43
0.0
 10
-205.0609665441
 20
-385.4105807116
 10
-208.7765763847
 20
-383.1190318352
 10
-212.474862337
 20
-380.5450212724
 10
-216.1385812848
 20
-377.7005502487
 10
-219.750651279
 20
-374.598881001
 10
-223.2942311819
 20
-371.2544749432
 10
-226.7527991883
 20
-367.6829252401
 10
-230.1102298575
 20
-363.9008841052
 10
-233.350869298
 20
-359.9259851601
 10
-236.4596081526
 20
-355.7767612185
 10
-239.4219520459
 20
-351.4725578779
 10
-242.224089163
 20
-347.0334433211
 10
-244.8529546474
 20
-342.4801147493
 10
-247.2962915144
 20
-337.8338018824
 10
-249.5427077998
 20
-333.1161679756
 10
-251.5817296739
 20
-328.3492088159
 10
-253.4038502754
 20
-323.5551501677
 10
-255.0005740369
 20
-318.7563441451
 10
-256.3644562953
 20
-313.9751649973
 10
-257.4891380017
 20
-309.2339047883
 10
-258.369375371
 20
-304.5546694621
 10
-259.0010643302
 20
-299.9592757736
 10
-259.3812596537
 20
-295.4691495697
 10
-259.5081886955
 20
-291.1052258913
  0
LWPOLYLINE
  5
FC
330
E1
100
AcDbEntity
  8
0
  6
Continuous
 62
     7
370
    25
100
AcDbPolyline
 90
       24
 70
   128
 43
0.0
 10
35.3553390593
 20
-526.6495821572
 10
39.2157129197
 20
-528.725844943
 10
43.0580879351
 20
-530.4878600176
 10
46.8645491795
 20
-531.9274120534
 10
50.6173491735
 20
-533.0377891941
 10
54.2989906311
 20
-533.8138143491
 10
57.8923080403
 20
-534.2518693309
 10
61.3805476967
 20
-534.3499117247
 10
64.7474458166
 20
-534.1074844119
 10
67.9773043669
 20
-533.5257177004
 10
71.055064256
 20
-532.6073240552
 10
73.9663755465
 20
-531.3565854514
 10
76.6976643614
 20
-529.7793334098
 10
79.2361961713
 20
-527.8829218074
 10
81.5701351692
 20
-525.6761925905
 10
83.6885994539
 20
-523.1694345495
 10
85.5817117671
 20
-520.3743353475
 10
87.2406455454
 20
-517.3039270272
 10
88.6576660735
 20
-513.9725252496
 10
89.8261665478
 20
-510.3956625477
 10
90.7406988795
 20
-506.5900159064
 10
91.3969990968
 20
-502.5733290072
 10
91.7920072251
 20
-498.3643294986
 10
91.9238815543
 20
-493.9826416792
  0
LWPOLYLINE
  5
FE
330
E1
100
AcDbEntity
  8
0
  6
Continuous
 62
     7
370
    25
100
AcDbPolyline
 90
       24
 70
   128
 43
0.0
 10
-261.629509039
 20
-289.8806137235
 10
-261.4976347099
 20
-294.4145604024
 10
-261.1026265816
 20
-299.0796265883
 10
-260.4463263643
 20
-303.8540615893
 10
-259.5317940325
 20
-308.7156047854
 10
-258.3632935583
 20
-313.6415894181
 10
-256.9462730301
 20
-318.609048273
 10
-255.2873392519
 20
-323.5948207639
 10
-253.3942269387
 20
-328.575660918
 10
-251.2757626539
 20
-333.5283457592
 10
-248.9418236561
 20
-338.4297835844
 10
-246.4032918462
 20
-343.257121628
 10
-243.6720030313
 20
-347.9878526117
 10
-240.7606917407
 20
-352.5999196837
 10
-237.6829318516
 20
-357.0718192583
 10
-234.4530733014
 20
-361.3827012755
 10
-231.0861751814
 20
-365.5124664133
 10
-227.5979355251
 20
-369.4418598002
 10
-224.0046181159
 20
-373.1525607904
 10
-220.3229766583
 20
-376.627268383
 10
-216.5701766643
 20
-379.8497818871
 10
-212.7637154199
 20
-382.8050764572
 10
-208.9213404045
 20
-385.4793731458
 10
-205.0609665441
 20
-387.8602031473
  0
LWPOLYLINE
  5
100
330
E1
100
AcDbEntity
  8
0
  6
Continuous
 62
     7
370
    25
100
AcDbPolyline
 90
       24
 70
   128
 43
0.0
 10
-205.0609665441
 20
428.6806087384
 10
-208.9213404045
 20
430.7568715243
 10
-212.7637154199
 20
432.5188865989
 10
-216.5701766643
 20
433.9584386346
 10
-220.3229766583
 20
435.0688157754
 10
-224.0046181159
 20
435.8448409304
 10
-227.5979355251
 20
436.2828959121
 10
-231.0861751814
 20
436.380938306
 10
-234.4530733014
 20
436.1385109932
 10
-237.6829318516
 20
435.5567442817
 10
-240.7606917407
 20
434.6383506365
 10
-243.6720030313
 20
433.3876120327
 10
-246.4032918462
 20
431.810359991
 10
-248.9418236561
 20
429.9139483886
 10
-251.2757626539
 20
427.7072191718
 10
-253.3942269387
 20
425.2004611308
 10
-255.2873392519
 20
422.4053619288
 10
-256.9462730301
 20
419.3349536085
 10
-258.3632935583
 20
416.0035518309
 10
-259.5317940325
 20
412.426689129
 10
-260.4463263643
 20
408.6210424877
 10
-261.1026265816
 20
404.6043555885
 10
-261.4976347099
 20
400.3953560799
 10
-261.629509039
 20
396.0136682605
  0
LWPOLYLINE
  5
107
330
E1
100
AcDbEntity
  8
0
  6
Continuous
 62
     7
370
    25
100
AcDbPolyline
 90
       13
 70
   128
 43
0.0
 10
-160.2049021072
 20
481.6257394874
 10
-158.8191892889
 20
482.3720987421
 10
-155.9078779984
 20
483.6228373459
 10
-152.8301181093
 20
484.5412309911
 10
-149.600259559
 20
485.1229977026
 10
-146.233361439
 20
485.3654250154
 10
-142.7451217827
 20
485.2673826215
 10
-139.1518043735
 20
484.8293276398
 10
-135.4701629159
 20
484.0533024848
 10
-131.7173629219
 20
482.942925344
 10
-127.9109016775
 20
481.5033733082
 10
-124.0685266621
 20
479.7413582336
 10
-120.2081528017
 20
477.6650954478
  0
LWPOLYLINE
  5
108
330
E1
100
AcDbEntity
  8
0
  6
Continuous
 62
     7
370
    25
100
AcDbPolyline
 90
       13
 70
   128
 43
0.0
 10
176.7766952966
 20
-444.9981549699
 10
176.6448209675
 20
-449.3798427892
 10
176.2498128392
 20
-453.5888422978
 10
175.5935126219
 20
-457.605529197
 10
174.6789802901
 20
-461.4111758383
 10
173.5104798159
 20
-464.9880385403
 10
172.0934592877
 20
-468.3194403179
 10
170.4345255095
 20
-471.3898486381
 10
168.5414131963
 20
-474.1849478401
 10
166.4229489115
 20
-476.6917058811
 10
164.0890099137
 20
-478.898435098
 10
161.5504781038
 20
-480.7948467004
 10
160.2049021072
 20
-481.6257394874
  0
LWPOLYLINE
  5
10B
330
E1
100
AcDbEntity
  8
0
  6
Continuous
 62
     7
370
    25
100
AcDbPolyline
 90
       20
 70
   128
 43
0.0
 10
-171.710063021
 20
-264.2199548588
 10
-171.5116425529
 20
-264.9906782879
 10
-170.1477602945
 20
-269.7718574358
 10
-168.551036533
 20
-274.5706634583
 10
-166.7289159315
 20
-279.3647221066
 10
-164.6898940574
 20
-284.1316812662
 10
-162.443477772
 20
-288.849315173
 10
-160.000140905
 20
-293.49562804
 10
-157.3712754207
 20
-298.0489566117
 10
-154.5691383035
 20
-302.4880711685
 10
-151.6067944102
 20
-306.7922745091
 10
-148.4980555556
 20
-310.9414984507
 10
-145.2574161151
 20
-314.9163973958
 10
-141.8999854459
 20
-318.6984385307
 10
-138.4414174395
 20
-322.2699882338
 10
-134.8978375366
 20
-325.6143942916
 10
-131.2857675424
 20
-328.7160635393
 10
-127.6220485947
 20
-331.5605345631
 10
-123.9237626423
 20
-334.1345451259
 10
-120.2081528017
 20
-336.4260940023
  0
LINE
  5
10F
330
E1
100
AcDbEntity
  8
0
  6
Continuous
 62
     7
370
    25
100
AcDbLine
 10
-233.839412716
 20
433.344095022
 30
0.0
 11
-235.4868512061
 21
432.3930490252
 31
0.0
  0
LINE
  5
110
330
E1
100
AcDbEntity
  8
0
  6
Continuous
 62
     7
370
    25
100
AcDbLine
 10
79.923359345
 20
-391.551411424
 30
0.0
 11
83.458893251
 21
-389.5103911445
 31
0.0
  0
LINE
  5
111
330
E1
100
AcDbEntity
  8
0
  6
Continuous
 62
     7
370
    25
100
AcDbLine
 10
-160.2049021072
 20
481.6257394874
 30
0.0
 11
-245.0577158495
 21
432.641252778
 31
0.0
  0
LINE
  5
112
330
E1
100
AcDbEntity
  8
0
  6
Continuous
 62
     7
370
    25
100
AcDbLine
 10
75.3520883648
 20
-530.6102261968
 30
0.0
 11
160.2049021072
 21
-481.6257394874
 31
0.0
  0
LINE
  5
113
330
E1
100
AcDbEntity
  8
0
  6
Continuous
 62
     7
370
    25
100
AcDbLine
 10
-251.0229073212
 20
398.05468854
 30
0.0
 11
-251.0229073212
 21
-157.1930635423
 31
0.0
  0
LINE
  5
114
330
E1
100
AcDbEntity
  8
0
  6
Continuous
 62
     7
370
    25
100
AcDbLine
 10
-197.9898987322
 20
-249.048928627
 30
0.0
 11
42.4264068712
 21
-387.8383076369
 31
0.0
  0
LINE
  5
115
330
E1
100
AcDbEntity
  8
0
  6
Continuous
 62
     7
370
    25
100
AcDbLine
 10
35.3553390593
 20
289.8912297286
 30
0.0
 11
120.2081528017
 21
338.8757164379
 31
0.0
  0
LINE
  5
116
330
E1
100
AcDbEntity
  8
0
  6
Continuous
 62
     7
370
    25
100
AcDbLine
 10
176.7766952966
 20
240.8961270142
 30
0.0
 11
91.9238815543
 21
191.9116403048
 31
0.0
  0
LINE
  5
117
330
E1
100
AcDbEntity
  8
0
  6
Continuous
 62
     7
370
    25
100
AcDbLine
 10
89.8025612107
 20
-492.7580295115
 30
0.0
 11
89.8025612107
 21
193.1362524725
 31
0.0
  0
LINE
  5
118
330
E1
100
AcDbEntity
  8
0
  6
Continuous
 62
     7
370
    25
100
AcDbLine
 10
35.3553390593
 20
287.4416072929
 30
0.0
 11
-205.0609665441
 21
426.2309863028
 31
0.0
  0
LINE
  5
119
330
E1
100
AcDbEntity
  8
0
  6
Continuous
 62
     7
370
    25
100
AcDbLine
 10
-259.5081886955
 20
394.7890560928
 30
0.0
 11
-259.5081886955
 21
-291.1052258913
 31
0.0
  0
LINE
  5
11A
330
E1
100
AcDbEntity
  8
0
  6
Continuous
 62
     7
370
    25
100
AcDbLine
 10
-205.0609665441
 20
-385.4105807116
 30
0.0
 11
35.3553390593
 21
-524.1999597215
 31
0.0
  0
LINE
  5
11B
330
E1
100
AcDbEntity
  8
0
  6
Continuous
 62
     7
370
    25
100
AcDbLine
 10
-205.0609665441
 20
-387.8602031473
 30
0.0
 11
35.3553390593
 21
-526.6495821572
 31
0.0
  0
LINE
  5
11C
330
E1
100
AcDbEntity
  8
0
  6
Continuous
 62
     7
370
    25
100
AcDbLine
 10
-261.629509039
 20
396.0136682605
 30
0.0
 11
-261.629509039
 21
-289.8806137235
 31
0.0
  0
LINE
  5
11D
330
E1
100
AcDbEntity
  8
0
  6
Continuous
 62
     7
370
    25
100
AcDbLine
 10
35.3553390593
 20
289.8912297286
 30
0.0
 11
-205.0609665441
 21
428.6806087384
 31
0.0
  0
LINE
  5
11E
330
E1
100
AcDbEntity
  8
0
  6
Continuous
 62
     7
370
    25
100
AcDbLine
 10
91.9238815543
 20
-493.9826416792
 30
0.0
 11
91.9238815543
 21
191.9116403048
 31
0.0
  0
LINE
  5
11F
330
E1
100
AcDbEntity
  8
0
  6
Continuous
 62
     7
370
    25
100
AcDbLine
 10
91.9238815543
 20
-493.9826416792
 30
0.0
 11
176.7766952966
 21
-444.9981549699
 31
0.0
  0
LINE
  5
120
330
E1
100
AcDbEntity
  8
0
  6
Continuous
 62
     7
370
    25
100
AcDbLine
 10
176.7766952966
 20
-444.9981549699
 30
0.0
 11
176.7766952966
 21
240.8961270142
 31
0.0
  0
LINE
  5
121
330
E1
100
AcDbEntity
  8
0
  6
Continuous
 62
     7
370
    25
100
AcDbLine
 10
-120.2081528017
 20
477.6650954478
 30
0.0
 11
-205.0609665441
 21
428.6806087384
 31
0.0
  0
LINE
  5
122
330
E1
100
AcDbEntity
  8
0
  6
Continuous
 62
     7
370
    25
100
AcDbLine
 10
120.2081528017
 20
338.8757164379
 30
0.0
 11
-120.2081528017
 21
477.6650954478
 31
0.0
  0
LINE
  5
123
330
E1
100
AcDbEntity
  8
0
  6
Continuous
 62
     7
370
    25
100
AcDbLine
 10
-120.2081528017
 20
-336.4260940023
 30
0.0
 11
-205.0609665441
 21
-385.4105807116
 31
0.0
  0
LINE
  5
124
330
E1
100
AcDbEntity
  8
0
  6
Continuous
 62
     7
370
    25
100
AcDbLine
 10
-120.2081528017
 20
-336.4260940023
 30
0.0
 11
89.8025612107
 21
-457.662698608
 31
0.0
  0
LINE
  5
125
330
E1
100
AcDbEntity
  8
0
  6
Continuous
 62
     8
370
    25
100
AcDbLine
 10
-251.0035337313
 20
399.6986888991
 30
0.0
 11
-259.5081886955
 21
394.7890560928
 31
0.0
  0
LINE
  5
126
330
E1
100
AcDbEntity
  8
0
  6
Continuous
 62
     8
370
    25
100
AcDbLine
 10
-259.5081886955
 20
-291.1052258913
 30
0.0
 11
-192.323275086
 21
-252.320200827
 31
0.0
  0
LINE
  5
127
330
E1
100
AcDbEntity
  8
0
  6
Continuous
 62
     8
370
    25
100
AcDbLine
 10
35.3553390593
 20
-524.1999597215
 30
0.0
 11
89.8025604916
 21
-492.7682478315
 31
0.0
  0
ARC
  5
128
330
E1
100
AcDbEntity
  8
0
  6
Continuous
 62
     7
370
    25
100
AcDbCircle
 10
-217.0078071108
 20
410.7576468394
 30
0.0
 40
30.12227235519054
100
AcDbArc
 50
133.8814498101
 51
151.0951309594
  0
ARC
  5
129
330
E1
100
AcDbEntity
  8
0
  6
Continuous
 62
     7
370
    25
100
AcDbCircle
 10
70.5644924202
 20
-367.2628670925
 30
0.0
 40
25.71415756404673
100
AcDbArc
 50
300.0960717379
 51
318.4304515403
  0
VIEWPORT
  5
130
330
E1
100
AcDbEntity
  8
0
100
AcDbViewport
 10
0.0
 20
0.0
 30
0.0
 40
205.6
 41
156.0
 68
     1
 69
     1
 12
0.0
 22
0.0
 13
0.0
 23
0.0
 14
10.0
 24
10.0
 15
10.0
 25
10.0
 16
0.0
 26
0.0
 36
1.0
 17
0.0
 27
0.0
 37
0.0
 42
50.0
 43
0.0
 44
0.0
 45
1020.0
 50
0.0
 51
0.0
 72
   100
 90
   557152
  1

281
     0
 71
     1
 74
     0
110
0.0
120
0.0
130
0.0
111
1.0
121
0.0
131
0.0
112
0.0
122
1.0
132
0.0
 79
     0
146
0.0
  0
ENDBLK
  5
E4
330
E1
100
AcDbEntity
  8
0
100
AcDbBlockEnd
  0
ENDSEC
  0
SECTION
  2
ENTITIES
  0
LINE
  5
91
330
1F
100
AcDbEntity
  8
0
  6
Continuous
 62
     7
370
    25
100
AcDbLine
 10
-245.0
 20
420.0
 30
0.0
 11
-247.0
 21
420.0
 31
0.0
  0
LINE
  5
92
330
1F
100
AcDbEntity
  8
0
  6
Continuous
 62
     7
370
    25
100
AcDbLine
 10
247.0
 20
420.0
 30
0.0
 11
245.0
 21
420.0
 31
0.0
  0
LINE
  5
93
330
1F
100
AcDbEntity
  8
0
  6
Continuous
 62
     7
370
    25
100
AcDbLine
 10
170.0
 20
495.0
 30
0.0
 11
-170.0
 21
495.0
 31
0.0
  0
LINE
  5
94
330
1F
100
AcDbEntity
  8
0
  6
Continuous
 62
     7
370
    25
100
AcDbLine
 10
-170.0
 20
-335.0
 30
0.0
 11
170.0
 21
-335.0
 31
0.0
  0
LINE
  5
95
330
1F
100
AcDbEntity
  8
0
  6
Continuous
 62
     7
370
    25
100
AcDbLine
 10
-245.0
 20
420.0
 30
0.0
 11
-245.0
 21
-260.0
 31
0.0
  0
LINE
  5
96
330
1F
100
AcDbEntity
  8
0
  6
Continuous
 62
     7
370
    25
100
AcDbLine
 10
245.0
 20
-260.0
 30
0.0
 11
245.0
 21
420.0
 31
0.0
  0
LINE
  5
97
330
1F
100
AcDbEntity
  8
0
  6
Continuous
 62
     7
370
    25
100
AcDbLine
 10
-247.0
 20
420.0
 30
0.0
 11
-247.0
 21
-420.0
 31
0.0
  0
LINE
  5
98
330
1F
100
AcDbEntity
  8
0
  6
Continuous
 62
     7
370
    25
100
AcDbLine
 10
-170.0
 20
-500.0
 30
0.0
 11
170.0
 21
-500.0
 31
0.0
  0
LINE
  5
99
330
1F
100
AcDbEntity
  8
0
  6
Continuous
 62
     7
370
    25
100
AcDbLine
 10
-250.0
 20
420.0
 30
0.0
 11
-250.0
 21
-420.0
 31
0.0
  0
LINE
  5
9A
330
1F
100
AcDbEntity
  8
0
  6
Continuous
 62
     7
370
    25
100
AcDbLine
 10
170.0
 20
500.0
 30
0.0
 11
-170.0
 21
500.0
 31
0.0
  0
LINE
  5
9B
330
1F
100
AcDbEntity
  8
0
  6
Continuous
 62
     7
370
    25
100
AcDbLine
 10
250.0
 20
-420.0
 30
0.0
 11
250.0
 21
420.0
 31
0.0
  0
LINE
  5
9C
330
1F
100
AcDbEntity
  8
0
  6
Continuous
 62
     7
370
    25
100
AcDbLine
 10
170.0
 20
497.0
 30
0.0
 11
-170.0
 21
497.0
 31
0.0
  0
LINE
  5
9D
330
1F
100
AcDbEntity
  8
0
  6
Continuous
 62
     7
370
    25
100
AcDbLine
 10
247.0
 20
-420.0
 30
0.0
 11
247.0
 21
420.0
 31
0.0
  0
LINE
  5
9E
330
1F
100
AcDbEntity
  8
0
  6
Continuous
 62
     7
370
    25
100
AcDbLine
 10
-170.0
 20
-497.0
 30
0.0
 11
170.0
 21
-497.0
 31
0.0
  0
LINE
  5
9F
330
1F
100
AcDbEntity
  8
0
  6
Continuous
 62
     7
370
    25
100
AcDbLine
 10
-247.0
 20
-229.0
 30
0.0
 11
-245.0
 21
-229.0
 31
0.0
  0
LINE
  5
A0
330
1F
100
AcDbEntity
  8
0
  6
Continuous
 62
     7
370
    25
100
AcDbLine
 10
245.0
 20
-229.0
 30
0.0
 11
247.0
 21
-229.0
 31
0.0
  0
ARC
  5
A1
330
1F
100
AcDbEntity
  8
0
  6
Continuous
 62
     7
370
    25
100
AcDbCircle
 10
-170.0
 20
-260.0
 30
0.0
 40
74.99999999999989
100
AcDbArc
 50
180.0
 51
270.0
  0
ARC
  5
A2
330
1F
100
AcDbEntity
  8
0
  6
Continuous
 62
     7
370
    25
100
AcDbCircle
 10
-170.0
 20
420.0
 30
0.0
 40
75.00000000000003
100
AcDbArc
 50
90.0
 51
180.0
  0
ARC
  5
A3
330
1F
100
AcDbEntity
  8
0
  6
Continuous
 62
     7
370
    25
100
AcDbCircle
 10
170.0
 20
420.0
 30
0.0
 40
75.00000000000026
100
AcDbArc
 50
0.0
 51
90.0
  0
ARC
  5
A4
330
1F
100
AcDbEntity
  8
0
  6
Continuous
 62
     7
370
    25
100
AcDbCircle
 10
170.0
 20
-260.0
 30
0.0
 40
74.99999999999994
100
AcDbArc
 50
270.0
 51
0.0
  0
ARC
  5
A5
330
1F
100
AcDbEntity
  8
0
  6
Continuous
 62
     7
370
    25
100
AcDbCircle
 10
170.0
 20
-420.0
 30
0.0
 40
77.00000000000023
100
AcDbArc
 50
270.0
 51
0.0
  0
ARC
  5
A6
330
1F
100
AcDbEntity
  8
0
  6
Continuous
 62
     7
370
    25
100
AcDbCircle
 10
170.0
 20
420.0
 30
0.0
 40
77.00000000000017
100
AcDbArc
 50
0.0
 51
90.0
  0
ARC
  5
A7
330
1F
100
AcDbEntity
  8
0
  6
Continuous
 62
     7
370
    25
100
AcDbCircle
 10
-170.0
 20
420.0
 30
0.0
 40
77.00000000000023
100
AcDbArc
 50
90.0
 51
180.0
  0
ARC
  5
A8
330
1F
100
AcDbEntity
  8
0
  6
Continuous
 62
     7
370
    25
100
AcDbCircle
 10
-170.0
 20
-420.0
 30
0.0
 40
77.00000000000011
100
AcDbArc
 50
180.0
 51
270.0
  0
ARC
  5
A9
330
1F
100
AcDbEntity
  8
0
  6
Continuous
 62
     7
370
    25
100
AcDbCircle
 10
170.0
 20
-420.0
 30
0.0
 40
80.00000000000017
100
AcDbArc
 50
270.0
 51
0.0
  0
ARC
  5
AA
330
1F
100
AcDbEntity
  8
0
  6
Continuous
 62
     7
370
    25
100
AcDbCircle
 10
-170.0
 20
-420.0
 30
0.0
 40
80.00000000000017
100
AcDbArc
 50
180.0
 51
270.0
  0
ARC
  5
AB
330
1F
100
AcDbEntity
  8
0
  6
Continuous
 62
     7
370
    25
100
AcDbCircle
 10
-170.0
 20
420.0
 30
0.0
 40
80.00000000000017
100
AcDbArc
 50
90.0
 51
180.0
  0
ARC
  5
AC
330
1F
100
AcDbEntity
  8
0
  6
Continuous
 62
     7
370
    25
100
AcDbCircle
 10
170.0
 20
420.0
 30
0.0
 40
80.00000000000023
100
AcDbArc
 50
0.0
 51
90.0
  0
LINE
  5
B7
330
1B
100
AcDbEntity
 67
     1
  8
0
  6
Continuous
 62
     7
370
    25
100
AcDbLine
 10
0.0
 20
-420.0
 30
0.0
 11
120.0
 21
-420.0
 31
0.0
  0
LINE
  5
B8
330
1B
100
AcDbEntity
 67
     1
  8
0
  6
Continuous
 62
     7
370
    25
100
AcDbLine
 10
0.0
 20
500.0
 30
0.0
 11
0.0
 21
-500.0
 31
0.0
  0
LINE
  5
B9
330
1B
100
AcDbEntity
 67
     1
  8
0
  6
Continuous
 62
     7
370
    25
100
AcDbLine
 10
120.0
 20
420.0
 30
0.0
 11
0.0
 21
420.0
 31
0.0
  0
LINE
  5
BA
330
1B
100
AcDbEntity
 67
     1
  8
0
  6
Continuous
 62
     7
370
    25
100
AcDbLine
 10
120.0
 20
500.0
 30
0.0
 11
120.0
 21
-500.0
 31
0.0
  0
LINE
  5
BB
330
1B
100
AcDbEntity
 67
     1
  8
0
  6
Continuous
 62
     7
370
    25
100
AcDbLine
 10
0.0
 20
500.0
 30
0.0
 11
120.0
 21
500.0
 31
0.0
  0
LINE
  5
BC
330
1B
100
AcDbEntity
 67
     1
  8
0
  6
Continuous
 62
     7
370
    25
100
AcDbLine
 10
120.0
 20
-500.0
 30
0.0
 11
0.0
 21
-500.0
 31
0.0
  0
VIEWPORT
  5
12A
330
1B
100
AcDbEntity
 67
     1
  8
0
100
AcDbViewport
 10
0.0
 20
0.0
 30
0.0
 40
205.6
 41
156.0
 68
     1
 69
     1
 12
0.0
 22
0.0
 13
0.0
 23
0.0
 14
10.0
 24
10.0
 15
10.0
 25
10.0
 16
0.0
 26
0.0
 36
1.0
 17
0.0
 27
0.0
 37
0.0
 42
50.0
 43
0.0
 44
0.0
 45
1020.0
 50
0.0
 51
0.0
 72
   100
 90
   557152
  1

281
     0
 71
     1
 74
     0
110
0.0
120
0.0
130
0.0
111
1.0
121
0.0
131
0.0
112
0.0
122
1.0
132
0.0
 79
     0
146
0.0
  0
ENDSEC
  0
SECTION
  2
OBJECTS
  0
DICTIONARY
  5
C
330
0
100
AcDbDictionary
281
     1
  3
ACAD_GROUP
350
D
  3
ACAD_LAYOUT
350
1A
  3
ACAD_MLINESTYLE
350
17
  3
ACAD_PLOTSETTINGS
350
19
  3
ACAD_PLOTSTYLENAME
350
E
  3
ACAD_SCALELIST
350
47
  0
DICTIONARY
  5
D
102
{ACAD_REACTORS
330
C
102
}
330
C
100
AcDbDictionary
281
     1
  0
DICTIONARY
  5
1A
102
{ACAD_REACTORS
330
C
102
}
330
C
100
AcDbDictionary
281
     1
  3
_Bottom
350
CE
  3
_Isometric
350
E2
  3
_Left
350
1E
  3
_Top
350
26
  3
Model
350
22
  0
DICTIONARY
  5
17
102
{ACAD_REACTORS
330
C
102
}
330
C
100
AcDbDictionary
281
     1
  3
Standard
350
18
  0
DICTIONARY
  5
19
102
{ACAD_REACTORS
330
C
102
}
330
C
100
AcDbDictionary
281
     1
  0
ACDBDICTIONARYWDFLT
  5
E
102
{ACAD_REACTORS
330
C
102
}
330
C
100
AcDbDictionary
281
     1
  3
Normal
350
F
100
AcDbDictionaryWithDefault
340
F
  0
DICTIONARY
  5
47
102
{ACAD_REACTORS
330
C
102
}
330
C
100
AcDbDictionary
281
     1
  3
A0
350
48
  3
A1
350
49
  3
A2
350
4A
  3
A3
350
4B
  3
A4
350
4C
  3
A5
350
4D
  3
A6
350
4E
  3
A7
350
4F
  3
A8
350
50
  3
A9
350
51
  3
B0
350
52
  3
B1
350
53
  3
B2
350
54
  3
B3
350
55
  3
B4
350
56
  3
B5
350
57
  3
B6
350
58
  3
B7
350
59
  3
B8
350
5A
  3
B9
350
5B
  3
C0
350
5C
  3
C1
350
5D
  3
C2
350
5E
  3
C3
350
5F
  3
C4
350
60
  3
C5
350
61
  3
C6
350
62
  3
C7
350
63
  3
C8
350
64
  3
C9
350
65
  3
D0
350
66
  3
D1
350
67
  3
D2
350
68
  0
LAYOUT
  5
CE
102
{ACAD_REACTORS
330
1A
102
}
330
1A
100
AcDbPlotSettings
  1

  2
none_device
  4
ISO_A4_(210.00_x_297.00_MM)
  6

 40
7.5
 41
20.0
 42
7.5
 43
20.0
 44
210.0
 45
297.0
 46
0.0
 47
0.0
 48
0.0
 49
0.0
140
0.0
141
0.0
142
1.0
143
5.1282051282
 70
   688
 72
     1
 73
     1
 74
     1
  7

 75
     0
147
0.195
148
0.0
149
500.0
100
AcDbLayout
  1
_Bottom
 70
     1
 71
     3
 10
0.0
 20
0.0
 11
0.0
 21
0.0
 12
0.0
 22
0.0
 32
0.0
 14
0.0
 24
0.0
 34
0.0
 15
0.0
 25
0.0
 35
0.0
146
0.0
 13
0.0
 23
0.0
 33
0.0
 16
1.0
 26
0.0
 36
0.0
 17
0.0
 27
1.0
 37
0.0
 76
     0
330
CD
331
12E
  0
LAYOUT
  5
E2
102
{ACAD_REACTORS
330
1A
102
}
330
1A
100
AcDbPlotSettings
  1

  2
none_device
  4
ISO_A4_(210.00_x_297.00_MM)
  6

 40
7.5
 41
20.0
 42
7.5
 43
20.0
 44
210.0
 45
297.0
 46
0.0
 47
0.0
 48
0.0
 49
0.0
140
0.0
141
0.0
142
1.0
143
5.1282051282
 70
   688
 72
     1
 73
     1
 74
     1
  7

 75
     0
147
0.195
148
0.0
149
500.0
100
AcDbLayout
  1
_Isometric
 70
     1
 71
     4
 10
0.0
 20
0.0
 11
0.0
 21
0.0
 12
0.0
 22
0.0
 32
0.0
 14
0.0
 24
0.0
 34
0.0
 15
0.0
 25
0.0
 35
0.0
146
0.0
 13
0.0
 23
0.0
 33
0.0
 16
1.0
 26
0.0
 36
0.0
 17
0.0
 27
1.0
 37
0.0
 76
     0
330
E1
331
130
  0
LAYOUT
  5
1E
102
{ACAD_REACTORS
330
1A
102
}
330
1A
100
AcDbPlotSettings
  1

  2
none_device
  4
ISO_A4_(210.00_x_297.00_MM)
  6

 40
7.5
 41
20.0
 42
7.5
 43
20.0
 44
210.0
 45
297.0
 46
0.0
 47
0.0
 48
0.0
 49
0.0
140
0.0
141
0.0
142
1.0
143
5.1282051282
 70
   688
 72
     1
 73
     1
 74
     1
  7

 75
     0
147
0.195
148
0.0
149
500.0
100
AcDbLayout
  1
_Left
 70
     1
 71
     1
 10
-102.5641025641
 20
-538.4615384615
 11
1420.5128205128
 21
538.4615384615
 12
0.0
 22
0.0
 32
0.0
 14
0.0
 24
-500.0
 34
0.0
 15
120.0
 25
500.0
 35
0.0
146
0.0
 13
0.0
 23
0.0
 33
0.0
 16
1.0
 26
0.0
 36
0.0
 17
0.0
 27
1.0
 37
0.0
 76
     0
330
1B
331
12A
  0
LAYOUT
  5
26
102
{ACAD_REACTORS
330
1A
102
}
330
1A
100
AcDbPlotSettings
  1

  2
none_device
  4
ISO_A4_(210.00_x_297.00_MM)
  6

 40
7.5
 41
20.0
 42
7.5
 43
20.0
 44
210.0
 45
297.0
 46
0.0
 47
0.0
 48
0.0
 49
0.0
140
0.0
141
0.0
142
1.0
143
5.1282051282
 70
   688
 72
     1
 73
     1
 74
     1
  7

 75
     0
147
0.195
148
0.0
149
500.0
100
AcDbLayout
  1
_Top
 70
     1
 71
     2
 10
0.0
 20
0.0
 11
0.0
 21
0.0
 12
0.0
 22
0.0
 32
0.0
 14
0.0
 24
0.0
 34
0.0
 15
0.0
 25
0.0
 35
0.0
146
0.0
 13
0.0
 23
0.0
 33
0.0
 16
1.0
 26
0.0
 36
0.0
 17
0.0
 27
1.0
 37
0.0
 76
     0
330
23
331
12C
  0
LAYOUT
  5
22
102
{ACAD_REACTORS
330
1A
102
}
330
1A
100
AcDbPlotSettings
  1

  2
none_device
  4
ANSI_A_(11.00_x_8.50_Inches)
  6

 40
6.35
 41
19.05
 42
6.35000508
 43
19.05000254
 44
279.4
 45
215.9
 46
133.34999746
 47
88.89999873
 48
0.0
 49
0.0
140
0.0
141
0.0
142
0.008415
143
1.0
 70
  1696
 72
     0
 73
     0
 74
     0
  7

 75
     0
147
0.0179189148
148
-1300.4909072572
149
0.0
100
AcDbLayout
  1
Model
 70
     1
 71
     0
 10
0.0
 20
0.0
 11
420.0
 21
297.0
 12
0.0
 22
0.0
 32
0.0
 14
-250.0
 24
-500.0
 34
0.0
 15
250.0
 25
500.0
 35
0.0
146
0.0
 13
0.0
 23
0.0
 33
0.0
 16
1.0
 26
0.0
 36
0.0
 17
0.0
 27
1.0
 37
0.0
 76
     0
330
1F
331
29
  0
MLINESTYLE
  5
18
102
{ACAD_REACTORS
330
17
102
}
330
17
100
AcDbMlineStyle
  2
Standard
 70
     0
  3

 62
   256
 51
90.0
 52
90.0
 71
     2
 49
0.5
 62
   256
  6
BYLAYER
 49
-0.5
 62
   256
  6
BYLAYER
  0
ACDBPLACEHOLDER
  5
F
102
{ACAD_REACTORS
330
E
102
}
330
E
  0
SCALE
  5
48
102
{ACAD_REACTORS
330
47
102
}
330
47
100
AcDbScale
 70
     0
300
1:1
140
1.0
141
1.0
290
     1
  0
SCALE
  5
49
102
{ACAD_REACTORS
330
47
102
}
330
47
100
AcDbScale
 70
     0
300
1:2
140
1.0
141
2.0
290
     0
  0
SCALE
  5
4A
102
{ACAD_REACTORS
330
47
102
}
330
47
100
AcDbScale
 70
     0
300
1:4
140
1.0
141
4.0
290
     0
  0
SCALE
  5
4B
102
{ACAD_REACTORS
330
47
102
}
330
47
100
AcDbScale
 70
     0
300
1:5
140
1.0
141
5.0
290
     0
  0
SCALE
  5
4C
102
{ACAD_REACTORS
330
47
102
}
330
47
100
AcDbScale
 70
     0
300
1:8
140
1.0
141
8.0
290
     0
  0
SCALE
  5
4D
102
{ACAD_REACTORS
330
47
102
}
330
47
100
AcDbScale
 70
     0
300
1:10
140
1.0
141
10.0
290
     0
  0
SCALE
  5
4E
102
{ACAD_REACTORS
330
47
102
}
330
47
100
AcDbScale
 70
     0
300
1:16
140
1.0
141
16.0
290
     0
  0
SCALE
  5
4F
102
{ACAD_REACTORS
330
47
102
}
330
47
100
AcDbScale
 70
     0
300
1:20
140
1.0
141
20.0
290
     0
  0
SCALE
  5
50
102
{ACAD_REACTORS
330
47
102
}
330
47
100
AcDbScale
 70
     0
300
1:30
140
1.0
141
30.0
290
     0
  0
SCALE
  5
51
102
{ACAD_REACTORS
330
47
102
}
330
47
100
AcDbScale
 70
     0
300
1:40
140
1.0
141
40.0
290
     0
  0
SCALE
  5
52
102
{ACAD_REACTORS
330
47
102
}
330
47
100
AcDbScale
 70
     0
300
1:50
140
1.0
141
50.0
290
     0
  0
SCALE
  5
53
102
{ACAD_REACTORS
330
47
102
}
330
47
100
AcDbScale
 70
     0
300
1:100
140
1.0
141
100.0
290
     0
  0
SCALE
  5
54
102
{ACAD_REACTORS
330
47
102
}
330
47
100
AcDbScale
 70
     0
300
2:1
140
2.0
141
1.0
290
     0
  0
SCALE
  5
55
102
{ACAD_REACTORS
330
47
102
}
330
47
100
AcDbScale
 70
     0
300
4:1
140
4.0
141
1.0
290
     0
  0
SCALE
  5
56
102
{ACAD_REACTORS
330
47
102
}
330
47
100
AcDbScale
 70
     0
300
8:1
140
8.0
141
1.0
290
     0
  0
SCALE
  5
57
102
{ACAD_REACTORS
330
47
102
}
330
47
100
AcDbScale
 70
     0
300
10:1
140
10.0
141
1.0
290
     0
  0
SCALE
  5
58
102
{ACAD_REACTORS
330
47
102
}
330
47
100
AcDbScale
 70
     0
300
100:1
140
100.0
141
1.0
290
     0
  0
SCALE
  5
59
102
{ACAD_REACTORS
330
47
102
}
330
47
100
AcDbScale
 70
     0
300
1/128" = 1'-0"
140
0.0078125
141
12.0
290
     0
  0
SCALE
  5
5A
102
{ACAD_REACTORS
330
47
102
}
330
47
100
AcDbScale
 70
     0
300
1/64" = 1'-0"
140
0.015625
141
12.0
290
     0
  0
SCALE
  5
5B
102
{ACAD_REACTORS
330
47
102
}
330
47
100
AcDbScale
 70
     0
300
1/32" = 1'-0"
140
0.03125
141
12.0
290
     0
  0
SCALE
  5
5C
102
{ACAD_REACTORS
330
47
102
}
330
47
100
AcDbScale
 70
     0
300
1/16" = 1'-0"
140
0.0625
141
12.0
290
     0
  0
SCALE
  5
5D
102
{ACAD_REACTORS
330
47
102
}
330
47
100
AcDbScale
 70
     0
300
3/32" = 1'-0"
140
0.09375
141
12.0
290
     0
  0
SCALE
  5
5E
102
{ACAD_REACTORS
330
47
102
}
330
47
100
AcDbScale
 70
     0
300
1/8" = 1'-0"
140
0.125
141
12.0
290
     0
  0
SCALE
  5
5F
102
{ACAD_REACTORS
330
47
102
}
330
47
100
AcDbScale
 70
     0
300
3/16" = 1'-0"
140
0.1875
141
12.0
290
     0
  0
SCALE
  5
60
102
{ACAD_REACTORS
330
47
102
}
330
47
100
AcDbScale
 70
     0
300
1/4" = 1'-0"
140
0.25
141
12.0
290
     0
  0
SCALE
  5
61
102
{ACAD_REACTORS
330
47
102
}
330
47
100
AcDbScale
 70
     0
300
3/8" = 1'-0"
140
0.375
141
12.0
290
     0
  0
SCALE
  5
62
102
{ACAD_REACTORS
330
47
102
}
330
47
100
AcDbScale
 70
     0
300
1/2" = 1'-0"
140
0.5
141
12.0
290
     0
  0
SCALE
  5
63
102
{ACAD_REACTORS
330
47
102
}
330
47
100
AcDbScale
 70
     0
300
3/4" = 1'-0"
140
0.75
141
12.0
290
     0
  0
SCALE
  5
64
102
{ACAD_REACTORS
330
47
102
}
330
47
100
AcDbScale
 70
     0
300
1" = 1'-0"
140
1.0
141
12.0
290
     0
  0
SCALE
  5
65
102
{ACAD_REACTORS
330
47
102
}
330
47
100
AcDbScale
 70
     0
300
1-1/2" = 1'-0"
140
1.5
141
12.0
290
     0
  0
SCALE
  5
66
102
{ACAD_REACTORS
330
47
102
}
330
47
100
AcDbScale
 70
     0
300
3" = 1'-0"
140
3.0
141
12.0
290
     0
  0
SCALE
  5
67
102
{ACAD_REACTORS
330
47
102
}
330
47
100
AcDbScale
 70
     0
300
6" = 1'-0"
140
6.0
141
12.0
290
     0
  0
SCALE
  5
68
102
{ACAD_REACTORS
330
47
102
}
330
47
100
AcDbScale
 70
     0
300
1'-0" = 1'-0"
140
12.0
141
12.0
290
     0
  0
ENDSEC
  0
EOF
