  0
SECTION
  2
HEADER
  9
$ACADVER
  1
AC1015
  9
$ACADMAINTVER
 70
     6
  9
$DWGCODEPAGE
  3
ANSI_1252
  9
$INSBASE
 10
0.0
 20
0.0
 30
0.0
  9
$EXTMIN
 10
-58.7598425197
 20
0.0
 30
0.0
  9
$EXTMAX
 10
19.5866141732
 20
20.8661417323
 30
0.0
  9
$LIMMIN
 10
0.0
 20
0.0
  9
$LIMMAX
 10
12.0
 20
9.0
  9
$ORTHOMODE
 70
     0
  9
$REGENMODE
 70
     1
  9
$FILLMODE
 70
     1
  9
$QTEXTMODE
 70
     0
  9
$MIRRTEXT
 70
     1
  9
$LTSCALE
 40
1.0
  9
$ATTMODE
 70
     1
  9
$TEXTSIZE
 40
0.1377952756
  9
$TRACEWID
 40
0.05
  9
$TEXTSTYLE
  7
Standard
  9
$CLAYER
  8
0
  9
$CELTYPE
  6
ByLayer
  9
$CECOLOR
 62
   256
  9
$CELTSCALE
 40
1.0
  9
$DISPSILH
 70
     0
  9
$DIMSCALE
 40
1.0
  9
$DIMASZ
 40
0.13
  9
$DIMEXO
 40
0.0393700787
  9
$DIMDLI
 40
0.38
  9
$DIMRND
 40
0.0
  9
$DIMDLE
 40
0.0
  9
$DIMEXE
 40
0.0393700787
  9
$DIMTP
 40
0.0
  9
$DIMTM
 40
0.0
  9
$DIMTXT
 40
0.1377952756
  9
$DIMCEN
 40
0.09
  9
$DIMTSZ
 40
0.0
  9
$DIMTOL
 70
     0
  9
$DIMLIM
 70
     0
  9
$DIMTIH
 70
     1
  9
$DIMTOH
 70
     1
  9
$DIMSE1
 70
     0
  9
$DIMSE2
 70
     0
  9
$DIMTAD
 70
     1
  9
$DIMZIN
 70
     1
  9
$DIMBLK
  1

  9
$DIMASO
 70
     1
  9
$DIMSHO
 70
     1
  9
$DIMPOST
  1

  9
$DIMAPOST
  1

  9
$DIMALT
 70
     0
  9
$DIMALTD
 70
     2
  9
$DIMALTF
 40
25.4
  9
$DIMLFAC
 40
1.0
  9
$DIMTOFL
 70
     0
  9
$DIMTVP
 40
0.0
  9
$DIMTIX
 70
     0
  9
$DIMSOXD
 70
     0
  9
$DIMSAH
 70
     0
  9
$DIMBLK1
  1

  9
$DIMBLK2
  1

  9
$DIMSTYLE
  2
Standard
  9
$DIMCLRD
 70
     0
  9
$DIMCLRE
 70
     0
  9
$DIMCLRT
 70
     0
  9
$DIMTFAC
 40
1.0
  9
$DIMGAP
 40
0.06
  9
$DIMJUST
 70
     0
  9
$DIMSD1
 70
     0
  9
$DIMSD2
 70
     0
  9
$DIMTOLJ
 70
     1
  9
$DIMTZIN
 70
     1
  9
$DIMALTZ
 70
     0
  9
$DIMALTTZ
 70
     0
  9
$DIMUPT
 70
     0
  9
$DIMDEC
 70
     2
  9
$DIMTDEC
 70
     2
  9
$DIMALTU
 70
     2
  9
$DIMALTTD
 70
     2
  9
$DIMTXSTY
  7
Standard
  9
$DIMAUNIT
 70
     0
  9
$DIMADEC
 70
     2
  9
$DIMALTRND
 40
0.0
  9
$DIMAZIN
 70
     0
  9
$DIMDSEP
 70
    46
  9
$DIMATFIT
 70
     3
  9
$DIMFRAC
 70
     0
  9
$DIMLDRBLK
  1

  9
$DIMLUNIT
 70
     2
  9
$DIMLWD
 70
    -2
  9
$DIMLWE
 70
    -2
  9
$DIMTMOVE
 70
     0
  9
$LUNITS
 70
     2
  9
$LUPREC
 70
     2
  9
$SKETCHINC
 40
0.1
  9
$FILLETRAD
 40
0.5
  9
$AUNITS
 70
     0
  9
$AUPREC
 70
     2
  9
$MENU
  1
.
  9
$ELEVATION
 40
0.0
  9
$PELEVATION
 40
0.0
  9
$THICKNESS
 40
0.0
  9
$LIMCHECK
 70
     0
  9
$CHAMFERA
 40
0.0
  9
$CHAMFERB
 40
0.0
  9
$CHAMFERC
 40
0.0
  9
$CHAMFERD
 40
0.0
  9
$SKPOLY
 70
     0
  9
$TDCREATE
 40
2460409.544331551
  9
$TDUCREATE
 40
2460409.502664884
  9
$TDUPDATE
 40
2460409.544389444
  9
$TDUUPDATE
 40
2460409.502722778
  9
$TDINDWG
 40
0.0000000116
  9
$TDUSRTIMER
 40
0.0000000116
  9
$USRTIMER
 70
     1
  9
$ANGBASE
 50
0.0
  9
$ANGDIR
 70
     0
  9
$PDMODE
 70
     0
  9
$PDSIZE
 40
-1.0
  9
$PLINEWID
 40
0.0
  9
$SPLFRAME
 70
     0
  9
$SPLINETYPE
 70
     6
  9
$SPLINESEGS
 70
     8
  9
$HANDSEED
  5
8E9
  9
$SURFTAB1
 70
     6
  9
$SURFTAB2
 70
     6
  9
$SURFTYPE
 70
     6
  9
$SURFU
 70
     6
  9
$SURFV
 70
     6
  9
$UCSBASE
  2

  9
$UCSNAME
  2

  9
$UCSORG
 10
0.0
 20
0.0
 30
0.0
  9
$UCSXDIR
 10
1.0
 20
0.0
 30
0.0
  9
$UCSYDIR
 10
0.0
 20
1.0
 30
0.0
  9
$UCSORTHOREF
  2

  9
$UCSORTHOVIEW
 70
     0
  9
$UCSORGTOP
 10
0.0
 20
0.0
 30
0.0
  9
$UCSORGBOTTOM
 10
0.0
 20
0.0
 30
0.0
  9
$UCSORGLEFT
 10
0.0
 20
0.0
 30
0.0
  9
$UCSORGRIGHT
 10
0.0
 20
0.0
 30
0.0
  9
$UCSORGFRONT
 10
0.0
 20
0.0
 30
0.0
  9
$UCSORGBACK
 10
0.0
 20
0.0
 30
0.0
  9
$PUCSBASE
  2

  9
$PUCSNAME
  2

  9
$PUCSORG
 10
0.0
 20
0.0
 30
0.0
  9
$PUCSXDIR
 10
1.0
 20
0.0
 30
0.0
  9
$PUCSYDIR
 10
0.0
 20
1.0
 30
0.0
  9
$PUCSORTHOREF
  2

  9
$PUCSORTHOVIEW
 70
     0
  9
$PUCSORGTOP
 10
0.0
 20
0.0
 30
0.0
  9
$PUCSORGBOTTOM
 10
0.0
 20
0.0
 30
0.0
  9
$PUCSORGLEFT
 10
0.0
 20
0.0
 30
0.0
  9
$PUCSORGRIGHT
 10
0.0
 20
0.0
 30
0.0
  9
$PUCSORGFRONT
 10
0.0
 20
0.0
 30
0.0
  9
$PUCSORGBACK
 10
0.0
 20
0.0
 30
0.0
  9
$USERI1
 70
     0
  9
$USERI2
 70
     0
  9
$USERI3
 70
     0
  9
$USERI4
 70
     0
  9
$USERI5
 70
     0
  9
$USERR1
 40
0.0
  9
$USERR2
 40
0.0
  9
$USERR3
 40
0.0
  9
$USERR4
 40
0.0
  9
$USERR5
 40
0.0
  9
$WORLDVIEW
 70
     1
  9
$SHADEDGE
 70
     3
  9
$SHADEDIF
 70
    70
  9
$TILEMODE
 70
     1
  9
$MAXACTVP
 70
    64
  9
$PINSBASE
 10
0.0
 20
0.0
 30
0.0
  9
$PLIMCHECK
 70
     0
  9
$PEXTMIN
 10
-19.5866141732
 20
0.0
 30
0.0
  9
$PEXTMAX
 10
58.7598425197
 20
20.8661417323
 30
0.0
  9
$PLIMMIN
 10
-21.4520090068
 20
-1.865391896
  9
$PLIMMAX
 10
60.6252344157
 20
61.5579325669
  9
$UNITMODE
 70
     0
  9
$VISRETAIN
 70
     1
  9
$PLINEGEN
 70
     0
  9
$PSLTSCALE
 70
     1
  9
$TREEDEPTH
 70
  3020
  9
$CMLSTYLE
  2
Standard
  9
$CMLJUST
 70
     0
  9
$CMLSCALE
 40
1.0
  9
$PROXYGRAPHICS
 70
     1
  9
$MEASUREMENT
 70
     0
  9
$CELWEIGHT
370
    -1
  9
$ENDCAPS
280
     0
  9
$JOINSTYLE
280
     0
  9
$LWDISPLAY
290
     1
  9
$INSUNITS
 70
     1
  9
$HYPERLINKBASE
  1

  9
$STYLESHEET
  1

  9
$XEDIT
290
     1
  9
$CEPSNTYPE
380
     0
  9
$PSTYLEMODE
290
     1
  9
$FINGERPRINTGUID
  2
{c5ba80ff-1240-43ac-895b-03b2cf745070}
  9
$VERSIONGUID
  2
{FAEB1C32-E019-11D5-929B-00C0DF256EC4}
  9
$EXTNAMES
290
     1
  9
$PSVPSCALE
 40
0.0
  9
$OLESTARTUP
290
     0
  0
ENDSEC
  0
SECTION
  2
CLASSES
  0
CLASS
  1
ACDBDICTIONARYWDFLT
  2
AcDbDictionaryWithDefault
  3
ObjectDBX Classes
 90
        0
280
     0
281
     0
  0
CLASS
  1
VISUALSTYLE
  2
AcDbVisualStyle
  3
ObjectDBX Classes
 90
     4095
280
     0
281
     0
  0
CLASS
  1
MATERIAL
  2
AcDbMaterial
  3
ObjectDBX Classes
 90
     1153
280
     0
281
     0
  0
CLASS
  1
SCALE
  2
AcDbScale
  3
ObjectDBX Classes
 90
     1153
280
     0
281
     0
  0
CLASS
  1
TABLESTYLE
  2
AcDbTableStyle
  3
ObjectDBX Classes
 90
     4095
280
     0
281
     0
  0
CLASS
  1
MLEADERSTYLE
  2
AcDbMLeaderStyle
  3
ACDB_MLEADERSTYLE_CLASS
 90
     4095
280
     0
281
     0
  0
CLASS
  1
SUN
  2
AcDbSun
  3
SCENEOE
 90
     1153
280
     0
281
     0
  0
CLASS
  1
ACDBPLACEHOLDER
  2
AcDbPlaceHolder
  3
ObjectDBX Classes
 90
        0
280
     0
281
     0
  0
CLASS
  1
LAYOUT
  2
AcDbLayout
  3
ObjectDBX Classes
 90
        0
280
     0
281
     0
  0
ENDSEC
  0
SECTION
  2
TABLES
  0
TABLE
  2
VPORT
  5
8
330
0
100
AcDbSymbolTable
 70
     1
  0
VPORT
  5
29
330
8
100
AcDbSymbolTableRecord
100
AcDbViewportTableRecord
  2
*Active
 70
     0
 10
0.0
 20
0.0
 11
1.0
 21
1.0
 12
-19.5866141732
 22
10.4330708661
 13
0.0
 23
0.0
 14
0.5
 24
0.5
 15
0.5
 25
0.5
 16
0.0
 26
0.0
 36
1.0
 17
0.0
 27
0.0
 37
0.0
 40
21.2834645669
 41
3.7547169811
 42
50.0
 43
0.0
 44
0.0
 50
0.0
 51
0.0
 71
     0
 72
   100
 73
     1
 74
     3
 75
     0
 76
     0
 77
     0
 78
     0
281
     0
 65
     1
110
0.0
120
0.0
130
0.0
111
1.0
121
0.0
131
0.0
112
0.0
122
1.0
132
0.0
 79
     0
146
0.0
  0
ENDTAB
  0
TABLE
  2
LTYPE
  5
5
330
0
100
AcDbSymbolTable
 70
     6
  0
LTYPE
  5
14
330
5
100
AcDbSymbolTableRecord
100
AcDbLinetypeTableRecord
  2
ByBlock
 70
     0
  3

 72
    65
 73
     0
 40
0.0
  0
LTYPE
  5
15
330
5
100
AcDbSymbolTableRecord
100
AcDbLinetypeTableRecord
  2
ByLayer
 70
     0
  3

 72
    65
 73
     0
 40
0.0
  0
LTYPE
  5
16
330
5
100
AcDbSymbolTableRecord
100
AcDbLinetypeTableRecord
  2
Continuous
 70
     0
  3
Solid line
 72
    65
 73
     0
 40
0.0
  0
LTYPE
  5
6E
330
5
100
AcDbSymbolTableRecord
100
AcDbLinetypeTableRecord
  2
HIDDEN
 70
     0
  3
Hidden __ __ __ __ __ __ __ __ __ __ __ __ __ __
 72
    65
 73
     2
 40
0.075
 49
0.05
 74
     0
 49
-0.025
 74
     0
  0
LTYPE
  5
6F
330
5
100
AcDbSymbolTableRecord
100
AcDbLinetypeTableRecord
  2
PHANTOM
 70
     0
  3
Phantom ______  __  __  ______  __  __  ______
 72
    65
 73
     6
 40
0.5
 49
0.25
 74
     0
 49
-0.05
 74
     0
 49
0.05
 74
     0
 49
-0.05
 74
     0
 49
0.05
 74
     0
 49
-0.05
 74
     0
  0
LTYPE
  5
70
330
5
100
AcDbSymbolTableRecord
100
AcDbLinetypeTableRecord
  2
CENTER
 70
     0
  3
Center ____ _ ____ _ ____ _ ____ _ ____ _ ____
 72
    65
 73
     4
 40
0.4
 49
0.25
 74
     0
 49
-0.05
 74
     0
 49
0.05
 74
     0
 49
-0.05
 74
     0
  0
LTYPE
  5
71
330
5
100
AcDbSymbolTableRecord
100
AcDbLinetypeTableRecord
  2
CENTERX2
 70
     0
  3
Center (2x) ________  __  ________  __  _____
 72
    65
 73
     4
 40
0.8
 49
0.5
 74
     0
 49
-0.1
 74
     0
 49
0.1
 74
     0
 49
-0.1
 74
     0
  0
LTYPE
  5
72
330
5
100
AcDbSymbolTableRecord
100
AcDbLinetypeTableRecord
  2
DOT2
 70
     0
  3
Dot (.5x) ........................................
 72
    65
 73
     2
 40
0.025
 49
0.0
 74
     0
 49
-0.025
 74
     0
  0
ENDTAB
  0
TABLE
  2
LAYER
  5
2
330
0
100
AcDbSymbolTable
 70
     1
  0
LAYER
  5
10
330
2
100
AcDbSymbolTableRecord
100
AcDbLayerTableRecord
  2
0
 70
     0
 62
     7
  6
Continuous
370
    -3
390
F
  0
ENDTAB
  0
TABLE
  2
STYLE
  5
3
330
0
100
AcDbSymbolTable
 70
     1
  0
STYLE
  5
11
330
3
100
AcDbSymbolTableRecord
100
AcDbTextStyleTableRecord
  2
Standard
 70
     0
 40
0.0
 41
1.0
 50
0.0
 71
     0
 42
0.1377952756
  3
txt
  4

  0
ENDTAB
  0
TABLE
  2
VIEW
  5
6
330
0
100
AcDbSymbolTable
 70
     0
  0
ENDTAB
  0
TABLE
  2
UCS
  5
7
330
0
100
AcDbSymbolTable
 70
     0
  0
ENDTAB
  0
TABLE
  2
APPID
  5
9
330
0
100
AcDbSymbolTable
 70
     1
  0
APPID
  5
12
330
9
100
AcDbSymbolTableRecord
100
AcDbRegAppTableRecord
  2
ACAD
 70
     0
  0
ENDTAB
  0
TABLE
  2
DIMSTYLE
  5
A
330
0
100
AcDbSymbolTable
 70
     1
100
AcDbDimStyleTable
  0
DIMSTYLE
105
27
330
A
100
AcDbSymbolTableRecord
100
AcDbDimStyleTableRecord
  2
Standard
 70
     0
178
     0
340
11
  0
ENDTAB
  0
TABLE
  2
BLOCK_RECORD
  5
1
330
0
100
AcDbSymbolTable
 70
     3
  0
BLOCK_RECORD
  5
1F
330
1
100
AcDbSymbolTableRecord
100
AcDbBlockTableRecord
  2
*Model_Space
340
22
  0
BLOCK_RECORD
  5
1B
330
1
100
AcDbSymbolTableRecord
100
AcDbBlockTableRecord
  2
*Paper_Space
340
1E
  0
BLOCK_RECORD
  5
23
330
1
100
AcDbSymbolTableRecord
100
AcDbBlockTableRecord
  2
*Paper_Space0
340
26
  0
BLOCK_RECORD
  5
3FE
330
1
100
AcDbSymbolTableRecord
100
AcDbBlockTableRecord
  2
*Paper_Space1
340
3FF
  0
BLOCK_RECORD
  5
5D7
330
1
100
AcDbSymbolTableRecord
100
AcDbBlockTableRecord
  2
*Paper_Space2
340
5D8
  0
ENDTAB
  0
ENDSEC
  0
SECTION
  2
BLOCKS
  0
BLOCK
  5
20
330
1F
100
AcDbEntity
  8
0
100
AcDbBlockBegin
  2
*Model_Space
 70
     0
 10
0.0
 20
0.0
 30
0.0
  3
*Model_Space
  1

  0
ENDBLK
  5
21
330
1F
100
AcDbEntity
  8
0
100
AcDbBlockEnd
  0
BLOCK
  5
1C
330
1B
100
AcDbEntity
 67
     1
  8
0
100
AcDbBlockBegin
  2
*Paper_Space
 70
     0
 10
0.0
 20
0.0
 30
0.0
  3
*Paper_Space
  1

  0
ENDBLK
  5
1D
330
1B
100
AcDbEntity
 67
     1
  8
0
100
AcDbBlockEnd
  0
BLOCK
  5
24
330
23
100
AcDbEntity
  8
0
100
AcDbBlockBegin
  2
*Paper_Space0
 70
     0
 10
0.0
 20
0.0
 30
0.0
  3
*Paper_Space0
  1

  0
LINE
  5
3EB
330
23
100
AcDbEntity
  8
0
  6
Continuous
 62
     7
370
    25
100
AcDbLine
 10
-8.8616451353
 20
20.8267716535
 30
0.0
 11
-8.8616451353
 21
0.0393700787
 31
0.0
  0
LINE
  5
3EC
330
23
100
AcDbEntity
  8
0
  6
Continuous
 62
     7
370
    25
100
AcDbLine
 10
-8.9173228346
 20
10.5511811024
 30
0.0
 11
-8.9173228346
 21
19.1406131053
 31
0.0
  0
LINE
  5
3ED
330
23
100
AcDbEntity
  8
0
  6
Continuous
 62
     7
370
    25
100
AcDbLine
 10
8.9960629921
 20
20.8267716535
 30
0.0
 11
-8.8616451353
 21
20.8267716535
 31
0.0
  0
LINE
  5
3EE
330
23
100
AcDbEntity
  8
0
  6
Continuous
 62
     7
370
    25
100
AcDbLine
 10
8.9566929134
 20
0.0
 30
0.0
 11
8.9566929134
 21
20.8661417323
 31
0.0
  0
LINE
  5
3EF
330
23
100
AcDbEntity
  8
0
  6
Continuous
 62
     7
370
    25
100
AcDbLine
 10
-8.9173228346
 20
0.0393700787
 30
0.0
 11
8.9960629921
 21
0.0393700787
 31
0.0
  0
LINE
  5
3F0
330
23
100
AcDbEntity
  8
0
  6
Continuous
 62
     7
370
    25
100
AcDbLine
 10
8.9960629921
 20
20.8267716535
 30
0.0
 11
8.9960629921
 21
0.0393700787
 31
0.0
  0
LINE
  5
3F1
330
23
100
AcDbEntity
  8
0
  6
Continuous
 62
     7
370
    25
100
AcDbLine
 10
8.9566929134
 20
0.0
 30
0.0
 11
-8.8222750566
 21
0.0
 31
0.0
  0
LINE
  5
3F2
330
23
100
AcDbEntity
  8
0
  6
Continuous
 62
     7
370
    25
100
AcDbLine
 10
-8.8222750566
 20
20.8661417323
 30
0.0
 11
-8.8222750566
 21
0.0
 31
0.0
  0
LINE
  5
3F3
330
23
100
AcDbEntity
  8
0
  6
Continuous
 62
     7
370
    25
100
AcDbLine
 10
-8.8222750566
 20
20.8661417323
 30
0.0
 11
8.9566929134
 21
20.8661417323
 31
0.0
  0
LINE
  5
3F4
330
23
100
AcDbEntity
  8
0
  6
Continuous
 62
     7
370
    25
100
AcDbLine
 10
-8.9173228346
 20
0.0393700787
 30
0.0
 11
-8.9173228346
 21
8.6288020817
 31
0.0
  0
LINE
  5
3F5
330
23
100
AcDbEntity
  8
0
  6
Continuous
 62
     8
370
    25
100
AcDbLine
 10
-8.9173228346
 20
10.5511811024
 30
0.0
 11
-8.8616451353
 21
10.5511811024
 31
0.0
  0
ARC
  5
3F6
330
23
100
AcDbEntity
  8
0
  6
Continuous
 62
     7
370
    25
100
AcDbCircle
 10
-8.8222750566
 20
20.8267716535
 30
0.0
 40
0.0393700787401592
100
AcDbArc
 50
90.0
 51
180.0
  0
ARC
  5
3F7
330
23
100
AcDbEntity
  8
0
  6
Continuous
 62
     7
370
    25
100
AcDbCircle
 10
-8.8222750566
 20
0.0393700787
 30
0.0
 40
0.0393700787401556
100
AcDbArc
 50
180.0
 51
270.0
  0
ARC
  5
3F8
330
23
100
AcDbEntity
  8
0
  6
Continuous
 62
     7
370
    25
100
AcDbCircle
 10
-8.8779527559
 20
10.5511811024
 30
0.0
 40
0.0393700787401556
100
AcDbArc
 50
180.0
 51
294.4698005207
  0
ARC
  5
3F9
330
23
100
AcDbEntity
  8
0
  6
Continuous
 62
     7
370
    25
100
AcDbCircle
 10
-8.8779527559
 20
19.1406131053
 30
0.0
 40
0.0393700787401539
100
AcDbArc
 50
65.5301994793
 51
180.0
  0
ARC
  5
3FA
330
23
100
AcDbEntity
  8
0
  6
Continuous
 62
     7
370
    25
100
AcDbCircle
 10
8.9566929134
 20
20.8267716535
 30
0.0
 40
0.0393700787401592
100
AcDbArc
 50
0.0
 51
90.0
  0
ARC
  5
3FB
330
23
100
AcDbEntity
  8
0
  6
Continuous
 62
     7
370
    25
100
AcDbCircle
 10
8.9566929134
 20
0.0393700787
 30
0.0
 40
0.039370078740161
100
AcDbArc
 50
270.0
 51
360.0
  0
ARC
  5
3FC
330
23
100
AcDbEntity
  8
0
  6
Continuous
 62
     7
370
    25
100
AcDbCircle
 10
-8.8779527559
 20
0.0393700787
 30
0.0
 40
0.0393700787401578
100
AcDbArc
 50
180.0
 51
315.0
  0
ARC
  5
3FD
330
23
100
AcDbEntity
  8
0
  6
Continuous
 62
     7
370
    25
100
AcDbCircle
 10
-8.8779527559
 20
8.6288020817
 30
0.0
 40
0.0393700787401592
100
AcDbArc
 50
65.5301994793
 51
180.0
  0
VIEWPORT
  5
8E3
330
23
100
AcDbEntity
  8
0
100
AcDbViewport
 10
0.0
 20
0.0
 30
0.0
 40
8.4
 41
6.4
 68
     1
 69
     1
 12
-19.5866141732
 22
10.4330708661
 13
0.0
 23
0.0
 14
0.5
 24
0.5
 15
0.5
 25
0.5
 16
0.0
 26
0.0
 36
1.0
 17
0.0
 27
0.0
 37
0.0
 42
50.0
 43
0.0
 44
0.0
 45
60.8863892013
 50
0.0
 51
0.0
 72
   100
 90
   557152
  1

281
     0
 71
     1
 74
     0
110
0.0
120
0.0
130
0.0
111
1.0
121
0.0
131
0.0
112
0.0
122
1.0
132
0.0
 79
     0
146
0.0
  0
ENDBLK
  5
25
330
23
100
AcDbEntity
  8
0
100
AcDbBlockEnd
  0
BLOCK
  5
400
330
3FE
100
AcDbEntity
  8
0
100
AcDbBlockBegin
  2
*Paper_Space1
 70
     0
 10
0.0
 20
0.0
 30
0.0
  3
*Paper_Space1
  1

  0
LINE
  5
524
330
3FE
100
AcDbEntity
  8
0
  6
Continuous
 62
     7
370
    25
100
AcDbLine
 10
19.4128262377
 20
-8.9173228346
 30
0.0
 11
-19.4128262377
 21
-8.9173228346
 31
0.0
  0
LINE
  5
525
330
3FE
100
AcDbEntity
  8
0
  6
Continuous
 62
     7
370
    25
100
AcDbLine
 10
-19.4406650874
 20
-8.8501139063
 30
0.0
 11
19.4406650874
 21
-8.8501139063
 31
0.0
  0
LINE
  5
526
330
3FE
100
AcDbEntity
  8
0
  6
Continuous
 62
     7
370
    25
100
AcDbLine
 10
18.7992125984
 20
-8.2086614173
 30
0.0
 11
19.4406650874
 21
-8.8501139063
 31
0.0
  0
LINE
  5
527
330
3FE
100
AcDbEntity
  8
0
  6
Continuous
 62
     7
370
    25
100
AcDbLine
 10
-18.7992125984
 20
-8.2086614173
 30
0.0
 11
-19.4406650874
 21
-8.8501139063
 31
0.0
  0
LINE
  5
528
330
3FE
100
AcDbEntity
  8
0
  6
Continuous
 62
     7
370
    25
100
AcDbLine
 10
-18.7007874016
 20
7.5393700787
 30
0.0
 11
-18.7007874016
 21
-7.5
 31
0.0
  0
LINE
  5
529
330
3FE
100
AcDbEntity
  8
0
  6
Continuous
 62
     7
370
    25
100
AcDbLine
 10
-3.1496062992
 20
7.5393700787
 30
0.0
 11
-18.7007874016
 21
7.5393700787
 31
0.0
  0
LINE
  5
52A
330
3FE
100
AcDbEntity
  8
0
  6
Continuous
 62
     7
370
    25
100
AcDbLine
 10
-17.9921259843
 20
-7.5
 30
0.0
 11
-17.9921259843
 21
7.5393700787
 31
0.0
  0
LINE
  5
52B
330
3FE
100
AcDbEntity
  8
0
  6
Continuous
 62
     7
370
    25
100
AcDbLine
 10
17.9921259843
 20
7.5393700787
 30
0.0
 11
17.9921259843
 21
-7.5
 31
0.0
  0
LINE
  5
52C
330
3FE
100
AcDbEntity
  8
0
  6
Continuous
 62
     7
370
    25
100
AcDbLine
 10
18.7007874016
 20
-7.5
 30
0.0
 11
18.7007874016
 21
7.5393700787
 31
0.0
  0
LINE
  5
52D
330
3FE
100
AcDbEntity
  8
0
  6
Continuous
 62
     7
370
    25
100
AcDbLine
 10
18.7007874016
 20
7.5393700787
 30
0.0
 11
3.1496062992
 21
7.5393700787
 31
0.0
  0
LINE
  5
52E
330
3FE
100
AcDbEntity
  8
0
  6
Continuous
 62
     7
370
    25
100
AcDbLine
 10
3.1496062992
 20
6.8307086614
 30
0.0
 11
17.9921259843
 21
6.8307086614
 31
0.0
  0
LINE
  5
52F
330
3FE
100
AcDbEntity
  8
0
  6
Continuous
 62
     7
370
    25
100
AcDbLine
 10
3.1496062992
 20
6.8307086614
 30
0.0
 11
3.1496062992
 21
7.5393700787
 31
0.0
  0
LINE
  5
530
330
3FE
100
AcDbEntity
  8
0
  6
Continuous
 62
     7
370
    25
100
AcDbLine
 10
-3.1496062992
 20
7.5393700787
 30
0.0
 11
-3.1496062992
 21
6.8307086614
 31
0.0
  0
LINE
  5
531
330
3FE
100
AcDbEntity
  8
0
  6
Continuous
 62
     7
370
    25
100
AcDbLine
 10
-17.9921259843
 20
6.8307086614
 30
0.0
 11
-3.1496062992
 21
6.8307086614
 31
0.0
  0
LINE
  5
532
330
3FE
100
AcDbEntity
  8
0
  6
Continuous
 62
     7
370
    25
100
AcDbLine
 10
3.0708661417
 20
7.6181102362
 30
0.0
 11
3.8582677165
 21
7.6181102362
 31
0.0
  0
LINE
  5
533
330
3FE
100
AcDbEntity
  8
0
  6
Continuous
 62
     7
370
    25
100
AcDbLine
 10
3.8582677165
 20
7.5393700787
 30
0.0
 11
3.8582677165
 21
7.6181102362
 31
0.0
  0
LINE
  5
534
330
3FE
100
AcDbEntity
  8
0
  6
Continuous
 62
     7
370
    25
100
AcDbLine
 10
3.937007874
 20
6.8307086614
 30
0.0
 11
3.937007874
 21
6.7519685039
 31
0.0
  0
LINE
  5
535
330
3FE
100
AcDbEntity
  8
0
  6
Continuous
 62
     7
370
    25
100
AcDbLine
 10
3.1496062992
 20
6.7519685039
 30
0.0
 11
3.937007874
 21
6.7519685039
 31
0.0
  0
LINE
  5
536
330
3FE
100
AcDbEntity
  8
0
  6
Continuous
 62
     7
370
    25
100
AcDbLine
 10
3.1496062992
 20
6.7519685039
 30
0.0
 11
3.1496062992
 21
-0.7283464567
 31
0.0
  0
LINE
  5
537
330
3FE
100
AcDbEntity
  8
0
  6
Continuous
 62
     7
370
    25
100
AcDbLine
 10
-3.1496062992
 20
-0.7283464567
 30
0.0
 11
-3.1496062992
 21
6.7519685039
 31
0.0
  0
LINE
  5
538
330
3FE
100
AcDbEntity
  8
0
  6
Continuous
 62
     7
370
    25
100
AcDbLine
 10
-3.937007874
 20
6.8307086614
 30
0.0
 11
-3.937007874
 21
6.7519685039
 31
0.0
  0
LINE
  5
539
330
3FE
100
AcDbEntity
  8
0
  6
Continuous
 62
     7
370
    25
100
AcDbLine
 10
-3.0708661417
 20
7.6181102362
 30
0.0
 11
-3.8582677165
 21
7.6181102362
 31
0.0
  0
LINE
  5
53A
330
3FE
100
AcDbEntity
  8
0
  6
Continuous
 62
     7
370
    25
100
AcDbLine
 10
-3.0708661417
 20
-0.7283464567
 30
0.0
 11
-3.0708661417
 21
7.6181102362
 31
0.0
  0
LINE
  5
53B
330
3FE
100
AcDbEntity
  8
0
  6
Continuous
 62
     7
370
    25
100
AcDbLine
 10
3.0708661417
 20
7.6181102362
 30
0.0
 11
3.0708661417
 21
-0.7283464567
 31
0.0
  0
LINE
  5
53C
330
3FE
100
AcDbEntity
  8
0
  6
Continuous
 62
     7
370
    25
100
AcDbLine
 10
-3.8582677165
 20
7.5393700787
 30
0.0
 11
-3.8582677165
 21
7.6181102362
 31
0.0
  0
LINE
  5
53D
330
3FE
100
AcDbEntity
  8
0
  6
Continuous
 62
     7
370
    25
100
AcDbLine
 10
0.3937007874
 20
-3.4842519685
 30
0.0
 11
-0.3937007874
 21
-3.4842519685
 31
0.0
  0
LINE
  5
53E
330
3FE
100
AcDbEntity
  8
0
  6
Continuous
 62
     7
370
    25
100
AcDbLine
 10
-3.1496062992
 20
6.7519685039
 30
0.0
 11
-3.937007874
 21
6.7519685039
 31
0.0
  0
LINE
  5
53F
330
3FE
100
AcDbEntity
  8
0
  6
Continuous
 62
     7
370
    25
100
AcDbLine
 10
0.3937007874
 20
-3.405511811
 30
0.0
 11
-0.3937007874
 21
-3.405511811
 31
0.0
  0
LINE
  5
540
330
3FE
100
AcDbEntity
  8
0
  6
Continuous
 62
     7
370
    25
100
AcDbLine
 10
-58.0905511811
 20
-8.1923537968
 30
0.0
 11
-58.0905511811
 21
8.9960629921
 31
0.0
  0
LINE
  5
541
330
3FE
100
AcDbEntity
  8
0
  6
Continuous
 62
     7
370
    25
100
AcDbLine
 10
-58.0511811024
 20
8.9566929134
 30
0.0
 11
-58.0511811024
 21
-8.1923537968
 31
0.0
  0
LINE
  5
542
330
3FE
100
AcDbEntity
  8
0
  6
Continuous
 62
     7
370
    25
100
AcDbLine
 10
-58.0905511811
 20
-8.1923537968
 30
0.0
 11
-58.0511811024
 21
-8.1923537968
 31
0.0
  0
LINE
  5
543
330
3FE
100
AcDbEntity
  8
0
  6
Continuous
 62
     7
370
    25
100
AcDbLine
 10
-58.7598425197
 20
-8.8222750566
 30
0.0
 11
-58.7598425197
 21
8.9566929134
 31
0.0
  0
LINE
  5
544
330
3FE
100
AcDbEntity
  8
0
  6
Continuous
 62
     7
370
    25
100
AcDbLine
 10
-58.7204724409
 20
8.9960629921
 30
0.0
 11
-58.7204724409
 21
-8.8222750566
 31
0.0
  0
LINE
  5
545
330
3FE
100
AcDbEntity
  8
0
  6
Continuous
 62
     7
370
    25
100
AcDbLine
 10
-58.7598425197
 20
-8.8222750566
 30
0.0
 11
-58.7204724409
 21
-8.8222750566
 31
0.0
  0
LINE
  5
546
330
3FE
100
AcDbEntity
  8
0
  6
Continuous
 62
     7
370
    25
100
AcDbLine
 10
-58.7204724409
 20
-8.8222750566
 30
0.0
 11
-58.0905511811
 21
-8.1923537968
 31
0.0
  0
LINE
  5
547
330
3FE
100
AcDbEntity
  8
0
  6
Continuous
 62
     7
370
    25
100
AcDbLine
 10
-58.0905511811
 20
-8.1923537968
 30
0.0
 11
-58.0627123314
 21
-8.2201926464
 31
0.0
  0
LINE
  5
548
330
3FE
100
AcDbEntity
  8
0
  6
Continuous
 62
     7
370
    25
100
AcDbLine
 10
-58.0627123314
 20
-8.2201926464
 30
0.0
 11
-58.6926335913
 21
-8.8501139063
 31
0.0
  0
LINE
  5
549
330
3FE
100
AcDbEntity
  8
0
  6
Continuous
 62
     7
370
    25
100
AcDbLine
 10
-58.6926335913
 20
-8.8501139063
 30
0.0
 11
-58.7204724409
 21
-8.8222750566
 31
0.0
  0
LINE
  5
54A
330
3FE
100
AcDbEntity
  8
0
  6
Continuous
 62
     7
370
    25
100
AcDbLine
 10
-58.7204724409
 20
8.9960629921
 30
0.0
 11
-58.0905511811
 21
8.9960629921
 31
0.0
  0
LINE
  5
54B
330
3FE
100
AcDbEntity
  8
0
  6
Continuous
 62
     7
370
    25
100
AcDbLine
 10
-19.6538231016
 20
-8.8501139063
 30
0.0
 11
-20.2837443615
 21
-8.2201926464
 31
0.0
  0
LINE
  5
54C
330
3FE
100
AcDbEntity
  8
0
  6
Continuous
 62
     7
370
    25
100
AcDbLine
 10
-20.2837443615
 20
-8.2201926464
 30
0.0
 11
-20.2559055118
 21
-8.1923537968
 31
0.0
  0
LINE
  5
54D
330
3FE
100
AcDbEntity
  8
0
  6
Continuous
 62
     7
370
    25
100
AcDbLine
 10
-20.2559055118
 20
-8.1923537968
 30
0.0
 11
-19.625984252
 21
-8.8222750566
 31
0.0
  0
LINE
  5
54E
330
3FE
100
AcDbEntity
  8
0
  6
Continuous
 62
     7
370
    25
100
AcDbLine
 10
-19.625984252
 20
-8.8222750566
 30
0.0
 11
-19.6538231016
 21
-8.8501139063
 31
0.0
  0
LINE
  5
54F
330
3FE
100
AcDbEntity
  8
0
  6
Continuous
 62
     7
370
    25
100
AcDbLine
 10
-19.5866141732
 20
-8.8222750566
 30
0.0
 11
-19.5866141732
 21
8.9566929134
 31
0.0
  0
LINE
  5
550
330
3FE
100
AcDbEntity
  8
0
  6
Continuous
 62
     7
370
    25
100
AcDbLine
 10
-19.625984252
 20
-8.8222750566
 30
0.0
 11
-19.5472440945
 21
-8.8222750566
 31
0.0
  0
LINE
  5
551
330
3FE
100
AcDbEntity
  8
0
  6
Continuous
 62
     7
370
    25
100
AcDbLine
 10
-19.625984252
 20
-8.8222750566
 30
0.0
 11
-19.625984252
 21
8.9960629921
 31
0.0
  0
LINE
  5
552
330
3FE
100
AcDbEntity
  8
0
  6
Continuous
 62
     7
370
    25
100
AcDbLine
 10
-20.2559055118
 20
-8.1923537968
 30
0.0
 11
-20.2952755906
 21
-8.1923537968
 31
0.0
  0
LINE
  5
553
330
3FE
100
AcDbEntity
  8
0
  6
Continuous
 62
     7
370
    25
100
AcDbLine
 10
-20.2559055118
 20
8.9960629921
 30
0.0
 11
-20.2559055118
 21
-8.1923537968
 31
0.0
  0
LINE
  5
554
330
3FE
100
AcDbEntity
  8
0
  6
Continuous
 62
     7
370
    25
100
AcDbLine
 10
-20.2559055118
 20
8.9960629921
 30
0.0
 11
-19.625984252
 21
8.9960629921
 31
0.0
  0
LINE
  5
555
330
3FE
100
AcDbEntity
  8
0
  6
Continuous
 62
     7
370
    25
100
AcDbLine
 10
-20.2952755906
 20
-8.1923537968
 30
0.0
 11
-20.2952755906
 21
8.9566929134
 31
0.0
  0
LINE
  5
556
330
3FE
100
AcDbEntity
  8
0
  6
Continuous
 62
     7
370
    25
100
AcDbLine
 10
-58.0511811024
 20
8.3267716535
 30
0.0
 11
-20.2952755906
 21
8.3267716535
 31
0.0
  0
LINE
  5
557
330
3FE
100
AcDbEntity
  8
0
  6
Continuous
 62
     7
370
    25
100
AcDbLine
 10
-58.0118110236
 20
8.9960629921
 30
0.0
 11
-20.3346456693
 21
8.9960629921
 31
0.0
  0
LINE
  5
558
330
3FE
100
AcDbEntity
  8
0
  6
Continuous
 62
     7
370
    25
100
AcDbLine
 10
-20.3346456693
 20
8.2874015748
 30
0.0
 11
-58.0118110236
 21
8.2874015748
 31
0.0
  0
LINE
  5
559
330
3FE
100
AcDbEntity
  8
0
  6
Continuous
 62
     7
370
    25
100
AcDbLine
 10
-58.0118110236
 20
8.9960629921
 30
0.0
 11
-58.0118110236
 21
-8.2086614173
 31
0.0
  0
LINE
  5
55A
330
3FE
100
AcDbEntity
  8
0
  6
Continuous
 62
     7
370
    25
100
AcDbLine
 10
-58.0511811024
 20
-8.1692913386
 30
0.0
 11
-20.2952755906
 21
-8.1692913386
 31
0.0
  0
LINE
  5
55B
330
3FE
100
AcDbEntity
  8
0
  6
Continuous
 62
     7
370
    25
100
AcDbLine
 10
-20.2952755906
 20
-7.9330708661
 30
0.0
 11
-58.0511811024
 21
-7.9330708661
 31
0.0
  0
LINE
  5
55C
330
3FE
100
AcDbEntity
  8
0
  6
Continuous
 62
     7
370
    25
100
AcDbLine
 10
-58.0118110236
 20
-7.8937007874
 30
0.0
 11
-20.3346456693
 21
-7.8937007874
 31
0.0
  0
LINE
  5
55D
330
3FE
100
AcDbEntity
  8
0
  6
Continuous
 62
     7
370
    25
100
AcDbLine
 10
-20.3346456693
 20
-8.2086614173
 30
0.0
 11
-20.3346456693
 21
8.9960629921
 31
0.0
  0
LINE
  5
55E
330
3FE
100
AcDbEntity
  8
0
  6
Continuous
 62
     7
370
    25
100
AcDbLine
 10
-20.3346456693
 20
-8.2086614173
 30
0.0
 11
-58.0118110236
 21
-8.2086614173
 31
0.0
  0
LINE
  5
55F
330
3FE
100
AcDbEntity
  8
0
  6
Continuous
 62
     7
370
    25
100
AcDbLine
 10
-58.0511811024
 20
-7.8543307087
 30
0.0
 11
-20.2952755906
 21
-7.8543307087
 31
0.0
  0
LINE
  5
560
330
3FE
100
AcDbEntity
  8
0
  6
Continuous
 62
     7
370
    25
100
AcDbLine
 10
-20.2952755906
 20
-7.5393700787
 30
0.0
 11
-58.0511811024
 21
-7.5393700787
 31
0.0
  0
LINE
  5
561
330
3FE
100
AcDbEntity
  8
0
  6
Continuous
 62
     7
370
    25
100
AcDbLine
 10
-58.0118110236
 20
-7.5
 30
0.0
 11
-20.3346456693
 21
-7.5
 31
0.0
  0
LINE
  5
562
330
3FE
100
AcDbEntity
  8
0
  6
Continuous
 62
     7
370
    25
100
AcDbLine
 10
-19.5472440945
 20
8.9960629921
 30
0.0
 11
-19.5472440945
 21
-8.8222750566
 31
0.0
  0
LINE
  5
563
330
3FE
100
AcDbEntity
  8
0
  6
Continuous
 62
     7
370
    25
100
AcDbLine
 10
-18.9173228346
 20
-8.1923537968
 30
0.0
 11
-18.9173228346
 21
8.9960629921
 31
0.0
  0
LINE
  5
564
330
3FE
100
AcDbEntity
  8
0
  6
Continuous
 62
     7
370
    25
100
AcDbLine
 10
-19.5472440945
 20
-8.8222750566
 30
0.0
 11
-18.9173228346
 21
-8.1923537968
 31
0.0
  0
LINE
  5
565
330
3FE
100
AcDbEntity
  8
0
  6
Continuous
 62
     7
370
    25
100
AcDbLine
 10
-18.9173228346
 20
-8.1923537968
 30
0.0
 11
-18.889483985
 21
-8.2201926464
 31
0.0
  0
LINE
  5
566
330
3FE
100
AcDbEntity
  8
0
  6
Continuous
 62
     7
370
    25
100
AcDbLine
 10
-18.889483985
 20
-8.2201926464
 30
0.0
 11
-19.5194052448
 21
-8.8501139063
 31
0.0
  0
LINE
  5
567
330
3FE
100
AcDbEntity
  8
0
  6
Continuous
 62
     7
370
    25
100
AcDbLine
 10
-19.5194052448
 20
-8.8501139063
 30
0.0
 11
-19.5472440945
 21
-8.8222750566
 31
0.0
  0
LINE
  5
568
330
3FE
100
AcDbEntity
  8
0
  6
Continuous
 62
     7
370
    25
100
AcDbLine
 10
-18.9173228346
 20
-8.1923537968
 30
0.0
 11
-18.8779527559
 21
-8.1923537968
 31
0.0
  0
LINE
  5
569
330
3FE
100
AcDbEntity
  8
0
  6
Continuous
 62
     7
370
    25
100
AcDbLine
 10
-18.8779527559
 20
8.9566929134
 30
0.0
 11
-18.8779527559
 21
-8.1923537968
 31
0.0
  0
LINE
  5
56A
330
3FE
100
AcDbEntity
  8
0
  6
Continuous
 62
     7
370
    25
100
AcDbLine
 10
-19.5472440945
 20
8.9960629921
 30
0.0
 11
-18.9173228346
 21
8.9960629921
 31
0.0
  0
LINE
  5
56B
330
3FE
100
AcDbEntity
  8
0
  6
Continuous
 62
     7
370
    25
100
AcDbLine
 10
19.5194052448
 20
-8.8501139063
 30
0.0
 11
18.889483985
 21
-8.2201926464
 31
0.0
  0
LINE
  5
56C
330
3FE
100
AcDbEntity
  8
0
  6
Continuous
 62
     7
370
    25
100
AcDbLine
 10
18.889483985
 20
-8.2201926464
 30
0.0
 11
18.9173228346
 21
-8.1923537968
 31
0.0
  0
LINE
  5
56D
330
3FE
100
AcDbEntity
  8
0
  6
Continuous
 62
     7
370
    25
100
AcDbLine
 10
18.9173228346
 20
-8.1923537968
 30
0.0
 11
19.5472440945
 21
-8.8222750566
 31
0.0
  0
LINE
  5
56E
330
3FE
100
AcDbEntity
  8
0
  6
Continuous
 62
     7
370
    25
100
AcDbLine
 10
19.5472440945
 20
-8.8222750566
 30
0.0
 11
19.5194052448
 21
-8.8501139063
 31
0.0
  0
LINE
  5
56F
330
3FE
100
AcDbEntity
  8
0
  6
Continuous
 62
     7
370
    25
100
AcDbLine
 10
19.5866141732
 20
-8.8222750566
 30
0.0
 11
19.5472440945
 21
-8.8222750566
 31
0.0
  0
LINE
  5
570
330
3FE
100
AcDbEntity
  8
0
  6
Continuous
 62
     7
370
    25
100
AcDbLine
 10
19.5866141732
 20
8.9566929134
 30
0.0
 11
19.5866141732
 21
-8.8222750566
 31
0.0
  0
LINE
  5
571
330
3FE
100
AcDbEntity
  8
0
  6
Continuous
 62
     7
370
    25
100
AcDbLine
 10
19.5472440945
 20
-8.8222750566
 30
0.0
 11
19.5472440945
 21
8.9960629921
 31
0.0
  0
LINE
  5
572
330
3FE
100
AcDbEntity
  8
0
  6
Continuous
 62
     7
370
    25
100
AcDbLine
 10
18.9173228346
 20
8.9960629921
 30
0.0
 11
18.9173228346
 21
-8.1923537968
 31
0.0
  0
LINE
  5
573
330
3FE
100
AcDbEntity
  8
0
  6
Continuous
 62
     7
370
    25
100
AcDbLine
 10
18.9173228346
 20
-8.1923537968
 30
0.0
 11
18.8779527559
 21
-8.1923537968
 31
0.0
  0
LINE
  5
574
330
3FE
100
AcDbEntity
  8
0
  6
Continuous
 62
     7
370
    25
100
AcDbLine
 10
18.8779527559
 20
-8.1923537968
 30
0.0
 11
18.8779527559
 21
8.9566929134
 31
0.0
  0
LINE
  5
575
330
3FE
100
AcDbEntity
  8
0
  6
Continuous
 62
     7
370
    25
100
AcDbLine
 10
19.5866141732
 20
8.9566929134
 30
0.0
 11
-58.7598425197
 21
8.9566929134
 31
0.0
  0
LINE
  5
576
330
3FE
100
AcDbEntity
  8
0
  6
Continuous
 62
     7
370
    25
100
AcDbLine
 10
18.9173228346
 20
8.9960629921
 30
0.0
 11
19.5472440945
 21
8.9960629921
 31
0.0
  0
LINE
  5
577
330
3FE
100
AcDbEntity
  8
0
  6
Continuous
 62
     7
370
    25
100
AcDbLine
 10
18.8385826772
 20
8.2874015748
 30
0.0
 11
-18.8385826772
 21
8.2874015748
 31
0.0
  0
LINE
  5
578
330
3FE
100
AcDbEntity
  8
0
  6
Continuous
 62
     7
370
    25
100
AcDbLine
 10
-18.8779527559
 20
8.3267716535
 30
0.0
 11
18.8779527559
 21
8.3267716535
 31
0.0
  0
LINE
  5
579
330
3FE
100
AcDbEntity
  8
0
  6
Continuous
 62
     7
370
    25
100
AcDbLine
 10
-18.8385826772
 20
8.9960629921
 30
0.0
 11
18.8385826772
 21
8.9960629921
 31
0.0
  0
LINE
  5
57A
330
3FE
100
AcDbEntity
  8
0
  6
Continuous
 62
     7
370
    25
100
AcDbLine
 10
-18.8779527559
 20
-8.1692913386
 30
0.0
 11
18.8779527559
 21
-8.1692913386
 31
0.0
  0
LINE
  5
57B
330
3FE
100
AcDbEntity
  8
0
  6
Continuous
 62
     7
370
    25
100
AcDbLine
 10
18.8779527559
 20
-7.9330708661
 30
0.0
 11
-18.8779527559
 21
-7.9330708661
 31
0.0
  0
LINE
  5
57C
330
3FE
100
AcDbEntity
  8
0
  6
Continuous
 62
     7
370
    25
100
AcDbLine
 10
-18.8385826772
 20
-7.8937007874
 30
0.0
 11
18.8385826772
 21
-7.8937007874
 31
0.0
  0
LINE
  5
57D
330
3FE
100
AcDbEntity
  8
0
  6
Continuous
 62
     7
370
    25
100
AcDbLine
 10
18.8385826772
 20
-8.2086614173
 30
0.0
 11
-18.8385826772
 21
-8.2086614173
 31
0.0
  0
LINE
  5
57E
330
3FE
100
AcDbEntity
  8
0
  6
Continuous
 62
     7
370
    25
100
AcDbLine
 10
-18.8779527559
 20
-7.8543307087
 30
0.0
 11
18.8779527559
 21
-7.8543307087
 31
0.0
  0
LINE
  5
57F
330
3FE
100
AcDbEntity
  8
0
  6
Continuous
 62
     7
370
    25
100
AcDbLine
 10
18.8385826772
 20
-8.2086614173
 30
0.0
 11
18.8385826772
 21
8.9960629921
 31
0.0
  0
LINE
  5
580
330
3FE
100
AcDbEntity
  8
0
  6
Continuous
 62
     7
370
    25
100
AcDbLine
 10
18.8779527559
 20
-7.5393700787
 30
0.0
 11
-18.8779527559
 21
-7.5393700787
 31
0.0
  0
LINE
  5
581
330
3FE
100
AcDbEntity
  8
0
  6
Continuous
 62
     7
370
    25
100
AcDbLine
 10
-18.8385826772
 20
8.9960629921
 30
0.0
 11
-18.8385826772
 21
-8.2086614173
 31
0.0
  0
LINE
  5
582
330
3FE
100
AcDbEntity
  8
0
  6
Continuous
 62
     7
370
    25
100
AcDbLine
 10
-18.8385826772
 20
-7.5
 30
0.0
 11
18.8385826772
 21
-7.5
 31
0.0
  0
LINE
  5
583
330
3FE
100
AcDbEntity
  8
0
  6
Continuous
 62
     7
370
    25
100
AcDbLine
 10
2.9527559055
 20
6.8307086614
 30
0.0
 11
2.9527559055
 21
7.5393700787
 31
0.0
  0
LINE
  5
584
330
3FE
100
AcDbEntity
  8
0
  6
Continuous
 62
     7
370
    25
100
AcDbLine
 10
-2.9527559055
 20
7.5393700787
 30
0.0
 11
-2.9527559055
 21
6.8307086614
 31
0.0
  0
LINE
  5
585
330
3FE
100
AcDbEntity
  8
0
  6
Continuous
 62
     7
370
    25
100
AcDbLine
 10
-3.0708661417
 20
6.8307086614
 30
0.0
 11
3.0708661417
 21
6.8307086614
 31
0.0
  0
LINE
  5
586
330
3FE
100
AcDbEntity
  8
0
  6
Continuous
 62
     7
370
    25
100
AcDbLine
 10
3.0708661417
 20
7.5393700787
 30
0.0
 11
-3.0708661417
 21
7.5393700787
 31
0.0
  0
LINE
  5
587
330
3FE
100
AcDbEntity
  8
0
  6
Continuous
 62
     7
370
    25
100
AcDbLine
 10
-19.7604021088
 20
-8.9173228346
 30
0.0
 11
-58.5860545842
 21
-8.9173228346
 31
0.0
  0
LINE
  5
588
330
3FE
100
AcDbEntity
  8
0
  6
Continuous
 62
     7
370
    25
100
AcDbLine
 10
-58.6138934338
 20
-8.8501139063
 30
0.0
 11
-19.7325632591
 21
-8.8501139063
 31
0.0
  0
LINE
  5
589
330
3FE
100
AcDbEntity
  8
0
  6
Continuous
 62
     7
370
    25
100
AcDbLine
 10
-20.374015748
 20
-8.2086614173
 30
0.0
 11
-19.7325632591
 21
-8.8501139063
 31
0.0
  0
LINE
  5
58A
330
3FE
100
AcDbEntity
  8
0
  6
Continuous
 62
     7
370
    25
100
AcDbLine
 10
-57.9724409449
 20
-8.2086614173
 30
0.0
 11
-58.6138934338
 21
-8.8501139063
 31
0.0
  0
LINE
  5
58B
330
3FE
100
AcDbEntity
  8
0
  6
Continuous
 62
     7
370
    25
100
AcDbLine
 10
-57.874015748
 20
7.5393700787
 30
0.0
 11
-57.874015748
 21
-7.5
 31
0.0
  0
LINE
  5
58C
330
3FE
100
AcDbEntity
  8
0
  6
Continuous
 62
     7
370
    25
100
AcDbLine
 10
-42.3228346457
 20
7.5393700787
 30
0.0
 11
-57.874015748
 21
7.5393700787
 31
0.0
  0
LINE
  5
58D
330
3FE
100
AcDbEntity
  8
0
  6
Continuous
 62
     7
370
    25
100
AcDbLine
 10
-57.1653543307
 20
-7.5
 30
0.0
 11
-57.1653543307
 21
7.5393700787
 31
0.0
  0
LINE
  5
58E
330
3FE
100
AcDbEntity
  8
0
  6
Continuous
 62
     7
370
    25
100
AcDbLine
 10
-20.4724409449
 20
7.5393700787
 30
0.0
 11
-36.0236220472
 21
7.5393700787
 31
0.0
  0
LINE
  5
58F
330
3FE
100
AcDbEntity
  8
0
  6
Continuous
 62
     7
370
    25
100
AcDbLine
 10
-20.4724409449
 20
-7.5
 30
0.0
 11
-20.4724409449
 21
7.5393700787
 31
0.0
  0
LINE
  5
590
330
3FE
100
AcDbEntity
  8
0
  6
Continuous
 62
     7
370
    25
100
AcDbLine
 10
-21.1811023622
 20
7.5393700787
 30
0.0
 11
-21.1811023622
 21
-7.5
 31
0.0
  0
LINE
  5
591
330
3FE
100
AcDbEntity
  8
0
  6
Continuous
 62
     7
370
    25
100
AcDbLine
 10
-36.0236220472
 20
6.8307086614
 30
0.0
 11
-21.1811023622
 21
6.8307086614
 31
0.0
  0
LINE
  5
592
330
3FE
100
AcDbEntity
  8
0
  6
Continuous
 62
     7
370
    25
100
AcDbLine
 10
-36.0236220472
 20
6.8307086614
 30
0.0
 11
-36.0236220472
 21
7.5393700787
 31
0.0
  0
LINE
  5
593
330
3FE
100
AcDbEntity
  8
0
  6
Continuous
 62
     7
370
    25
100
AcDbLine
 10
-57.1653543307
 20
6.8307086614
 30
0.0
 11
-42.3228346457
 21
6.8307086614
 31
0.0
  0
LINE
  5
594
330
3FE
100
AcDbEntity
  8
0
  6
Continuous
 62
     7
370
    25
100
AcDbLine
 10
-42.3228346457
 20
7.5393700787
 30
0.0
 11
-42.3228346457
 21
6.8307086614
 31
0.0
  0
LINE
  5
595
330
3FE
100
AcDbEntity
  8
0
  6
Continuous
 62
     7
370
    25
100
AcDbLine
 10
-42.3228346457
 20
6.7519685039
 30
0.0
 11
-43.1102362205
 21
6.7519685039
 31
0.0
  0
LINE
  5
596
330
3FE
100
AcDbEntity
  8
0
  6
Continuous
 62
     7
370
    25
100
AcDbLine
 10
-38.7795275591
 20
-3.405511811
 30
0.0
 11
-39.5669291339
 21
-3.405511811
 31
0.0
  0
LINE
  5
597
330
3FE
100
AcDbEntity
  8
0
  6
Continuous
 62
     7
370
    25
100
AcDbLine
 10
-35.2362204724
 20
6.8307086614
 30
0.0
 11
-35.2362204724
 21
6.7519685039
 31
0.0
  0
LINE
  5
598
330
3FE
100
AcDbEntity
  8
0
  6
Continuous
 62
     7
370
    25
100
AcDbLine
 10
-36.0236220472
 20
6.7519685039
 30
0.0
 11
-35.2362204724
 21
6.7519685039
 31
0.0
  0
LINE
  5
599
330
3FE
100
AcDbEntity
  8
0
  6
Continuous
 62
     7
370
    25
100
AcDbLine
 10
-42.3228346457
 20
-0.7283464567
 30
0.0
 11
-42.3228346457
 21
6.7519685039
 31
0.0
  0
LINE
  5
59A
330
3FE
100
AcDbEntity
  8
0
  6
Continuous
 62
     7
370
    25
100
AcDbLine
 10
-42.2440944882
 20
7.6181102362
 30
0.0
 11
-43.031496063
 21
7.6181102362
 31
0.0
  0
LINE
  5
59B
330
3FE
100
AcDbEntity
  8
0
  6
Continuous
 62
     7
370
    25
100
AcDbLine
 10
-42.2440944882
 20
-0.7283464567
 30
0.0
 11
-42.2440944882
 21
7.6181102362
 31
0.0
  0
LINE
  5
59C
330
3FE
100
AcDbEntity
  8
0
  6
Continuous
 62
     7
370
    25
100
AcDbLine
 10
-35.3149606299
 20
7.5393700787
 30
0.0
 11
-35.3149606299
 21
7.6181102362
 31
0.0
  0
LINE
  5
59D
330
3FE
100
AcDbEntity
  8
0
  6
Continuous
 62
     7
370
    25
100
AcDbLine
 10
-43.031496063
 20
7.5393700787
 30
0.0
 11
-43.031496063
 21
7.6181102362
 31
0.0
  0
LINE
  5
59E
330
3FE
100
AcDbEntity
  8
0
  6
Continuous
 62
     7
370
    25
100
AcDbLine
 10
-36.1023622047
 20
7.6181102362
 30
0.0
 11
-36.1023622047
 21
-0.7283464567
 31
0.0
  0
LINE
  5
59F
330
3FE
100
AcDbEntity
  8
0
  6
Continuous
 62
     7
370
    25
100
AcDbLine
 10
-36.1023622047
 20
7.6181102362
 30
0.0
 11
-35.3149606299
 21
7.6181102362
 31
0.0
  0
LINE
  5
5A0
330
3FE
100
AcDbEntity
  8
0
  6
Continuous
 62
     7
370
    25
100
AcDbLine
 10
-36.0236220472
 20
6.7519685039
 30
0.0
 11
-36.0236220472
 21
-0.7283464567
 31
0.0
  0
LINE
  5
5A1
330
3FE
100
AcDbEntity
  8
0
  6
Continuous
 62
     7
370
    25
100
AcDbLine
 10
-38.7795275591
 20
-3.4842519685
 30
0.0
 11
-39.5669291339
 21
-3.4842519685
 31
0.0
  0
LINE
  5
5A2
330
3FE
100
AcDbEntity
  8
0
  6
Continuous
 62
     7
370
    25
100
AcDbLine
 10
-43.1102362205
 20
6.8307086614
 30
0.0
 11
-43.1102362205
 21
6.7519685039
 31
0.0
  0
LINE
  5
5A3
330
3FE
100
AcDbEntity
  8
0
  6
Continuous
 62
     7
370
    25
100
AcDbLine
 10
-36.1023622047
 20
7.5393700787
 30
0.0
 11
-42.2440944882
 21
7.5393700787
 31
0.0
  0
LINE
  5
5A4
330
3FE
100
AcDbEntity
  8
0
  6
Continuous
 62
     7
370
    25
100
AcDbLine
 10
-42.2440944882
 20
6.8307086614
 30
0.0
 11
-36.1023622047
 21
6.8307086614
 31
0.0
  0
LINE
  5
5A5
330
3FE
100
AcDbEntity
  8
0
  6
Continuous
 62
     7
370
    25
100
AcDbLine
 10
-36.2204724409
 20
6.8307086614
 30
0.0
 11
-36.2204724409
 21
7.5393700787
 31
0.0
  0
LINE
  5
5A6
330
3FE
100
AcDbEntity
  8
0
  6
Continuous
 62
     7
370
    25
100
AcDbLine
 10
-42.125984252
 20
7.5393700787
 30
0.0
 11
-42.125984252
 21
6.8307086614
 31
0.0
  0
ARC
  5
5A7
330
3FE
100
AcDbEntity
  8
0
  6
Continuous
 62
     7
370
    25
100
AcDbCircle
 10
-19.4128262377
 20
-8.8779527559
 30
0.0
 40
0.0393700787401563
100
AcDbArc
 50
135.0
 51
270.0
  0
ARC
  5
5A8
330
3FE
100
AcDbEntity
  8
0
  6
Continuous
 62
     7
370
    25
100
AcDbCircle
 10
19.4128262377
 20
-8.8779527559
 30
0.0
 40
0.0393700787401592
100
AcDbArc
 50
270.0
 51
45.0
  0
ARC
  5
5A9
330
3FE
100
AcDbEntity
  8
0
  6
Continuous
 62
     7
370
    25
100
AcDbCircle
 10
0.3937007874
 20
-0.7283464567
 30
0.0
 40
2.677165354330713
100
AcDbArc
 50
270.0
 51
0.0
  0
ARC
  5
5AA
330
3FE
100
AcDbEntity
  8
0
  6
Continuous
 62
     7
370
    25
100
AcDbCircle
 10
0.3937007874
 20
-0.7283464567
 30
0.0
 40
2.755905511811024
100
AcDbArc
 50
270.0
 51
0.0
  0
ARC
  5
5AB
330
3FE
100
AcDbEntity
  8
0
  6
Continuous
 62
     7
370
    25
100
AcDbCircle
 10
-0.3937007874
 20
-0.7283464567
 30
0.0
 40
2.755905511811026
100
AcDbArc
 50
180.0
 51
270.0
  0
ARC
  5
5AC
330
3FE
100
AcDbEntity
  8
0
  6
Continuous
 62
     7
370
    25
100
AcDbCircle
 10
-0.3937007874
 20
-0.7283464567
 30
0.0
 40
2.677165354330711
100
AcDbArc
 50
180.0
 51
270.0
  0
ARC
  5
5AD
330
3FE
100
AcDbEntity
  8
0
  6
Continuous
 62
     7
370
    25
100
AcDbCircle
 10
-58.7204724409
 20
-8.8222750566
 30
0.0
 40
0.0393700787401513
100
AcDbArc
 50
180.0
 51
315.0
  0
ARC
  5
5AE
330
3FE
100
AcDbEntity
  8
0
  6
Continuous
 62
     7
370
    25
100
AcDbCircle
 10
-58.0905511811
 20
-8.1923537968
 30
0.0
 40
0.0393700787401912
100
AcDbArc
 50
315.0
 51
0.0
  0
ARC
  5
5AF
330
3FE
100
AcDbEntity
  8
0
  6
Continuous
 62
     7
370
    25
100
AcDbCircle
 10
-58.7204724409
 20
8.9566929134
 30
0.0
 40
0.0393700787401556
100
AcDbArc
 50
90.0
 51
180.0
  0
ARC
  5
5B0
330
3FE
100
AcDbEntity
  8
0
  6
Continuous
 62
     7
370
    25
100
AcDbCircle
 10
-58.0905511811
 20
8.9566929134
 30
0.0
 40
0.0393700787401698
100
AcDbArc
 50
0.0
 51
90.0
  0
ARC
  5
5B1
330
3FE
100
AcDbEntity
  8
0
  6
Continuous
 62
     7
370
    25
100
AcDbCircle
 10
-20.2559055118
 20
-8.1923537968
 30
0.0
 40
0.0393700787401953
100
AcDbArc
 50
180.0
 51
225.0
  0
ARC
  5
5B2
330
3FE
100
AcDbEntity
  8
0
  6
Continuous
 62
     7
370
    25
100
AcDbCircle
 10
-20.2559055118
 20
8.9566929134
 30
0.0
 40
0.0393700787401627
100
AcDbArc
 50
90.0
 51
180.0
  0
ARC
  5
5B3
330
3FE
100
AcDbEntity
  8
0
  6
Continuous
 62
     7
370
    25
100
AcDbCircle
 10
-19.625984252
 20
8.9566929134
 30
0.0
 40
0.0393700787401592
100
AcDbArc
 50
0.0
 51
90.0
  0
ARC
  5
5B4
330
3FE
100
AcDbEntity
  8
0
  6
Continuous
 62
     7
370
    25
100
AcDbCircle
 10
-19.625984252
 20
-8.8222750566
 30
0.0
 40
0.0393700787401592
100
AcDbArc
 50
225.0
 51
0.0
  0
ARC
  5
5B5
330
3FE
100
AcDbEntity
  8
0
  6
Continuous
 62
     7
370
    25
100
AcDbCircle
 10
-20.3346456693
 20
8.9566929134
 30
0.0
 40
0.0393700787401539
100
AcDbArc
 50
360.0
 51
90.0
  0
ARC
  5
5B6
330
3FE
100
AcDbEntity
  8
0
  6
Continuous
 62
     7
370
    25
100
AcDbCircle
 10
-20.3346456693
 20
8.3267716535
 30
0.0
 40
0.0393700787401556
100
AcDbArc
 50
270.0
 51
0.0
  0
ARC
  5
5B7
330
3FE
100
AcDbEntity
  8
0
  6
Continuous
 62
     7
370
    25
100
AcDbCircle
 10
-58.0118110236
 20
8.3267716535
 30
0.0
 40
0.039370078740177
100
AcDbArc
 50
180.0
 51
270.0
  0
ARC
  5
5B8
330
3FE
100
AcDbEntity
  8
0
  6
Continuous
 62
     7
370
    25
100
AcDbCircle
 10
-58.0118110236
 20
8.9566929134
 30
0.0
 40
0.0393700787401556
100
AcDbArc
 50
90.0
 51
180.0
  0
ARC
  5
5B9
330
3FE
100
AcDbEntity
  8
0
  6
Continuous
 62
     7
370
    25
100
AcDbCircle
 10
-58.0118110236
 20
-8.1692913386
 30
0.0
 40
0.0393700787401556
100
AcDbArc
 50
180.0
 51
270.0
  0
ARC
  5
5BA
330
3FE
100
AcDbEntity
  8
0
  6
Continuous
 62
     7
370
    25
100
AcDbCircle
 10
-58.0118110236
 20
-7.9330708661
 30
0.0
 40
0.039370078740177
100
AcDbArc
 50
90.0
 51
180.0
  0
ARC
  5
5BB
330
3FE
100
AcDbEntity
  8
0
  6
Continuous
 62
     7
370
    25
100
AcDbCircle
 10
-20.3346456693
 20
-8.1692913386
 30
0.0
 40
0.0393700787401485
100
AcDbArc
 50
270.0
 51
0.0
  0
ARC
  5
5BC
330
3FE
100
AcDbEntity
  8
0
  6
Continuous
 62
     7
370
    25
100
AcDbCircle
 10
-20.3346456693
 20
-7.9330708661
 30
0.0
 40
0.0393700787401565
100
AcDbArc
 50
360.0
 51
90.0
  0
ARC
  5
5BD
330
3FE
100
AcDbEntity
  8
0
  6
Continuous
 62
     7
370
    25
100
AcDbCircle
 10
-58.0118110236
 20
-7.5393700787
 30
0.0
 40
0.039370078740177
100
AcDbArc
 50
90.0
 51
180.0
  0
ARC
  5
5BE
330
3FE
100
AcDbEntity
  8
0
  6
Continuous
 62
     7
370
    25
100
AcDbCircle
 10
-20.3346456693
 20
-7.5393700787
 30
0.0
 40
0.0393700787401592
100
AcDbArc
 50
0.0
 51
90.0
  0
ARC
  5
5BF
330
3FE
100
AcDbEntity
  8
0
  6
Continuous
 62
     7
370
    25
100
AcDbCircle
 10
-19.5472440945
 20
-8.8222750566
 30
0.0
 40
0.0393700787401601
100
AcDbArc
 50
180.0
 51
315.0
  0
ARC
  5
5C0
330
3FE
100
AcDbEntity
  8
0
  6
Continuous
 62
     7
370
    25
100
AcDbCircle
 10
-18.9173228346
 20
-8.1923537968
 30
0.0
 40
0.0393700787401663
100
AcDbArc
 50
315.0
 51
0.0
  0
ARC
  5
5C1
330
3FE
100
AcDbEntity
  8
0
  6
Continuous
 62
     7
370
    25
100
AcDbCircle
 10
-18.9173228346
 20
8.9566929134
 30
0.0
 40
0.0393700787401627
100
AcDbArc
 50
0.0
 51
90.0
  0
ARC
  5
5C2
330
3FE
100
AcDbEntity
  8
0
  6
Continuous
 62
     7
370
    25
100
AcDbCircle
 10
-19.5472440945
 20
8.9566929134
 30
0.0
 40
0.039370078740161
100
AcDbArc
 50
90.0
 51
180.0
  0
ARC
  5
5C3
330
3FE
100
AcDbEntity
  8
0
  6
Continuous
 62
     7
370
    25
100
AcDbCircle
 10
19.5472440945
 20
-8.8222750566
 30
0.0
 40
0.0393700787401556
100
AcDbArc
 50
225.0
 51
0.0
  0
ARC
  5
5C4
330
3FE
100
AcDbEntity
  8
0
  6
Continuous
 62
     7
370
    25
100
AcDbCircle
 10
18.9173228346
 20
-8.1923537968
 30
0.0
 40
0.0393700787401343
100
AcDbArc
 50
180.0
 51
225.0
  0
ARC
  5
5C5
330
3FE
100
AcDbEntity
  8
0
  6
Continuous
 62
     7
370
    25
100
AcDbCircle
 10
18.9173228346
 20
8.9566929134
 30
0.0
 40
0.0393700787401556
100
AcDbArc
 50
90.0
 51
180.0
  0
ARC
  5
5C6
330
3FE
100
AcDbEntity
  8
0
  6
Continuous
 62
     7
370
    25
100
AcDbCircle
 10
19.5472440945
 20
8.9566929134
 30
0.0
 40
0.0393700787401592
100
AcDbArc
 50
0.0
 51
90.0
  0
ARC
  5
5C7
330
3FE
100
AcDbEntity
  8
0
  6
Continuous
 62
     7
370
    25
100
AcDbCircle
 10
18.8385826772
 20
8.9566929134
 30
0.0
 40
0.0393700787401627
100
AcDbArc
 50
0.0
 51
90.0
  0
ARC
  5
5C8
330
3FE
100
AcDbEntity
  8
0
  6
Continuous
 62
     7
370
    25
100
AcDbCircle
 10
18.8385826772
 20
8.3267716535
 30
0.0
 40
0.0393700787401627
100
AcDbArc
 50
270.0
 51
360.0
  0
ARC
  5
5C9
330
3FE
100
AcDbEntity
  8
0
  6
Continuous
 62
     7
370
    25
100
AcDbCircle
 10
-18.8385826772
 20
8.9566929134
 30
0.0
 40
0.039370078740161
100
AcDbArc
 50
90.0
 51
180.0
  0
ARC
  5
5CA
330
3FE
100
AcDbEntity
  8
0
  6
Continuous
 62
     7
370
    25
100
AcDbCircle
 10
-18.8385826772
 20
8.3267716535
 30
0.0
 40
0.0393700787401592
100
AcDbArc
 50
180.0
 51
270.0
  0
ARC
  5
5CB
330
3FE
100
AcDbEntity
  8
0
  6
Continuous
 62
     7
370
    25
100
AcDbCircle
 10
18.8385826772
 20
-8.1692913386
 30
0.0
 40
0.0393700787401556
100
AcDbArc
 50
270.0
 51
0.0
  0
ARC
  5
5CC
330
3FE
100
AcDbEntity
  8
0
  6
Continuous
 62
     7
370
    25
100
AcDbCircle
 10
-18.8385826772
 20
-7.9330708661
 30
0.0
 40
0.0393700787401592
100
AcDbArc
 50
90.0
 51
180.0
  0
ARC
  5
5CD
330
3FE
100
AcDbEntity
  8
0
  6
Continuous
 62
     7
370
    25
100
AcDbCircle
 10
-18.8385826772
 20
-8.1692913386
 30
0.0
 40
0.0393700787401592
100
AcDbArc
 50
180.0
 51
270.0
  0
ARC
  5
5CE
330
3FE
100
AcDbEntity
  8
0
  6
Continuous
 62
     7
370
    25
100
AcDbCircle
 10
18.8385826772
 20
-7.9330708661
 30
0.0
 40
0.0393700787401627
100
AcDbArc
 50
0.0
 51
90.0
  0
ARC
  5
5CF
330
3FE
100
AcDbEntity
  8
0
  6
Continuous
 62
     7
370
    25
100
AcDbCircle
 10
18.8385826772
 20
-7.5393700787
 30
0.0
 40
0.0393700787401645
100
AcDbArc
 50
0.0
 51
90.0
  0
ARC
  5
5D0
330
3FE
100
AcDbEntity
  8
0
  6
Continuous
 62
     7
370
    25
100
AcDbCircle
 10
-18.8385826772
 20
-7.5393700787
 30
0.0
 40
0.0393700787401601
100
AcDbArc
 50
90.0
 51
180.0
  0
ARC
  5
5D1
330
3FE
100
AcDbEntity
  8
0
  6
Continuous
 62
     7
370
    25
100
AcDbCircle
 10
-58.5860545842
 20
-8.8779527559
 30
0.0
 40
0.0393700787401626
100
AcDbArc
 50
135.0
 51
270.0
  0
ARC
  5
5D2
330
3FE
100
AcDbEntity
  8
0
  6
Continuous
 62
     7
370
    25
100
AcDbCircle
 10
-19.7604021088
 20
-8.8779527559
 30
0.0
 40
0.0393700787401574
100
AcDbArc
 50
270.0
 51
45.0
  0
ARC
  5
5D3
330
3FE
100
AcDbEntity
  8
0
  6
Continuous
 62
     7
370
    25
100
AcDbCircle
 10
-39.5669291339
 20
-0.7283464567
 30
0.0
 40
2.677165354330718
100
AcDbArc
 50
180.0
 51
270.0
  0
ARC
  5
5D4
330
3FE
100
AcDbEntity
  8
0
  6
Continuous
 62
     7
370
    25
100
AcDbCircle
 10
-38.7795275591
 20
-0.7283464567
 30
0.0
 40
2.75590551181103
100
AcDbArc
 50
270.0
 51
0.0
  0
ARC
  5
5D5
330
3FE
100
AcDbEntity
  8
0
  6
Continuous
 62
     7
370
    25
100
AcDbCircle
 10
-39.5669291339
 20
-0.7283464567
 30
0.0
 40
2.755905511811036
100
AcDbArc
 50
180.0
 51
270.0
  0
ARC
  5
5D6
330
3FE
100
AcDbEntity
  8
0
  6
Continuous
 62
     7
370
    25
100
AcDbCircle
 10
-38.7795275591
 20
-0.7283464567
 30
0.0
 40
2.677165354330711
100
AcDbArc
 50
270.0
 51
0.0
  0
VIEWPORT
  5
8E5
330
3FE
100
AcDbEntity
  8
0
100
AcDbViewport
 10
0.0
 20
0.0
 30
0.0
 40
8.4
 41
6.4
 68
     1
 69
     1
 12
-19.5866141732
 22
10.4330708661
 13
0.0
 23
0.0
 14
0.5
 24
0.5
 15
0.5
 25
0.5
 16
0.0
 26
0.0
 36
1.0
 17
0.0
 27
0.0
 37
0.0
 42
50.0
 43
0.0
 44
0.0
 45
60.8863892013
 50
0.0
 51
0.0
 72
   100
 90
   557152
  1

281
     0
 71
     1
 74
     0
110
0.0
120
0.0
130
0.0
111
1.0
121
0.0
131
0.0
112
0.0
122
1.0
132
0.0
 79
     0
146
0.0
  0
ENDBLK
  5
401
330
3FE
100
AcDbEntity
  8
0
100
AcDbBlockEnd
  0
BLOCK
  5
5D9
330
5D7
100
AcDbEntity
  8
0
100
AcDbBlockBegin
  2
*Paper_Space2
 70
     0
 10
0.0
 20
0.0
 30
0.0
  3
*Paper_Space2
  1

  0
LWPOLYLINE
  5
62B
330
5D7
100
AcDbEntity
  8
0
  6
Continuous
 62
     7
370
    25
100
AcDbPolyline
 90
       14
 70
   128
 43
0.0
 10
-20.0324405211
 20
19.913398823
 10
-20.037002611
 20
19.9223536597
 10
-20.0405032402
 20
19.9315416241
 10
-20.0428277272
 20
19.9406617168
 10
-20.0438999216
 20
19.9494151618
 10
-20.043684698
 20
19.9575151946
 10
-20.0421891071
 20
19.9646964566
 10
-20.0394621449
 20
19.9707236885
 10
-20.035593147
 20
19.9753994369
 10
-20.0307088627
 20
19.9785705234
 10
-20.0249693019
 20
19.9801330627
 10
-20.0185624938
 20
19.9800358656
 10
-20.0116983265
 20
19.9782821165
 10
-20.0046016714
 20
19.9749292684
  0
LWPOLYLINE
  5
62D
330
5D7
100
AcDbEntity
  8
0
  6
Continuous
 62
     7
370
    25
100
AcDbPolyline
 90
       14
 70
   128
 43
0.0
 10
7.4214416283
 20
4.0646100091
 10
7.4269157241
 20
4.0677710791
 10
7.4331224935
 20
4.0713550816
 10
7.4398586014
 20
4.0752446042
 10
7.4469033717
 20
4.0793122252
 10
7.4540260165
 20
4.0834246886
 10
7.4609931966
 20
4.0874472695
 10
7.4675766658
 20
4.0912481872
 10
7.4735607485
 20
4.0947029231
 10
7.478749405
 20
4.0976982993
 10
7.482972654
 20
4.1001361868
 10
7.486092141
 20
4.1019367198
 10
7.4880056711
 20
4.1030409127
 10
7.4886505567
 20
4.1034125918
  0
LWPOLYLINE
  5
62F
330
5D7
100
AcDbEntity
  8
0
  6
Continuous
 62
     7
370
    25
100
AcDbPolyline
 90
        9
 70
   128
 43
0.0
 10
7.4214416283
 20
-2.9490117722
 10
7.4307215513
 20
-2.9529849318
 10
7.4415997566
 20
-2.9552318996
 10
7.4531394205
 20
-2.9555591682
 10
7.4643467548
 20
-2.9539385536
 10
7.4742565915
 20
-2.9505096218
 10
7.482015502
 20
-2.9455676704
 10
7.4869552943
 20
-2.9395382967
 10
7.4886505567
 20
-2.9329407464
  0
LWPOLYLINE
  5
646
330
5D7
100
AcDbEntity
  8
0
  6
Continuous
 62
     7
370
    25
100
AcDbPolyline
 90
       11
 70
   128
 43
0.0
 10
-0.0258935319
 20
10.5896930657
 10
0.0631171943
 20
10.594615225
 10
0.2610858916
 20
10.6118409015
 10
0.4562711585
 20
10.6375589325
 10
0.6475814399
 20
10.6716254924
 10
0.8339468509
 20
10.7138500671
 10
1.0143251607
 20
10.7639965197
 10
1.1877076206
 20
10.8217844109
 10
1.3531246055
 20
10.8868905673
 10
1.5096510365
 20
10.958950889
 10
1.6564115544
 20
11.0375623852
  0
LWPOLYLINE
  5
650
330
5D7
100
AcDbEntity
  8
0
  6
Continuous
 62
     7
370
    25
100
AcDbPolyline
 90
       11
 70
   128
 43
0.0
 10
1.7120892537
 20
11.0054203336
 10
1.5681040841
 20
10.928032063
 10
1.4149224022
 20
10.8567707437
 10
1.2533247867
 20
10.7919995071
 10
1.084134702
 20
10.7340484126
 10
0.908214302
 20
10.6832127656
 10
0.7264600367
 20
10.639751613
 10
0.5397980842
 20
10.6038864229
 10
0.349179631
 20
10.575799956
 10
0.1555760252
 20
10.5556353346
 10
0.0465646584
 20
10.5478638428
  0
LWPOLYLINE
  5
651
330
5D7
100
AcDbEntity
  8
0
  6
Continuous
 62
     7
370
    25
100
AcDbPolyline
 90
       11
 70
   128
 43
0.0
 10
-3.5347236598
 20
12.6152975823
 10
-3.5212615825
 20
12.6782285048
 10
-3.4863316489
 20
12.7899934875
 10
-3.4376791896
 20
12.9000351782
 10
-3.3755521265
 20
13.0077928297
 10
-3.3002670448
 20
13.1127173337
 10
-3.2122075801
 20
13.2142740189
 10
-3.1118224631
 20
13.3119453758
 10
-2.9996232334
 20
13.4052336935
 10
-2.8761816326
 20
13.4936635962
 10
-2.7421266908
 20
13.5767844653
  0
LWPOLYLINE
  5
65B
330
5D7
100
AcDbEntity
  8
0
  6
Continuous
 62
     7
370
    25
100
AcDbPolyline
 90
       11
 70
   128
 43
0.0
 10
-2.6864489915
 20
13.5446424137
 10
-2.8226228519
 20
13.4599193701
 10
-2.9474485153
 20
13.3695585849
 10
-3.060227906
 20
13.2740653921
 10
-3.1603303158
 20
13.1739738285
 10
-3.2471959316
 20
13.0698436468
 10
-3.3203389655
 20
12.962257185
 10
-3.3793503721
 20
12.8518161104
 10
-3.4239001356
 20
12.7391380542
 10
-3.4537391156
 20
12.6248531579
 10
-3.4622654695
 20
12.5734683594
  0
LWPOLYLINE
  5
68F
330
5D7
100
AcDbEntity
  8
0
  6
Continuous
 62
     7
370
    25
100
AcDbPolyline
 90
        9
 70
   128
 43
0.0
 10
7.6115371844
 20
5.4092852274
 10
7.6022572614
 20
5.4053120678
 10
7.591379056
 20
5.4030651
 10
7.5798393922
 20
5.4027378314
 10
7.5686320578
 20
5.4043584461
 10
7.5587222212
 20
5.4077873778
 10
7.5509633106
 20
5.4127293292
 10
7.5460235183
 20
5.4187587029
 10
7.544328256
 20
5.4253562532
  0
LWPOLYLINE
  5
693
330
5D7
100
AcDbEntity
  8
0
  6
Continuous
 62
     7
370
    25
100
AcDbPolyline
 90
        9
 70
   128
 43
0.0
 10
7.6115371844
 20
-11.5644765315
 10
7.6022572614
 20
-11.5684496911
 10
7.591379056
 20
-11.5706966588
 10
7.5798393922
 20
-11.5710239275
 10
7.5686320578
 20
-11.5694033128
 10
7.5587222212
 20
-11.5659743811
 10
7.5509633106
 20
-11.5610324296
 10
7.5460235183
 20
-11.555003056
 10
7.544328256
 20
-11.5484055057
  0
LWPOLYLINE
  5
6AC
330
5D7
100
AcDbEntity
  8
0
  6
Continuous
 62
     7
370
    25
100
AcDbPolyline
 90
       14
 70
   128
 43
0.0
 10
-20.0324405211
 20
11.3300761154
 10
-20.037002611
 20
11.3390309521
 10
-20.0405032402
 20
11.3482189165
 10
-20.0428277272
 20
11.3573390092
 10
-20.0438999216
 20
11.3660924541
 10
-20.043684698
 20
11.374192487
 10
-20.0421891071
 20
11.381373749
 10
-20.0394621449
 20
11.3874009809
 10
-20.035593147
 20
11.3920767292
 10
-20.0307088627
 20
11.3952478158
 10
-20.0249693019
 20
11.3968103551
 10
-20.0185624938
 20
11.396713158
 10
-20.0116983265
 20
11.3949594089
 10
-20.0046016714
 20
11.3916065608
  0
LWPOLYLINE
  5
6AE
330
5D7
100
AcDbEntity
  8
0
  6
Continuous
 62
     7
370
    25
100
AcDbPolyline
 90
       14
 70
   128
 43
0.0
 10
7.4214416283
 20
-4.5187126985
 10
7.4269157241
 20
-4.5155516285
 10
7.4331224935
 20
-4.511967626
 10
7.4398586014
 20
-4.5080781035
 10
7.4469033717
 20
-4.5040104825
 10
7.4540260165
 20
-4.499898019
 10
7.4609931966
 20
-4.4958754381
 10
7.4675766658
 20
-4.4920745204
 10
7.4735607485
 20
-4.4886197845
 10
7.478749405
 20
-4.4856244083
 10
7.482972654
 20
-4.4831865208
 10
7.486092141
 20
-4.4813859878
 10
7.4880056711
 20
-4.4802817949
 10
7.4886505567
 20
-4.4799101158
  0
LWPOLYLINE
  5
6B0
330
5D7
100
AcDbEntity
  8
0
  6
Continuous
 62
     7
370
    25
100
AcDbPolyline
 90
        9
 70
   128
 43
0.0
 10
7.4214416283
 20
-11.5323344798
 10
7.4307215513
 20
-11.5363076394
 10
7.4415997566
 20
-11.5385546072
 10
7.4531394205
 20
-11.5388818758
 10
7.4643467548
 20
-11.5372612612
 10
7.4742565915
 20
-11.5338323295
 10
7.482015502
 20
-11.528890378
 10
7.4869552943
 20
-11.5228610043
 10
7.4886505567
 20
-11.516263454
  0
LWPOLYLINE
  5
6B8
330
5D7
100
AcDbEntity
  8
0
  6
Continuous
 62
     7
370
    25
100
AcDbPolyline
 90
       14
 70
   128
 43
0.0
 10
-47.7320959258
 20
35.9040695171
 10
-47.7366580158
 20
35.9130243539
 10
-47.7401586449
 20
35.9222123183
 10
-47.742483132
 20
35.9313324109
 10
-47.7435553263
 20
35.9400858559
 10
-47.7433401027
 20
35.9481858887
 10
-47.7418445119
 20
35.9553671508
 10
-47.7391175496
 20
35.9613943827
 10
-47.7352485518
 20
35.966070131
 10
-47.7303642674
 20
35.9692412176
 10
-47.7246247067
 20
35.9708037568
 10
-47.7182178985
 20
35.9707065598
 10
-47.7113537312
 20
35.9689528107
 10
-47.7042570762
 20
35.9655999625
  0
LWPOLYLINE
  5
6BA
330
5D7
100
AcDbEntity
  8
0
  6
Continuous
 62
     7
370
    25
100
AcDbPolyline
 90
       14
 70
   128
 43
0.0
 10
-20.2782137765
 20
20.0552807033
 10
-20.2727396806
 20
20.0584417733
 10
-20.2665329113
 20
20.0620257758
 10
-20.2597968034
 20
20.0659152983
 10
-20.252752033
 20
20.0699829193
 10
-20.2456293882
 20
20.0740953828
 10
-20.2386622082
 20
20.0781179636
 10
-20.232078739
 20
20.0819188814
 10
-20.2260946563
 20
20.0853736173
 10
-20.2209059997
 20
20.0883689935
 10
-20.2166827508
 20
20.0908068809
 10
-20.2135632637
 20
20.092607414
 10
-20.2116497336
 20
20.0937116069
 10
-20.2110048481
 20
20.094083286
  0
LWPOLYLINE
  5
6BC
330
5D7
100
AcDbEntity
  8
0
  6
Continuous
 62
     7
370
    25
100
AcDbPolyline
 90
        9
 70
   128
 43
0.0
 10
-20.2782137765
 20
13.0416589219
 10
-20.2689338535
 20
13.0376857624
 10
-20.2580556482
 20
13.0354387946
 10
-20.2465159843
 20
13.0351115259
 10
-20.23530865
 20
13.0367321406
 10
-20.2253988133
 20
13.0401610723
 10
-20.2176399027
 20
13.0451030238
 10
-20.2127001105
 20
13.0511323975
 10
-20.2110048481
 20
13.0577299478
  0
LWPOLYLINE
  5
6D3
330
5D7
100
AcDbEntity
  8
0
  6
Continuous
 62
     7
370
    25
100
AcDbPolyline
 90
       11
 70
   128
 43
0.0
 10
-27.7255489367
 20
26.5803637599
 10
-27.6365382105
 20
26.5852859192
 10
-27.4385695131
 20
26.6025115957
 10
-27.2433842462
 20
26.6282296267
 10
-27.0520739649
 20
26.6622961866
 10
-26.8657085538
 20
26.7045207613
 10
-26.685330244
 20
26.7546672139
 10
-26.5119477842
 20
26.8124551051
 10
-26.3465307993
 20
26.8775612615
 10
-26.1900043683
 20
26.9496215831
 10
-26.0432438504
 20
27.0282330794
  0
LWPOLYLINE
  5
6DD
330
5D7
100
AcDbEntity
  8
0
  6
Continuous
 62
     7
370
    25
100
AcDbPolyline
 90
       11
 70
   128
 43
0.0
 10
-25.9875661511
 20
26.9960910278
 10
-26.1315513207
 20
26.9187027571
 10
-26.2847330026
 20
26.8474414378
 10
-26.4463306181
 20
26.7826702012
 10
-26.6155207028
 20
26.7247191067
 10
-26.7914411028
 20
26.6738834598
 10
-26.9731953681
 20
26.6304223072
 10
-27.1598573205
 20
26.5945571171
 10
-27.3504757737
 20
26.5664706502
 10
-27.5440793796
 20
26.5463060287
 10
-27.6530907464
 20
26.538534537
  0
LWPOLYLINE
  5
6DE
330
5D7
100
AcDbEntity
  8
0
  6
Continuous
 62
     7
370
    25
100
AcDbPolyline
 90
       11
 70
   128
 43
0.0
 10
-31.2343790645
 20
28.6059682765
 10
-31.2209169872
 20
28.668899199
 10
-31.1859870536
 20
28.7806641817
 10
-31.1373345944
 20
28.8907058724
 10
-31.0752075313
 20
28.9984635239
 10
-30.9999224496
 20
29.1033880278
 10
-30.9118629848
 20
29.2049447131
 10
-30.8114778678
 20
29.30261607
 10
-30.6992786382
 20
29.3959043877
 10
-30.5758370374
 20
29.4843342904
 10
-30.4417820956
 20
29.5674551595
  0
LWPOLYLINE
  5
6E8
330
5D7
100
AcDbEntity
  8
0
  6
Continuous
 62
     7
370
    25
100
AcDbPolyline
 90
       11
 70
   128
 43
0.0
 10
-30.3861043963
 20
29.5353131078
 10
-30.5222782566
 20
29.4505900643
 10
-30.64710392
 20
29.360229279
 10
-30.7598833107
 20
29.2647360863
 10
-30.8599857206
 20
29.1646445227
 10
-30.9468513364
 20
29.0605143409
 10
-31.0199943703
 20
28.9529278792
 10
-31.0790057769
 20
28.8424868046
 10
-31.1235555403
 20
28.7298087484
 10
-31.1533945204
 20
28.615523852
 10
-31.1619208742
 20
28.5641390536
  0
LWPOLYLINE
  5
6F3
330
5D7
100
AcDbEntity
  8
0
  6
Continuous
 62
     7
370
    25
100
AcDbPolyline
 90
       14
 70
   128
 43
0.0
 10
-47.7320959258
 20
27.3207468095
 10
-47.7366580158
 20
27.3297016462
 10
-47.7401586449
 20
27.3388896107
 10
-47.742483132
 20
27.3480097033
 10
-47.7435553263
 20
27.3567631483
 10
-47.7433401027
 20
27.3648631811
 10
-47.7418445119
 20
27.3720444432
 10
-47.7391175496
 20
27.378071675
 10
-47.7352485518
 20
27.3827474234
 10
-47.7303642674
 20
27.3859185099
 10
-47.7246247067
 20
27.3874810492
 10
-47.7182178985
 20
27.3873838522
 10
-47.7113537312
 20
27.385630103
 10
-47.7042570762
 20
27.3822772549
  0
LWPOLYLINE
  5
6F5
330
5D7
100
AcDbEntity
  8
0
  6
Continuous
 62
     7
370
    25
100
AcDbPolyline
 90
       14
 70
   128
 43
0.0
 10
-20.2782137765
 20
11.4719579957
 10
-20.2727396806
 20
11.4751190656
 10
-20.2665329113
 20
11.4787030682
 10
-20.2597968034
 20
11.4825925907
 10
-20.252752033
 20
11.4866602117
 10
-20.2456293882
 20
11.4907726752
 10
-20.2386622082
 20
11.494795256
 10
-20.232078739
 20
11.4985961738
 10
-20.2260946563
 20
11.5020509096
 10
-20.2209059997
 20
11.5050462859
 10
-20.2166827508
 20
11.5074841733
 10
-20.2135632637
 20
11.5092847064
 10
-20.2116497336
 20
11.5103888993
 10
-20.2110048481
 20
11.5107605784
  0
LWPOLYLINE
  5
6F7
330
5D7
100
AcDbEntity
  8
0
  6
Continuous
 62
     7
370
    25
100
AcDbPolyline
 90
        9
 70
   128
 43
0.0
 10
-20.2782137765
 20
4.4583362143
 10
-20.2689338535
 20
4.4543630548
 10
-20.2580556482
 20
4.452116087
 10
-20.2465159843
 20
4.4517888183
 10
-20.23530865
 20
4.453409433
 10
-20.2253988133
 20
4.4568383647
 10
-20.2176399027
 20
4.4617803162
 10
-20.2127001105
 20
4.4678096899
 10
-20.2110048481
 20
4.4744072401
  0
LWPOLYLINE
  5
707
330
5D7
100
AcDbEntity
  8
0
  6
Continuous
 62
     8
370
    25
100
AcDbPolyline
 90
        7
 70
   128
 43
0.0
 10
-47.7599347755
 20
37.3518277272
 10
-47.7713633061
 20
37.3528063814
 10
-47.7818076193
 20
37.3556580627
 10
-47.7903682579
 20
37.3601371865
 10
-47.7963079854
 20
37.3658580134
 10
-47.7991152765
 20
37.3723278698
 10
-47.7993048542
 20
37.3745555899
  0
LWPOLYLINE
  5
70A
330
5D7
100
AcDbEntity
  8
0
  6
Continuous
 62
     8
370
    25
100
AcDbPolyline
 90
        7
 70
   128
 43
0.0
 10
-47.7599347755
 20
20.3780659683
 10
-47.7713633061
 20
20.3790446225
 10
-47.7818076193
 20
20.3818963038
 10
-47.7903682579
 20
20.3863754276
 10
-47.7963079854
 20
20.3920962545
 10
-47.7991152765
 20
20.3985661109
 10
-47.7993048542
 20
20.400793831
  0
LWPOLYLINE
  5
713
330
5D7
100
AcDbEntity
  8
0
  6
Continuous
 62
     8
370
    25
100
AcDbPolyline
 90
        8
 70
   128
 43
0.0
 10
-20.0977821749
 20
21.3958658298
 10
-20.1082763487
 20
21.3937357942
 10
-20.1198160126
 20
21.3934085256
 10
-20.1310233469
 20
21.3950291402
 10
-20.1409331836
 20
21.3984580719
 10
-20.1486920941
 20
21.4034000234
 10
-20.1536318864
 20
21.4094293971
 10
-20.1553271488
 20
21.4160269474
  0
LWPOLYLINE
  5
715
330
5D7
100
AcDbEntity
  8
0
  6
Continuous
 62
     8
370
    25
100
AcDbPolyline
 90
        8
 70
   128
 43
0.0
 10
-20.0996494495
 20
4.4215787488
 10
-20.1082763487
 20
4.4199740353
 10
-20.1198160126
 20
4.4196467667
 10
-20.1310233469
 20
4.4212673813
 10
-20.1409331836
 20
4.4246963131
 10
-20.1486920941
 20
4.4296382645
 10
-20.1536318864
 20
4.4356676382
 10
-20.1553271488
 20
4.4422651885
  0
LWPOLYLINE
  5
73B
330
5D7
100
AcDbEntity
  8
0
  6
Continuous
 62
     8
370
    25
100
AcDbPolyline
 90
        7
 70
   128
 43
0.0
 10
-20.0602793707
 20
21.3611570331
 10
-20.0717079013
 20
21.3621356872
 10
-20.0821522146
 20
21.3649873686
 10
-20.0907128532
 20
21.3694664923
 10
-20.0966525807
 20
21.3751873192
 10
-20.0994598718
 20
21.3816571756
 10
-20.0996494495
 20
21.3838848957
  0
LWPOLYLINE
  5
73E
330
5D7
100
AcDbEntity
  8
0
  6
Continuous
 62
     8
370
    25
100
AcDbPolyline
 90
        7
 70
   128
 43
0.0
 10
-20.0602793707
 20
4.3873952742
 10
-20.0717079013
 20
4.3883739283
 10
-20.0821522146
 20
4.3912256097
 10
-20.0907128532
 20
4.3957047334
 10
-20.0966525807
 20
4.4014255603
 10
-20.0994598718
 20
4.4078954167
 10
-20.0996494495
 20
4.4101231368
  0
LINE
  5
776
330
5D7
100
AcDbEntity
  8
0
  6
Continuous
 62
     7
370
    25
100
AcDbLine
 10
-20.024285111
 20
12.8817516556
 30
0.0
 11
7.4295970383
 21
-2.9670371583
 31
0.0
  0
LINE
  5
777
330
5D7
100
AcDbEntity
  8
0
  6
Continuous
 62
     7
370
    25
100
AcDbLine
 10
-20.0439717502
 20
19.9522014057
 30
0.0
 11
-20.0439717502
 21
12.9158480675
 31
0.0
  0
LINE
  5
778
330
5D7
100
AcDbEntity
  8
0
  6
Continuous
 62
     7
370
    25
100
AcDbLine
 10
-47.7993048542
 20
37.3745555899
 30
0.0
 11
-47.7993048542
 21
20.400793831
 31
0.0
  0
LINE
  5
779
330
5D7
100
AcDbEntity
  8
0
  6
Continuous
 62
     7
370
    25
100
AcDbLine
 10
-35.207989401
 20
44.6660988371
 30
0.0
 11
-47.7796182151
 21
37.4086520018
 31
0.0
  0
LINE
  5
77A
330
5D7
100
AcDbEntity
  8
0
  6
Continuous
 62
     7
370
    25
100
AcDbLine
 10
-34.7035142882
 20
38.7775316323
 30
0.0
 11
-34.7035142882
 21
44.374866012
 31
0.0
  0
LINE
  5
77B
330
5D7
100
AcDbEntity
  8
0
  6
Continuous
 62
     7
370
    25
100
AcDbLine
 10
-34.7232009273
 20
44.4089624239
 30
0.0
 11
-35.1686225218
 21
44.6660988371
 31
0.0
  0
LINE
  5
77C
330
5D7
100
AcDbEntity
  8
0
  6
Continuous
 62
     7
370
    25
100
AcDbLine
 10
-47.7599347755
 20
20.3614237523
 30
0.0
 11
-47.7436271549
 21
20.3614237523
 31
0.0
  0
LINE
  5
77D
330
5D7
100
AcDbEntity
  8
0
  6
Continuous
 62
     7
370
    25
100
AcDbLine
 10
-8.00943329
 20
28.9647066077
 30
0.0
 11
-20.1356405097
 21
21.9643961856
 31
0.0
  0
LINE
  5
77E
330
5D7
100
AcDbEntity
  8
0
  6
Continuous
 62
     7
370
    25
100
AcDbLine
 10
-7.5246448163
 20
28.7075701946
 30
0.0
 11
-7.9700664108
 21
28.9647066077
 31
0.0
  0
LINE
  5
77F
330
5D7
100
AcDbEntity
  8
0
  6
Continuous
 62
     7
370
    25
100
AcDbLine
 10
-26.9591443569
 20
26.6821902338
 30
0.0
 11
-28.4151183069
 21
27.5227061042
 31
0.0
  0
LINE
  5
780
330
5D7
100
AcDbEntity
  8
0
  6
Continuous
 62
     7
370
    25
100
AcDbLine
 10
-20.2110048481
 20
4.9847768874
 30
0.0
 11
-20.1750105884
 21
4.9639978435
 31
0.0
  0
LINE
  5
781
330
5D7
100
AcDbEntity
  8
0
  6
Continuous
 62
     7
370
    25
100
AcDbLine
 10
-20.1553271488
 20
14.1732964852
 30
0.0
 11
-20.2110048481
 21
14.2054385368
 31
0.0
  0
LINE
  5
782
330
5D7
100
AcDbEntity
  8
0
  6
Continuous
 62
     7
370
    25
100
AcDbLine
 10
-20.2110048481
 20
11.0927593385
 30
0.0
 11
-20.1750105884
 21
11.0719802947
 31
0.0
  0
LINE
  5
783
330
5D7
100
AcDbEntity
  8
0
  6
Continuous
 62
     7
370
    25
100
AcDbLine
 10
-46.8364763455
 20
28.3601001893
 30
0.0
 11
-46.8364763455
 21
26.8813181023
 31
0.0
  0
LINE
  5
784
330
5D7
100
AcDbEntity
  8
0
  6
Continuous
 62
     7
370
    25
100
AcDbLine
 10
-19.9686106112
 20
22.1023785812
 30
0.0
 11
-46.6103897292
 21
37.4823502941
 31
0.0
  0
LINE
  5
785
330
5D7
100
AcDbEntity
  8
0
  6
Continuous
 62
     7
370
    25
100
AcDbLine
 10
-20.2110048481
 20
18.8081055925
 30
0.0
 11
-20.1750105884
 21
18.7873265487
 31
0.0
  0
LINE
  5
786
330
5D7
100
AcDbEntity
  8
0
  6
Continuous
 62
     7
370
    25
100
AcDbLine
 10
-46.8364763455
 20
37.3518277272
 30
0.0
 11
-46.8364763455
 21
35.4646408099
 31
0.0
  0
LINE
  5
787
330
5D7
100
AcDbEntity
  8
0
  6
Continuous
 62
     7
370
    25
100
AcDbLine
 10
-46.6497566084
 20
37.4823502941
 30
0.0
 11
-46.8167897063
 21
37.3859241391
 31
0.0
  0
LINE
  5
788
330
5D7
100
AcDbEntity
  8
0
  6
Continuous
 62
     7
370
    25
100
AcDbLine
 10
-20.0996494495
 20
21.3838848957
 30
0.0
 11
-20.0996494495
 21
4.4101231368
 31
0.0
  0
LINE
  5
789
330
5D7
100
AcDbEntity
  8
0
  6
Continuous
 62
     7
370
    25
100
AcDbLine
 10
-7.5083339963
 20
28.6754281429
 30
0.0
 11
-20.0799628104
 21
21.4179813076
 31
0.0
  0
LINE
  5
78A
330
5D7
100
AcDbEntity
  8
0
  6
Continuous
 62
     7
370
    25
100
AcDbLine
 10
-7.0038588835
 20
22.7868609381
 30
0.0
 11
-7.0038588835
 21
28.3841953178
 31
0.0
  0
LINE
  5
78B
330
5D7
100
AcDbEntity
  8
0
  6
Continuous
 62
     7
370
    25
100
AcDbLine
 10
-7.0235455226
 20
28.4182917297
 30
0.0
 11
-7.468967117
 21
28.6754281429
 31
0.0
  0
LINE
  5
78C
330
5D7
100
AcDbEntity
  8
0
  6
Continuous
 62
     7
370
    25
100
AcDbLine
 10
-20.0602793707
 20
4.3707530581
 30
0.0
 11
-20.0439717502
 21
4.3707530581
 31
0.0
  0
LINE
  5
78D
330
5D7
100
AcDbEntity
  8
0
  6
Continuous
 62
     7
370
    25
100
AcDbLine
 10
19.6902221147
 20
12.9740359136
 30
0.0
 11
7.5640148951
 21
5.9737254915
 31
0.0
  0
LINE
  5
78E
330
5D7
100
AcDbEntity
  8
0
  6
Continuous
 62
     7
370
    25
100
AcDbLine
 10
20.1946972275
 20
-4.2909586704
 30
0.0
 11
20.1946972275
 21
12.6828030885
 31
0.0
  0
LINE
  5
78F
330
5D7
100
AcDbEntity
  8
0
  6
Continuous
 62
     7
370
    25
100
AcDbLine
 10
20.1750105884
 20
12.7168995004
 30
0.0
 11
19.729588994
 21
12.9740359136
 31
0.0
  0
LINE
  5
790
330
5D7
100
AcDbEntity
  8
0
  6
Continuous
 62
     7
370
    25
100
AcDbLine
 10
7.6033817743
 20
-11.5825019176
 30
0.0
 11
20.1750105884
 21
-4.3250550823
 31
0.0
  0
LINE
  5
791
330
5D7
100
AcDbEntity
  8
0
  6
Continuous
 62
     7
370
    25
100
AcDbLine
 10
0.7405110478
 20
10.6915195396
 30
0.0
 11
-0.7154629021
 21
11.53203541
 31
0.0
  0
LINE
  5
792
330
5D7
100
AcDbEntity
  8
0
  6
Continuous
 62
     7
370
    25
100
AcDbLine
 10
7.4886505567
 20
-11.0058938068
 30
0.0
 11
7.5246448163
 21
-11.0266728506
 31
0.0
  0
LINE
  5
793
330
5D7
100
AcDbEntity
  8
0
  6
Continuous
 62
     7
370
    25
100
AcDbLine
 10
7.544328256
 20
-1.817374209
 30
0.0
 11
7.4886505567
 21
-1.7852321573
 31
0.0
  0
LINE
  5
794
330
5D7
100
AcDbEntity
  8
0
  6
Continuous
 62
     7
370
    25
100
AcDbLine
 10
7.4886505567
 20
-4.8979113557
 30
0.0
 11
7.5246448163
 21
-4.9186903995
 31
0.0
  0
LINE
  5
795
330
5D7
100
AcDbEntity
  8
0
  6
Continuous
 62
     7
370
    25
100
AcDbLine
 10
-19.1368209407
 20
12.3694294951
 30
0.0
 11
-19.1368209407
 21
10.8906474081
 31
0.0
  0
LINE
  5
796
330
5D7
100
AcDbEntity
  8
0
  6
Continuous
 62
     7
370
    25
100
AcDbLine
 10
7.7310447935
 20
6.111707887
 30
0.0
 11
-18.9107343244
 21
21.4916795999
 31
0.0
  0
LINE
  5
797
330
5D7
100
AcDbEntity
  8
0
  6
Continuous
 62
     7
370
    25
100
AcDbLine
 10
7.4886505567
 20
2.8174348984
 30
0.0
 11
7.5246448163
 21
2.7966558545
 31
0.0
  0
LINE
  5
798
330
5D7
100
AcDbEntity
  8
0
  6
Continuous
 62
     7
370
    25
100
AcDbLine
 10
-19.1368209407
 20
21.3611570331
 30
0.0
 11
-19.1368209407
 21
19.4739701157
 31
0.0
  0
LINE
  5
799
330
5D7
100
AcDbEntity
  8
0
  6
Continuous
 62
     7
370
    25
100
AcDbLine
 10
-18.9501012037
 20
21.4916795999
 30
0.0
 11
-19.1171343016
 21
21.395253445
 31
0.0
  0
LINE
  5
79A
330
5D7
100
AcDbEntity
  8
0
  6
Continuous
 62
     7
370
    25
100
AcDbLine
 10
-20.024285111
 20
4.2984289479
 30
0.0
 11
7.4295970383
 21
-11.5503598659
 31
0.0
  0
LINE
  5
79B
330
5D7
100
AcDbEntity
  8
0
  6
Continuous
 62
     7
370
    25
100
AcDbLine
 10
-20.0439717502
 20
11.3688786981
 30
0.0
 11
-20.0439717502
 21
4.3325253598
 31
0.0
  0
LINE
  5
79C
330
5D7
100
AcDbEntity
  8
0
  6
Continuous
 62
     7
370
    25
100
AcDbLine
 10
-47.7239405158
 20
28.8724223497
 30
0.0
 11
-20.2700583664
 21
13.0236335359
 31
0.0
  0
LINE
  5
79D
330
5D7
100
AcDbEntity
  8
0
  6
Continuous
 62
     7
370
    25
100
AcDbLine
 10
-47.7436271549
 20
35.9428720999
 30
0.0
 11
-47.7436271549
 21
28.9065187616
 31
0.0
  0
LINE
  5
79E
330
5D7
100
AcDbEntity
  8
0
  6
Continuous
 62
     7
370
    25
100
AcDbLine
 10
-47.7239405158
 20
20.2890996421
 30
0.0
 11
-20.2700583664
 21
4.4403108282
 31
0.0
  0
LINE
  5
79F
330
5D7
100
AcDbEntity
  8
0
  6
Continuous
 62
     7
370
    25
100
AcDbLine
 10
-47.7436271549
 20
27.3595493922
 30
0.0
 11
-47.7436271549
 21
20.323196054
 31
0.0
  0
LINE
  5
7A0
330
5D7
100
AcDbEntity
  8
0
  6
Continuous
 62
     7
370
    25
100
AcDbLine
 10
7.4214416283
 20
4.0646100091
 30
0.0
 11
-20.0324405211
 21
19.913398823
 31
0.0
  0
LINE
  5
7A1
330
5D7
100
AcDbEntity
  8
0
  6
Continuous
 62
     7
370
    25
100
AcDbLine
 10
-20.0046016714
 20
19.9749292684
 30
0.0
 11
7.4886505567
 21
4.1034125918
 31
0.0
  0
LINE
  5
7A2
330
5D7
100
AcDbEntity
  8
0
  6
Continuous
 62
     7
370
    25
100
AcDbLine
 10
7.4886505567
 20
4.1034125918
 30
0.0
 11
7.4886505567
 21
-2.9329407464
 31
0.0
  0
LINE
  5
7A3
330
5D7
100
AcDbEntity
  8
0
  6
Continuous
 62
     7
370
    25
100
AcDbLine
 10
7.4214416283
 20
-2.9490117722
 30
0.0
 11
7.4214416283
 21
4.0646100091
 31
0.0
  0
LINE
  5
7A4
330
5D7
100
AcDbEntity
  8
0
  6
Continuous
 62
     7
370
    25
100
AcDbLine
 10
-20.0324405211
 20
12.8997770416
 30
0.0
 11
7.4214416283
 21
-2.9490117722
 31
0.0
  0
LINE
  5
7A5
330
5D7
100
AcDbEntity
  8
0
  6
Continuous
 62
     7
370
    25
100
AcDbLine
 10
-20.0324405211
 20
19.913398823
 30
0.0
 11
-20.0324405211
 21
12.8997770416
 31
0.0
  0
LINE
  5
7A6
330
5D7
100
AcDbEntity
  8
0
  6
Continuous
 62
     7
370
    25
100
AcDbLine
 10
-7.8923138766
 20
23.5890805729
 30
0.0
 11
-15.2181234574
 21
19.3599807209
 31
0.0
  0
LINE
  5
7A7
330
5D7
100
AcDbEntity
  8
0
  6
Continuous
 62
     7
370
    25
100
AcDbLine
 10
-7.3912145829
 20
23.2998021081
 30
0.0
 11
-7.8923138766
 21
23.5890805729
 31
0.0
  0
LINE
  5
7A8
330
5D7
100
AcDbEntity
  8
0
  6
Continuous
 62
     7
370
    25
100
AcDbLine
 10
-14.7170241637
 20
19.070702256
 30
0.0
 11
-7.3912145829
 21
23.2998021081
 31
0.0
  0
LINE
  5
7A9
330
5D7
100
AcDbEntity
  8
0
  6
Continuous
 62
     7
370
    25
100
AcDbLine
 10
-7.3912145829
 20
23.0104766236
 30
0.0
 11
-7.3912145829
 21
23.2998021081
 31
0.0
  0
LINE
  5
7AA
330
5D7
100
AcDbEntity
  8
0
  6
Continuous
 62
     7
370
    25
100
AcDbLine
 10
7.4886505567
 20
1.9333732761
 30
0.0
 11
7.544328256
 21
1.9655153277
 31
0.0
  0
LINE
  5
7AB
330
5D7
100
AcDbEntity
  8
0
  6
Continuous
 62
     7
370
    25
100
AcDbLine
 10
7.544328256
 20
2.5440722573
 30
0.0
 11
7.4886505567
 21
2.5119302057
 31
0.0
  0
LINE
  5
7AC
330
5D7
100
AcDbEntity
  8
0
  6
Continuous
 62
     7
370
    25
100
AcDbLine
 10
7.4886505567
 20
-1.4420907101
 30
0.0
 11
7.544328256
 21
-1.4099486584
 31
0.0
  0
LINE
  5
7AD
330
5D7
100
AcDbEntity
  8
0
  6
Continuous
 62
     7
370
    25
100
AcDbLine
 10
7.0014706877
 20
11.4871331553
 30
0.0
 11
2.7104984409
 21
9.0100076043
 31
0.0
  0
LINE
  5
7AE
330
5D7
100
AcDbEntity
  8
0
  6
Continuous
 62
     7
370
    25
100
AcDbLine
 10
-12.2389638228
 20
17.6401484714
 30
0.0
 11
-7.8923138766
 21
20.1494160741
 31
0.0
  0
LINE
  5
7AF
330
5D7
100
AcDbEntity
  8
0
  6
Continuous
 62
     7
370
    25
100
AcDbLine
 10
7.6139253801
 20
11.1978546905
 30
0.0
 11
12.1136889993
 21
8.6001964458
 31
0.0
  0
LINE
  5
7B0
330
5D7
100
AcDbEntity
  8
0
  6
Continuous
 62
     7
370
    25
100
AcDbLine
 10
7.057148387
 20
14.0910572917
 30
0.0
 11
14.3411589687
 21
9.8860874882
 31
0.0
  0
LINE
  5
7B1
330
5D7
100
AcDbEntity
  8
0
  6
Continuous
 62
     7
370
    25
100
AcDbLine
 10
14.8422582624
 20
10.175365953
 30
0.0
 11
7.5582476808
 21
14.3803357565
 31
0.0
  0
LINE
  5
7B2
330
5D7
100
AcDbEntity
  8
0
  6
Continuous
 62
     7
370
    25
100
AcDbLine
 10
7.057148387
 20
14.0910572917
 30
0.0
 11
7.5582476808
 21
14.3803357565
 31
0.0
  0
LINE
  5
7B3
330
5D7
100
AcDbEntity
  8
0
  6
Continuous
 62
     7
370
    25
100
AcDbLine
 10
-7.8923138766
 20
22.7211981588
 30
0.0
 11
2.6029324426
 21
16.6624214234
 31
0.0
  0
LINE
  5
7B4
330
5D7
100
AcDbEntity
  8
0
  6
Continuous
 62
     7
370
    25
100
AcDbLine
 10
-7.3912145829
 20
23.0104766236
 30
0.0
 11
-7.8923138766
 21
22.7211981588
 31
0.0
  0
LINE
  5
7B5
330
5D7
100
AcDbEntity
  8
0
  6
Continuous
 62
     7
370
    25
100
AcDbLine
 10
3.1040317363
 20
16.9516998882
 30
0.0
 11
-7.3912145829
 21
23.0104766236
 31
0.0
  0
LINE
  5
7B6
330
5D7
100
AcDbEntity
  8
0
  6
Continuous
 62
     7
370
    25
100
AcDbLine
 10
3.1040317363
 20
16.9516998882
 30
0.0
 11
2.6029324426
 21
16.6624214234
 31
0.0
  0
LINE
  5
7B7
330
5D7
100
AcDbEntity
  8
0
  6
Continuous
 62
     7
370
    25
100
AcDbLine
 10
-7.8923138766
 20
22.7211981588
 30
0.0
 11
-7.8923138766
 21
20.1494160741
 31
0.0
  0
LINE
  5
7B8
330
5D7
100
AcDbEntity
  8
0
  6
Continuous
 62
     7
370
    25
100
AcDbLine
 10
-7.8923138766
 20
20.1494160741
 30
0.0
 11
0.3754624732
 21
15.3765303811
 31
0.0
  0
LINE
  5
7B9
330
5D7
100
AcDbEntity
  8
0
  6
Continuous
 62
     7
370
    25
100
AcDbLine
 10
7.5582476808
 20
14.4446198598
 30
0.0
 11
1.6564115544
 21
11.0375623852
 31
0.0
  0
LINE
  5
7BA
330
5D7
100
AcDbEntity
  8
0
  6
Continuous
 62
     7
370
    25
100
AcDbLine
 10
7.5582476808
 20
14.4446198598
 30
0.0
 11
8.1150246739
 21
14.1231993433
 31
0.0
  0
LINE
  5
7BB
330
5D7
100
AcDbEntity
  8
0
  6
Continuous
 62
     7
370
    25
100
AcDbLine
 10
8.0593469745
 20
14.0910572917
 30
0.0
 11
8.1150246739
 21
14.1231993433
 31
0.0
  0
LINE
  5
7BC
330
5D7
100
AcDbEntity
  8
0
  6
Continuous
 62
     7
370
    25
100
AcDbLine
 10
7.6139253801
 20
13.7696367752
 30
0.0
 11
7.5582476808
 21
13.7374947236
 31
0.0
  0
LINE
  5
7BD
330
5D7
100
AcDbEntity
  8
0
  6
Continuous
 62
     7
370
    25
100
AcDbLine
 10
7.0014706877
 20
14.05891524
 30
0.0
 11
7.5582476808
 21
13.7374947236
 31
0.0
  0
LINE
  5
7BE
330
5D7
100
AcDbEntity
  8
0
  6
Continuous
 62
     7
370
    25
100
AcDbLine
 10
7.0014706877
 20
14.05891524
 30
0.0
 11
1.7120892537
 21
11.0054203336
 31
0.0
  0
LINE
  5
7BF
330
5D7
100
AcDbEntity
  8
0
  6
Continuous
 62
     7
370
    25
100
AcDbLine
 10
-2.7421266908
 20
13.5767844653
 30
0.0
 11
2.5472547433
 21
16.6302793717
 31
0.0
  0
LINE
  5
7C0
330
5D7
100
AcDbEntity
  8
0
  6
Continuous
 62
     7
370
    25
100
AcDbLine
 10
2.5472547433
 20
16.6302793717
 30
0.0
 11
1.9904777502
 21
16.9516998882
 31
0.0
  0
LINE
  5
7C1
330
5D7
100
AcDbEntity
  8
0
  6
Continuous
 62
     7
370
    25
100
AcDbLine
 10
2.0461554495
 20
16.9838419399
 30
0.0
 11
1.9904777502
 21
16.9516998882
 31
0.0
  0
LINE
  5
7C2
330
5D7
100
AcDbEntity
  8
0
  6
Continuous
 62
     7
370
    25
100
AcDbLine
 10
2.6029324426
 20
17.240978353
 30
0.0
 11
2.6586101419
 21
17.2731204047
 31
0.0
  0
LINE
  5
7C3
330
5D7
100
AcDbEntity
  8
0
  6
Continuous
 62
     7
370
    25
100
AcDbLine
 10
3.2153871349
 20
16.9516998882
 30
0.0
 11
2.6586101419
 21
17.2731204047
 31
0.0
  0
LINE
  5
7C4
330
5D7
100
AcDbEntity
  8
0
  6
Continuous
 62
     7
370
    25
100
AcDbLine
 10
-2.6864489915
 20
13.5446424137
 30
0.0
 11
3.2153871349
 21
16.9516998882
 31
0.0
  0
LINE
  5
7C5
330
5D7
100
AcDbEntity
  8
0
  6
Continuous
 62
     7
370
    25
100
AcDbLine
 10
7.0014706877
 20
14.05891524
 30
0.0
 11
7.0014706877
 21
11.4871331553
 31
0.0
  0
LINE
  5
7C6
330
5D7
100
AcDbEntity
  8
0
  6
Continuous
 62
     7
370
    25
100
AcDbLine
 10
3.2153871349
 20
16.9516998882
 30
0.0
 11
3.2153871349
 21
13.8012668345
 31
0.0
  0
LINE
  5
7C7
330
5D7
100
AcDbEntity
  8
0
  6
Continuous
 62
     7
370
    25
100
AcDbLine
 10
3.2153871349
 20
13.8012668345
 30
0.0
 11
-1.1868590612
 21
11.2599041999
 31
0.0
  0
LINE
  5
7C8
330
5D7
100
AcDbEntity
  8
0
  6
Continuous
 62
     7
370
    25
100
AcDbLine
 10
7.5582476808
 20
13.7374947236
 30
0.0
 11
7.5582476808
 21
11.1657126389
 31
0.0
  0
LINE
  5
7C9
330
5D7
100
AcDbEntity
  8
0
  6
Continuous
 62
     7
370
    25
100
AcDbLine
 10
7.0014706877
 20
11.4871331553
 30
0.0
 11
7.5582476808
 21
11.1657126389
 31
0.0
  0
LINE
  5
7CA
330
5D7
100
AcDbEntity
  8
0
  6
Continuous
 62
     7
370
    25
100
AcDbLine
 10
7.6139253801
 20
11.1978546905
 30
0.0
 11
7.5582476808
 21
11.1657126389
 31
0.0
  0
LINE
  5
7CB
330
5D7
100
AcDbEntity
  8
0
  6
Continuous
 62
     7
370
    25
100
AcDbLine
 10
7.6139253801
 20
13.7696367752
 30
0.0
 11
7.6139253801
 21
11.1978546905
 31
0.0
  0
LINE
  5
7CC
330
5D7
100
AcDbEntity
  8
0
  6
Continuous
 62
     7
370
    25
100
AcDbLine
 10
8.1150246739
 20
14.1231993433
 30
0.0
 11
8.1150246739
 21
14.05891524
 31
0.0
  0
LINE
  5
7CD
330
5D7
100
AcDbEntity
  8
0
  6
Continuous
 62
     7
370
    25
100
AcDbLine
 10
1.9904777502
 20
16.9516998882
 30
0.0
 11
1.9904777502
 21
16.3088588553
 31
0.0
  0
LINE
  5
7CE
330
5D7
100
AcDbEntity
  8
0
  6
Continuous
 62
     7
370
    25
100
AcDbLine
 10
-47.7599347755
 20
37.406702866
 30
0.0
 11
-46.8690915866
 21
37.406702866
 31
0.0
  0
LINE
  5
7CF
330
5D7
100
AcDbEntity
  8
0
  6
Continuous
 62
     7
370
    25
100
AcDbLine
 10
-46.8690915866
 20
35.4834691878
 30
0.0
 11
-46.8690915866
 21
37.406702866
 31
0.0
  0
LINE
  5
7D0
330
5D7
100
AcDbEntity
  8
0
  6
Continuous
 62
     7
370
    25
100
AcDbLine
 10
-46.8690915866
 20
37.3518277272
 30
0.0
 11
-47.7599347755
 21
37.3518277272
 31
0.0
  0
LINE
  5
7D1
330
5D7
100
AcDbEntity
  8
0
  6
Continuous
 62
     7
370
    25
100
AcDbLine
 10
-47.7599347755
 20
37.406702866
 30
0.0
 11
-47.7599347755
 21
20.3614237523
 31
0.0
  0
LINE
  5
7D2
330
5D7
100
AcDbEntity
  8
0
  6
Continuous
 62
     7
370
    25
100
AcDbLine
 10
-35.1883059614
 20
44.6641497012
 30
0.0
 11
-47.7599347755
 21
37.406702866
 31
0.0
  0
LINE
  5
7D3
330
5D7
100
AcDbEntity
  8
0
  6
Continuous
 62
     7
370
    25
100
AcDbLine
 10
-34.742884367
 20
44.4070132881
 30
0.0
 11
-35.1883059614
 21
44.6641497012
 31
0.0
  0
LINE
  5
7D4
330
5D7
100
AcDbEntity
  8
0
  6
Continuous
 62
     7
370
    25
100
AcDbLine
 10
-46.8690915866
 20
37.406702866
 30
0.0
 11
-34.742884367
 21
44.4070132881
 31
0.0
  0
LINE
  5
7D5
330
5D7
100
AcDbEntity
  8
0
  6
Continuous
 62
     7
370
    25
100
AcDbLine
 10
-20.1553271488
 20
4.4422651885
 30
0.0
 11
-20.1553271488
 21
21.9302997737
 31
0.0
  0
LINE
  5
7D6
330
5D7
100
AcDbEntity
  8
0
  6
Continuous
 62
     7
370
    25
100
AcDbLine
 10
-20.11595707
 20
21.4481742234
 30
0.0
 11
-7.544328256
 21
28.7056210587
 31
0.0
  0
LINE
  5
7D7
330
5D7
100
AcDbEntity
  8
0
  6
Continuous
 62
     7
370
    25
100
AcDbLine
 10
-20.11595707
 20
21.9624470498
 30
0.0
 11
-20.11595707
 21
21.4481742234
 31
0.0
  0
LINE
  5
7D8
330
5D7
100
AcDbEntity
  8
0
  6
Continuous
 62
     7
370
    25
100
AcDbLine
 10
-7.9897498504
 20
28.9627574719
 30
0.0
 11
-20.11595707
 21
21.9624470498
 31
0.0
  0
LINE
  5
7D9
330
5D7
100
AcDbEntity
  8
0
  6
Continuous
 62
     7
370
    25
100
AcDbLine
 10
-7.544328256
 20
28.7056210587
 30
0.0
 11
-7.9897498504
 21
28.9627574719
 31
0.0
  0
LINE
  5
7DA
330
5D7
100
AcDbEntity
  8
0
  6
Continuous
 62
     7
370
    25
100
AcDbLine
 10
-20.1831659984
 20
4.9820232296
 30
0.0
 11
-20.1831659984
 21
5.4963796466
 31
0.0
  0
LINE
  5
7DB
330
5D7
100
AcDbEntity
  8
0
  6
Continuous
 62
     7
370
    25
100
AcDbLine
 10
-20.1831659984
 20
11.0900056807
 30
0.0
 11
-20.1831659984
 21
13.5974932133
 31
0.0
  0
LINE
  5
7DC
330
5D7
100
AcDbEntity
  8
0
  6
Continuous
 62
     7
370
    25
100
AcDbLine
 10
-20.1831659984
 20
18.8053519348
 30
0.0
 11
-20.1831659984
 21
21.9557849885
 31
0.0
  0
LINE
  5
7DD
330
5D7
100
AcDbEntity
  8
0
  6
Continuous
 62
     7
370
    25
100
AcDbLine
 10
-20.1553271488
 20
22.0040032904
 30
0.0
 11
-19.9882940509
 21
22.1004294453
 31
0.0
  0
LINE
  5
7DE
330
5D7
100
AcDbEntity
  8
0
  6
Continuous
 62
     7
370
    25
100
AcDbLine
 10
-46.7971062667
 20
37.3839750033
 30
0.0
 11
-20.1553271488
 21
22.0040032904
 31
0.0
  0
LINE
  5
7DF
330
5D7
100
AcDbEntity
  8
0
  6
Continuous
 62
     7
370
    25
100
AcDbLine
 10
-20.1831659984
 20
21.9557849885
 30
0.0
 11
-46.8249451164
 21
37.3357567014
 31
0.0
  0
LINE
  5
7E0
330
5D7
100
AcDbEntity
  8
0
  6
Continuous
 62
     7
370
    25
100
AcDbLine
 10
-46.6300731688
 20
37.4804011582
 30
0.0
 11
-46.7971062667
 21
37.3839750033
 31
0.0
  0
LINE
  5
7E1
330
5D7
100
AcDbEntity
  8
0
  6
Continuous
 62
     7
370
    25
100
AcDbLine
 10
-19.9882940509
 20
22.1004294453
 30
0.0
 11
-46.6300731688
 21
37.4804011582
 31
0.0
  0
LINE
  5
7E2
330
5D7
100
AcDbEntity
  8
0
  6
Continuous
 62
     7
370
    25
100
AcDbLine
 10
-20.0602793707
 20
21.4160321718
 30
0.0
 11
-19.1694361818
 21
21.4160321718
 31
0.0
  0
LINE
  5
7E3
330
5D7
100
AcDbEntity
  8
0
  6
Continuous
 62
     7
370
    25
100
AcDbLine
 10
-19.1694361818
 20
19.4927984937
 30
0.0
 11
-19.1694361818
 21
21.4160321718
 31
0.0
  0
LINE
  5
7E4
330
5D7
100
AcDbEntity
  8
0
  6
Continuous
 62
     7
370
    25
100
AcDbLine
 10
-19.1694361818
 20
21.3611570331
 30
0.0
 11
-20.0602793707
 21
21.3611570331
 31
0.0
  0
LINE
  5
7E5
330
5D7
100
AcDbEntity
  8
0
  6
Continuous
 62
     7
370
    25
100
AcDbLine
 10
-20.0602793707
 20
21.4160321718
 30
0.0
 11
-20.0602793707
 21
4.3707530581
 31
0.0
  0
LINE
  5
7E6
330
5D7
100
AcDbEntity
  8
0
  6
Continuous
 62
     7
370
    25
100
AcDbLine
 10
-7.4886505567
 20
28.6734790071
 30
0.0
 11
-20.0602793707
 21
21.4160321718
 31
0.0
  0
LINE
  5
7E7
330
5D7
100
AcDbEntity
  8
0
  6
Continuous
 62
     7
370
    25
100
AcDbLine
 10
-7.0432289622
 20
28.4163425939
 30
0.0
 11
-7.4886505567
 21
28.6734790071
 31
0.0
  0
LINE
  5
7E8
330
5D7
100
AcDbEntity
  8
0
  6
Continuous
 62
     7
370
    25
100
AcDbLine
 10
-19.1694361818
 20
21.4160321718
 30
0.0
 11
-7.0432289622
 21
28.4163425939
 31
0.0
  0
LINE
  5
7E9
330
5D7
100
AcDbEntity
  8
0
  6
Continuous
 62
     7
370
    25
100
AcDbLine
 10
7.6115371844
 20
5.4092852274
 30
0.0
 11
7.6115371844
 21
-11.5644765315
 31
0.0
  0
LINE
  5
7EA
330
5D7
100
AcDbEntity
  8
0
  6
Continuous
 62
     7
370
    25
100
AcDbLine
 10
7.544328256
 20
-11.5484055057
 30
0.0
 11
7.544328256
 21
5.9396290796
 31
0.0
  0
LINE
  5
7EB
330
5D7
100
AcDbEntity
  8
0
  6
Continuous
 62
     7
370
    25
100
AcDbLine
 10
20.1831659984
 20
12.6667320627
 30
0.0
 11
7.6115371844
 21
5.4092852274
 31
0.0
  0
LINE
  5
7EC
330
5D7
100
AcDbEntity
  8
0
  6
Continuous
 62
     7
370
    25
100
AcDbLine
 10
7.5836983347
 20
5.4575035293
 30
0.0
 11
20.1553271488
 21
12.7149503645
 31
0.0
  0
LINE
  5
7ED
330
5D7
100
AcDbEntity
  8
0
  6
Continuous
 62
     7
370
    25
100
AcDbLine
 10
7.5836983347
 20
5.9717763556
 30
0.0
 11
7.5836983347
 21
5.4575035293
 31
0.0
  0
LINE
  5
7EE
330
5D7
100
AcDbEntity
  8
0
  6
Continuous
 62
     7
370
    25
100
AcDbLine
 10
20.1831659984
 20
-4.3070296962
 30
0.0
 11
20.1831659984
 21
12.6667320627
 31
0.0
  0
LINE
  5
7EF
330
5D7
100
AcDbEntity
  8
0
  6
Continuous
 62
     7
370
    25
100
AcDbLine
 10
7.6115371844
 20
-11.5644765315
 30
0.0
 11
20.1831659984
 21
-4.3070296962
 31
0.0
  0
LINE
  5
7F0
330
5D7
100
AcDbEntity
  8
0
  6
Continuous
 62
     7
370
    25
100
AcDbLine
 10
19.7099055543
 20
12.9720867777
 30
0.0
 11
7.5836983347
 21
5.9717763556
 31
0.0
  0
LINE
  5
7F1
330
5D7
100
AcDbEntity
  8
0
  6
Continuous
 62
     7
370
    25
100
AcDbLine
 10
20.1553271488
 20
12.7149503645
 30
0.0
 11
19.7099055543
 21
12.9720867777
 31
0.0
  0
LINE
  5
7F2
330
5D7
100
AcDbEntity
  8
0
  6
Continuous
 62
     7
370
    25
100
AcDbLine
 10
7.5164894063
 20
-11.0086474645
 30
0.0
 11
7.5164894063
 21
-10.4942910476
 31
0.0
  0
LINE
  5
7F3
330
5D7
100
AcDbEntity
  8
0
  6
Continuous
 62
     7
370
    25
100
AcDbLine
 10
7.5164894063
 20
-4.9006650134
 30
0.0
 11
7.5164894063
 21
-2.3931774809
 31
0.0
  0
LINE
  5
7F4
330
5D7
100
AcDbEntity
  8
0
  6
Continuous
 62
     7
370
    25
100
AcDbLine
 10
7.5164894063
 20
2.8146812406
 30
0.0
 11
7.5164894063
 21
5.9651142943
 31
0.0
  0
LINE
  5
7F5
330
5D7
100
AcDbEntity
  8
0
  6
Continuous
 62
     7
370
    25
100
AcDbLine
 10
7.544328256
 20
6.0133325962
 30
0.0
 11
7.7113613539
 21
6.1097587512
 31
0.0
  0
LINE
  5
7F6
330
5D7
100
AcDbEntity
  8
0
  6
Continuous
 62
     7
370
    25
100
AcDbLine
 10
-19.097450862
 20
21.3933043091
 30
0.0
 11
7.544328256
 21
6.0133325962
 31
0.0
  0
LINE
  5
7F7
330
5D7
100
AcDbEntity
  8
0
  6
Continuous
 62
     7
370
    25
100
AcDbLine
 10
7.5164894063
 20
5.9651142943
 30
0.0
 11
-19.1252897116
 21
21.3450860072
 31
0.0
  0
LINE
  5
7F8
330
5D7
100
AcDbEntity
  8
0
  6
Continuous
 62
     7
370
    25
100
AcDbLine
 10
-18.930417764
 20
21.4897304641
 30
0.0
 11
-19.097450862
 21
21.3933043091
 31
0.0
  0
LINE
  5
7F9
330
5D7
100
AcDbEntity
  8
0
  6
Continuous
 62
     7
370
    25
100
AcDbLine
 10
7.7113613539
 20
6.1097587512
 30
0.0
 11
-18.930417764
 21
21.4897304641
 31
0.0
  0
LINE
  5
7FA
330
5D7
100
AcDbEntity
  8
0
  6
Continuous
 62
     7
370
    25
100
AcDbLine
 10
7.4214416283
 20
-4.5187126985
 30
0.0
 11
-20.0324405211
 21
11.3300761154
 31
0.0
  0
LINE
  5
7FB
330
5D7
100
AcDbEntity
  8
0
  6
Continuous
 62
     7
370
    25
100
AcDbLine
 10
-20.0046016714
 20
11.3916065608
 30
0.0
 11
7.4886505567
 21
-4.4799101158
 31
0.0
  0
LINE
  5
7FC
330
5D7
100
AcDbEntity
  8
0
  6
Continuous
 62
     7
370
    25
100
AcDbLine
 10
7.4886505567
 20
-4.4799101158
 30
0.0
 11
7.4886505567
 21
-11.516263454
 31
0.0
  0
LINE
  5
7FD
330
5D7
100
AcDbEntity
  8
0
  6
Continuous
 62
     7
370
    25
100
AcDbLine
 10
7.4214416283
 20
-11.5323344798
 30
0.0
 11
7.4214416283
 21
-4.5187126985
 31
0.0
  0
LINE
  5
7FE
330
5D7
100
AcDbEntity
  8
0
  6
Continuous
 62
     7
370
    25
100
AcDbLine
 10
-20.0324405211
 20
4.316454334
 30
0.0
 11
7.4214416283
 21
-11.5323344798
 31
0.0
  0
LINE
  5
7FF
330
5D7
100
AcDbEntity
  8
0
  6
Continuous
 62
     7
370
    25
100
AcDbLine
 10
-20.0324405211
 20
11.3300761154
 30
0.0
 11
-20.0324405211
 21
4.316454334
 31
0.0
  0
LINE
  5
800
330
5D7
100
AcDbEntity
  8
0
  6
Continuous
 62
     7
370
    25
100
AcDbLine
 10
7.4886505567
 20
-6.6499494316
 30
0.0
 11
7.544328256
 21
-6.6178073799
 31
0.0
  0
LINE
  5
801
330
5D7
100
AcDbEntity
  8
0
  6
Continuous
 62
     7
370
    25
100
AcDbLine
 10
7.544328256
 20
-6.0392504503
 30
0.0
 11
7.4886505567
 21
-6.0713925019
 31
0.0
  0
LINE
  5
802
330
5D7
100
AcDbEntity
  8
0
  6
Continuous
 62
     7
370
    25
100
AcDbLine
 10
7.4886505567
 20
-10.0254134177
 30
0.0
 11
7.544328256
 21
-9.993271366
 31
0.0
  0
LINE
  5
803
330
5D7
100
AcDbEntity
  8
0
  6
Continuous
 62
     7
370
    25
100
AcDbLine
 10
-20.2782137765
 20
20.0552807033
 30
0.0
 11
-47.7320959258
 21
35.9040695171
 31
0.0
  0
LINE
  5
804
330
5D7
100
AcDbEntity
  8
0
  6
Continuous
 62
     7
370
    25
100
AcDbLine
 10
-47.7042570762
 20
35.9655999625
 30
0.0
 11
-20.2110048481
 21
20.094083286
 31
0.0
  0
LINE
  5
805
330
5D7
100
AcDbEntity
  8
0
  6
Continuous
 62
     7
370
    25
100
AcDbLine
 10
-20.2110048481
 20
20.094083286
 30
0.0
 11
-20.2110048481
 21
13.0577299478
 31
0.0
  0
LINE
  5
806
330
5D7
100
AcDbEntity
  8
0
  6
Continuous
 62
     7
370
    25
100
AcDbLine
 10
-20.2782137765
 20
13.0416589219
 30
0.0
 11
-20.2782137765
 21
20.0552807033
 31
0.0
  0
LINE
  5
807
330
5D7
100
AcDbEntity
  8
0
  6
Continuous
 62
     7
370
    25
100
AcDbLine
 10
-47.7320959258
 20
28.8904477358
 30
0.0
 11
-20.2782137765
 21
13.0416589219
 31
0.0
  0
LINE
  5
808
330
5D7
100
AcDbEntity
  8
0
  6
Continuous
 62
     7
370
    25
100
AcDbLine
 10
-47.7320959258
 20
35.9040695171
 30
0.0
 11
-47.7320959258
 21
28.8904477358
 31
0.0
  0
LINE
  5
809
330
5D7
100
AcDbEntity
  8
0
  6
Continuous
 62
     7
370
    25
100
AcDbLine
 10
-42.4166795684
 20
35.0613729502
 30
0.0
 11
-35.0908699876
 21
39.2904728023
 31
0.0
  0
LINE
  5
80A
330
5D7
100
AcDbEntity
  8
0
  6
Continuous
 62
     7
370
    25
100
AcDbLine
 10
-35.0908699876
 20
39.0011473178
 30
0.0
 11
-35.0908699876
 21
39.2904728023
 31
0.0
  0
LINE
  5
80B
330
5D7
100
AcDbEntity
  8
0
  6
Continuous
 62
     7
370
    25
100
AcDbLine
 10
-35.5919692814
 20
39.5797512671
 30
0.0
 11
-42.9177788622
 21
35.350651415
 31
0.0
  0
LINE
  5
80C
330
5D7
100
AcDbEntity
  8
0
  6
Continuous
 62
     7
370
    25
100
AcDbLine
 10
-35.0908699876
 20
39.2904728023
 30
0.0
 11
-35.5919692814
 21
39.5797512671
 31
0.0
  0
LINE
  5
80D
330
5D7
100
AcDbEntity
  8
0
  6
Continuous
 62
     7
370
    25
100
AcDbLine
 10
-20.2110048481
 20
14.5485799841
 30
0.0
 11
-20.1553271488
 21
14.5807220357
 31
0.0
  0
LINE
  5
80E
330
5D7
100
AcDbEntity
  8
0
  6
Continuous
 62
     7
370
    25
100
AcDbLine
 10
-20.2110048481
 20
17.9240439702
 30
0.0
 11
-20.1553271488
 21
17.9561860219
 31
0.0
  0
LINE
  5
80F
330
5D7
100
AcDbEntity
  8
0
  6
Continuous
 62
     7
370
    25
100
AcDbLine
 10
-20.1553271488
 20
18.5347429515
 30
0.0
 11
-20.2110048481
 21
18.5026008999
 31
0.0
  0
LINE
  5
810
330
5D7
100
AcDbEntity
  8
0
  6
Continuous
 62
     7
370
    25
100
AcDbLine
 10
-20.698184717
 20
27.4778038495
 30
0.0
 11
-24.9891569639
 21
25.0006782985
 31
0.0
  0
LINE
  5
811
330
5D7
100
AcDbEntity
  8
0
  6
Continuous
 62
     7
370
    25
100
AcDbLine
 10
-39.9386192275
 20
33.6308191656
 30
0.0
 11
-35.5919692814
 21
36.1400867683
 31
0.0
  0
LINE
  5
812
330
5D7
100
AcDbEntity
  8
0
  6
Continuous
 62
     7
370
    25
100
AcDbLine
 10
-20.0857300246
 20
27.1885253847
 30
0.0
 11
-15.5859664054
 21
24.59086714
 31
0.0
  0
LINE
  5
813
330
5D7
100
AcDbEntity
  8
0
  6
Continuous
 62
     7
370
    25
100
AcDbLine
 10
-20.6425070177
 20
30.0817279858
 30
0.0
 11
-13.3584964361
 21
25.8767581824
 31
0.0
  0
LINE
  5
814
330
5D7
100
AcDbEntity
  8
0
  6
Continuous
 62
     7
370
    25
100
AcDbLine
 10
-12.8573971423
 20
26.1660366472
 30
0.0
 11
-20.141407724
 21
30.3710064507
 31
0.0
  0
LINE
  5
815
330
5D7
100
AcDbEntity
  8
0
  6
Continuous
 62
     7
370
    25
100
AcDbLine
 10
-20.6425070177
 20
30.0817279858
 30
0.0
 11
-20.141407724
 21
30.3710064507
 31
0.0
  0
LINE
  5
816
330
5D7
100
AcDbEntity
  8
0
  6
Continuous
 62
     7
370
    25
100
AcDbLine
 10
-35.5919692814
 20
38.7118688529
 30
0.0
 11
-35.5919692814
 21
36.1400867683
 31
0.0
  0
LINE
  5
817
330
5D7
100
AcDbEntity
  8
0
  6
Continuous
 62
     7
370
    25
100
AcDbLine
 10
-35.5919692814
 20
38.7118688529
 30
0.0
 11
-25.0967229622
 21
32.6530921176
 31
0.0
  0
LINE
  5
818
330
5D7
100
AcDbEntity
  8
0
  6
Continuous
 62
     7
370
    25
100
AcDbLine
 10
-35.5919692814
 20
36.1400867683
 30
0.0
 11
-27.3241929315
 21
31.3672010752
 31
0.0
  0
LINE
  5
819
330
5D7
100
AcDbEntity
  8
0
  6
Continuous
 62
     7
370
    25
100
AcDbLine
 10
-24.5956236684
 20
32.9423705824
 30
0.0
 11
-25.0967229622
 21
32.6530921176
 31
0.0
  0
LINE
  5
81A
330
5D7
100
AcDbEntity
  8
0
  6
Continuous
 62
     7
370
    25
100
AcDbLine
 10
-35.0908699876
 20
39.0011473178
 30
0.0
 11
-35.5919692814
 21
38.7118688529
 31
0.0
  0
LINE
  5
81B
330
5D7
100
AcDbEntity
  8
0
  6
Continuous
 62
     7
370
    25
100
AcDbLine
 10
-24.5956236684
 20
32.9423705824
 30
0.0
 11
-35.0908699876
 21
39.0011473178
 31
0.0
  0
LINE
  5
81C
330
5D7
100
AcDbEntity
  8
0
  6
Continuous
 62
     7
370
    25
100
AcDbLine
 10
-20.141407724
 20
30.4352905539
 30
0.0
 11
-26.0432438504
 21
27.0282330794
 31
0.0
  0
LINE
  5
81D
330
5D7
100
AcDbEntity
  8
0
  6
Continuous
 62
     7
370
    25
100
AcDbLine
 10
-20.141407724
 20
30.4352905539
 30
0.0
 11
-19.5846307309
 21
30.1138700375
 31
0.0
  0
LINE
  5
81E
330
5D7
100
AcDbEntity
  8
0
  6
Continuous
 62
     7
370
    25
100
AcDbLine
 10
-19.6403084302
 20
30.0817279858
 30
0.0
 11
-19.5846307309
 21
30.1138700375
 31
0.0
  0
LINE
  5
81F
330
5D7
100
AcDbEntity
  8
0
  6
Continuous
 62
     7
370
    25
100
AcDbLine
 10
-20.0857300246
 20
29.7603074694
 30
0.0
 11
-20.141407724
 21
29.7281654177
 31
0.0
  0
LINE
  5
820
330
5D7
100
AcDbEntity
  8
0
  6
Continuous
 62
     7
370
    25
100
AcDbLine
 10
-20.698184717
 20
30.0495859342
 30
0.0
 11
-20.141407724
 21
29.7281654177
 31
0.0
  0
LINE
  5
821
330
5D7
100
AcDbEntity
  8
0
  6
Continuous
 62
     7
370
    25
100
AcDbLine
 10
-20.698184717
 20
30.0495859342
 30
0.0
 11
-25.9875661511
 21
26.9960910278
 31
0.0
  0
LINE
  5
822
330
5D7
100
AcDbEntity
  8
0
  6
Continuous
 62
     7
370
    25
100
AcDbLine
 10
-30.4417820956
 20
29.5674551595
 30
0.0
 11
-25.1524006615
 21
32.6209500659
 31
0.0
  0
LINE
  5
823
330
5D7
100
AcDbEntity
  8
0
  6
Continuous
 62
     7
370
    25
100
AcDbLine
 10
-25.1524006615
 20
32.6209500659
 30
0.0
 11
-25.7091776546
 21
32.9423705824
 31
0.0
  0
LINE
  5
824
330
5D7
100
AcDbEntity
  8
0
  6
Continuous
 62
     7
370
    25
100
AcDbLine
 10
-25.6534999553
 20
32.974512634
 30
0.0
 11
-25.7091776546
 21
32.9423705824
 31
0.0
  0
LINE
  5
825
330
5D7
100
AcDbEntity
  8
0
  6
Continuous
 62
     7
370
    25
100
AcDbLine
 10
-25.0967229622
 20
33.2316490472
 30
0.0
 11
-25.0410452629
 21
33.2637910988
 31
0.0
  0
LINE
  5
826
330
5D7
100
AcDbEntity
  8
0
  6
Continuous
 62
     7
370
    25
100
AcDbLine
 10
-24.4842682698
 20
32.9423705824
 30
0.0
 11
-25.0410452629
 21
33.2637910988
 31
0.0
  0
LINE
  5
827
330
5D7
100
AcDbEntity
  8
0
  6
Continuous
 62
     7
370
    25
100
AcDbLine
 10
-30.3861043963
 20
29.5353131078
 30
0.0
 11
-24.4842682698
 21
32.9423705824
 31
0.0
  0
LINE
  5
828
330
5D7
100
AcDbEntity
  8
0
  6
Continuous
 62
     7
370
    25
100
AcDbLine
 10
-20.698184717
 20
30.0495859342
 30
0.0
 11
-20.698184717
 21
27.4778038495
 31
0.0
  0
LINE
  5
829
330
5D7
100
AcDbEntity
  8
0
  6
Continuous
 62
     7
370
    25
100
AcDbLine
 10
-24.4842682698
 20
32.9423705824
 30
0.0
 11
-24.4842682698
 21
29.7919375286
 31
0.0
  0
LINE
  5
82A
330
5D7
100
AcDbEntity
  8
0
  6
Continuous
 62
     7
370
    25
100
AcDbLine
 10
-24.4842682698
 20
29.7919375286
 30
0.0
 11
-28.8865144659
 21
27.2505748941
 31
0.0
  0
LINE
  5
82B
330
5D7
100
AcDbEntity
  8
0
  6
Continuous
 62
     7
370
    25
100
AcDbLine
 10
-20.0857300246
 20
27.1885253847
 30
0.0
 11
-20.141407724
 21
27.156383333
 31
0.0
  0
LINE
  5
82C
330
5D7
100
AcDbEntity
  8
0
  6
Continuous
 62
     7
370
    25
100
AcDbLine
 10
-20.141407724
 20
29.7281654177
 30
0.0
 11
-20.141407724
 21
27.156383333
 31
0.0
  0
LINE
  5
82D
330
5D7
100
AcDbEntity
  8
0
  6
Continuous
 62
     7
370
    25
100
AcDbLine
 10
-20.0857300246
 20
29.7603074694
 30
0.0
 11
-20.0857300246
 21
27.1885253847
 31
0.0
  0
LINE
  5
82E
330
5D7
100
AcDbEntity
  8
0
  6
Continuous
 62
     7
370
    25
100
AcDbLine
 10
-20.698184717
 20
27.4778038495
 30
0.0
 11
-20.141407724
 21
27.156383333
 31
0.0
  0
LINE
  5
82F
330
5D7
100
AcDbEntity
  8
0
  6
Continuous
 62
     7
370
    25
100
AcDbLine
 10
-19.5846307309
 20
30.1138700375
 30
0.0
 11
-19.5846307309
 21
30.0495859342
 31
0.0
  0
LINE
  5
830
330
5D7
100
AcDbEntity
  8
0
  6
Continuous
 62
     7
370
    25
100
AcDbLine
 10
-25.7091776546
 20
32.9423705824
 30
0.0
 11
-25.7091776546
 21
32.2995295494
 31
0.0
  0
LINE
  5
831
330
5D7
100
AcDbEntity
  8
0
  6
Continuous
 62
     7
370
    25
100
AcDbLine
 10
-20.2782137765
 20
11.4719579957
 30
0.0
 11
-47.7320959258
 21
27.3207468095
 31
0.0
  0
LINE
  5
832
330
5D7
100
AcDbEntity
  8
0
  6
Continuous
 62
     7
370
    25
100
AcDbLine
 10
-47.7042570762
 20
27.3822772549
 30
0.0
 11
-20.2110048481
 21
11.5107605784
 31
0.0
  0
LINE
  5
833
330
5D7
100
AcDbEntity
  8
0
  6
Continuous
 62
     7
370
    25
100
AcDbLine
 10
-20.2110048481
 20
11.5107605784
 30
0.0
 11
-20.2110048481
 21
4.4744072401
 31
0.0
  0
LINE
  5
834
330
5D7
100
AcDbEntity
  8
0
  6
Continuous
 62
     7
370
    25
100
AcDbLine
 10
-20.2782137765
 20
4.4583362143
 30
0.0
 11
-20.2782137765
 21
11.4719579957
 31
0.0
  0
LINE
  5
835
330
5D7
100
AcDbEntity
  8
0
  6
Continuous
 62
     7
370
    25
100
AcDbLine
 10
-47.7320959258
 20
20.3071250282
 30
0.0
 11
-20.2782137765
 21
4.4583362143
 31
0.0
  0
LINE
  5
836
330
5D7
100
AcDbEntity
  8
0
  6
Continuous
 62
     7
370
    25
100
AcDbLine
 10
-47.7320959258
 20
27.3207468095
 30
0.0
 11
-47.7320959258
 21
20.3071250282
 31
0.0
  0
LINE
  5
837
330
5D7
100
AcDbEntity
  8
0
  6
Continuous
 62
     7
370
    25
100
AcDbLine
 10
-20.2110048481
 20
5.9652572765
 30
0.0
 11
-20.1553271488
 21
5.9973993281
 31
0.0
  0
LINE
  5
838
330
5D7
100
AcDbEntity
  8
0
  6
Continuous
 62
     7
370
    25
100
AcDbLine
 10
-20.2110048481
 20
9.3407212626
 30
0.0
 11
-20.1553271488
 21
9.3728633143
 31
0.0
  0
LINE
  5
839
330
5D7
100
AcDbEntity
  8
0
  6
Continuous
 62
     7
370
    25
100
AcDbLine
 10
-20.1553271488
 20
9.9514202439
 30
0.0
 11
-20.2110048481
 21
9.9192781923
 31
0.0
  0
LINE
  5
83A
330
5D7
100
AcDbEntity
  8
0
  6
Continuous
 62
     8
370
    25
100
AcDbLine
 10
1.7120892537
 20
11.0054203336
 30
0.0
 11
1.7120892537
 21
9.5863769598
 31
0.0
  0
LINE
  5
83B
330
5D7
100
AcDbEntity
  8
0
  6
Continuous
 62
     8
370
    25
100
AcDbLine
 10
-2.6864489915
 20
13.5446424137
 30
0.0
 11
-2.6864489915
 21
12.1255990398
 31
0.0
  0
LINE
  5
83C
330
5D7
100
AcDbEntity
  8
0
  6
Continuous
 62
     8
370
    25
100
AcDbLine
 10
-46.8690915866
 20
26.9001464802
 30
0.0
 11
-46.8690915866
 21
28.3789285672
 31
0.0
  0
LINE
  5
83D
330
5D7
100
AcDbEntity
  8
0
  6
Continuous
 62
     8
370
    25
100
AcDbLine
 10
-47.7599347755
 20
20.3780659683
 30
0.0
 11
-47.7436271549
 21
20.3780659683
 31
0.0
  0
LINE
  5
83E
330
5D7
100
AcDbEntity
  8
0
  6
Continuous
 62
     8
370
    25
100
AcDbLine
 10
-34.7150455173
 20
44.3587949862
 30
0.0
 11
-46.6198785681
 21
37.4862811515
 31
0.0
  0
LINE
  5
83F
330
5D7
100
AcDbEntity
  8
0
  6
Continuous
 62
     8
370
    25
100
AcDbLine
 10
-46.8351351925
 20
37.3620161473
 30
0.0
 11
-46.8412527369
 21
37.3584845641
 31
0.0
  0
LINE
  5
840
330
5D7
100
AcDbEntity
  8
0
  6
Continuous
 62
     8
370
    25
100
AcDbLine
 10
-46.8412527369
 20
37.3584845641
 30
0.0
 11
-46.8412527369
 21
35.467398162
 31
0.0
  0
LINE
  5
841
330
5D7
100
AcDbEntity
  8
0
  6
Continuous
 62
     8
370
    25
100
AcDbLine
 10
-46.8412527369
 20
28.3628575414
 30
0.0
 11
-46.8412527369
 21
26.8840754544
 31
0.0
  0
LINE
  5
842
330
5D7
100
AcDbEntity
  8
0
  6
Continuous
 62
     8
370
    25
100
AcDbLine
 10
-34.7150455173
 20
38.7841884691
 30
0.0
 11
-34.7150455173
 21
44.3587949862
 31
0.0
  0
LINE
  5
843
330
5D7
100
AcDbEntity
  8
0
  6
Continuous
 62
     8
370
    25
100
AcDbLine
 10
-28.8720698052
 20
27.2589136192
 30
0.0
 11
-27.6988980138
 21
26.5816559598
 31
0.0
  0
LINE
  5
844
330
5D7
100
AcDbEntity
  8
0
  6
Continuous
 62
     8
370
    25
100
AcDbLine
 10
-26.9757556246
 20
26.6784675708
 30
0.0
 11
-28.4266482108
 21
27.5160500324
 31
0.0
  0
LINE
  5
845
330
5D7
100
AcDbEntity
  8
0
  6
Continuous
 62
     8
370
    25
100
AcDbLine
 10
-20.1831659984
 20
5.4963796466
 30
0.0
 11
-20.2110048481
 21
5.5124506724
 31
0.0
  0
LINE
  5
846
330
5D7
100
AcDbEntity
  8
0
  6
Continuous
 62
     8
370
    25
100
AcDbLine
 10
-20.2110048481
 20
5.5767400001
 30
0.0
 11
-20.1553271488
 21
5.5445979484
 31
0.0
  0
LINE
  5
847
330
5D7
100
AcDbEntity
  8
0
  6
Continuous
 62
     8
370
    25
100
AcDbLine
 10
-20.2110048481
 20
4.9980942555
 30
0.0
 11
-20.1831659984
 21
4.9820232296
 31
0.0
  0
LINE
  5
848
330
5D7
100
AcDbEntity
  8
0
  6
Continuous
 62
     8
370
    25
100
AcDbLine
 10
-20.2110048481
 20
13.6778535668
 30
0.0
 11
-20.1553271488
 21
13.6457115152
 31
0.0
  0
LINE
  5
849
330
5D7
100
AcDbEntity
  8
0
  6
Continuous
 62
     8
370
    25
100
AcDbLine
 10
-20.1831659984
 20
13.5974932133
 30
0.0
 11
-20.2110048481
 21
13.6135642391
 31
0.0
  0
LINE
  5
84A
330
5D7
100
AcDbEntity
  8
0
  6
Continuous
 62
     8
370
    25
100
AcDbLine
 10
-46.8249451164
 20
28.3534433524
 30
0.0
 11
-46.8249451164
 21
26.8746612654
 31
0.0
  0
LINE
  5
84B
330
5D7
100
AcDbEntity
  8
0
  6
Continuous
 62
     8
370
    25
100
AcDbLine
 10
-20.2110048481
 20
11.1060767066
 30
0.0
 11
-20.1831659984
 21
11.0900056807
 31
0.0
  0
LINE
  5
84C
330
5D7
100
AcDbEntity
  8
0
  6
Continuous
 62
     8
370
    25
100
AcDbLine
 10
-20.1553271488
 20
14.1599843415
 30
0.0
 11
-20.2110048481
 21
14.1921263932
 31
0.0
  0
LINE
  5
84D
330
5D7
100
AcDbEntity
  8
0
  6
Continuous
 62
     8
370
    25
100
AcDbLine
 10
-46.8249451164
 20
37.3357567014
 30
0.0
 11
-46.8249451164
 21
35.4579839731
 31
0.0
  0
LINE
  5
84E
330
5D7
100
AcDbEntity
  8
0
  6
Continuous
 62
     8
370
    25
100
AcDbLine
 10
-20.2110048481
 20
18.8214229606
 30
0.0
 11
-20.1831659984
 21
18.8053519348
 31
0.0
  0
LINE
  5
84F
330
5D7
100
AcDbEntity
  8
0
  6
Continuous
 62
     8
370
    25
100
AcDbLine
 10
-19.1694361818
 20
10.9094757861
 30
0.0
 11
-19.1694361818
 21
12.388257873
 31
0.0
  0
LINE
  5
850
330
5D7
100
AcDbEntity
  8
0
  6
Continuous
 62
     8
370
    25
100
AcDbLine
 10
-20.0602793707
 20
4.3873952742
 30
0.0
 11
-20.0439717502
 21
4.3873952742
 31
0.0
  0
LINE
  5
851
330
5D7
100
AcDbEntity
  8
0
  6
Continuous
 62
     8
370
    25
100
AcDbLine
 10
-7.0153901126
 20
28.368124292
 30
0.0
 11
-18.9202231633
 21
21.4956104574
 31
0.0
  0
LINE
  5
852
330
5D7
100
AcDbEntity
  8
0
  6
Continuous
 62
     8
370
    25
100
AcDbLine
 10
-19.1354797877
 20
21.3713454531
 30
0.0
 11
-19.1415973322
 21
21.3678138699
 31
0.0
  0
LINE
  5
853
330
5D7
100
AcDbEntity
  8
0
  6
Continuous
 62
     8
370
    25
100
AcDbLine
 10
-19.1415973322
 20
21.3678138699
 30
0.0
 11
-19.1415973322
 21
19.4767274679
 31
0.0
  0
LINE
  5
854
330
5D7
100
AcDbEntity
  8
0
  6
Continuous
 62
     8
370
    25
100
AcDbLine
 10
-19.1415973322
 20
12.3721868472
 30
0.0
 11
-19.1415973322
 21
10.8934047602
 31
0.0
  0
LINE
  5
855
330
5D7
100
AcDbEntity
  8
0
  6
Continuous
 62
     8
370
    25
100
AcDbLine
 10
-7.0153901126
 20
22.793517775
 30
0.0
 11
-7.0153901126
 21
28.368124292
 31
0.0
  0
LINE
  5
856
330
5D7
100
AcDbEntity
  8
0
  6
Continuous
 62
     8
370
    25
100
AcDbLine
 10
-1.1724144005
 20
11.268242925
 30
0.0
 11
0.000757391
 21
10.5909852656
 31
0.0
  0
LINE
  5
857
330
5D7
100
AcDbEntity
  8
0
  6
Continuous
 62
     8
370
    25
100
AcDbLine
 10
0.7238997802
 20
10.6877968766
 30
0.0
 11
-0.726992806
 21
11.5253793382
 31
0.0
  0
LINE
  5
858
330
5D7
100
AcDbEntity
  8
0
  6
Continuous
 62
     8
370
    25
100
AcDbLine
 10
7.5164894063
 20
-10.4942910476
 30
0.0
 11
7.4886505567
 21
-10.4782200218
 31
0.0
  0
LINE
  5
859
330
5D7
100
AcDbEntity
  8
0
  6
Continuous
 62
     8
370
    25
100
AcDbLine
 10
7.4886505567
 20
-10.4139306941
 30
0.0
 11
7.544328256
 21
-10.4460727457
 31
0.0
  0
LINE
  5
85A
330
5D7
100
AcDbEntity
  8
0
  6
Continuous
 62
     8
370
    25
100
AcDbLine
 10
7.4886505567
 20
-10.9925764387
 30
0.0
 11
7.5164894063
 21
-11.0086474645
 31
0.0
  0
LINE
  5
85B
330
5D7
100
AcDbEntity
  8
0
  6
Continuous
 62
     8
370
    25
100
AcDbLine
 10
7.4886505567
 20
-2.3128171273
 30
0.0
 11
7.544328256
 21
-2.344959179
 31
0.0
  0
LINE
  5
85C
330
5D7
100
AcDbEntity
  8
0
  6
Continuous
 62
     8
370
    25
100
AcDbLine
 10
7.5164894063
 20
-2.3931774809
 30
0.0
 11
7.4886505567
 21
-2.377106455
 31
0.0
  0
LINE
  5
85D
330
5D7
100
AcDbEntity
  8
0
  6
Continuous
 62
     8
370
    25
100
AcDbLine
 10
-19.1252897116
 20
12.3627726582
 30
0.0
 11
-19.1252897116
 21
10.8839905713
 31
0.0
  0
LINE
  5
85E
330
5D7
100
AcDbEntity
  8
0
  6
Continuous
 62
     8
370
    25
100
AcDbLine
 10
7.4886505567
 20
-4.8845939876
 30
0.0
 11
7.5164894063
 21
-4.9006650134
 31
0.0
  0
LINE
  5
85F
330
5D7
100
AcDbEntity
  8
0
  6
Continuous
 62
     8
370
    25
100
AcDbLine
 10
7.544328256
 20
-1.8306863526
 30
0.0
 11
7.4886505567
 21
-1.798544301
 31
0.0
  0
LINE
  5
860
330
5D7
100
AcDbEntity
  8
0
  6
Continuous
 62
     8
370
    25
100
AcDbLine
 10
-19.1252897116
 20
21.3450860072
 30
0.0
 11
-19.1252897116
 21
19.4673132789
 31
0.0
  0
LINE
  5
861
330
5D7
100
AcDbEntity
  8
0
  6
Continuous
 62
     8
370
    25
100
AcDbLine
 10
7.4886505567
 20
2.8307522664
 30
0.0
 11
7.5164894063
 21
2.8146812406
 31
0.0
  0
LINE
  5
862
330
5D7
100
AcDbEntity
  8
0
  6
Continuous
 62
     8
370
    25
100
AcDbLine
 10
-25.9875661511
 20
26.9960910278
 30
0.0
 11
-25.9875661511
 21
25.5770476539
 31
0.0
  0
LINE
  5
863
330
5D7
100
AcDbEntity
  8
0
  6
Continuous
 62
     8
370
    25
100
AcDbLine
 10
-30.3861043963
 20
29.5353131078
 30
0.0
 11
-30.3861043963
 21
28.116269734
 31
0.0
  0
ARC
  5
864
330
5D7
100
AcDbEntity
  8
0
  6
Continuous
 62
     7
370
    25
100
AcDbCircle
 10
7.4492804779
 20
-2.9329407464
 30
0.0
 40
0.0393700787401592
100
AcDbArc
 50
240.0026882664
 51
360.0
  0
ARC
  5
865
330
5D7
100
AcDbEntity
  8
0
  6
Continuous
 62
     7
370
    25
100
AcDbCircle
 10
-20.0046016714
 20
12.9158480675
 30
0.0
 40
0.0393700787401665
100
AcDbArc
 50
180.0
 51
240.0026882663
  0
ARC
  5
866
330
5D7
100
AcDbEntity
  8
0
  6
Continuous
 62
     7
370
    25
100
AcDbCircle
 10
-47.7599347755
 20
37.3745555899
 30
0.0
 40
0.0393700787401485
100
AcDbArc
 50
119.9973117336
 51
180.0
  0
ARC
  5
867
330
5D7
100
AcDbEntity
  8
0
  6
Continuous
 62
     7
370
    25
100
AcDbCircle
 10
-34.742884367
 20
44.374866012
 30
0.0
 40
0.0393700787401824
100
AcDbArc
 50
0.0
 51
60.0026882663
  0
ARC
  5
868
330
5D7
100
AcDbEntity
  8
0
  6
Continuous
 62
     7
370
    25
100
AcDbCircle
 10
-35.1883059614
 20
44.6320024252
 30
0.0
 40
0.0393700787401762
100
AcDbArc
 50
60.0026882663
 51
119.9973117336
  0
ARC
  5
869
330
5D7
100
AcDbEntity
  8
0
  6
Continuous
 62
     7
370
    25
100
AcDbCircle
 10
-47.7599347755
 20
20.400793831
 30
0.0
 40
0.0393700787401698
100
AcDbArc
 50
180.0
 51
270.0
  0
ARC
  5
86A
330
5D7
100
AcDbEntity
  8
0
  6
Continuous
 62
     7
370
    25
100
AcDbCircle
 10
-20.11595707
 20
21.9302997737
 30
0.0
 40
0.0393700787401663
100
AcDbArc
 50
119.9973117337
 51
180.0
  0
ARC
  5
86B
330
5D7
100
AcDbEntity
  8
0
  6
Continuous
 62
     7
370
    25
100
AcDbCircle
 10
-7.544328256
 20
28.6734737826
 30
0.0
 40
0.0393700787401747
100
AcDbArc
 50
5.2692727
 51
60.0026882663
  0
ARC
  5
86C
330
5D7
100
AcDbEntity
  8
0
  6
Continuous
 62
     7
370
    25
100
AcDbCircle
 10
-7.9897498504
 20
28.9306101958
 30
0.0
 40
0.039370078740141
100
AcDbArc
 50
60.0026882663
 51
119.9973117337
  0
ARC
  5
86D
330
5D7
100
AcDbEntity
  8
0
  6
Continuous
 62
     7
370
    25
100
AcDbCircle
 10
-20.11595707
 20
4.4422651885
 30
0.0
 40
0.0393700787401592
100
AcDbArc
 50
180.0
 51
294.7361038305
  0
ARC
  5
86E
330
5D7
100
AcDbEntity
  8
0
  6
Continuous
 62
     7
370
    25
100
AcDbCircle
 10
-20.1553271488
 20
4.9980942555
 30
0.0
 40
0.0393700787401461
100
AcDbArc
 50
240.0026882664
 51
270.0
  0
ARC
  5
86F
330
5D7
100
AcDbEntity
  8
0
  6
Continuous
 62
     7
370
    25
100
AcDbCircle
 10
-20.1553271488
 20
11.1060767066
 30
0.0
 40
0.0393700787401237
100
AcDbArc
 50
240.0026882663
 51
270.0
  0
ARC
  5
870
330
5D7
100
AcDbEntity
  8
0
  6
Continuous
 62
     7
370
    25
100
AcDbCircle
 10
-19.9882940509
 20
22.0682821693
 30
0.0
 40
0.0393700787401846
100
AcDbArc
 50
5.5347458071
 51
60.0026882663
  0
ARC
  5
871
330
5D7
100
AcDbEntity
  8
0
  6
Continuous
 62
     7
370
    25
100
AcDbCircle
 10
-20.1553271488
 20
18.8214229606
 30
0.0
 40
0.0393700787402551
100
AcDbArc
 50
240.0026882664
 51
270.0
  0
ARC
  5
872
330
5D7
100
AcDbEntity
  8
0
  6
Continuous
 62
     7
370
    25
100
AcDbCircle
 10
-46.7971062667
 20
37.3518277272
 30
0.0
 40
0.0393700787402328
100
AcDbArc
 50
119.9973117337
 51
179.9999999999
  0
ARC
  5
873
330
5D7
100
AcDbEntity
  8
0
  6
Continuous
 62
     7
370
    25
100
AcDbCircle
 10
-46.6300731688
 20
37.4482538822
 30
0.0
 40
0.0393700787400953
100
AcDbArc
 50
60.0026882663
 51
119.9973117337
  0
ARC
  5
874
330
5D7
100
AcDbEntity
  8
0
  6
Continuous
 62
     7
370
    25
100
AcDbCircle
 10
-20.0602793707
 20
21.3838848957
 30
0.0
 40
0.0393700787401698
100
AcDbArc
 50
119.9973117337
 51
180.0
  0
ARC
  5
875
330
5D7
100
AcDbEntity
  8
0
  6
Continuous
 62
     7
370
    25
100
AcDbCircle
 10
-7.0432289622
 20
28.3841953178
 30
0.0
 40
0.039370078740169
100
AcDbArc
 50
0.0
 51
60.0026882663
  0
ARC
  5
876
330
5D7
100
AcDbEntity
  8
0
  6
Continuous
 62
     7
370
    25
100
AcDbCircle
 10
-7.4886505567
 20
28.641331731
 30
0.0
 40
0.0393700787401634
100
AcDbArc
 50
60.0026882664
 51
119.9973117337
  0
ARC
  5
877
330
5D7
100
AcDbEntity
  8
0
  6
Continuous
 62
     7
370
    25
100
AcDbCircle
 10
-20.0602793707
 20
4.4101231368
 30
0.0
 40
0.0393700787401592
100
AcDbArc
 50
180.0
 51
270.0
  0
ARC
  5
878
330
5D7
100
AcDbEntity
  8
0
  6
Continuous
 62
     7
370
    25
100
AcDbCircle
 10
7.5836983347
 20
5.9396290796
 30
0.0
 40
0.0393700787401744
100
AcDbArc
 50
119.9973117337
 51
180.0
  0
ARC
  5
879
330
5D7
100
AcDbEntity
  8
0
  6
Continuous
 62
     7
370
    25
100
AcDbCircle
 10
20.1553271488
 20
12.6828030885
 30
0.0
 40
0.039370078740153
100
AcDbArc
 50
360.0
 51
60.0026882664
  0
ARC
  5
87A
330
5D7
100
AcDbEntity
  8
0
  6
Continuous
 62
     7
370
    25
100
AcDbCircle
 10
19.7099055543
 20
12.9399395017
 30
0.0
 40
0.0393700787401658
100
AcDbArc
 50
60.0026882664
 51
119.9973117336
  0
ARC
  5
87B
330
5D7
100
AcDbEntity
  8
0
  6
Continuous
 62
     7
370
    25
100
AcDbCircle
 10
7.5836983347
 20
-11.5484055057
 30
0.0
 40
0.039370078740161
100
AcDbArc
 50
180.0
 51
299.9973117336
  0
ARC
  5
87C
330
5D7
100
AcDbEntity
  8
0
  6
Continuous
 62
     7
370
    25
100
AcDbCircle
 10
20.1553271488
 20
-4.2909586704
 30
0.0
 40
0.0393700787401566
100
AcDbArc
 50
299.9973117337
 51
0.0
  0
ARC
  5
87D
330
5D7
100
AcDbEntity
  8
0
  6
Continuous
 62
     7
370
    25
100
AcDbCircle
 10
7.544328256
 20
-10.9925764387
 30
0.0
 40
0.0393700787402231
100
AcDbArc
 50
240.0026882664
 51
270.0
  0
ARC
  5
87E
330
5D7
100
AcDbEntity
  8
0
  6
Continuous
 62
     7
370
    25
100
AcDbCircle
 10
7.544328256
 20
-4.8845939876
 30
0.0
 40
0.0393700787401636
100
AcDbArc
 50
240.0026882663
 51
270.0
  0
ARC
  5
87F
330
5D7
100
AcDbEntity
  8
0
  6
Continuous
 62
     7
370
    25
100
AcDbCircle
 10
7.7113613539
 20
6.0776114751
 30
0.0
 40
0.0393700787401487
100
AcDbArc
 50
5.5347458071
 51
60.0026882663
  0
ARC
  5
880
330
5D7
100
AcDbEntity
  8
0
  6
Continuous
 62
     7
370
    25
100
AcDbCircle
 10
7.544328256
 20
2.8307522664
 30
0.0
 40
0.039370078740136
100
AcDbArc
 50
240.0026882663
 51
270.0
  0
ARC
  5
881
330
5D7
100
AcDbEntity
  8
0
  6
Continuous
 62
     7
370
    25
100
AcDbCircle
 10
-19.097450862
 20
21.3611570331
 30
0.0
 40
0.039370078740177
100
AcDbArc
 50
119.9973117337
 51
180.0
  0
ARC
  5
882
330
5D7
100
AcDbEntity
  8
0
  6
Continuous
 62
     7
370
    25
100
AcDbCircle
 10
-18.930417764
 20
21.457583188
 30
0.0
 40
0.0393700787401458
100
AcDbArc
 50
60.0026882663
 51
119.9973117337
  0
ARC
  5
883
330
5D7
100
AcDbEntity
  8
0
  6
Continuous
 62
     7
370
    25
100
AcDbCircle
 10
7.4492804779
 20
-11.516263454
 30
0.0
 40
0.0393700787401603
100
AcDbArc
 50
240.0026882664
 51
360.0
  0
ARC
  5
884
330
5D7
100
AcDbEntity
  8
0
  6
Continuous
 62
     7
370
    25
100
AcDbCircle
 10
-20.0046016714
 20
4.3325253598
 30
0.0
 40
0.0393700787401806
100
AcDbArc
 50
180.0
 51
240.0026882663
  0
ARC
  5
885
330
5D7
100
AcDbEntity
  8
0
  6
Continuous
 62
     7
370
    25
100
AcDbCircle
 10
-20.2503749268
 20
13.0577299478
 30
0.0
 40
0.0393700787401601
100
AcDbArc
 50
240.0026882663
 51
360.0
  0
ARC
  5
886
330
5D7
100
AcDbEntity
  8
0
  6
Continuous
 62
     7
370
    25
100
AcDbCircle
 10
-47.7042570762
 20
28.9065187616
 30
0.0
 40
0.0393700787401201
100
AcDbArc
 50
180.0
 51
240.0026882664
  0
ARC
  5
887
330
5D7
100
AcDbEntity
  8
0
  6
Continuous
 62
     7
370
    25
100
AcDbCircle
 10
-20.2503749268
 20
4.4744072401
 30
0.0
 40
0.0393700787401594
100
AcDbArc
 50
240.0026882663
 51
0.0
  0
ARC
  5
888
330
5D7
100
AcDbEntity
  8
0
  6
Continuous
 62
     7
370
    25
100
AcDbCircle
 10
-47.7042570762
 20
20.323196054
 30
0.0
 40
0.0393700787401201
100
AcDbArc
 50
180.0
 51
240.0026882664
  0
ARC
  5
889
330
5D7
100
AcDbEntity
  8
0
  6
Continuous
 62
     7
370
    25
100
AcDbCircle
 10
-46.8679573213
 20
37.408623602
 30
0.0
 40
0.0568071998464834
100
AcDbArc
 50
268.8559032541
 51
298.0402391154
  0
ARC
  5
88A
330
5D7
100
AcDbEntity
  8
0
  6
Continuous
 62
     7
370
    25
100
AcDbCircle
 10
-46.9016943157
 20
37.3557341368
 30
0.0
 40
0.060504126282411
100
AcDbArc
 50
2.6054784857
 51
57.39452166
  0
ARC
  5
88B
330
5D7
100
AcDbEntity
  8
0
  6
Continuous
 62
     7
370
    25
100
AcDbCircle
 10
-34.7754870961
 20
44.3560445589
 30
0.0
 40
0.0605041262823918
100
AcDbArc
 50
2.6054784857
 51
57.39452166
  0
ARC
  5
88C
330
5D7
100
AcDbEntity
  8
0
  6
Continuous
 62
     7
370
    25
100
AcDbCircle
 10
-20.119237199
 20
21.4120098439
 30
0.0
 40
0.0363128296282934
100
AcDbArc
 50
84.8174221345
 51
173.6486598635
  0
ARC
  5
88D
330
5D7
100
AcDbEntity
  8
0
  6
Continuous
 62
     7
370
    25
100
AcDbCircle
 10
-20.119237199
 20
21.9262826702
 30
0.0
 40
0.0363128296282989
100
AcDbArc
 50
84.8174221345
 51
173.6486598634
  0
ARC
  5
88E
330
5D7
100
AcDbEntity
  8
0
  6
Continuous
 62
     7
370
    25
100
AcDbCircle
 10
-20.1227244196
 20
5.4936292193
 30
0.0
 40
0.0605041262823523
100
AcDbArc
 50
122.60547834
 51
177.3945215144
  0
ARC
  5
88F
330
5D7
100
AcDbEntity
  8
0
  6
Continuous
 62
     7
370
    25
100
AcDbCircle
 10
-20.1227244196
 20
13.5947427861
 30
0.0
 40
0.060504126282367
100
AcDbArc
 50
122.60547834
 51
177.3945215143
  0
ARC
  5
890
330
5D7
100
AcDbEntity
  8
0
  6
Continuous
 62
     7
370
    25
100
AcDbCircle
 10
-20.1227244196
 20
21.9530345613
 30
0.0
 40
0.0605041262823597
100
AcDbArc
 50
122.60547834
 51
177.3945215144
  0
ARC
  5
891
330
5D7
100
AcDbEntity
  8
0
  6
Continuous
 62
     7
370
    25
100
AcDbCircle
 10
-46.7645035376
 20
37.3330062741
 30
0.0
 40
0.0605041262824178
100
AcDbArc
 50
122.6054783401
 51
177.3945215143
  0
ARC
  5
892
330
5D7
100
AcDbEntity
  8
0
  6
Continuous
 62
     7
370
    25
100
AcDbCircle
 10
-19.1683019166
 20
21.4179529079
 30
0.0
 40
0.0568071998466562
100
AcDbArc
 50
268.8559032542
 51
298.0402391154
  0
ARC
  5
893
330
5D7
100
AcDbEntity
  8
0
  6
Continuous
 62
     7
370
    25
100
AcDbCircle
 10
-19.202038911
 20
21.3650634427
 30
0.0
 40
0.0605041262823457
100
AcDbArc
 50
2.6054784856
 51
57.39452166
  0
ARC
  5
894
330
5D7
100
AcDbEntity
  8
0
  6
Continuous
 62
     7
370
    25
100
AcDbCircle
 10
-7.0758316914
 20
28.3653738647
 30
0.0
 40
0.0605041262823705
100
AcDbArc
 50
2.6054784857
 51
57.39452166
  0
ARC
  5
895
330
5D7
100
AcDbEntity
  8
0
  6
Continuous
 62
     7
370
    25
100
AcDbCircle
 10
7.5804182057
 20
5.4213391497
 30
0.0
 40
0.0363128296283046
100
AcDbArc
 50
84.8174221345
 51
173.6486598634
  0
ARC
  5
896
330
5D7
100
AcDbEntity
  8
0
  6
Continuous
 62
     7
370
    25
100
AcDbCircle
 10
7.5510956056
 20
5.4065348001
 30
0.0
 40
0.0605041262823688
100
AcDbArc
 50
2.6054784857
 51
57.39452166
  0
ARC
  5
897
330
5D7
100
AcDbEntity
  8
0
  6
Continuous
 62
     7
370
    25
100
AcDbCircle
 10
20.1227244196
 20
12.6639816354
 30
0.0
 40
0.0605041262823852
100
AcDbArc
 50
2.6054784857
 51
57.39452166
  0
ARC
  5
898
330
5D7
100
AcDbEntity
  8
0
  6
Continuous
 62
     7
370
    25
100
AcDbCircle
 10
7.5804182057
 20
5.935611976
 30
0.0
 40
0.0363128296283035
100
AcDbArc
 50
84.8174221345
 51
173.6486598634
  0
ARC
  5
899
330
5D7
100
AcDbEntity
  8
0
  6
Continuous
 62
     7
370
    25
100
AcDbCircle
 10
7.5769309851
 20
-10.4970414749
 30
0.0
 40
0.0605041262823754
100
AcDbArc
 50
122.60547834
 51
177.3945215143
  0
ARC
  5
89A
330
5D7
100
AcDbEntity
  8
0
  6
Continuous
 62
     7
370
    25
100
AcDbCircle
 10
7.5769309851
 20
-2.3959279081
 30
0.0
 40
0.0605041262823763
100
AcDbArc
 50
122.60547834
 51
177.3945215143
  0
ARC
  5
89B
330
5D7
100
AcDbEntity
  8
0
  6
Continuous
 62
     7
370
    25
100
AcDbCircle
 10
7.5769309851
 20
5.9623638671
 30
0.0
 40
0.060504126282364
100
AcDbArc
 50
122.60547834
 51
177.3945215143
  0
ARC
  5
89C
330
5D7
100
AcDbEntity
  8
0
  6
Continuous
 62
     7
370
    25
100
AcDbCircle
 10
-19.0648481328
 20
21.34233558
 30
0.0
 40
0.0605041262823597
100
AcDbArc
 50
122.60547834
 51
177.3945215144
  0
ARC
  5
89D
330
5D7
100
AcDbEntity
  8
0
  6
Continuous
 62
     8
370
    25
100
AcDbCircle
 10
7.4406776255
 20
-2.9511662439
 30
0.0
 40
0.0193562738972896
100
AcDbArc
 50
173.6093872136
 51
235.078432393
  0
ARC
  5
89E
330
5D7
100
AcDbEntity
  8
0
  6
Continuous
 62
     8
370
    25
100
AcDbCircle
 10
-20.0132045238
 20
12.89762257
 30
0.0
 40
0.0193562738973156
100
AcDbArc
 50
173.6093872137
 51
235.078432393
  0
ARC
  5
89F
330
5D7
100
AcDbEntity
  8
0
  6
Continuous
 62
     8
370
    25
100
AcDbCircle
 10
-20.0246916924
 20
12.917509393
 30
0.0
 40
0.0193515019934024
100
AcDbArc
 50
184.9249021695
 51
246.3952387881
  0
ARC
  5
8A0
330
5D7
100
AcDbEntity
  8
0
  6
Continuous
 62
     8
370
    25
100
AcDbCircle
 10
-47.7714670611
 20
37.3906051758
 30
0.0
 40
0.0198022533819925
100
AcDbArc
 50
54.3824225249
 51
114.307119046
  0
ARC
  5
8A1
330
5D7
100
AcDbEntity
  8
0
  6
Continuous
 62
     8
370
    25
100
AcDbCircle
 10
-35.199838247
 20
44.6480520111
 30
0.0
 40
0.0198022533819825
100
AcDbArc
 50
54.3824225249
 51
114.3071190461
  0
ARC
  5
8A2
330
5D7
100
AcDbEntity
  8
0
  6
Continuous
 62
     8
370
    25
100
AcDbCircle
 10
-34.7232173222
 20
44.37683083
 30
0.0
 40
0.019800758995833
100
AcDbArc
 50
294.3746582936
 51
354.3052007488
  0
ARC
  5
8A3
330
5D7
100
AcDbEntity
  8
0
  6
Continuous
 62
     8
370
    25
100
AcDbCircle
 10
-34.7313520813
 20
44.3909155979
 30
0.0
 40
0.0198022533819666
100
AcDbArc
 50
65.6928809539
 51
125.6175774752
  0
ARC
  5
8A4
330
5D7
100
AcDbEntity
  8
0
  6
Continuous
 62
     8
370
    25
100
AcDbCircle
 10
-35.1767736758
 20
44.6480520111
 30
0.0
 40
0.0198022533819789
100
AcDbArc
 50
65.6928809539
 51
125.6175774751
  0
ARC
  5
8A5
330
5D7
100
AcDbEntity
  8
0
  6
Continuous
 62
     8
370
    25
100
AcDbCircle
 10
-20.1489125349
 20
21.3968050156
 30
0.0
 40
0.0610316162214153
100
AcDbArc
 50
12.8432761595
 51
57.3181546134
  0
ARC
  5
8A6
330
5D7
100
AcDbEntity
  8
0
  6
Continuous
 62
     8
370
    25
100
AcDbCircle
 10
-7.5772762932
 20
28.6542878433
 30
0.0
 40
0.0609973126905085
100
AcDbArc
 50
14.6347164038
 51
57.305771306
  0
ARC
  5
8A7
330
5D7
100
AcDbEntity
  8
0
  6
Continuous
 62
     8
370
    25
100
AcDbCircle
 10
-20.1274893557
 20
21.9463493597
 30
0.0
 40
0.0198022533819501
100
AcDbArc
 50
54.3824225248
 51
114.3071190461
  0
ARC
  5
8A8
330
5D7
100
AcDbEntity
  8
0
  6
Continuous
 62
     8
370
    25
100
AcDbCircle
 10
-8.001282136
 20
28.9466597818
 30
0.0
 40
0.0198022533819739
100
AcDbArc
 50
54.3824225248
 51
114.3071190461
  0
ARC
  5
8A9
330
5D7
100
AcDbEntity
  8
0
  6
Continuous
 62
     8
370
    25
100
AcDbCircle
 10
-7.5327959703
 20
28.6895233686
 30
0.0
 40
0.0198022533819872
100
AcDbArc
 50
65.692880954
 51
125.6175774752
  0
ARC
  5
8AA
330
5D7
100
AcDbEntity
  8
0
  6
Continuous
 62
     8
370
    25
100
AcDbCircle
 10
-7.9782175648
 20
28.9466597818
 30
0.0
 40
0.0198022533819756
100
AcDbArc
 50
65.6928809539
 51
125.6175774752
  0
ARC
  5
8AB
330
5D7
100
AcDbEntity
  8
0
  6
Continuous
 62
     8
370
    25
100
AcDbCircle
 10
-20.1564614141
 20
5.5465186845
 30
0.0
 40
0.0568071998465636
100
AcDbArc
 50
241.9597608846
 51
271.1440967458
  0
ARC
  5
8AC
330
5D7
100
AcDbEntity
  8
0
  6
Continuous
 62
     8
370
    25
100
AcDbCircle
 10
-20.1564614141
 20
5.0321622676
 30
0.0
 40
0.0568071998465256
100
AcDbArc
 50
241.9597608846
 51
271.1440967458
  0
ARC
  5
8AD
330
5D7
100
AcDbEntity
  8
0
  6
Continuous
 62
     8
370
    25
100
AcDbCircle
 10
-20.163874585
 20
4.9798938305
 30
0.0
 40
0.0194085799256404
100
AcDbArc
 50
173.7011524891
 51
234.9866671175
  0
ARC
  5
8AE
330
5D7
100
AcDbEntity
  8
0
  6
Continuous
 62
     8
370
    25
100
AcDbCircle
 10
-20.1564614141
 20
13.6476322513
 30
0.0
 40
0.0568071998465388
100
AcDbArc
 50
241.9597608846
 51
271.1440967458
  0
ARC
  5
8AF
330
5D7
100
AcDbEntity
  8
0
  6
Continuous
 62
     8
370
    25
100
AcDbCircle
 10
-20.1564614141
 20
11.1401447187
 30
0.0
 40
0.056807199846538
100
AcDbArc
 50
241.9597608846
 51
271.1440967458
  0
ARC
  5
8B0
330
5D7
100
AcDbEntity
  8
0
  6
Continuous
 62
     8
370
    25
100
AcDbCircle
 10
-20.1644382206
 20
11.0876212702
 30
0.0
 40
0.0188789585178553
100
AcDbArc
 50
172.7441704337
 51
235.943649173
  0
ARC
  5
8B1
330
5D7
100
AcDbEntity
  8
0
  6
Continuous
 62
     8
370
    25
100
AcDbCircle
 10
-20.1892029701
 20
21.9519967363
 30
0.0
 40
0.0620665202662792
100
AcDbArc
 50
15.019743397
 51
56.9207443128
  0
ARC
  5
8B2
330
5D7
100
AcDbEntity
  8
0
  6
Continuous
 62
     8
370
    25
100
AcDbCircle
 10
-20.1557221066
 20
22.0084968006
 30
0.0
 40
0.059428127399354
100
AcDbArc
 50
242.4966996034
 51
275.1026363372
  0
ARC
  5
8B3
330
5D7
100
AcDbEntity
  8
0
  6
Continuous
 62
     8
370
    25
100
AcDbCircle
 10
-20.1564614141
 20
18.8554909727
 30
0.0
 40
0.0568071998464093
100
AcDbArc
 50
241.9597608846
 51
271.1440967459
  0
ARC
  5
8B4
330
5D7
100
AcDbEntity
  8
0
  6
Continuous
 62
     8
370
    25
100
AcDbCircle
 10
-20.0212420881
 20
22.04909623
 30
0.0
 40
0.0609973126905007
100
AcDbArc
 50
14.6347164038
 51
57.305771306
  0
ARC
  5
8B5
330
5D7
100
AcDbEntity
  8
0
  6
Continuous
 62
     8
370
    25
100
AcDbCircle
 10
-19.9767617652
 20
22.0843317552
 30
0.0
 40
0.0198022533819692
100
AcDbArc
 50
65.6928809539
 51
125.6175774752
  0
ARC
  5
8B6
330
5D7
100
AcDbEntity
  8
0
  6
Continuous
 62
     8
370
    25
100
AcDbCircle
 10
-46.6185408832
 20
37.4643034681
 30
0.0
 40
0.0198022533819666
100
AcDbArc
 50
65.6928809539
 51
125.6175774752
  0
ARC
  5
8B7
330
5D7
100
AcDbEntity
  8
0
  6
Continuous
 62
     8
370
    25
100
AcDbCircle
 10
-20.1644382207
 20
18.8029675242
 30
0.0
 40
0.018878958509891
100
AcDbArc
 50
172.7441704188
 51
235.9436491878
  0
ARC
  5
8B8
330
5D7
100
AcDbEntity
  8
0
  6
Continuous
 62
     8
370
    25
100
AcDbCircle
 10
-46.8167733115
 20
37.3537925452
 30
0.0
 40
0.0198007589957801
100
AcDbArc
 50
185.6947992511
 51
245.6253417065
  0
ARC
  5
8B9
330
5D7
100
AcDbEntity
  8
0
  6
Continuous
 62
     8
370
    25
100
AcDbCircle
 10
-46.8086385523
 20
37.3678773132
 30
0.0
 40
0.0198022533819758
100
AcDbArc
 50
54.3824225248
 51
114.3071190461
  0
ARC
  5
8BA
330
5D7
100
AcDbEntity
  8
0
  6
Continuous
 62
     8
370
    25
100
AcDbCircle
 10
-46.6416054544
 20
37.4643034681
 30
0.0
 40
0.0198022533819702
100
AcDbArc
 50
54.3824225248
 51
114.3071190461
  0
ARC
  5
8BB
330
5D7
100
AcDbEntity
  8
0
  6
Continuous
 62
     8
370
    25
100
AcDbCircle
 10
-20.0718116564
 20
21.3999344817
 30
0.0
 40
0.0198022533819411
100
AcDbArc
 50
54.3824225248
 51
114.3071190461
  0
ARC
  5
8BC
330
5D7
100
AcDbEntity
  8
0
  6
Continuous
 62
     8
370
    25
100
AcDbCircle
 10
-7.5001828423
 20
28.6573813169
 30
0.0
 40
0.019802253381971
100
AcDbArc
 50
54.3824225248
 51
114.3071190461
  0
ARC
  5
8BD
330
5D7
100
AcDbEntity
  8
0
  6
Continuous
 62
     8
370
    25
100
AcDbCircle
 10
-7.0235619174
 20
28.3861601358
 30
0.0
 40
0.0198007589958204
100
AcDbArc
 50
294.3746582936
 51
354.3052007488
  0
ARC
  5
8BE
330
5D7
100
AcDbEntity
  8
0
  6
Continuous
 62
     8
370
    25
100
AcDbCircle
 10
-7.0316966766
 20
28.4002449038
 30
0.0
 40
0.0198022533819702
100
AcDbArc
 50
65.6928809539
 51
125.6175774752
  0
ARC
  5
8BF
330
5D7
100
AcDbEntity
  8
0
  6
Continuous
 62
     8
370
    25
100
AcDbCircle
 10
-7.477118271
 20
28.6573813169
 30
0.0
 40
0.0198022533819726
100
AcDbArc
 50
65.6928809539
 51
125.6175774752
  0
ARC
  5
8C0
330
5D7
100
AcDbEntity
  8
0
  6
Continuous
 62
     8
370
    25
100
AcDbCircle
 10
7.5721660491
 20
5.9556786655
 30
0.0
 40
0.0198022533819743
100
AcDbArc
 50
54.3824225248
 51
114.3071190461
  0
ARC
  5
8C1
330
5D7
100
AcDbEntity
  8
0
  6
Continuous
 62
     8
370
    25
100
AcDbCircle
 10
19.6983732687
 20
12.9559890876
 30
0.0
 40
0.0198022533819706
100
AcDbArc
 50
54.3824225248
 51
114.3071190461
  0
ARC
  5
8C2
330
5D7
100
AcDbEntity
  8
0
  6
Continuous
 62
     8
370
    25
100
AcDbCircle
 10
20.1668594344
 20
12.6988526744
 30
0.0
 40
0.0198022533819616
100
AcDbArc
 50
65.6928809539
 51
125.6175774752
  0
ARC
  5
8C3
330
5D7
100
AcDbEntity
  8
0
  6
Continuous
 62
     8
370
    25
100
AcDbCircle
 10
20.1749941936
 20
12.6847679065
 30
0.0
 40
0.0198007589958098
100
AcDbArc
 50
294.3746582936
 51
354.3052007488
  0
ARC
  5
8C4
330
5D7
100
AcDbEntity
  8
0
  6
Continuous
 62
     8
370
    25
100
AcDbCircle
 10
20.1749941936
 20
-4.2889938524
 30
0.0
 40
0.019800758995809
100
AcDbArc
 50
294.3746582936
 51
354.3052007488
  0
ARC
  5
8C5
330
5D7
100
AcDbEntity
  8
0
  6
Continuous
 62
     8
370
    25
100
AcDbCircle
 10
19.72143784
 20
12.9559890876
 30
0.0
 40
0.0198022533819779
100
AcDbArc
 50
65.6928809539
 51
125.6175774752
  0
ARC
  5
8C6
330
5D7
100
AcDbEntity
  8
0
  6
Continuous
 62
     8
370
    25
100
AcDbCircle
 10
7.5922457709
 20
-11.5666059306
 30
0.0
 40
0.0194085799236583
100
AcDbArc
 50
305.013332879
 51
6.2988475144
  0
ARC
  5
8C7
330
5D7
100
AcDbEntity
  8
0
  6
Continuous
 62
     8
370
    25
100
AcDbCircle
 10
20.163874585
 20
-4.3091590953
 30
0.0
 40
0.0194085799256536
100
AcDbArc
 50
305.0133328825
 51
6.2988475109
  0
ARC
  5
8C8
330
5D7
100
AcDbEntity
  8
0
  6
Continuous
 62
     8
370
    25
100
AcDbCircle
 10
7.5431939907
 20
-10.4441520096
 30
0.0
 40
0.0568071998464725
100
AcDbArc
 50
241.9597608846
 51
271.1440967458
  0
ARC
  5
8C9
330
5D7
100
AcDbEntity
  8
0
  6
Continuous
 62
     8
370
    25
100
AcDbCircle
 10
7.5431939907
 20
-10.9585084266
 30
0.0
 40
0.0568071998464692
100
AcDbArc
 50
241.9597608846
 51
271.1440967459
  0
ARC
  5
8CA
330
5D7
100
AcDbEntity
  8
0
  6
Continuous
 62
     8
370
    25
100
AcDbCircle
 10
7.5357808198
 20
-11.0107768636
 30
0.0
 40
0.0194085799236567
100
AcDbArc
 50
173.7011524856
 51
234.986667121
  0
ARC
  5
8CB
330
5D7
100
AcDbEntity
  8
0
  6
Continuous
 62
     8
370
    25
100
AcDbCircle
 10
7.5431939907
 20
-2.3430384429
 30
0.0
 40
0.0568071998465451
100
AcDbArc
 50
241.9597608846
 51
271.1440967458
  0
ARC
  5
8CC
330
5D7
100
AcDbEntity
  8
0
  6
Continuous
 62
     8
370
    25
100
AcDbCircle
 10
7.5431939907
 20
-4.8505259755
 30
0.0
 40
0.0568071998466074
100
AcDbArc
 50
241.9597608846
 51
271.1440967458
  0
ARC
  5
8CD
330
5D7
100
AcDbEntity
  8
0
  6
Continuous
 62
     8
370
    25
100
AcDbCircle
 10
7.5352171841
 20
-4.903049424
 30
0.0
 40
0.0188789585193062
100
AcDbArc
 50
172.7441704364
 51
235.9436491703
  0
ARC
  5
8CE
330
5D7
100
AcDbEntity
  8
0
  6
Continuous
 62
     8
370
    25
100
AcDbCircle
 10
7.5104524346
 20
5.9613260422
 30
0.0
 40
0.0620665202659608
100
AcDbArc
 50
15.0197433969
 51
56.9207443129
  0
ARC
  5
8CF
330
5D7
100
AcDbEntity
  8
0
  6
Continuous
 62
     8
370
    25
100
AcDbCircle
 10
7.5439332981
 20
6.0178261064
 30
0.0
 40
0.0594281274014293
100
AcDbArc
 50
242.4966996037
 51
275.1026363462
  0
ARC
  5
8D0
330
5D7
100
AcDbEntity
  8
0
  6
Continuous
 62
     8
370
    25
100
AcDbCircle
 10
7.5431939907
 20
2.8648202786
 30
0.0
 40
0.0568071998464974
100
AcDbArc
 50
241.9597608846
 51
271.1440967458
  0
ARC
  5
8D1
330
5D7
100
AcDbEntity
  8
0
  6
Continuous
 62
     8
370
    25
100
AcDbCircle
 10
7.6784133167
 20
6.0584255358
 30
0.0
 40
0.0609973126905589
100
AcDbArc
 50
14.6347164039
 51
57.305771306
  0
ARC
  5
8D2
330
5D7
100
AcDbEntity
  8
0
  6
Continuous
 62
     8
370
    25
100
AcDbCircle
 10
7.7228936395
 20
6.093661061
 30
0.0
 40
0.0198022533819434
100
AcDbArc
 50
65.6928809539
 51
125.6175774752
  0
ARC
  5
8D3
330
5D7
100
AcDbEntity
  8
0
  6
Continuous
 62
     8
370
    25
100
AcDbCircle
 10
-18.9188854784
 20
21.4736327739
 30
0.0
 40
0.0198022533819843
100
AcDbArc
 50
65.6928809539
 51
125.6175774752
  0
ARC
  5
8D4
330
5D7
100
AcDbEntity
  8
0
  6
Continuous
 62
     8
370
    25
100
AcDbCircle
 10
7.5352171841
 20
2.81229683
 30
0.0
 40
0.0188789585093711
100
AcDbArc
 50
172.7441704178
 51
235.9436491888
  0
ARC
  5
8D5
330
5D7
100
AcDbEntity
  8
0
  6
Continuous
 62
     8
370
    25
100
AcDbCircle
 10
-19.1171179068
 20
21.363121851
 30
0.0
 40
0.0198007589958197
100
AcDbArc
 50
185.6947992512
 51
245.6253417064
  0
ARC
  5
8D6
330
5D7
100
AcDbEntity
  8
0
  6
Continuous
 62
     8
370
    25
100
AcDbCircle
 10
-19.1089831476
 20
21.377206619
 30
0.0
 40
0.0198022533819828
100
AcDbArc
 50
54.3824225248
 51
114.3071190461
  0
ARC
  5
8D7
330
5D7
100
AcDbEntity
  8
0
  6
Continuous
 62
     8
370
    25
100
AcDbCircle
 10
-18.9419500497
 20
21.4736327739
 30
0.0
 40
0.0198022533819692
100
AcDbArc
 50
54.3824225248
 51
114.3071190461
  0
ARC
  5
8D8
330
5D7
100
AcDbEntity
  8
0
  6
Continuous
 62
     8
370
    25
100
AcDbCircle
 10
7.4406776255
 20
-11.5344889515
 30
0.0
 40
0.019356273897309
100
AcDbArc
 50
173.6093872137
 51
235.078432393
  0
ARC
  5
8D9
330
5D7
100
AcDbEntity
  8
0
  6
Continuous
 62
     8
370
    25
100
AcDbCircle
 10
-20.0132045238
 20
4.3142998624
 30
0.0
 40
0.0193562738973191
100
AcDbArc
 50
173.6093872137
 51
235.0784323929
  0
ARC
  5
8DA
330
5D7
100
AcDbEntity
  8
0
  6
Continuous
 62
     8
370
    25
100
AcDbCircle
 10
-20.0246916924
 20
4.3341866853
 30
0.0
 40
0.0193515019934085
100
AcDbArc
 50
184.9249021695
 51
246.3952387881
  0
ARC
  5
8DB
330
5D7
100
AcDbEntity
  8
0
  6
Continuous
 62
     8
370
    25
100
AcDbCircle
 10
-20.2589777792
 20
13.0395044503
 30
0.0
 40
0.0193562738972767
100
AcDbArc
 50
173.6093872136
 51
235.078432393
  0
ARC
  5
8DC
330
5D7
100
AcDbEntity
  8
0
  6
Continuous
 62
     8
370
    25
100
AcDbCircle
 10
-47.7128599286
 20
28.8882932642
 30
0.0
 40
0.0193562738973219
100
AcDbArc
 50
173.6093872137
 51
235.078432393
  0
ARC
  5
8DD
330
5D7
100
AcDbEntity
  8
0
  6
Continuous
 62
     8
370
    25
100
AcDbCircle
 10
-47.7243470972
 20
28.9081800871
 30
0.0
 40
0.0193515019933668
100
AcDbArc
 50
184.9249021694
 51
246.3952387882
  0
ARC
  5
8DE
330
5D7
100
AcDbEntity
  8
0
  6
Continuous
 62
     8
370
    25
100
AcDbCircle
 10
-20.2589777792
 20
4.4561817427
 30
0.0
 40
0.0193562738972927
100
AcDbArc
 50
173.6093872136
 51
235.078432393
  0
ARC
  5
8DF
330
5D7
100
AcDbEntity
  8
0
  6
Continuous
 62
     8
370
    25
100
AcDbCircle
 10
-47.7128599286
 20
20.3049705566
 30
0.0
 40
0.0193562738973219
100
AcDbArc
 50
173.6093872137
 51
235.078432393
  0
ARC
  5
8E0
330
5D7
100
AcDbEntity
  8
0
  6
Continuous
 62
     8
370
    25
100
AcDbCircle
 10
-47.7243470972
 20
20.3248573795
 30
0.0
 40
0.0193515019933668
100
AcDbArc
 50
184.9249021694
 51
246.3952387882
  0
VIEWPORT
  5
8E7
330
5D7
100
AcDbEntity
  8
0
100
AcDbViewport
 10
0.0
 20
0.0
 30
0.0
 40
8.4
 41
6.4
 68
     1
 69
     1
 12
-19.5866141732
 22
10.4330708661
 13
0.0
 23
0.0
 14
0.5
 24
0.5
 15
0.5
 25
0.5
 16
0.0
 26
0.0
 36
1.0
 17
0.0
 27
0.0
 37
0.0
 42
50.0
 43
0.0
 44
0.0
 45
60.8863892013
 50
0.0
 51
0.0
 72
   100
 90
   557152
  1

281
     0
 71
     1
 74
     0
110
0.0
120
0.0
130
0.0
111
1.0
121
0.0
131
0.0
112
0.0
122
1.0
132
0.0
 79
     0
146
0.0
  0
ENDBLK
  5
5DA
330
5D7
100
AcDbEntity
  8
0
100
AcDbBlockEnd
  0
ENDSEC
  0
SECTION
  2
ENTITIES
  0
LINE
  5
117
330
1F
100
AcDbEntity
  8
0
  6
Continuous
 62
     7
370
    25
100
AcDbLine
 10
-19.4128262377
 20
10.5118110236
 30
0.0
 11
19.4128262377
 21
10.5118110236
 31
0.0
  0
LINE
  5
118
330
1F
100
AcDbEntity
  8
0
  6
Continuous
 62
     7
370
    25
100
AcDbLine
 10
19.4521963164
 20
10.5511811024
 30
0.0
 11
19.4521963164
 21
19.1799831841
 31
0.0
  0
LINE
  5
119
330
1F
100
AcDbEntity
  8
0
  6
Continuous
 62
     7
370
    25
100
AcDbLine
 10
-19.4521963164
 20
19.1799831841
 30
0.0
 11
-19.4521963164
 21
10.5511811024
 31
0.0
  0
LINE
  5
11A
330
1F
100
AcDbEntity
  8
0
  6
Continuous
 62
     7
370
    25
100
AcDbLine
 10
19.4521963164
 20
19.1799831841
 30
0.0
 11
-19.4521963164
 21
19.1799831841
 31
0.0
  0
LINE
  5
11B
330
1F
100
AcDbEntity
  8
0
  6
Continuous
 62
     7
370
    25
100
AcDbLine
 10
-19.5472440945
 20
0.0
 30
0.0
 11
19.5472440945
 21
0.0
 31
0.0
  0
LINE
  5
11C
330
1F
100
AcDbEntity
  8
0
  6
Continuous
 62
     7
370
    25
100
AcDbLine
 10
-19.4521963164
 20
8.6681721604
 30
0.0
 11
-19.4521963164
 21
0.0393700787
 31
0.0
  0
LINE
  5
11D
330
1F
100
AcDbEntity
  8
0
  6
Continuous
 62
     7
370
    25
100
AcDbLine
 10
19.4521963164
 20
0.0393700787
 30
0.0
 11
19.4521963164
 21
8.6681721604
 31
0.0
  0
LINE
  5
11E
330
1F
100
AcDbEntity
  8
0
  6
Continuous
 62
     7
370
    25
100
AcDbLine
 10
19.4521963164
 20
8.6681721604
 30
0.0
 11
-19.4521963164
 21
8.6681721604
 31
0.0
  0
LINE
  5
11F
330
1F
100
AcDbEntity
  8
0
  6
Continuous
 62
     7
370
    25
100
AcDbLine
 10
-58.5860545842
 20
10.5118110236
 30
0.0
 11
-19.7604021088
 21
10.5118110236
 31
0.0
  0
LINE
  5
120
330
1F
100
AcDbEntity
  8
0
  6
Continuous
 62
     7
370
    25
100
AcDbLine
 10
-58.6254246629
 20
19.1799831841
 30
0.0
 11
-58.6254246629
 21
10.5511811024
 31
0.0
  0
LINE
  5
121
330
1F
100
AcDbEntity
  8
0
  6
Continuous
 62
     7
370
    25
100
AcDbLine
 10
-19.72103203
 20
10.5511811024
 30
0.0
 11
-19.72103203
 21
19.1799831841
 31
0.0
  0
LINE
  5
122
330
1F
100
AcDbEntity
  8
0
  6
Continuous
 62
     7
370
    25
100
AcDbLine
 10
-19.72103203
 20
19.1799831841
 30
0.0
 11
-58.6254246629
 21
19.1799831841
 31
0.0
  0
LINE
  5
123
330
1F
100
AcDbEntity
  8
0
  6
Continuous
 62
     7
370
    25
100
AcDbLine
 10
-58.7204724409
 20
0.0
 30
0.0
 11
-19.625984252
 21
0.0
 31
0.0
  0
LINE
  5
124
330
1F
100
AcDbEntity
  8
0
  6
Continuous
 62
     7
370
    25
100
AcDbLine
 10
-58.6254246629
 20
8.6681721604
 30
0.0
 11
-58.6254246629
 21
0.0393700787
 31
0.0
  0
LINE
  5
125
330
1F
100
AcDbEntity
  8
0
  6
Continuous
 62
     7
370
    25
100
AcDbLine
 10
-19.72103203
 20
8.6681721604
 30
0.0
 11
-58.6254246629
 21
8.6681721604
 31
0.0
  0
LINE
  5
126
330
1F
100
AcDbEntity
  8
0
  6
Continuous
 62
     7
370
    25
100
AcDbLine
 10
-19.72103203
 20
0.0393700787
 30
0.0
 11
-19.72103203
 21
8.6681721604
 31
0.0
  0
LINE
  5
127
330
1F
100
AcDbEntity
  8
0
  6
Continuous
 62
     7
370
    25
100
AcDbLine
 10
-19.4521963164
 20
10.5511811024
 30
0.0
 11
19.4521963164
 21
10.5511811024
 31
0.0
  0
LINE
  5
128
330
1F
100
AcDbEntity
  8
0
  6
Continuous
 62
     7
370
    25
100
AcDbLine
 10
19.4128262377
 20
19.1406131053
 30
0.0
 11
-19.4128262377
 21
19.1406131053
 31
0.0
  0
LINE
  5
129
330
1F
100
AcDbEntity
  8
0
  6
Continuous
 62
     7
370
    25
100
AcDbLine
 10
19.4128262377
 20
10.5118110236
 30
0.0
 11
19.4128262377
 21
19.1406131053
 31
0.0
  0
LINE
  5
12A
330
1F
100
AcDbEntity
  8
0
  6
Continuous
 62
     7
370
    25
100
AcDbLine
 10
-19.4128262377
 20
19.1406131053
 30
0.0
 11
-19.4128262377
 21
10.5118110236
 31
0.0
  0
LINE
  5
12B
330
1F
100
AcDbEntity
  8
0
  6
Continuous
 62
     7
370
    25
100
AcDbLine
 10
19.4128262377
 20
19.1406131053
 30
0.0
 11
19.4521963164
 21
19.1799831841
 31
0.0
  0
LINE
  5
12C
330
1F
100
AcDbEntity
  8
0
  6
Continuous
 62
     7
370
    25
100
AcDbLine
 10
-19.4128262377
 20
19.1406131053
 30
0.0
 11
-19.4521963164
 21
19.1799831841
 31
0.0
  0
LINE
  5
12D
330
1F
100
AcDbEntity
  8
0
  6
Continuous
 62
     7
370
    25
100
AcDbLine
 10
-58.6926335913
 20
20.8267716535
 30
0.0
 11
-58.6926335913
 21
0.0393700787
 31
0.0
  0
LINE
  5
12E
330
1F
100
AcDbEntity
  8
0
  6
Continuous
 62
     7
370
    25
100
AcDbLine
 10
-58.7598425197
 20
0.0393700787
 30
0.0
 11
-58.7598425197
 21
20.8267716535
 31
0.0
  0
LINE
  5
12F
330
1F
100
AcDbEntity
  8
0
  6
Continuous
 62
     7
370
    25
100
AcDbLine
 10
-58.7204724409
 20
20.8661417323
 30
0.0
 11
-58.0905511811
 21
20.8661417323
 31
0.0
  0
LINE
  5
130
330
1F
100
AcDbEntity
  8
0
  6
Continuous
 62
     7
370
    25
100
AcDbLine
 10
-58.0511811024
 20
20.8267716535
 30
0.0
 11
-58.0511811024
 21
19.1799831841
 31
0.0
  0
LINE
  5
131
330
1F
100
AcDbEntity
  8
0
  6
Continuous
 62
     7
370
    25
100
AcDbLine
 10
-58.0511811024
 20
10.5118110236
 30
0.0
 11
-58.0511811024
 21
8.6681721604
 31
0.0
  0
LINE
  5
132
330
1F
100
AcDbEntity
  8
0
  6
Continuous
 62
     7
370
    25
100
AcDbLine
 10
-19.5866141732
 20
0.0393700787
 30
0.0
 11
-19.5866141732
 21
20.8267716535
 31
0.0
  0
LINE
  5
133
330
1F
100
AcDbEntity
  8
0
  6
Continuous
 62
     7
370
    25
100
AcDbLine
 10
-19.6538231016
 20
0.0393700787
 30
0.0
 11
-19.6538231016
 21
20.8267716535
 31
0.0
  0
LINE
  5
134
330
1F
100
AcDbEntity
  8
0
  6
Continuous
 62
     7
370
    25
100
AcDbLine
 10
-20.2559055118
 20
20.8661417323
 30
0.0
 11
-19.625984252
 21
20.8661417323
 31
0.0
  0
LINE
  5
135
330
1F
100
AcDbEntity
  8
0
  6
Continuous
 62
     7
370
    25
100
AcDbLine
 10
-20.2952755906
 20
8.6681721604
 30
0.0
 11
-20.2952755906
 21
10.5118110236
 31
0.0
  0
LINE
  5
136
330
1F
100
AcDbEntity
  8
0
  6
Continuous
 62
     7
370
    25
100
AcDbLine
 10
-20.2952755906
 20
19.1799831841
 30
0.0
 11
-20.2952755906
 21
20.8267716535
 31
0.0
  0
LINE
  5
137
330
1F
100
AcDbEntity
  8
0
  6
Continuous
 62
     7
370
    25
100
AcDbLine
 10
-20.3346456693
 20
19.1799831841
 30
0.0
 11
-20.3346456693
 21
20.8661417323
 31
0.0
  0
LINE
  5
138
330
1F
100
AcDbEntity
  8
0
  6
Continuous
 62
     7
370
    25
100
AcDbLine
 10
-58.0118110236
 20
20.8661417323
 30
0.0
 11
-58.0118110236
 21
19.1799831841
 31
0.0
  0
LINE
  5
139
330
1F
100
AcDbEntity
  8
0
  6
Continuous
 62
     7
370
    25
100
AcDbLine
 10
-58.0118110236
 20
20.8661417323
 30
0.0
 11
-20.3346456693
 21
20.8661417323
 31
0.0
  0
LINE
  5
13A
330
1F
100
AcDbEntity
  8
0
  6
Continuous
 62
     7
370
    25
100
AcDbLine
 10
-19.5194052448
 20
20.8267716535
 30
0.0
 11
-19.5194052448
 21
0.0393700787
 31
0.0
  0
LINE
  5
13B
330
1F
100
AcDbEntity
  8
0
  6
Continuous
 62
     7
370
    25
100
AcDbLine
 10
-19.5472440945
 20
20.8661417323
 30
0.0
 11
-18.9173228346
 21
20.8661417323
 31
0.0
  0
LINE
  5
13C
330
1F
100
AcDbEntity
  8
0
  6
Continuous
 62
     7
370
    25
100
AcDbLine
 10
-18.8779527559
 20
20.8267716535
 30
0.0
 11
-18.8779527559
 21
19.1799831841
 31
0.0
  0
LINE
  5
13D
330
1F
100
AcDbEntity
  8
0
  6
Continuous
 62
     7
370
    25
100
AcDbLine
 10
-18.8779527559
 20
10.5118110236
 30
0.0
 11
-18.8779527559
 21
8.6681721604
 31
0.0
  0
LINE
  5
13E
330
1F
100
AcDbEntity
  8
0
  6
Continuous
 62
     7
370
    25
100
AcDbLine
 10
19.5866141732
 20
20.8267716535
 30
0.0
 11
19.5866141732
 21
0.0393700787
 31
0.0
  0
LINE
  5
13F
330
1F
100
AcDbEntity
  8
0
  6
Continuous
 62
     7
370
    25
100
AcDbLine
 10
19.5194052448
 20
0.0393700787
 30
0.0
 11
19.5194052448
 21
20.8267716535
 31
0.0
  0
LINE
  5
140
330
1F
100
AcDbEntity
  8
0
  6
Continuous
 62
     7
370
    25
100
AcDbLine
 10
18.9173228346
 20
20.8661417323
 30
0.0
 11
19.5472440945
 21
20.8661417323
 31
0.0
  0
LINE
  5
141
330
1F
100
AcDbEntity
  8
0
  6
Continuous
 62
     7
370
    25
100
AcDbLine
 10
18.8779527559
 20
8.6681721604
 30
0.0
 11
18.8779527559
 21
10.5118110236
 31
0.0
  0
LINE
  5
142
330
1F
100
AcDbEntity
  8
0
  6
Continuous
 62
     7
370
    25
100
AcDbLine
 10
18.8779527559
 20
19.1799831841
 30
0.0
 11
18.8779527559
 21
20.8267716535
 31
0.0
  0
LINE
  5
143
330
1F
100
AcDbEntity
  8
0
  6
Continuous
 62
     7
370
    25
100
AcDbLine
 10
19.5866141732
 20
20.8267716535
 30
0.0
 11
-58.7598425197
 21
20.8267716535
 31
0.0
  0
LINE
  5
144
330
1F
100
AcDbEntity
  8
0
  6
Continuous
 62
     7
370
    25
100
AcDbLine
 10
-18.8385826772
 20
20.8661417323
 30
0.0
 11
-18.8385826772
 21
19.1799831841
 31
0.0
  0
LINE
  5
145
330
1F
100
AcDbEntity
  8
0
  6
Continuous
 62
     7
370
    25
100
AcDbLine
 10
-18.8385826772
 20
20.8661417323
 30
0.0
 11
18.8385826772
 21
20.8661417323
 31
0.0
  0
LINE
  5
146
330
1F
100
AcDbEntity
  8
0
  6
Continuous
 62
     7
370
    25
100
AcDbLine
 10
18.8385826772
 20
19.1799831841
 30
0.0
 11
18.8385826772
 21
20.8661417323
 31
0.0
  0
LINE
  5
147
330
1F
100
AcDbEntity
  8
0
  6
Continuous
 62
     7
370
    25
100
AcDbLine
 10
-19.4128262377
 20
8.6288020817
 30
0.0
 11
-19.4521963164
 21
8.6681721604
 31
0.0
  0
LINE
  5
148
330
1F
100
AcDbEntity
  8
0
  6
Continuous
 62
     7
370
    25
100
AcDbLine
 10
-19.4128262377
 20
8.6288020817
 30
0.0
 11
-19.4128262377
 21
0.0
 31
0.0
  0
LINE
  5
149
330
1F
100
AcDbEntity
  8
0
  6
Continuous
 62
     7
370
    25
100
AcDbLine
 10
19.4128262377
 20
8.6288020817
 30
0.0
 11
-19.4128262377
 21
8.6288020817
 31
0.0
  0
LINE
  5
14A
330
1F
100
AcDbEntity
  8
0
  6
Continuous
 62
     7
370
    25
100
AcDbLine
 10
19.4128262377
 20
0.0
 30
0.0
 11
19.4128262377
 21
8.6288020817
 31
0.0
  0
LINE
  5
14B
330
1F
100
AcDbEntity
  8
0
  6
Continuous
 62
     7
370
    25
100
AcDbLine
 10
19.4128262377
 20
8.6288020817
 30
0.0
 11
19.4521963164
 21
8.6681721604
 31
0.0
  0
LINE
  5
14C
330
1F
100
AcDbEntity
  8
0
  6
Continuous
 62
     7
370
    25
100
AcDbLine
 10
-58.6254246629
 20
10.5511811024
 30
0.0
 11
-19.72103203
 21
10.5511811024
 31
0.0
  0
LINE
  5
14D
330
1F
100
AcDbEntity
  8
0
  6
Continuous
 62
     7
370
    25
100
AcDbLine
 10
-58.5860545842
 20
19.1406131053
 30
0.0
 11
-58.6254246629
 21
19.1799831841
 31
0.0
  0
LINE
  5
14E
330
1F
100
AcDbEntity
  8
0
  6
Continuous
 62
     7
370
    25
100
AcDbLine
 10
-58.5860545842
 20
19.1406131053
 30
0.0
 11
-58.5860545842
 21
10.5118110236
 31
0.0
  0
LINE
  5
14F
330
1F
100
AcDbEntity
  8
0
  6
Continuous
 62
     7
370
    25
100
AcDbLine
 10
-19.7604021088
 20
19.1406131053
 30
0.0
 11
-19.72103203
 21
19.1799831841
 31
0.0
  0
LINE
  5
150
330
1F
100
AcDbEntity
  8
0
  6
Continuous
 62
     7
370
    25
100
AcDbLine
 10
-19.7604021088
 20
10.5118110236
 30
0.0
 11
-19.7604021088
 21
19.1406131053
 31
0.0
  0
LINE
  5
151
330
1F
100
AcDbEntity
  8
0
  6
Continuous
 62
     7
370
    25
100
AcDbLine
 10
-19.7604021088
 20
19.1406131053
 30
0.0
 11
-58.5860545842
 21
19.1406131053
 31
0.0
  0
LINE
  5
152
330
1F
100
AcDbEntity
  8
0
  6
Continuous
 62
     7
370
    25
100
AcDbLine
 10
-58.7598425197
 20
0.0393700787
 30
0.0
 11
19.5866141732
 21
0.0393700787
 31
0.0
  0
LINE
  5
153
330
1F
100
AcDbEntity
  8
0
  6
Continuous
 62
     7
370
    25
100
AcDbLine
 10
-58.5860545842
 20
8.6288020817
 30
0.0
 11
-58.6254246629
 21
8.6681721604
 31
0.0
  0
LINE
  5
154
330
1F
100
AcDbEntity
  8
0
  6
Continuous
 62
     7
370
    25
100
AcDbLine
 10
-58.5860545842
 20
8.6288020817
 30
0.0
 11
-58.5860545842
 21
0.0
 31
0.0
  0
LINE
  5
155
330
1F
100
AcDbEntity
  8
0
  6
Continuous
 62
     7
370
    25
100
AcDbLine
 10
-19.7604021088
 20
8.6288020817
 30
0.0
 11
-58.5860545842
 21
8.6288020817
 31
0.0
  0
LINE
  5
156
330
1F
100
AcDbEntity
  8
0
  6
Continuous
 62
     7
370
    25
100
AcDbLine
 10
-19.7604021088
 20
8.6288020817
 30
0.0
 11
-19.72103203
 21
8.6681721604
 31
0.0
  0
LINE
  5
157
330
1F
100
AcDbEntity
  8
0
  6
Continuous
 62
     7
370
    25
100
AcDbLine
 10
-19.7604021088
 20
0.0
 30
0.0
 11
-19.7604021088
 21
8.6288020817
 31
0.0
  0
LINE
  5
158
330
1F
100
AcDbEntity
  8
0
  6
Continuous
 62
     8
370
    25
100
AcDbLine
 10
-58.0627123314
 20
8.6681721604
 30
0.0
 11
-58.0627123314
 21
10.5118110236
 31
0.0
  0
LINE
  5
159
330
1F
100
AcDbEntity
  8
0
  6
Continuous
 62
     8
370
    25
100
AcDbLine
 10
-58.0627123314
 20
19.1799831841
 30
0.0
 11
-58.0627123314
 21
20.8267716535
 31
0.0
  0
LINE
  5
15A
330
1F
100
AcDbEntity
  8
0
  6
Continuous
 62
     8
370
    25
100
AcDbLine
 10
-20.2837443615
 20
20.8267716535
 30
0.0
 11
-20.2837443615
 21
19.1799831841
 31
0.0
  0
LINE
  5
15B
330
1F
100
AcDbEntity
  8
0
  6
Continuous
 62
     8
370
    25
100
AcDbLine
 10
-20.2837443615
 20
10.5118110236
 30
0.0
 11
-20.2837443615
 21
8.6681721604
 31
0.0
  0
LINE
  5
15C
330
1F
100
AcDbEntity
  8
0
  6
Continuous
 62
     8
370
    25
100
AcDbLine
 10
-58.0118110236
 20
10.5118110236
 30
0.0
 11
-58.0118110236
 21
8.6681721604
 31
0.0
  0
LINE
  5
15D
330
1F
100
AcDbEntity
  8
0
  6
Continuous
 62
     8
370
    25
100
AcDbLine
 10
-20.3346456693
 20
8.6681721604
 30
0.0
 11
-20.3346456693
 21
10.5118110236
 31
0.0
  0
LINE
  5
15E
330
1F
100
AcDbEntity
  8
0
  6
Continuous
 62
     8
370
    25
100
AcDbLine
 10
-18.889483985
 20
8.6681721604
 30
0.0
 11
-18.889483985
 21
10.5118110236
 31
0.0
  0
LINE
  5
15F
330
1F
100
AcDbEntity
  8
0
  6
Continuous
 62
     8
370
    25
100
AcDbLine
 10
-18.889483985
 20
19.1799831841
 30
0.0
 11
-18.889483985
 21
20.8267716535
 31
0.0
  0
LINE
  5
160
330
1F
100
AcDbEntity
  8
0
  6
Continuous
 62
     8
370
    25
100
AcDbLine
 10
18.889483985
 20
20.8267716535
 30
0.0
 11
18.889483985
 21
19.1799831841
 31
0.0
  0
LINE
  5
161
330
1F
100
AcDbEntity
  8
0
  6
Continuous
 62
     8
370
    25
100
AcDbLine
 10
18.889483985
 20
10.5118110236
 30
0.0
 11
18.889483985
 21
8.6681721604
 31
0.0
  0
LINE
  5
162
330
1F
100
AcDbEntity
  8
0
  6
Continuous
 62
     8
370
    25
100
AcDbLine
 10
18.8385826772
 20
8.6681721604
 30
0.0
 11
18.8385826772
 21
10.5118110236
 31
0.0
  0
LINE
  5
163
330
1F
100
AcDbEntity
  8
0
  6
Continuous
 62
     8
370
    25
100
AcDbLine
 10
-18.8385826772
 20
10.5118110236
 30
0.0
 11
-18.8385826772
 21
8.6681721604
 31
0.0
  0
ARC
  5
164
330
1F
100
AcDbEntity
  8
0
  6
Continuous
 62
     7
370
    25
100
AcDbCircle
 10
-19.4128262377
 20
10.5511811024
 30
0.0
 40
0.0393700787401592
100
AcDbArc
 50
180.0
 51
270.0
  0
ARC
  5
165
330
1F
100
AcDbEntity
  8
0
  6
Continuous
 62
     7
370
    25
100
AcDbCircle
 10
19.4128262377
 20
10.5511811024
 30
0.0
 40
0.0393700787401556
100
AcDbArc
 50
270.0
 51
0.0
  0
ARC
  5
166
330
1F
100
AcDbEntity
  8
0
  6
Continuous
 62
     7
370
    25
100
AcDbCircle
 10
-19.4128262377
 20
0.0393700787
 30
0.0
 40
0.0393700787401565
100
AcDbArc
 50
180.0
 51
270.0
  0
ARC
  5
167
330
1F
100
AcDbEntity
  8
0
  6
Continuous
 62
     7
370
    25
100
AcDbCircle
 10
19.4128262377
 20
0.0393700787
 30
0.0
 40
0.0393700787401556
100
AcDbArc
 50
270.0
 51
0.0
  0
ARC
  5
168
330
1F
100
AcDbEntity
  8
0
  6
Continuous
 62
     7
370
    25
100
AcDbCircle
 10
-58.5860545842
 20
10.5511811024
 30
0.0
 40
0.0393700787401485
100
AcDbArc
 50
180.0
 51
270.0
  0
ARC
  5
169
330
1F
100
AcDbEntity
  8
0
  6
Continuous
 62
     7
370
    25
100
AcDbCircle
 10
-19.7604021088
 20
10.5511811024
 30
0.0
 40
0.0393700787401663
100
AcDbArc
 50
270.0
 51
360.0
  0
ARC
  5
16A
330
1F
100
AcDbEntity
  8
0
  6
Continuous
 62
     7
370
    25
100
AcDbCircle
 10
-58.5860545842
 20
0.0393700787
 30
0.0
 40
0.0393700787401487
100
AcDbArc
 50
180.0
 51
270.0
  0
ARC
  5
16B
330
1F
100
AcDbEntity
  8
0
  6
Continuous
 62
     7
370
    25
100
AcDbCircle
 10
-19.7604021088
 20
0.0393700787
 30
0.0
 40
0.0393700787401627
100
AcDbArc
 50
270.0
 51
360.0
  0
ARC
  5
16C
330
1F
100
AcDbEntity
  8
0
  6
Continuous
 62
     7
370
    25
100
AcDbCircle
 10
-58.7204724409
 20
0.0393700787
 30
0.0
 40
0.0393700787401414
100
AcDbArc
 50
180.0
 51
270.0
  0
ARC
  5
16D
330
1F
100
AcDbEntity
  8
0
  6
Continuous
 62
     7
370
    25
100
AcDbCircle
 10
-58.7274321534
 20
0.0344488189
 30
0.0
 40
0.0351448249436209
100
AcDbArc
 50
281.4217536589
 51
8.0494669755
  0
ARC
  5
16E
330
1F
100
AcDbEntity
  8
0
  6
Continuous
 62
     7
370
    25
100
AcDbCircle
 10
-58.7204724409
 20
20.8267716535
 30
0.0
 40
0.0393700787401485
100
AcDbArc
 50
90.0
 51
180.0
  0
ARC
  5
16F
330
1F
100
AcDbEntity
  8
0
  6
Continuous
 62
     7
370
    25
100
AcDbCircle
 10
-58.7274321534
 20
20.8316929134
 30
0.0
 40
0.0351448249435952
100
AcDbArc
 50
351.9505330244
 51
78.5782463411
  0
ARC
  5
170
330
1F
100
AcDbEntity
  8
0
  6
Continuous
 62
     7
370
    25
100
AcDbCircle
 10
-58.0975108935
 20
20.8316929134
 30
0.0
 40
0.03514482494363
100
AcDbArc
 50
351.9505330245
 51
78.578246341
  0
ARC
  5
171
330
1F
100
AcDbEntity
  8
0
  6
Continuous
 62
     7
370
    25
100
AcDbCircle
 10
-58.0905511811
 20
20.8267716535
 30
0.0
 40
0.0393700787401556
100
AcDbArc
 50
0.0
 51
90.0
  0
ARC
  5
172
330
1F
100
AcDbEntity
  8
0
  6
Continuous
 62
     7
370
    25
100
AcDbCircle
 10
-19.6190245396
 20
0.0344488189
 30
0.0
 40
0.0351448249436139
100
AcDbArc
 50
171.9505330245
 51
258.578246341
  0
ARC
  5
173
330
1F
100
AcDbEntity
  8
0
  6
Continuous
 62
     7
370
    25
100
AcDbCircle
 10
-19.625984252
 20
0.0393700787
 30
0.0
 40
0.0393700787401592
100
AcDbArc
 50
270.0
 51
0.0
  0
ARC
  5
174
330
1F
100
AcDbEntity
  8
0
  6
Continuous
 62
     7
370
    25
100
AcDbCircle
 10
-19.6190245396
 20
20.8316929134
 30
0.0
 40
0.0351448249436154
100
AcDbArc
 50
101.421753659
 51
188.0494669755
  0
ARC
  5
175
330
1F
100
AcDbEntity
  8
0
  6
Continuous
 62
     7
370
    25
100
AcDbCircle
 10
-19.625984252
 20
20.8267716535
 30
0.0
 40
0.0393700787401592
100
AcDbArc
 50
0.0
 51
90.0
  0
ARC
  5
176
330
1F
100
AcDbEntity
  8
0
  6
Continuous
 62
     7
370
    25
100
AcDbCircle
 10
-20.2489457994
 20
20.8316929134
 30
0.0
 40
0.0351448249436203
100
AcDbArc
 50
101.421753659
 51
188.0494669755
  0
ARC
  5
177
330
1F
100
AcDbEntity
  8
0
  6
Continuous
 62
     7
370
    25
100
AcDbCircle
 10
-20.2559055118
 20
20.8267716535
 30
0.0
 40
0.0393700787401592
100
AcDbArc
 50
90.0
 51
180.0
  0
ARC
  5
178
330
1F
100
AcDbEntity
  8
0
  6
Continuous
 62
     7
370
    25
100
AcDbCircle
 10
-20.3346456693
 20
20.8267716535
 30
0.0
 40
0.0393700787401627
100
AcDbArc
 50
0.0
 51
90.0
  0
ARC
  5
179
330
1F
100
AcDbEntity
  8
0
  6
Continuous
 62
     7
370
    25
100
AcDbCircle
 10
-58.0118110236
 20
20.8267716535
 30
0.0
 40
0.0393700787401698
100
AcDbArc
 50
90.0
 51
180.0
  0
ARC
  5
17A
330
1F
100
AcDbEntity
  8
0
  6
Continuous
 62
     7
370
    25
100
AcDbCircle
 10
-19.5472440945
 20
0.0393700787
 30
0.0
 40
0.0393700787401627
100
AcDbArc
 50
180.0
 51
270.0
  0
ARC
  5
17B
330
1F
100
AcDbEntity
  8
0
  6
Continuous
 62
     7
370
    25
100
AcDbCircle
 10
-19.5542038069
 20
0.0344488189
 30
0.0
 40
0.0351448249436236
100
AcDbArc
 50
281.421753659
 51
8.0494669755
  0
ARC
  5
17C
330
1F
100
AcDbEntity
  8
0
  6
Continuous
 62
     7
370
    25
100
AcDbCircle
 10
-19.5472440945
 20
20.8267716535
 30
0.0
 40
0.0393700787401592
100
AcDbArc
 50
90.0
 51
180.0
  0
ARC
  5
17D
330
1F
100
AcDbEntity
  8
0
  6
Continuous
 62
     7
370
    25
100
AcDbCircle
 10
-19.5542038069
 20
20.8316929134
 30
0.0
 40
0.0351448249436137
100
AcDbArc
 50
351.9505330245
 51
78.578246341
  0
ARC
  5
17E
330
1F
100
AcDbEntity
  8
0
  6
Continuous
 62
     7
370
    25
100
AcDbCircle
 10
-18.9242825471
 20
20.8316929134
 30
0.0
 40
0.0351448249436042
100
AcDbArc
 50
351.9505330245
 51
78.5782463411
  0
ARC
  5
17F
330
1F
100
AcDbEntity
  8
0
  6
Continuous
 62
     7
370
    25
100
AcDbCircle
 10
-18.9173228346
 20
20.8267716535
 30
0.0
 40
0.0393700787401521
100
AcDbArc
 50
360.0
 51
90.0
  0
ARC
  5
180
330
1F
100
AcDbEntity
  8
0
  6
Continuous
 62
     7
370
    25
100
AcDbCircle
 10
19.5542038069
 20
0.0344488189
 30
0.0
 40
0.0351448249436048
100
AcDbArc
 50
171.9505330245
 51
258.5782463411
  0
ARC
  5
181
330
1F
100
AcDbEntity
  8
0
  6
Continuous
 62
     7
370
    25
100
AcDbCircle
 10
19.5472440945
 20
0.0393700787
 30
0.0
 40
0.039370078740156
100
AcDbArc
 50
270.0
 51
0.0
  0
ARC
  5
182
330
1F
100
AcDbEntity
  8
0
  6
Continuous
 62
     7
370
    25
100
AcDbCircle
 10
19.5542038069
 20
20.8316929134
 30
0.0
 40
0.0351448249436063
100
AcDbArc
 50
101.4217536589
 51
188.0494669756
  0
ARC
  5
183
330
1F
100
AcDbEntity
  8
0
  6
Continuous
 62
     7
370
    25
100
AcDbCircle
 10
19.5472440945
 20
20.8267716535
 30
0.0
 40
0.0393700787401521
100
AcDbArc
 50
360.0
 51
90.0
  0
ARC
  5
184
330
1F
100
AcDbEntity
  8
0
  6
Continuous
 62
     7
370
    25
100
AcDbCircle
 10
18.9242825471
 20
20.8316929134
 30
0.0
 40
0.0351448249436047
100
AcDbArc
 50
101.421753659
 51
188.0494669756
  0
ARC
  5
185
330
1F
100
AcDbEntity
  8
0
  6
Continuous
 62
     7
370
    25
100
AcDbCircle
 10
18.9173228346
 20
20.8267716535
 30
0.0
 40
0.0393700787401485
100
AcDbArc
 50
90.0
 51
180.0
  0
ARC
  5
186
330
1F
100
AcDbEntity
  8
0
  6
Continuous
 62
     7
370
    25
100
AcDbCircle
 10
-18.8385826772
 20
20.8267716535
 30
0.0
 40
0.0393700787401556
100
AcDbArc
 50
90.0
 51
180.0
  0
ARC
  5
187
330
1F
100
AcDbEntity
  8
0
  6
Continuous
 62
     7
370
    25
100
AcDbCircle
 10
18.8385826772
 20
20.8267716535
 30
0.0
 40
0.0393700787401627
100
AcDbArc
 50
0.0
 51
90.0
  0
LWPOLYLINE
  5
2C7
330
1B
100
AcDbEntity
 67
     1
  8
0
  6
Continuous
 62
     7
370
    25
100
AcDbPolyline
 90
        3
 70
   128
 43
0.0
 10
-2.9527559055
 20
4.904952222
 10
-2.9455631405
 20
4.6989783822
 10
-2.9413499961
 20
4.6456692913
  0
LWPOLYLINE
  5
2C8
330
1B
100
AcDbEntity
 67
     1
  8
0
  6
Continuous
 62
     7
370
    25
100
AcDbPolyline
 90
        3
 70
   128
 43
0.0
 10
2.9413499961
 20
4.6456692913
 10
2.9455631405
 20
4.6989783822
 10
2.9527559055
 20
4.904952222
  0
LWPOLYLINE
  5
2FD
330
1B
100
AcDbEntity
 67
     1
  8
0
  6
Continuous
 62
     7
370
    25
100
AcDbPolyline
 90
        3
 70
   128
 43
0.0
 10
36.2204724409
 20
4.904952222
 10
36.2276652059
 20
4.6989783822
 10
36.2318783504
 20
4.6456692913
  0
LWPOLYLINE
  5
2FE
330
1B
100
AcDbEntity
 67
     1
  8
0
  6
Continuous
 62
     7
370
    25
100
AcDbPolyline
 90
        3
 70
   128
 43
0.0
 10
42.1145783425
 20
4.6456692913
 10
42.118791487
 20
4.6989783822
 10
42.125984252
 20
4.904952222
  0
LINE
  5
30C
330
1B
100
AcDbEntity
 67
     1
  8
0
  6
Continuous
 62
     7
370
    25
100
AcDbLine
 10
19.5472440945
 20
0.0
 30
0.0
 11
-19.5472440945
 21
0.0
 31
0.0
  0
LINE
  5
30D
330
1B
100
AcDbEntity
 67
     1
  8
0
  6
Continuous
 62
     7
370
    25
100
AcDbLine
 10
58.7204724409
 20
0.0
 30
0.0
 11
19.625984252
 21
0.0
 31
0.0
  0
LINE
  5
30E
330
1B
100
AcDbEntity
 67
     1
  8
0
  6
Continuous
 62
     7
370
    25
100
AcDbLine
 10
-18.7992125984
 20
16.9291338583
 30
0.0
 11
-18.7992125984
 21
11.1926335913
 31
0.0
  0
LINE
  5
30F
330
1B
100
AcDbEntity
 67
     1
  8
0
  6
Continuous
 62
     7
370
    25
100
AcDbLine
 10
18.7992125984
 20
11.1926335913
 30
0.0
 11
18.7992125984
 21
16.9291338583
 31
0.0
  0
LINE
  5
310
330
1B
100
AcDbEntity
 67
     1
  8
0
  6
Continuous
 62
     7
370
    25
100
AcDbLine
 10
-18.7713737488
 20
11.1647947416
 30
0.0
 11
18.7713737488
 21
11.1647947416
 31
0.0
  0
LINE
  5
311
330
1B
100
AcDbEntity
 67
     1
  8
0
  6
Continuous
 62
     7
370
    25
100
AcDbLine
 10
17.9921259843
 20
11.6372356865
 30
0.0
 11
18.7007874016
 21
11.6372356865
 31
0.0
  0
LINE
  5
312
330
1B
100
AcDbEntity
 67
     1
  8
0
  6
Continuous
 62
     7
370
    25
100
AcDbLine
 10
17.9921259843
 20
15.7710939542
 30
0.0
 11
18.7007874016
 21
15.7710939542
 31
0.0
  0
LINE
  5
313
330
1B
100
AcDbEntity
 67
     1
  8
0
  6
Continuous
 62
     7
370
    25
100
AcDbLine
 10
18.7007874016
 20
11.6372356865
 30
0.0
 11
18.7007874016
 21
15.7710939542
 31
0.0
  0
LINE
  5
314
330
1B
100
AcDbEntity
 67
     1
  8
0
  6
Continuous
 62
     7
370
    25
100
AcDbLine
 10
17.9921259843
 20
11.558495529
 30
0.0
 11
17.9921259843
 21
15.7710939542
 31
0.0
  0
LINE
  5
315
330
1B
100
AcDbEntity
 67
     1
  8
0
  6
Continuous
 62
     7
370
    25
100
AcDbLine
 10
-18.7007874016
 20
11.6372356865
 30
0.0
 11
-17.9921259843
 21
11.6372356865
 31
0.0
  0
LINE
  5
316
330
1B
100
AcDbEntity
 67
     1
  8
0
  6
Continuous
 62
     7
370
    25
100
AcDbLine
 10
-18.7007874016
 20
11.6372356865
 30
0.0
 11
-18.7007874016
 21
15.7710939542
 31
0.0
  0
LINE
  5
317
330
1B
100
AcDbEntity
 67
     1
  8
0
  6
Continuous
 62
     7
370
    25
100
AcDbLine
 10
-18.7007874016
 20
15.7710939542
 30
0.0
 11
-17.9921259843
 21
15.7710939542
 31
0.0
  0
LINE
  5
318
330
1B
100
AcDbEntity
 67
     1
  8
0
  6
Continuous
 62
     7
370
    25
100
AcDbLine
 10
-17.9921259843
 20
11.558495529
 30
0.0
 11
-17.9921259843
 21
15.7710939542
 31
0.0
  0
LINE
  5
319
330
1B
100
AcDbEntity
 67
     1
  8
0
  6
Continuous
 62
     7
370
    25
100
AcDbLine
 10
3.8582677165
 20
12.2671569464
 30
0.0
 11
17.9921259843
 21
12.2671569464
 31
0.0
  0
LINE
  5
31A
330
1B
100
AcDbEntity
 67
     1
  8
0
  6
Continuous
 62
     7
370
    25
100
AcDbLine
 10
17.9921259843
 20
11.558495529
 30
0.0
 11
-17.9921259843
 21
11.558495529
 31
0.0
  0
LINE
  5
31B
330
1B
100
AcDbEntity
 67
     1
  8
0
  6
Continuous
 62
     7
370
    25
100
AcDbLine
 10
-17.9921259843
 20
12.2671569464
 30
0.0
 11
-3.8582677165
 21
12.2671569464
 31
0.0
  0
LINE
  5
31C
330
1B
100
AcDbEntity
 67
     1
  8
0
  6
Continuous
 62
     7
370
    25
100
AcDbLine
 10
-17.9921259843
 20
15.4167632456
 30
0.0
 11
17.9921259843
 21
15.4167632456
 31
0.0
  0
LINE
  5
31D
330
1B
100
AcDbEntity
 67
     1
  8
0
  6
Continuous
 62
     7
370
    25
100
AcDbLine
 10
3.8582677165
 20
15.4167632456
 30
0.0
 11
3.8582677165
 21
11.558495529
 31
0.0
  0
LINE
  5
31E
330
1B
100
AcDbEntity
 67
     1
  8
0
  6
Continuous
 62
     7
370
    25
100
AcDbLine
 10
3.0708661417
 20
15.4167632456
 30
0.0
 11
3.0708661417
 21
11.558495529
 31
0.0
  0
LINE
  5
31F
330
1B
100
AcDbEntity
 67
     1
  8
0
  6
Continuous
 62
     7
370
    25
100
AcDbLine
 10
-3.8582677165
 20
15.4167632456
 30
0.0
 11
-3.8582677165
 21
11.558495529
 31
0.0
  0
LINE
  5
320
330
1B
100
AcDbEntity
 67
     1
  8
0
  6
Continuous
 62
     7
370
    25
100
AcDbLine
 10
-3.0708661417
 20
15.4167632456
 30
0.0
 11
-3.0708661417
 21
11.558495529
 31
0.0
  0
LINE
  5
321
330
1B
100
AcDbEntity
 67
     1
  8
0
  6
Continuous
 62
     7
370
    25
100
AcDbLine
 10
0.3937007874
 20
15.4167632456
 30
0.0
 11
0.3937007874
 21
11.558495529
 31
0.0
  0
LINE
  5
322
330
1B
100
AcDbEntity
 67
     1
  8
0
  6
Continuous
 62
     7
370
    25
100
AcDbLine
 10
-0.3937007874
 20
15.4167632456
 30
0.0
 11
-0.3937007874
 21
11.558495529
 31
0.0
  0
LINE
  5
323
330
1B
100
AcDbEntity
 67
     1
  8
0
  6
Continuous
 62
     7
370
    25
100
AcDbLine
 10
58.7204724409
 20
0.0
 30
0.0
 11
58.7204724409
 21
20.8661417323
 31
0.0
  0
LINE
  5
324
330
1B
100
AcDbEntity
 67
     1
  8
0
  6
Continuous
 62
     7
370
    25
100
AcDbLine
 10
58.0905511811
 20
20.8661417323
 30
0.0
 11
58.0905511811
 21
0.0
 31
0.0
  0
LINE
  5
325
330
1B
100
AcDbEntity
 67
     1
  8
0
  6
Continuous
 62
     7
370
    25
100
AcDbLine
 10
58.7598425197
 20
20.8267716535
 30
0.0
 11
58.7598425197
 21
0.0393700787
 31
0.0
  0
LINE
  5
326
330
1B
100
AcDbEntity
 67
     1
  8
0
  6
Continuous
 62
     7
370
    25
100
AcDbLine
 10
58.0905511811
 20
20.8661417323
 30
0.0
 11
58.7204724409
 21
20.8661417323
 31
0.0
  0
LINE
  5
327
330
1B
100
AcDbEntity
 67
     1
  8
0
  6
Continuous
 62
     7
370
    25
100
AcDbLine
 10
58.0511811024
 20
0.0393700787
 30
0.0
 11
58.0511811024
 21
20.8267716535
 31
0.0
  0
LINE
  5
328
330
1B
100
AcDbEntity
 67
     1
  8
0
  6
Continuous
 62
     7
370
    25
100
AcDbLine
 10
19.625984252
 20
20.8661417323
 30
0.0
 11
19.625984252
 21
0.0
 31
0.0
  0
LINE
  5
329
330
1B
100
AcDbEntity
 67
     1
  8
0
  6
Continuous
 62
     7
370
    25
100
AcDbLine
 10
20.2559055118
 20
0.0
 30
0.0
 11
20.2559055118
 21
20.8661417323
 31
0.0
  0
LINE
  5
32A
330
1B
100
AcDbEntity
 67
     1
  8
0
  6
Continuous
 62
     7
370
    25
100
AcDbLine
 10
20.2952755906
 20
20.8267716535
 30
0.0
 11
20.2952755906
 21
0.0393700787
 31
0.0
  0
LINE
  5
32B
330
1B
100
AcDbEntity
 67
     1
  8
0
  6
Continuous
 62
     7
370
    25
100
AcDbLine
 10
19.625984252
 20
20.8661417323
 30
0.0
 11
20.2559055118
 21
20.8661417323
 31
0.0
  0
LINE
  5
32C
330
1B
100
AcDbEntity
 67
     1
  8
0
  6
Continuous
 62
     7
370
    25
100
AcDbLine
 10
19.5866141732
 20
0.0393700787
 30
0.0
 11
19.5866141732
 21
20.8267716535
 31
0.0
  0
LINE
  5
32D
330
1B
100
AcDbEntity
 67
     1
  8
0
  6
Continuous
 62
     7
370
    25
100
AcDbLine
 10
20.2952755906
 20
0.7480314961
 30
0.0
 11
58.0511811024
 21
0.7480314961
 31
0.0
  0
LINE
  5
32E
330
1B
100
AcDbEntity
 67
     1
  8
0
  6
Continuous
 62
     7
370
    25
100
AcDbLine
 10
58.0511811024
 20
4.6062992126
 30
0.0
 11
20.2952755906
 21
4.6062992126
 31
0.0
  0
LINE
  5
32F
330
1B
100
AcDbEntity
 67
     1
  8
0
  6
Continuous
 62
     7
370
    25
100
AcDbLine
 10
58.0118110236
 20
0.7086614173
 30
0.0
 11
20.3346456693
 21
0.7086614173
 31
0.0
  0
LINE
  5
330
330
1B
100
AcDbEntity
 67
     1
  8
0
  6
Continuous
 62
     7
370
    25
100
AcDbLine
 10
20.3346456693
 20
4.6456692913
 30
0.0
 11
58.0118110236
 21
4.6456692913
 31
0.0
  0
LINE
  5
331
330
1B
100
AcDbEntity
 67
     1
  8
0
  6
Continuous
 62
     7
370
    25
100
AcDbLine
 10
58.0118110236
 20
0.0
 30
0.0
 11
58.0118110236
 21
4.6456692913
 31
0.0
  0
LINE
  5
332
330
1B
100
AcDbEntity
 67
     1
  8
0
  6
Continuous
 62
     7
370
    25
100
AcDbLine
 10
20.3346456693
 20
4.6456692913
 30
0.0
 11
20.3346456693
 21
0.0
 31
0.0
  0
LINE
  5
333
330
1B
100
AcDbEntity
 67
     1
  8
0
  6
Continuous
 62
     7
370
    25
100
AcDbLine
 10
58.0511811024
 20
0.6692913386
 30
0.0
 11
20.2952755906
 21
0.6692913386
 31
0.0
  0
LINE
  5
334
330
1B
100
AcDbEntity
 67
     1
  8
0
  6
Continuous
 62
     7
370
    25
100
AcDbLine
 10
20.3346456693
 20
10.6299212598
 30
0.0
 11
20.3346456693
 21
7.4803149606
 31
0.0
  0
LINE
  5
335
330
1B
100
AcDbEntity
 67
     1
  8
0
  6
Continuous
 62
     7
370
    25
100
AcDbLine
 10
20.2952755906
 20
7.5196850394
 30
0.0
 11
58.0511811024
 21
7.5196850394
 31
0.0
  0
LINE
  5
336
330
1B
100
AcDbEntity
 67
     1
  8
0
  6
Continuous
 62
     7
370
    25
100
AcDbLine
 10
58.0118110236
 20
7.4803149606
 30
0.0
 11
58.0118110236
 21
10.6299212598
 31
0.0
  0
LINE
  5
337
330
1B
100
AcDbEntity
 67
     1
  8
0
  6
Continuous
 62
     7
370
    25
100
AcDbLine
 10
58.0511811024
 20
10.5905511811
 30
0.0
 11
20.2952755906
 21
10.5905511811
 31
0.0
  0
LINE
  5
338
330
1B
100
AcDbEntity
 67
     1
  8
0
  6
Continuous
 62
     7
370
    25
100
AcDbLine
 10
58.0118110236
 20
7.4803149606
 30
0.0
 11
20.3346456693
 21
7.4803149606
 31
0.0
  0
LINE
  5
339
330
1B
100
AcDbEntity
 67
     1
  8
0
  6
Continuous
 62
     7
370
    25
100
AcDbLine
 10
20.3346456693
 20
10.6299212598
 30
0.0
 11
58.0118110236
 21
10.6299212598
 31
0.0
  0
LINE
  5
33A
330
1B
100
AcDbEntity
 67
     1
  8
0
  6
Continuous
 62
     7
370
    25
100
AcDbLine
 10
58.0511811024
 20
19.2519685039
 30
0.0
 11
20.2952755906
 21
19.2519685039
 31
0.0
  0
LINE
  5
33B
330
1B
100
AcDbEntity
 67
     1
  8
0
  6
Continuous
 62
     7
370
    25
100
AcDbLine
 10
58.0118110236
 20
16.9291338583
 30
0.0
 11
58.0118110236
 21
20.8661417323
 31
0.0
  0
LINE
  5
33C
330
1B
100
AcDbEntity
 67
     1
  8
0
  6
Continuous
 62
     7
370
    25
100
AcDbLine
 10
20.3346456693
 20
19.2913385827
 30
0.0
 11
58.0118110236
 21
19.2913385827
 31
0.0
  0
LINE
  5
33D
330
1B
100
AcDbEntity
 67
     1
  8
0
  6
Continuous
 62
     7
370
    25
100
AcDbLine
 10
20.2952755906
 20
16.968503937
 30
0.0
 11
58.0511811024
 21
16.968503937
 31
0.0
  0
LINE
  5
33E
330
1B
100
AcDbEntity
 67
     1
  8
0
  6
Continuous
 62
     7
370
    25
100
AcDbLine
 10
58.0118110236
 20
16.9291338583
 30
0.0
 11
20.3346456693
 21
16.9291338583
 31
0.0
  0
LINE
  5
33F
330
1B
100
AcDbEntity
 67
     1
  8
0
  6
Continuous
 62
     7
370
    25
100
AcDbLine
 10
20.2952755906
 20
19.3307086614
 30
0.0
 11
58.0511811024
 21
19.3307086614
 31
0.0
  0
LINE
  5
340
330
1B
100
AcDbEntity
 67
     1
  8
0
  6
Continuous
 62
     7
370
    25
100
AcDbLine
 10
20.3346456693
 20
20.8661417323
 30
0.0
 11
20.3346456693
 21
16.9291338583
 31
0.0
  0
LINE
  5
341
330
1B
100
AcDbEntity
 67
     1
  8
0
  6
Continuous
 62
     7
370
    25
100
AcDbLine
 10
20.3346456693
 20
20.8661417323
 30
0.0
 11
58.0118110236
 21
20.8661417323
 31
0.0
  0
LINE
  5
342
330
1B
100
AcDbEntity
 67
     1
  8
0
  6
Continuous
 62
     7
370
    25
100
AcDbLine
 10
18.9173228346
 20
20.8661417323
 30
0.0
 11
18.9173228346
 21
0.0
 31
0.0
  0
LINE
  5
343
330
1B
100
AcDbEntity
 67
     1
  8
0
  6
Continuous
 62
     7
370
    25
100
AcDbLine
 10
19.5472440945
 20
0.0
 30
0.0
 11
19.5472440945
 21
20.8661417323
 31
0.0
  0
LINE
  5
344
330
1B
100
AcDbEntity
 67
     1
  8
0
  6
Continuous
 62
     7
370
    25
100
AcDbLine
 10
18.9173228346
 20
20.8661417323
 30
0.0
 11
19.5472440945
 21
20.8661417323
 31
0.0
  0
LINE
  5
345
330
1B
100
AcDbEntity
 67
     1
  8
0
  6
Continuous
 62
     7
370
    25
100
AcDbLine
 10
18.8779527559
 20
0.0393700787
 30
0.0
 11
18.8779527559
 21
20.8267716535
 31
0.0
  0
LINE
  5
346
330
1B
100
AcDbEntity
 67
     1
  8
0
  6
Continuous
 62
     7
370
    25
100
AcDbLine
 10
-18.8779527559
 20
20.8267716535
 30
0.0
 11
-18.8779527559
 21
0.0393700787
 31
0.0
  0
LINE
  5
347
330
1B
100
AcDbEntity
 67
     1
  8
0
  6
Continuous
 62
     7
370
    25
100
AcDbLine
 10
-18.9173228346
 20
0.0
 30
0.0
 11
-18.9173228346
 21
20.8661417323
 31
0.0
  0
LINE
  5
348
330
1B
100
AcDbEntity
 67
     1
  8
0
  6
Continuous
 62
     7
370
    25
100
AcDbLine
 10
-19.5472440945
 20
20.8661417323
 30
0.0
 11
-19.5472440945
 21
0.0
 31
0.0
  0
LINE
  5
349
330
1B
100
AcDbEntity
 67
     1
  8
0
  6
Continuous
 62
     7
370
    25
100
AcDbLine
 10
-19.5866141732
 20
0.0393700787
 30
0.0
 11
-19.5866141732
 21
20.8267716535
 31
0.0
  0
LINE
  5
34A
330
1B
100
AcDbEntity
 67
     1
  8
0
  6
Continuous
 62
     7
370
    25
100
AcDbLine
 10
-19.5472440945
 20
20.8661417323
 30
0.0
 11
-18.9173228346
 21
20.8661417323
 31
0.0
  0
LINE
  5
34B
330
1B
100
AcDbEntity
 67
     1
  8
0
  6
Continuous
 62
     7
370
    25
100
AcDbLine
 10
-18.8385826772
 20
4.6456692913
 30
0.0
 11
18.8385826772
 21
4.6456692913
 31
0.0
  0
LINE
  5
34C
330
1B
100
AcDbEntity
 67
     1
  8
0
  6
Continuous
 62
     7
370
    25
100
AcDbLine
 10
18.8779527559
 20
4.6062992126
 30
0.0
 11
-18.8779527559
 21
4.6062992126
 31
0.0
  0
LINE
  5
34D
330
1B
100
AcDbEntity
 67
     1
  8
0
  6
Continuous
 62
     7
370
    25
100
AcDbLine
 10
-18.8779527559
 20
0.7480314961
 30
0.0
 11
18.8779527559
 21
0.7480314961
 31
0.0
  0
LINE
  5
34E
330
1B
100
AcDbEntity
 67
     1
  8
0
  6
Continuous
 62
     7
370
    25
100
AcDbLine
 10
18.8385826772
 20
0.7086614173
 30
0.0
 11
-18.8385826772
 21
0.7086614173
 31
0.0
  0
LINE
  5
34F
330
1B
100
AcDbEntity
 67
     1
  8
0
  6
Continuous
 62
     7
370
    25
100
AcDbLine
 10
18.8385826772
 20
0.0
 30
0.0
 11
18.8385826772
 21
4.6456692913
 31
0.0
  0
LINE
  5
350
330
1B
100
AcDbEntity
 67
     1
  8
0
  6
Continuous
 62
     7
370
    25
100
AcDbLine
 10
-19.5866141732
 20
0.0393700787
 30
0.0
 11
58.7598425197
 21
0.0393700787
 31
0.0
  0
LINE
  5
351
330
1B
100
AcDbEntity
 67
     1
  8
0
  6
Continuous
 62
     7
370
    25
100
AcDbLine
 10
-18.8385826772
 20
4.6456692913
 30
0.0
 11
-18.8385826772
 21
0.0
 31
0.0
  0
LINE
  5
352
330
1B
100
AcDbEntity
 67
     1
  8
0
  6
Continuous
 62
     7
370
    25
100
AcDbLine
 10
18.8779527559
 20
0.6692913386
 30
0.0
 11
-18.8779527559
 21
0.6692913386
 31
0.0
  0
LINE
  5
353
330
1B
100
AcDbEntity
 67
     1
  8
0
  6
Continuous
 62
     7
370
    25
100
AcDbLine
 10
18.8385826772
 20
7.4803149606
 30
0.0
 11
18.8385826772
 21
10.6299212598
 31
0.0
  0
LINE
  5
354
330
1B
100
AcDbEntity
 67
     1
  8
0
  6
Continuous
 62
     7
370
    25
100
AcDbLine
 10
-18.8779527559
 20
7.5196850394
 30
0.0
 11
18.8779527559
 21
7.5196850394
 31
0.0
  0
LINE
  5
355
330
1B
100
AcDbEntity
 67
     1
  8
0
  6
Continuous
 62
     7
370
    25
100
AcDbLine
 10
18.8385826772
 20
7.4803149606
 30
0.0
 11
-18.8385826772
 21
7.4803149606
 31
0.0
  0
LINE
  5
356
330
1B
100
AcDbEntity
 67
     1
  8
0
  6
Continuous
 62
     7
370
    25
100
AcDbLine
 10
18.8779527559
 20
10.5905511811
 30
0.0
 11
-18.8779527559
 21
10.5905511811
 31
0.0
  0
LINE
  5
357
330
1B
100
AcDbEntity
 67
     1
  8
0
  6
Continuous
 62
     7
370
    25
100
AcDbLine
 10
-18.8385826772
 20
10.6299212598
 30
0.0
 11
-18.8385826772
 21
7.4803149606
 31
0.0
  0
LINE
  5
358
330
1B
100
AcDbEntity
 67
     1
  8
0
  6
Continuous
 62
     7
370
    25
100
AcDbLine
 10
-18.8385826772
 20
10.6299212598
 30
0.0
 11
18.8385826772
 21
10.6299212598
 31
0.0
  0
LINE
  5
359
330
1B
100
AcDbEntity
 67
     1
  8
0
  6
Continuous
 62
     7
370
    25
100
AcDbLine
 10
18.8779527559
 20
19.2519685039
 30
0.0
 11
-18.8779527559
 21
19.2519685039
 31
0.0
  0
LINE
  5
35A
330
1B
100
AcDbEntity
 67
     1
  8
0
  6
Continuous
 62
     7
370
    25
100
AcDbLine
 10
-18.8779527559
 20
16.968503937
 30
0.0
 11
18.8779527559
 21
16.968503937
 31
0.0
  0
LINE
  5
35B
330
1B
100
AcDbEntity
 67
     1
  8
0
  6
Continuous
 62
     7
370
    25
100
AcDbLine
 10
-18.8385826772
 20
19.2913385827
 30
0.0
 11
18.8385826772
 21
19.2913385827
 31
0.0
  0
LINE
  5
35C
330
1B
100
AcDbEntity
 67
     1
  8
0
  6
Continuous
 62
     7
370
    25
100
AcDbLine
 10
18.8385826772
 20
16.9291338583
 30
0.0
 11
-18.8385826772
 21
16.9291338583
 31
0.0
  0
LINE
  5
35D
330
1B
100
AcDbEntity
 67
     1
  8
0
  6
Continuous
 62
     7
370
    25
100
AcDbLine
 10
-18.8779527559
 20
19.3307086614
 30
0.0
 11
18.8779527559
 21
19.3307086614
 31
0.0
  0
LINE
  5
35E
330
1B
100
AcDbEntity
 67
     1
  8
0
  6
Continuous
 62
     7
370
    25
100
AcDbLine
 10
58.7598425197
 20
20.8267716535
 30
0.0
 11
-19.5866141732
 21
20.8267716535
 31
0.0
  0
LINE
  5
35F
330
1B
100
AcDbEntity
 67
     1
  8
0
  6
Continuous
 62
     7
370
    25
100
AcDbLine
 10
-18.8385826772
 20
20.8661417323
 30
0.0
 11
-18.8385826772
 21
16.9291338583
 31
0.0
  0
LINE
  5
360
330
1B
100
AcDbEntity
 67
     1
  8
0
  6
Continuous
 62
     7
370
    25
100
AcDbLine
 10
-18.8385826772
 20
20.8661417323
 30
0.0
 11
18.8385826772
 21
20.8661417323
 31
0.0
  0
LINE
  5
361
330
1B
100
AcDbEntity
 67
     1
  8
0
  6
Continuous
 62
     7
370
    25
100
AcDbLine
 10
18.8385826772
 20
16.9291338583
 30
0.0
 11
18.8385826772
 21
20.8661417323
 31
0.0
  0
LINE
  5
362
330
1B
100
AcDbEntity
 67
     1
  8
0
  6
Continuous
 62
     7
370
    25
100
AcDbLine
 10
-18.7992125984
 20
7.4803149606
 30
0.0
 11
-18.7992125984
 21
4.6456692913
 31
0.0
  0
LINE
  5
363
330
1B
100
AcDbEntity
 67
     1
  8
0
  6
Continuous
 62
     7
370
    25
100
AcDbLine
 10
18.7992125984
 20
4.6456692913
 30
0.0
 11
18.7992125984
 21
7.4803149606
 31
0.0
  0
LINE
  5
364
330
1B
100
AcDbEntity
 67
     1
  8
0
  6
Continuous
 62
     7
370
    25
100
AcDbLine
 10
18.7007874016
 20
4.6456692913
 30
0.0
 11
18.7007874016
 21
5.2592829306
 31
0.0
  0
LINE
  5
365
330
1B
100
AcDbEntity
 67
     1
  8
0
  6
Continuous
 62
     7
370
    25
100
AcDbLine
 10
17.9921259843
 20
5.2592829306
 30
0.0
 11
18.7007874016
 21
5.2592829306
 31
0.0
  0
LINE
  5
366
330
1B
100
AcDbEntity
 67
     1
  8
0
  6
Continuous
 62
     7
370
    25
100
AcDbLine
 10
17.9921259843
 20
4.6456692913
 30
0.0
 11
17.9921259843
 21
5.2592829306
 31
0.0
  0
LINE
  5
367
330
1B
100
AcDbEntity
 67
     1
  8
0
  6
Continuous
 62
     7
370
    25
100
AcDbLine
 10
-18.7007874016
 20
4.6456692913
 30
0.0
 11
-18.7007874016
 21
5.2592829306
 31
0.0
  0
LINE
  5
368
330
1B
100
AcDbEntity
 67
     1
  8
0
  6
Continuous
 62
     7
370
    25
100
AcDbLine
 10
-18.7007874016
 20
5.2592829306
 30
0.0
 11
-17.9921259843
 21
5.2592829306
 31
0.0
  0
LINE
  5
369
330
1B
100
AcDbEntity
 67
     1
  8
0
  6
Continuous
 62
     7
370
    25
100
AcDbLine
 10
-17.9921259843
 20
4.6456692913
 30
0.0
 11
-17.9921259843
 21
5.2592829306
 31
0.0
  0
LINE
  5
36A
330
1B
100
AcDbEntity
 67
     1
  8
0
  6
Continuous
 62
     7
370
    25
100
AcDbLine
 10
2.9527559055
 20
4.904952222
 30
0.0
 11
17.9921259843
 21
4.904952222
 31
0.0
  0
LINE
  5
36B
330
1B
100
AcDbEntity
 67
     1
  8
0
  6
Continuous
 62
     7
370
    25
100
AcDbLine
 10
-17.9921259843
 20
4.904952222
 30
0.0
 11
-2.9527559055
 21
4.904952222
 31
0.0
  0
LINE
  5
36C
330
1B
100
AcDbEntity
 67
     1
  8
0
  6
Continuous
 62
     7
370
    25
100
AcDbLine
 10
20.374015748
 20
16.9291338583
 30
0.0
 11
20.374015748
 21
11.1926335913
 31
0.0
  0
LINE
  5
36D
330
1B
100
AcDbEntity
 67
     1
  8
0
  6
Continuous
 62
     7
370
    25
100
AcDbLine
 10
20.4018545977
 20
11.1647947416
 30
0.0
 11
57.9446020952
 21
11.1647947416
 31
0.0
  0
LINE
  5
36E
330
1B
100
AcDbEntity
 67
     1
  8
0
  6
Continuous
 62
     7
370
    25
100
AcDbLine
 10
57.9724409449
 20
11.1926335913
 30
0.0
 11
57.9724409449
 21
16.9291338583
 31
0.0
  0
LINE
  5
36F
330
1B
100
AcDbEntity
 67
     1
  8
0
  6
Continuous
 62
     7
370
    25
100
AcDbLine
 10
57.1653543307
 20
11.6372356865
 30
0.0
 11
57.874015748
 21
11.6372356865
 31
0.0
  0
LINE
  5
370
330
1B
100
AcDbEntity
 67
     1
  8
0
  6
Continuous
 62
     7
370
    25
100
AcDbLine
 10
57.1653543307
 20
15.7710939542
 30
0.0
 11
57.874015748
 21
15.7710939542
 31
0.0
  0
LINE
  5
371
330
1B
100
AcDbEntity
 67
     1
  8
0
  6
Continuous
 62
     7
370
    25
100
AcDbLine
 10
57.874015748
 20
11.6372356865
 30
0.0
 11
57.874015748
 21
15.7710939542
 31
0.0
  0
LINE
  5
372
330
1B
100
AcDbEntity
 67
     1
  8
0
  6
Continuous
 62
     7
370
    25
100
AcDbLine
 10
57.1653543307
 20
11.558495529
 30
0.0
 11
57.1653543307
 21
15.7710939542
 31
0.0
  0
LINE
  5
373
330
1B
100
AcDbEntity
 67
     1
  8
0
  6
Continuous
 62
     7
370
    25
100
AcDbLine
 10
20.4724409449
 20
11.6372356865
 30
0.0
 11
20.4724409449
 21
15.7710939542
 31
0.0
  0
LINE
  5
374
330
1B
100
AcDbEntity
 67
     1
  8
0
  6
Continuous
 62
     7
370
    25
100
AcDbLine
 10
20.4724409449
 20
15.7710939542
 30
0.0
 11
21.1811023622
 21
15.7710939542
 31
0.0
  0
LINE
  5
375
330
1B
100
AcDbEntity
 67
     1
  8
0
  6
Continuous
 62
     7
370
    25
100
AcDbLine
 10
21.1811023622
 20
11.558495529
 30
0.0
 11
21.1811023622
 21
15.7710939542
 31
0.0
  0
LINE
  5
376
330
1B
100
AcDbEntity
 67
     1
  8
0
  6
Continuous
 62
     7
370
    25
100
AcDbLine
 10
20.4724409449
 20
11.6372356865
 30
0.0
 11
21.1811023622
 21
11.6372356865
 31
0.0
  0
LINE
  5
377
330
1B
100
AcDbEntity
 67
     1
  8
0
  6
Continuous
 62
     7
370
    25
100
AcDbLine
 10
43.031496063
 20
12.2671569464
 30
0.0
 11
57.1653543307
 21
12.2671569464
 31
0.0
  0
LINE
  5
378
330
1B
100
AcDbEntity
 67
     1
  8
0
  6
Continuous
 62
     7
370
    25
100
AcDbLine
 10
57.1653543307
 20
11.558495529
 30
0.0
 11
21.1811023622
 21
11.558495529
 31
0.0
  0
LINE
  5
379
330
1B
100
AcDbEntity
 67
     1
  8
0
  6
Continuous
 62
     7
370
    25
100
AcDbLine
 10
21.1811023622
 20
12.2671569464
 30
0.0
 11
35.3149606299
 21
12.2671569464
 31
0.0
  0
LINE
  5
37A
330
1B
100
AcDbEntity
 67
     1
  8
0
  6
Continuous
 62
     7
370
    25
100
AcDbLine
 10
21.1811023622
 20
15.4167632456
 30
0.0
 11
57.1653543307
 21
15.4167632456
 31
0.0
  0
LINE
  5
37B
330
1B
100
AcDbEntity
 67
     1
  8
0
  6
Continuous
 62
     7
370
    25
100
AcDbLine
 10
43.031496063
 20
15.4167632456
 30
0.0
 11
43.031496063
 21
11.558495529
 31
0.0
  0
LINE
  5
37C
330
1B
100
AcDbEntity
 67
     1
  8
0
  6
Continuous
 62
     7
370
    25
100
AcDbLine
 10
42.2440944882
 20
15.4167632456
 30
0.0
 11
42.2440944882
 21
11.558495529
 31
0.0
  0
LINE
  5
37D
330
1B
100
AcDbEntity
 67
     1
  8
0
  6
Continuous
 62
     7
370
    25
100
AcDbLine
 10
35.3149606299
 20
15.4167632456
 30
0.0
 11
35.3149606299
 21
11.558495529
 31
0.0
  0
LINE
  5
37E
330
1B
100
AcDbEntity
 67
     1
  8
0
  6
Continuous
 62
     7
370
    25
100
AcDbLine
 10
36.1023622047
 20
15.4167632456
 30
0.0
 11
36.1023622047
 21
11.558495529
 31
0.0
  0
LINE
  5
37F
330
1B
100
AcDbEntity
 67
     1
  8
0
  6
Continuous
 62
     7
370
    25
100
AcDbLine
 10
38.7795275591
 20
15.4167632456
 30
0.0
 11
38.7795275591
 21
11.558495529
 31
0.0
  0
LINE
  5
380
330
1B
100
AcDbEntity
 67
     1
  8
0
  6
Continuous
 62
     7
370
    25
100
AcDbLine
 10
39.5669291339
 20
15.4167632456
 30
0.0
 11
39.5669291339
 21
11.558495529
 31
0.0
  0
LINE
  5
381
330
1B
100
AcDbEntity
 67
     1
  8
0
  6
Continuous
 62
     7
370
    25
100
AcDbLine
 10
20.374015748
 20
7.4803149606
 30
0.0
 11
20.374015748
 21
4.6456692913
 31
0.0
  0
LINE
  5
382
330
1B
100
AcDbEntity
 67
     1
  8
0
  6
Continuous
 62
     7
370
    25
100
AcDbLine
 10
57.9724409449
 20
4.6456692913
 30
0.0
 11
57.9724409449
 21
7.4803149606
 31
0.0
  0
LINE
  5
383
330
1B
100
AcDbEntity
 67
     1
  8
0
  6
Continuous
 62
     7
370
    25
100
AcDbLine
 10
57.1653543307
 20
5.2592829306
 30
0.0
 11
57.874015748
 21
5.2592829306
 31
0.0
  0
LINE
  5
384
330
1B
100
AcDbEntity
 67
     1
  8
0
  6
Continuous
 62
     7
370
    25
100
AcDbLine
 10
57.874015748
 20
4.6456692913
 30
0.0
 11
57.874015748
 21
5.2592829306
 31
0.0
  0
LINE
  5
385
330
1B
100
AcDbEntity
 67
     1
  8
0
  6
Continuous
 62
     7
370
    25
100
AcDbLine
 10
57.1653543307
 20
4.6456692913
 30
0.0
 11
57.1653543307
 21
5.2592829306
 31
0.0
  0
LINE
  5
386
330
1B
100
AcDbEntity
 67
     1
  8
0
  6
Continuous
 62
     7
370
    25
100
AcDbLine
 10
20.4724409449
 20
4.6456692913
 30
0.0
 11
20.4724409449
 21
5.2592829306
 31
0.0
  0
LINE
  5
387
330
1B
100
AcDbEntity
 67
     1
  8
0
  6
Continuous
 62
     7
370
    25
100
AcDbLine
 10
20.4724409449
 20
5.2592829306
 30
0.0
 11
21.1811023622
 21
5.2592829306
 31
0.0
  0
LINE
  5
388
330
1B
100
AcDbEntity
 67
     1
  8
0
  6
Continuous
 62
     7
370
    25
100
AcDbLine
 10
21.1811023622
 20
4.6456692913
 30
0.0
 11
21.1811023622
 21
5.2592829306
 31
0.0
  0
LINE
  5
389
330
1B
100
AcDbEntity
 67
     1
  8
0
  6
Continuous
 62
     7
370
    25
100
AcDbLine
 10
21.1811023622
 20
4.904952222
 30
0.0
 11
36.2204724409
 21
4.904952222
 31
0.0
  0
LINE
  5
38A
330
1B
100
AcDbEntity
 67
     1
  8
0
  6
Continuous
 62
     7
370
    25
100
AcDbLine
 10
42.125984252
 20
4.904952222
 30
0.0
 11
57.1653543307
 21
4.904952222
 31
0.0
  0
LINE
  5
38B
330
1B
100
AcDbEntity
 67
     1
  8
0
  6
Continuous
 62
     8
370
    25
100
AcDbLine
 10
-18.7713737488
 20
11.1647947416
 30
0.0
 11
-18.8779527559
 21
11.0582157345
 31
0.0
  0
LINE
  5
38C
330
1B
100
AcDbEntity
 67
     1
  8
0
  6
Continuous
 62
     8
370
    25
100
AcDbLine
 10
-18.8779527559
 20
11.1138934338
 30
0.0
 11
-18.7992125984
 21
11.1926335913
 31
0.0
  0
LINE
  5
38D
330
1B
100
AcDbEntity
 67
     1
  8
0
  6
Continuous
 62
     8
370
    25
100
AcDbLine
 10
18.7992125984
 20
11.1926335913
 30
0.0
 11
18.8779527559
 21
11.1138934338
 31
0.0
  0
LINE
  5
38E
330
1B
100
AcDbEntity
 67
     1
  8
0
  6
Continuous
 62
     8
370
    25
100
AcDbLine
 10
18.8779527559
 20
11.0582157345
 30
0.0
 11
18.7713737488
 21
11.1647947416
 31
0.0
  0
LINE
  5
38F
330
1B
100
AcDbEntity
 67
     1
  8
0
  6
Continuous
 62
     8
370
    25
100
AcDbLine
 10
-18.889483985
 20
0.0115312291
 30
0.0
 11
-18.8664215268
 21
0.0115312291
 31
0.0
  0
LINE
  5
390
330
1B
100
AcDbEntity
 67
     1
  8
0
  6
Continuous
 62
     8
370
    25
100
AcDbLine
 10
18.8664215268
 20
0.0115312291
 30
0.0
 11
18.889483985
 21
0.0115312291
 31
0.0
  0
LINE
  5
391
330
1B
100
AcDbEntity
 67
     1
  8
0
  6
Continuous
 62
     8
370
    25
100
AcDbLine
 10
20.4018545977
 20
11.1647947416
 30
0.0
 11
20.2952755906
 21
11.0582157345
 31
0.0
  0
LINE
  5
392
330
1B
100
AcDbEntity
 67
     1
  8
0
  6
Continuous
 62
     8
370
    25
100
AcDbLine
 10
20.2952755906
 20
11.1138934338
 30
0.0
 11
20.374015748
 21
11.1926335913
 31
0.0
  0
LINE
  5
393
330
1B
100
AcDbEntity
 67
     1
  8
0
  6
Continuous
 62
     8
370
    25
100
AcDbLine
 10
57.9724409449
 20
11.1926335913
 30
0.0
 11
58.0511811024
 21
11.1138934338
 31
0.0
  0
LINE
  5
394
330
1B
100
AcDbEntity
 67
     1
  8
0
  6
Continuous
 62
     8
370
    25
100
AcDbLine
 10
58.0511811024
 20
11.0582157345
 30
0.0
 11
57.9446020952
 21
11.1647947416
 31
0.0
  0
LINE
  5
395
330
1B
100
AcDbEntity
 67
     1
  8
0
  6
Continuous
 62
     8
370
    25
100
AcDbLine
 10
20.2837443615
 20
0.0115312291
 30
0.0
 11
20.3068068196
 21
0.0115312291
 31
0.0
  0
LINE
  5
396
330
1B
100
AcDbEntity
 67
     1
  8
0
  6
Continuous
 62
     8
370
    25
100
AcDbLine
 10
58.0396498733
 20
0.0115312291
 30
0.0
 11
58.0627123314
 21
0.0115312291
 31
0.0
  0
ARC
  5
397
330
1B
100
AcDbEntity
 67
     1
  8
0
  6
Continuous
 62
     7
370
    25
100
AcDbCircle
 10
-18.772880887
 20
11.1911264531
 30
0.0
 40
0.0263748079368146
100
AcDbArc
 50
176.7241572975
 51
273.2758427025
  0
ARC
  5
398
330
1B
100
AcDbEntity
 67
     1
  8
0
  6
Continuous
 62
     7
370
    25
100
AcDbCircle
 10
18.772880887
 20
11.1911264531
 30
0.0
 40
0.0263748079368078
100
AcDbArc
 50
266.7241572975
 51
3.2758427025
  0
ARC
  5
399
330
1B
100
AcDbEntity
 67
     1
  8
0
  6
Continuous
 62
     7
370
    25
100
AcDbCircle
 10
58.0905511811
 20
20.8267716535
 30
0.0
 40
0.0393700787401698
100
AcDbArc
 50
90.0
 51
180.0
  0
ARC
  5
39A
330
1B
100
AcDbEntity
 67
     1
  8
0
  6
Continuous
 62
     7
370
    25
100
AcDbCircle
 10
58.7204724409
 20
20.8267716535
 30
0.0
 40
0.0393700787401556
100
AcDbArc
 50
360.0
 51
90.0
  0
ARC
  5
39B
330
1B
100
AcDbEntity
 67
     1
  8
0
  6
Continuous
 62
     7
370
    25
100
AcDbCircle
 10
58.0905511811
 20
0.0393700787
 30
0.0
 40
0.0393700787401472
100
AcDbArc
 50
180.0
 51
270.0
  0
ARC
  5
39C
330
1B
100
AcDbEntity
 67
     1
  8
0
  6
Continuous
 62
     7
370
    25
100
AcDbCircle
 10
58.7204724409
 20
0.0393700787
 30
0.0
 40
0.0393700787401414
100
AcDbArc
 50
270.0
 51
0.0
  0
ARC
  5
39D
330
1B
100
AcDbEntity
 67
     1
  8
0
  6
Continuous
 62
     7
370
    25
100
AcDbCircle
 10
20.2559055118
 20
20.8267716535
 30
0.0
 40
0.0393700787401592
100
AcDbArc
 50
0.0
 51
90.0
  0
ARC
  5
39E
330
1B
100
AcDbEntity
 67
     1
  8
0
  6
Continuous
 62
     7
370
    25
100
AcDbCircle
 10
19.625984252
 20
20.8267716535
 30
0.0
 40
0.0393700787401592
100
AcDbArc
 50
90.0
 51
180.0
  0
ARC
  5
39F
330
1B
100
AcDbEntity
 67
     1
  8
0
  6
Continuous
 62
     7
370
    25
100
AcDbCircle
 10
20.2559055118
 20
0.0393700787
 30
0.0
 40
0.0393700787401627
100
AcDbArc
 50
270.0
 51
360.0
  0
ARC
  5
3A0
330
1B
100
AcDbEntity
 67
     1
  8
0
  6
Continuous
 62
     7
370
    25
100
AcDbCircle
 10
19.625984252
 20
0.0393700787
 30
0.0
 40
0.0393700787401592
100
AcDbArc
 50
180.0
 51
270.0
  0
ARC
  5
3A1
330
1B
100
AcDbEntity
 67
     1
  8
0
  6
Continuous
 62
     7
370
    25
100
AcDbCircle
 10
58.0118110236
 20
0.7480314961
 30
0.0
 40
0.0393700787401631
100
AcDbArc
 50
270.0
 51
360.0
  0
ARC
  5
3A2
330
1B
100
AcDbEntity
 67
     1
  8
0
  6
Continuous
 62
     7
370
    25
100
AcDbCircle
 10
58.0118110236
 20
4.6062992126
 30
0.0
 40
0.039370078740177
100
AcDbArc
 50
0.0
 51
90.0
  0
ARC
  5
3A3
330
1B
100
AcDbEntity
 67
     1
  8
0
  6
Continuous
 62
     7
370
    25
100
AcDbCircle
 10
20.3346456693
 20
4.6062992126
 30
0.0
 40
0.039370078740153
100
AcDbArc
 50
90.0
 51
180.0
  0
ARC
  5
3A4
330
1B
100
AcDbEntity
 67
     1
  8
0
  6
Continuous
 62
     7
370
    25
100
AcDbCircle
 10
20.3346456693
 20
0.7480314961
 30
0.0
 40
0.0393700787401534
100
AcDbArc
 50
180.0
 51
270.0
  0
ARC
  5
3A5
330
1B
100
AcDbEntity
 67
     1
  8
0
  6
Continuous
 62
     7
370
    25
100
AcDbCircle
 10
58.0118110236
 20
0.6692913386
 30
0.0
 40
0.039370078740177
100
AcDbArc
 50
0.0
 51
90.0
  0
ARC
  5
3A6
330
1B
100
AcDbEntity
 67
     1
  8
0
  6
Continuous
 62
     7
370
    25
100
AcDbCircle
 10
58.0118110236
 20
0.0393700787
 30
0.0
 40
0.0393700787401556
100
AcDbArc
 50
270.0
 51
0.0
  0
ARC
  5
3A7
330
1B
100
AcDbEntity
 67
     1
  8
0
  6
Continuous
 62
     7
370
    25
100
AcDbCircle
 10
20.3346456693
 20
0.0393700787
 30
0.0
 40
0.0393700787401527
100
AcDbArc
 50
180.0
 51
270.0
  0
ARC
  5
3A8
330
1B
100
AcDbEntity
 67
     1
  8
0
  6
Continuous
 62
     7
370
    25
100
AcDbCircle
 10
20.3346456693
 20
0.6692913386
 30
0.0
 40
0.0393700787401521
100
AcDbArc
 50
90.0
 51
180.0
  0
ARC
  5
3A9
330
1B
100
AcDbEntity
 67
     1
  8
0
  6
Continuous
 62
     7
370
    25
100
AcDbCircle
 10
20.3346456693
 20
10.5905511811
 30
0.0
 40
0.0393700787401521
100
AcDbArc
 50
90.0
 51
180.0
  0
ARC
  5
3AA
330
1B
100
AcDbEntity
 67
     1
  8
0
  6
Continuous
 62
     7
370
    25
100
AcDbCircle
 10
20.3346456693
 20
7.5196850394
 30
0.0
 40
0.0393700787401556
100
AcDbArc
 50
180.0
 51
270.0
  0
ARC
  5
3AB
330
1B
100
AcDbEntity
 67
     1
  8
0
  6
Continuous
 62
     7
370
    25
100
AcDbCircle
 10
58.0118110236
 20
10.5905511811
 30
0.0
 40
0.0393700787401556
100
AcDbArc
 50
360.0
 51
90.0
  0
ARC
  5
3AC
330
1B
100
AcDbEntity
 67
     1
  8
0
  6
Continuous
 62
     7
370
    25
100
AcDbCircle
 10
58.0118110236
 20
7.5196850394
 30
0.0
 40
0.039370078740177
100
AcDbArc
 50
270.0
 51
360.0
  0
ARC
  5
3AD
330
1B
100
AcDbEntity
 67
     1
  8
0
  6
Continuous
 62
     7
370
    25
100
AcDbCircle
 10
20.3346456693
 20
19.2519685039
 30
0.0
 40
0.0393700787401592
100
AcDbArc
 50
90.0
 51
180.0
  0
ARC
  5
3AE
330
1B
100
AcDbEntity
 67
     1
  8
0
  6
Continuous
 62
     7
370
    25
100
AcDbCircle
 10
58.0118110236
 20
19.2519685039
 30
0.0
 40
0.0393700787401627
100
AcDbArc
 50
0.0
 51
90.0
  0
ARC
  5
3AF
330
1B
100
AcDbEntity
 67
     1
  8
0
  6
Continuous
 62
     7
370
    25
100
AcDbCircle
 10
20.3346456693
 20
16.968503937
 30
0.0
 40
0.0393700787401592
100
AcDbArc
 50
180.0
 51
270.0
  0
ARC
  5
3B0
330
1B
100
AcDbEntity
 67
     1
  8
0
  6
Continuous
 62
     7
370
    25
100
AcDbCircle
 10
58.0118110236
 20
16.968503937
 30
0.0
 40
0.0393700787401556
100
AcDbArc
 50
270.0
 51
0.0
  0
ARC
  5
3B1
330
1B
100
AcDbEntity
 67
     1
  8
0
  6
Continuous
 62
     7
370
    25
100
AcDbCircle
 10
58.0118110236
 20
20.8267716535
 30
0.0
 40
0.0393700787401556
100
AcDbArc
 50
360.0
 51
90.0
  0
ARC
  5
3B2
330
1B
100
AcDbEntity
 67
     1
  8
0
  6
Continuous
 62
     7
370
    25
100
AcDbCircle
 10
20.3346456693
 20
20.8267716535
 30
0.0
 40
0.0393700787401663
100
AcDbArc
 50
90.0
 51
180.0
  0
ARC
  5
3B3
330
1B
100
AcDbEntity
 67
     1
  8
0
  6
Continuous
 62
     7
370
    25
100
AcDbCircle
 10
18.9173228346
 20
20.8267716535
 30
0.0
 40
0.0393700787401592
100
AcDbArc
 50
90.0
 51
180.0
  0
ARC
  5
3B4
330
1B
100
AcDbEntity
 67
     1
  8
0
  6
Continuous
 62
     7
370
    25
100
AcDbCircle
 10
19.5472440945
 20
20.8267716535
 30
0.0
 40
0.0393700787401592
100
AcDbArc
 50
0.0
 51
90.0
  0
ARC
  5
3B5
330
1B
100
AcDbEntity
 67
     1
  8
0
  6
Continuous
 62
     7
370
    25
100
AcDbCircle
 10
18.9173228346
 20
0.0393700787
 30
0.0
 40
0.0393700787401592
100
AcDbArc
 50
180.0
 51
270.0
  0
ARC
  5
3B6
330
1B
100
AcDbEntity
 67
     1
  8
0
  6
Continuous
 62
     7
370
    25
100
AcDbCircle
 10
19.5472440945
 20
0.0393700787
 30
0.0
 40
0.0393700787401627
100
AcDbArc
 50
270.0
 51
360.0
  0
ARC
  5
3B7
330
1B
100
AcDbEntity
 67
     1
  8
0
  6
Continuous
 62
     7
370
    25
100
AcDbCircle
 10
-19.5472440945
 20
0.0393700787
 30
0.0
 40
0.039370078740156
100
AcDbArc
 50
180.0
 51
270.0
  0
ARC
  5
3B8
330
1B
100
AcDbEntity
 67
     1
  8
0
  6
Continuous
 62
     7
370
    25
100
AcDbCircle
 10
-18.9173228346
 20
0.0393700787
 30
0.0
 40
0.0393700787401527
100
AcDbArc
 50
270.0
 51
0.0
  0
ARC
  5
3B9
330
1B
100
AcDbEntity
 67
     1
  8
0
  6
Continuous
 62
     7
370
    25
100
AcDbCircle
 10
-18.9173228346
 20
20.8267716535
 30
0.0
 40
0.0393700787401485
100
AcDbArc
 50
360.0
 51
90.0
  0
ARC
  5
3BA
330
1B
100
AcDbEntity
 67
     1
  8
0
  6
Continuous
 62
     7
370
    25
100
AcDbCircle
 10
-19.5472440945
 20
20.8267716535
 30
0.0
 40
0.0393700787401521
100
AcDbArc
 50
90.0
 51
180.0
  0
ARC
  5
3BB
330
1B
100
AcDbEntity
 67
     1
  8
0
  6
Continuous
 62
     7
370
    25
100
AcDbCircle
 10
-18.8385826772
 20
4.6062992126
 30
0.0
 40
0.0393700787401627
100
AcDbArc
 50
90.0
 51
180.0
  0
ARC
  5
3BC
330
1B
100
AcDbEntity
 67
     1
  8
0
  6
Continuous
 62
     7
370
    25
100
AcDbCircle
 10
18.8385826772
 20
4.6062992126
 30
0.0
 40
0.0393700787401574
100
AcDbArc
 50
0.0
 51
90.0
  0
ARC
  5
3BD
330
1B
100
AcDbEntity
 67
     1
  8
0
  6
Continuous
 62
     7
370
    25
100
AcDbCircle
 10
-18.8385826772
 20
0.7480314961
 30
0.0
 40
0.0393700787401627
100
AcDbArc
 50
180.0
 51
270.0
  0
ARC
  5
3BE
330
1B
100
AcDbEntity
 67
     1
  8
0
  6
Continuous
 62
     7
370
    25
100
AcDbCircle
 10
18.8385826772
 20
0.7480314961
 30
0.0
 40
0.0393700787401663
100
AcDbArc
 50
270.0
 51
360.0
  0
ARC
  5
3BF
330
1B
100
AcDbEntity
 67
     1
  8
0
  6
Continuous
 62
     7
370
    25
100
AcDbCircle
 10
-18.8385826772
 20
0.6692913386
 30
0.0
 40
0.0393700787401627
100
AcDbArc
 50
90.0
 51
180.0
  0
ARC
  5
3C0
330
1B
100
AcDbEntity
 67
     1
  8
0
  6
Continuous
 62
     7
370
    25
100
AcDbCircle
 10
-18.8385826772
 20
0.0393700787
 30
0.0
 40
0.0393700787401627
100
AcDbArc
 50
180.0
 51
270.0
  0
ARC
  5
3C1
330
1B
100
AcDbEntity
 67
     1
  8
0
  6
Continuous
 62
     7
370
    25
100
AcDbCircle
 10
18.8385826772
 20
0.6692913386
 30
0.0
 40
0.0393700787401567
100
AcDbArc
 50
0.0
 51
90.0
  0
ARC
  5
3C2
330
1B
100
AcDbEntity
 67
     1
  8
0
  6
Continuous
 62
     7
370
    25
100
AcDbCircle
 10
18.8385826772
 20
0.0393700787
 30
0.0
 40
0.0393700787401592
100
AcDbArc
 50
270.0
 51
0.0
  0
ARC
  5
3C3
330
1B
100
AcDbEntity
 67
     1
  8
0
  6
Continuous
 62
     7
370
    25
100
AcDbCircle
 10
18.8385826772
 20
10.5905511811
 30
0.0
 40
0.0393700787401574
100
AcDbArc
 50
0.0
 51
90.0
  0
ARC
  5
3C4
330
1B
100
AcDbEntity
 67
     1
  8
0
  6
Continuous
 62
     7
370
    25
100
AcDbCircle
 10
-18.8385826772
 20
10.5905511811
 30
0.0
 40
0.039370078740161
100
AcDbArc
 50
90.0
 51
180.0
  0
ARC
  5
3C5
330
1B
100
AcDbEntity
 67
     1
  8
0
  6
Continuous
 62
     7
370
    25
100
AcDbCircle
 10
18.8385826772
 20
7.5196850394
 30
0.0
 40
0.0393700787401592
100
AcDbArc
 50
270.0
 51
360.0
  0
ARC
  5
3C6
330
1B
100
AcDbEntity
 67
     1
  8
0
  6
Continuous
 62
     7
370
    25
100
AcDbCircle
 10
-18.8385826772
 20
7.5196850394
 30
0.0
 40
0.0393700787401627
100
AcDbArc
 50
180.0
 51
270.0
  0
ARC
  5
3C7
330
1B
100
AcDbEntity
 67
     1
  8
0
  6
Continuous
 62
     7
370
    25
100
AcDbCircle
 10
-18.8385826772
 20
19.2519685039
 30
0.0
 40
0.0393700787401698
100
AcDbArc
 50
90.0
 51
180.0
  0
ARC
  5
3C8
330
1B
100
AcDbEntity
 67
     1
  8
0
  6
Continuous
 62
     7
370
    25
100
AcDbCircle
 10
18.8385826772
 20
19.2519685039
 30
0.0
 40
0.0393700787401556
100
AcDbArc
 50
0.0
 51
90.0
  0
ARC
  5
3C9
330
1B
100
AcDbEntity
 67
     1
  8
0
  6
Continuous
 62
     7
370
    25
100
AcDbCircle
 10
18.8385826772
 20
16.968503937
 30
0.0
 40
0.0393700787401592
100
AcDbArc
 50
270.0
 51
0.0
  0
ARC
  5
3CA
330
1B
100
AcDbEntity
 67
     1
  8
0
  6
Continuous
 62
     7
370
    25
100
AcDbCircle
 10
-18.8385826772
 20
16.968503937
 30
0.0
 40
0.0393700787401627
100
AcDbArc
 50
180.0
 51
270.0
  0
ARC
  5
3CB
330
1B
100
AcDbEntity
 67
     1
  8
0
  6
Continuous
 62
     7
370
    25
100
AcDbCircle
 10
18.8385826772
 20
20.8267716535
 30
0.0
 40
0.0393700787401592
100
AcDbArc
 50
0.0
 51
90.0
  0
ARC
  5
3CC
330
1B
100
AcDbEntity
 67
     1
  8
0
  6
Continuous
 62
     7
370
    25
100
AcDbCircle
 10
-18.8385826772
 20
20.8267716535
 30
0.0
 40
0.039370078740177
100
AcDbArc
 50
90.0
 51
180.0
  0
ARC
  5
3CD
330
1B
100
AcDbEntity
 67
     1
  8
0
  6
Continuous
 62
     7
370
    25
100
AcDbCircle
 10
20.4003474595
 20
11.1911264531
 30
0.0
 40
0.0263748079368146
100
AcDbArc
 50
176.7241572975
 51
273.2758427025
  0
ARC
  5
3CE
330
1B
100
AcDbEntity
 67
     1
  8
0
  6
Continuous
 62
     7
370
    25
100
AcDbCircle
 10
57.9462016502
 20
11.1910340364
 30
0.0
 40
0.0262880041756998
100
AcDbArc
 50
266.5115497877
 51
3.4884502123
  0
VIEWPORT
  5
8E1
330
1B
100
AcDbEntity
 67
     1
  8
0
100
AcDbViewport
 10
0.0
 20
0.0
 30
0.0
 40
8.4
 41
6.4
 68
     1
 69
     1
 12
-19.5866141732
 22
10.4330708661
 13
0.0
 23
0.0
 14
0.5
 24
0.5
 15
0.5
 25
0.5
 16
0.0
 26
0.0
 36
1.0
 17
0.0
 27
0.0
 37
0.0
 42
50.0
 43
0.0
 44
0.0
 45
60.8863892013
 50
0.0
 51
0.0
 72
   100
 90
   557152
  1

281
     0
 71
     1
 74
     0
110
0.0
120
0.0
130
0.0
111
1.0
121
0.0
131
0.0
112
0.0
122
1.0
132
0.0
 79
     0
146
0.0
  0
ENDSEC
  0
SECTION
  2
OBJECTS
  0
DICTIONARY
  5
C
330
0
100
AcDbDictionary
281
     1
  3
ACAD_GROUP
350
D
  3
ACAD_LAYOUT
350
1A
  3
ACAD_MLINESTYLE
350
17
  3
ACAD_PLOTSETTINGS
350
19
  3
ACAD_PLOTSTYLENAME
350
E
  3
ACAD_SCALELIST
350
47
  0
DICTIONARY
  5
D
102
{ACAD_REACTORS
330
C
102
}
330
C
100
AcDbDictionary
281
     1
  0
DICTIONARY
  5
1A
102
{ACAD_REACTORS
330
C
102
}
330
C
100
AcDbDictionary
281
     1
  3
_Back
350
1E
  3
_Isometric
350
5D8
  3
_Right
350
26
  3
_Top
350
3FF
  3
Model
350
22
  0
DICTIONARY
  5
17
102
{ACAD_REACTORS
330
C
102
}
330
C
100
AcDbDictionary
281
     1
  3
Standard
350
18
  0
DICTIONARY
  5
19
102
{ACAD_REACTORS
330
C
102
}
330
C
100
AcDbDictionary
281
     1
  0
ACDBDICTIONARYWDFLT
  5
E
102
{ACAD_REACTORS
330
C
102
}
330
C
100
AcDbDictionary
281
     1
  3
Normal
350
F
100
AcDbDictionaryWithDefault
340
F
  0
DICTIONARY
  5
47
102
{ACAD_REACTORS
330
C
102
}
330
C
100
AcDbDictionary
281
     1
  3
A0
350
48
  3
A1
350
49
  3
A2
350
4A
  3
A3
350
4B
  3
A4
350
4C
  3
A5
350
4D
  3
A6
350
4E
  3
A7
350
4F
  3
A8
350
50
  3
A9
350
51
  3
B0
350
52
  3
B1
350
53
  3
B2
350
54
  3
B3
350
55
  3
B4
350
56
  3
B5
350
57
  3
B6
350
58
  3
B7
350
59
  3
B8
350
5A
  3
B9
350
5B
  3
C0
350
5C
  3
C1
350
5D
  3
C2
350
5E
  3
C3
350
5F
  3
C4
350
60
  3
C5
350
61
  3
C6
350
62
  3
C7
350
63
  3
C8
350
64
  3
C9
350
65
  3
D0
350
66
  3
D1
350
67
  3
D2
350
68
  0
LAYOUT
  5
1E
102
{ACAD_REACTORS
330
1A
102
}
330
1A
100
AcDbPlotSettings
  1

  2
none_device
  4
Letter_(8.50_x_11.00_Inches)
  6

 40
6.35
 41
6.35
 42
6.35001
 43
6.35001
 44
215.9
 45
279.4
 46
0.0
 47
0.0
 48
0.0
 49
0.0
140
0.0
141
0.0
142
1.0
143
7.4615675839
 70
   688
 72
     0
 73
     1
 74
     1
  7

 75
     0
147
0.1340200955
148
497.5
149
0.0
100
AcDbLayout
  1
_Back
 70
     1
 71
     1
 10
-21.4520090068
 20
-1.865391896
 11
60.6252344157
 21
61.5579325669
 12
0.0
 22
0.0
 32
0.0
 14
-19.5866141732
 24
0.0
 34
0.0
 15
58.7598425197
 25
20.8661417323
 35
0.0
146
0.0
 13
0.0
 23
0.0
 33
0.0
 16
1.0
 26
0.0
 36
0.0
 17
0.0
 27
1.0
 37
0.0
 76
     0
330
1B
331
8E1
  0
LAYOUT
  5
5D8
102
{ACAD_REACTORS
330
1A
102
}
330
1A
100
AcDbPlotSettings
  1

  2
none_device
  4
Letter_(8.50_x_11.00_Inches)
  6

 40
6.35
 41
6.35
 42
6.35001
 43
6.35001
 44
215.9
 45
279.4
 46
0.0
 47
0.0
 48
0.0
 49
0.0
140
0.0
141
0.0
142
1.0
143
7.4615675839
 70
   688
 72
     0
 73
     1
 74
     1
  7

 75
     0
147
0.1340200955
148
497.5
149
0.0
100
AcDbLayout
  1
_Isometric
 70
     1
 71
     4
 10
0.0
 20
0.0
 11
0.0
 21
0.0
 12
0.0
 22
0.0
 32
0.0
 14
0.0
 24
0.0
 34
0.0
 15
0.0
 25
0.0
 35
0.0
146
0.0
 13
0.0
 23
0.0
 33
0.0
 16
1.0
 26
0.0
 36
0.0
 17
0.0
 27
1.0
 37
0.0
 76
     0
330
5D7
331
8E7
  0
LAYOUT
  5
26
102
{ACAD_REACTORS
330
1A
102
}
330
1A
100
AcDbPlotSettings
  1

  2
none_device
  4
Letter_(8.50_x_11.00_Inches)
  6

 40
6.35
 41
6.35
 42
6.35001
 43
6.35001
 44
215.9
 45
279.4
 46
0.0
 47
0.0
 48
0.0
 49
0.0
140
0.0
141
0.0
142
1.0
143
7.4615675839
 70
   688
 72
     0
 73
     1
 74
     1
  7

 75
     0
147
0.1340200955
148
497.5
149
0.0
100
AcDbLayout
  1
_Right
 70
     1
 71
     2
 10
0.0
 20
0.0
 11
0.0
 21
0.0
 12
0.0
 22
0.0
 32
0.0
 14
0.0
 24
0.0
 34
0.0
 15
0.0
 25
0.0
 35
0.0
146
0.0
 13
0.0
 23
0.0
 33
0.0
 16
1.0
 26
0.0
 36
0.0
 17
0.0
 27
1.0
 37
0.0
 76
     0
330
23
331
8E3
  0
LAYOUT
  5
3FF
102
{ACAD_REACTORS
330
1A
102
}
330
1A
100
AcDbPlotSettings
  1

  2
none_device
  4
Letter_(8.50_x_11.00_Inches)
  6

 40
6.35
 41
6.35
 42
6.35001
 43
6.35001
 44
215.9
 45
279.4
 46
0.0
 47
0.0
 48
0.0
 49
0.0
140
0.0
141
0.0
142
1.0
143
7.4615675839
 70
   688
 72
     0
 73
     1
 74
     1
  7

 75
     0
147
0.1340200955
148
497.5
149
0.0
100
AcDbLayout
  1
_Top
 70
     1
 71
     3
 10
0.0
 20
0.0
 11
0.0
 21
0.0
 12
0.0
 22
0.0
 32
0.0
 14
0.0
 24
0.0
 34
0.0
 15
0.0
 25
0.0
 35
0.0
146
0.0
 13
0.0
 23
0.0
 33
0.0
 16
1.0
 26
0.0
 36
0.0
 17
0.0
 27
1.0
 37
0.0
 76
     0
330
3FE
331
8E5
  0
LAYOUT
  5
22
102
{ACAD_REACTORS
330
1A
102
}
330
1A
100
AcDbPlotSettings
  1

  2
none_device
  4
ANSI_A_(11.00_x_8.50_Inches)
  6

 40
6.35
 41
19.05
 42
6.35000508
 43
19.05000254
 44
279.4
 45
215.9
 46
202.50149746
 47
52.0655313933
 48
0.0
 49
0.0
140
0.0
141
0.0
142
0.1389979899
143
1.0
 70
  1696
 72
     0
 73
     0
 74
     0
  7

 75
     0
147
0.5913241897
148
-39.4088153714
149
0.0
100
AcDbLayout
  1
Model
 70
     1
 71
     0
 10
0.0
 20
0.0
 11
12.0
 21
9.0
 12
0.0
 22
0.0
 32
0.0
 14
-58.7598425197
 24
0.0
 34
0.0
 15
19.5866141732
 25
20.8661417323
 35
0.0
146
0.0
 13
0.0
 23
0.0
 33
0.0
 16
1.0
 26
0.0
 36
0.0
 17
0.0
 27
1.0
 37
0.0
 76
     0
330
1F
331
29
  0
MLINESTYLE
  5
18
102
{ACAD_REACTORS
330
17
102
}
330
17
100
AcDbMlineStyle
  2
Standard
 70
     0
  3

 62
   256
 51
90.0
 52
90.0
 71
     2
 49
0.5
 62
   256
  6
BYLAYER
 49
-0.5
 62
   256
  6
BYLAYER
  0
ACDBPLACEHOLDER
  5
F
102
{ACAD_REACTORS
330
E
102
}
330
E
  0
SCALE
  5
48
102
{ACAD_REACTORS
330
47
102
}
330
47
100
AcDbScale
 70
     0
300
1:1
140
1.0
141
1.0
290
     1
  0
SCALE
  5
49
102
{ACAD_REACTORS
330
47
102
}
330
47
100
AcDbScale
 70
     0
300
1:2
140
1.0
141
2.0
290
     0
  0
SCALE
  5
4A
102
{ACAD_REACTORS
330
47
102
}
330
47
100
AcDbScale
 70
     0
300
1:4
140
1.0
141
4.0
290
     0
  0
SCALE
  5
4B
102
{ACAD_REACTORS
330
47
102
}
330
47
100
AcDbScale
 70
     0
300
1:5
140
1.0
141
5.0
290
     0
  0
SCALE
  5
4C
102
{ACAD_REACTORS
330
47
102
}
330
47
100
AcDbScale
 70
     0
300
1:8
140
1.0
141
8.0
290
     0
  0
SCALE
  5
4D
102
{ACAD_REACTORS
330
47
102
}
330
47
100
AcDbScale
 70
     0
300
1:10
140
1.0
141
10.0
290
     0
  0
SCALE
  5
4E
102
{ACAD_REACTORS
330
47
102
}
330
47
100
AcDbScale
 70
     0
300
1:16
140
1.0
141
16.0
290
     0
  0
SCALE
  5
4F
102
{ACAD_REACTORS
330
47
102
}
330
47
100
AcDbScale
 70
     0
300
1:20
140
1.0
141
20.0
290
     0
  0
SCALE
  5
50
102
{ACAD_REACTORS
330
47
102
}
330
47
100
AcDbScale
 70
     0
300
1:30
140
1.0
141
30.0
290
     0
  0
SCALE
  5
51
102
{ACAD_REACTORS
330
47
102
}
330
47
100
AcDbScale
 70
     0
300
1:40
140
1.0
141
40.0
290
     0
  0
SCALE
  5
52
102
{ACAD_REACTORS
330
47
102
}
330
47
100
AcDbScale
 70
     0
300
1:50
140
1.0
141
50.0
290
     0
  0
SCALE
  5
53
102
{ACAD_REACTORS
330
47
102
}
330
47
100
AcDbScale
 70
     0
300
1:100
140
1.0
141
100.0
290
     0
  0
SCALE
  5
54
102
{ACAD_REACTORS
330
47
102
}
330
47
100
AcDbScale
 70
     0
300
2:1
140
2.0
141
1.0
290
     0
  0
SCALE
  5
55
102
{ACAD_REACTORS
330
47
102
}
330
47
100
AcDbScale
 70
     0
300
4:1
140
4.0
141
1.0
290
     0
  0
SCALE
  5
56
102
{ACAD_REACTORS
330
47
102
}
330
47
100
AcDbScale
 70
     0
300
8:1
140
8.0
141
1.0
290
     0
  0
SCALE
  5
57
102
{ACAD_REACTORS
330
47
102
}
330
47
100
AcDbScale
 70
     0
300
10:1
140
10.0
141
1.0
290
     0
  0
SCALE
  5
58
102
{ACAD_REACTORS
330
47
102
}
330
47
100
AcDbScale
 70
     0
300
100:1
140
100.0
141
1.0
290
     0
  0
SCALE
  5
59
102
{ACAD_REACTORS
330
47
102
}
330
47
100
AcDbScale
 70
     0
300
1/128" = 1'-0"
140
0.0078125
141
12.0
290
     0
  0
SCALE
  5
5A
102
{ACAD_REACTORS
330
47
102
}
330
47
100
AcDbScale
 70
     0
300
1/64" = 1'-0"
140
0.015625
141
12.0
290
     0
  0
SCALE
  5
5B
102
{ACAD_REACTORS
330
47
102
}
330
47
100
AcDbScale
 70
     0
300
1/32" = 1'-0"
140
0.03125
141
12.0
290
     0
  0
SCALE
  5
5C
102
{ACAD_REACTORS
330
47
102
}
330
47
100
AcDbScale
 70
     0
300
1/16" = 1'-0"
140
0.0625
141
12.0
290
     0
  0
SCALE
  5
5D
102
{ACAD_REACTORS
330
47
102
}
330
47
100
AcDbScale
 70
     0
300
3/32" = 1'-0"
140
0.09375
141
12.0
290
     0
  0
SCALE
  5
5E
102
{ACAD_REACTORS
330
47
102
}
330
47
100
AcDbScale
 70
     0
300
1/8" = 1'-0"
140
0.125
141
12.0
290
     0
  0
SCALE
  5
5F
102
{ACAD_REACTORS
330
47
102
}
330
47
100
AcDbScale
 70
     0
300
3/16" = 1'-0"
140
0.1875
141
12.0
290
     0
  0
SCALE
  5
60
102
{ACAD_REACTORS
330
47
102
}
330
47
100
AcDbScale
 70
     0
300
1/4" = 1'-0"
140
0.25
141
12.0
290
     0
  0
SCALE
  5
61
102
{ACAD_REACTORS
330
47
102
}
330
47
100
AcDbScale
 70
     0
300
3/8" = 1'-0"
140
0.375
141
12.0
290
     0
  0
SCALE
  5
62
102
{ACAD_REACTORS
330
47
102
}
330
47
100
AcDbScale
 70
     0
300
1/2" = 1'-0"
140
0.5
141
12.0
290
     0
  0
SCALE
  5
63
102
{ACAD_REACTORS
330
47
102
}
330
47
100
AcDbScale
 70
     0
300
3/4" = 1'-0"
140
0.75
141
12.0
290
     0
  0
SCALE
  5
64
102
{ACAD_REACTORS
330
47
102
}
330
47
100
AcDbScale
 70
     0
300
1" = 1'-0"
140
1.0
141
12.0
290
     0
  0
SCALE
  5
65
102
{ACAD_REACTORS
330
47
102
}
330
47
100
AcDbScale
 70
     0
300
1-1/2" = 1'-0"
140
1.5
141
12.0
290
     0
  0
SCALE
  5
66
102
{ACAD_REACTORS
330
47
102
}
330
47
100
AcDbScale
 70
     0
300
3" = 1'-0"
140
3.0
141
12.0
290
     0
  0
SCALE
  5
67
102
{ACAD_REACTORS
330
47
102
}
330
47
100
AcDbScale
 70
     0
300
6" = 1'-0"
140
6.0
141
12.0
290
     0
  0
SCALE
  5
68
102
{ACAD_REACTORS
330
47
102
}
330
47
100
AcDbScale
 70
     0
300
1'-0" = 1'-0"
140
12.0
141
12.0
290
     0
  0
ENDSEC
  0
EOF
