  0
SECTION
  2
HEADER
  9
$ACADVER
  1
AC1015
  9
$ACADMAINTVER
 70
     6
  9
$DWGCODEPAGE
  3
ANSI_1252
  9
$INSBASE
 10
0.0
 20
0.0
 30
0.0
  9
$EXTMIN
 10
-58.7598425197
 20
0.0
 30
0.0
  9
$EXTMAX
 10
19.5866141732
 20
15.7480314961
 30
0.0
  9
$LIMMIN
 10
0.0
 20
0.0
  9
$LIMMAX
 10
12.0
 20
9.0
  9
$ORTHOMODE
 70
     0
  9
$REGENMODE
 70
     1
  9
$FILLMODE
 70
     1
  9
$QTEXTMODE
 70
     0
  9
$MIRRTEXT
 70
     1
  9
$LTSCALE
 40
1.0
  9
$ATTMODE
 70
     1
  9
$TEXTSIZE
 40
0.1377952756
  9
$TRACEWID
 40
0.05
  9
$TEXTSTYLE
  7
Standard
  9
$CLAYER
  8
0
  9
$CELTYPE
  6
ByLayer
  9
$CECOLOR
 62
   256
  9
$CELTSCALE
 40
1.0
  9
$DISPSILH
 70
     0
  9
$DIMSCALE
 40
1.0
  9
$DIMASZ
 40
0.13
  9
$DIMEXO
 40
0.0393700787
  9
$DIMDLI
 40
0.38
  9
$DIMRND
 40
0.0
  9
$DIMDLE
 40
0.0
  9
$DIMEXE
 40
0.0393700787
  9
$DIMTP
 40
0.0
  9
$DIMTM
 40
0.0
  9
$DIMTXT
 40
0.1377952756
  9
$DIMCEN
 40
0.09
  9
$DIMTSZ
 40
0.0
  9
$DIMTOL
 70
     0
  9
$DIMLIM
 70
     0
  9
$DIMTIH
 70
     1
  9
$DIMTOH
 70
     1
  9
$DIMSE1
 70
     0
  9
$DIMSE2
 70
     0
  9
$DIMTAD
 70
     1
  9
$DIMZIN
 70
     1
  9
$DIMBLK
  1

  9
$DIMASO
 70
     1
  9
$DIMSHO
 70
     1
  9
$DIMPOST
  1

  9
$DIMAPOST
  1

  9
$DIMALT
 70
     0
  9
$DIMALTD
 70
     2
  9
$DIMALTF
 40
25.4
  9
$DIMLFAC
 40
1.0
  9
$DIMTOFL
 70
     0
  9
$DIMTVP
 40
0.0
  9
$DIMTIX
 70
     0
  9
$DIMSOXD
 70
     0
  9
$DIMSAH
 70
     0
  9
$DIMBLK1
  1

  9
$DIMBLK2
  1

  9
$DIMSTYLE
  2
Standard
  9
$DIMCLRD
 70
     0
  9
$DIMCLRE
 70
     0
  9
$DIMCLRT
 70
     0
  9
$DIMTFAC
 40
1.0
  9
$DIMGAP
 40
0.06
  9
$DIMJUST
 70
     0
  9
$DIMSD1
 70
     0
  9
$DIMSD2
 70
     0
  9
$DIMTOLJ
 70
     1
  9
$DIMTZIN
 70
     1
  9
$DIMALTZ
 70
     0
  9
$DIMALTTZ
 70
     0
  9
$DIMUPT
 70
     0
  9
$DIMDEC
 70
     2
  9
$DIMTDEC
 70
     2
  9
$DIMALTU
 70
     2
  9
$DIMALTTD
 70
     2
  9
$DIMTXSTY
  7
Standard
  9
$DIMAUNIT
 70
     0
  9
$DIMADEC
 70
     2
  9
$DIMALTRND
 40
0.0
  9
$DIMAZIN
 70
     0
  9
$DIMDSEP
 70
    46
  9
$DIMATFIT
 70
     3
  9
$DIMFRAC
 70
     0
  9
$DIMLDRBLK
  1

  9
$DIMLUNIT
 70
     2
  9
$DIMLWD
 70
    -2
  9
$DIMLWE
 70
    -2
  9
$DIMTMOVE
 70
     0
  9
$LUNITS
 70
     2
  9
$LUPREC
 70
     2
  9
$SKETCHINC
 40
0.1
  9
$FILLETRAD
 40
0.5
  9
$AUNITS
 70
     0
  9
$AUPREC
 70
     2
  9
$MENU
  1
.
  9
$ELEVATION
 40
0.0
  9
$PELEVATION
 40
0.0
  9
$THICKNESS
 40
0.0
  9
$LIMCHECK
 70
     0
  9
$CHAMFERA
 40
0.0
  9
$CHAMFERB
 40
0.0
  9
$CHAMFERC
 40
0.0
  9
$CHAMFERD
 40
0.0
  9
$SKPOLY
 70
     0
  9
$TDCREATE
 40
2460409.545089618
  9
$TDUCREATE
 40
2460409.503422951
  9
$TDUPDATE
 40
2460409.545402488
  9
$TDUUPDATE
 40
2460409.503735822
  9
$TDINDWG
 40
0.0000000116
  9
$TDUSRTIMER
 40
0.0000000116
  9
$USRTIMER
 70
     1
  9
$ANGBASE
 50
0.0
  9
$ANGDIR
 70
     0
  9
$PDMODE
 70
     0
  9
$PDSIZE
 40
-1.0
  9
$PLINEWID
 40
0.0
  9
$SPLFRAME
 70
     0
  9
$SPLINETYPE
 70
     6
  9
$SPLINESEGS
 70
     8
  9
$HANDSEED
  5
694
  9
$SURFTAB1
 70
     6
  9
$SURFTAB2
 70
     6
  9
$SURFTYPE
 70
     6
  9
$SURFU
 70
     6
  9
$SURFV
 70
     6
  9
$UCSBASE
  2

  9
$UCSNAME
  2

  9
$UCSORG
 10
0.0
 20
0.0
 30
0.0
  9
$UCSXDIR
 10
1.0
 20
0.0
 30
0.0
  9
$UCSYDIR
 10
0.0
 20
1.0
 30
0.0
  9
$UCSORTHOREF
  2

  9
$UCSORTHOVIEW
 70
     0
  9
$UCSORGTOP
 10
0.0
 20
0.0
 30
0.0
  9
$UCSORGBOTTOM
 10
0.0
 20
0.0
 30
0.0
  9
$UCSORGLEFT
 10
0.0
 20
0.0
 30
0.0
  9
$UCSORGRIGHT
 10
0.0
 20
0.0
 30
0.0
  9
$UCSORGFRONT
 10
0.0
 20
0.0
 30
0.0
  9
$UCSORGBACK
 10
0.0
 20
0.0
 30
0.0
  9
$PUCSBASE
  2

  9
$PUCSNAME
  2

  9
$PUCSORG
 10
0.0
 20
0.0
 30
0.0
  9
$PUCSXDIR
 10
1.0
 20
0.0
 30
0.0
  9
$PUCSYDIR
 10
0.0
 20
1.0
 30
0.0
  9
$PUCSORTHOREF
  2

  9
$PUCSORTHOVIEW
 70
     0
  9
$PUCSORGTOP
 10
0.0
 20
0.0
 30
0.0
  9
$PUCSORGBOTTOM
 10
0.0
 20
0.0
 30
0.0
  9
$PUCSORGLEFT
 10
0.0
 20
0.0
 30
0.0
  9
$PUCSORGRIGHT
 10
0.0
 20
0.0
 30
0.0
  9
$PUCSORGFRONT
 10
0.0
 20
0.0
 30
0.0
  9
$PUCSORGBACK
 10
0.0
 20
0.0
 30
0.0
  9
$USERI1
 70
     0
  9
$USERI2
 70
     0
  9
$USERI3
 70
     0
  9
$USERI4
 70
     0
  9
$USERI5
 70
     0
  9
$USERR1
 40
0.0
  9
$USERR2
 40
0.0
  9
$USERR3
 40
0.0
  9
$USERR4
 40
0.0
  9
$USERR5
 40
0.0
  9
$WORLDVIEW
 70
     1
  9
$SHADEDGE
 70
     3
  9
$SHADEDIF
 70
    70
  9
$TILEMODE
 70
     1
  9
$MAXACTVP
 70
    64
  9
$PINSBASE
 10
0.0
 20
0.0
 30
0.0
  9
$PLIMCHECK
 70
     0
  9
$PEXTMIN
 10
-19.5866141732
 20
0.0
 30
0.0
  9
$PEXTMAX
 10
58.7598425197
 20
15.7480314961
 30
0.0
  9
$PLIMMIN
 10
-21.4520090068
 20
-1.865391896
  9
$PLIMMAX
 10
60.6252344157
 20
61.5579325669
  9
$UNITMODE
 70
     0
  9
$VISRETAIN
 70
     1
  9
$PLINEGEN
 70
     0
  9
$PSLTSCALE
 70
     1
  9
$TREEDEPTH
 70
  3020
  9
$CMLSTYLE
  2
Standard
  9
$CMLJUST
 70
     0
  9
$CMLSCALE
 40
1.0
  9
$PROXYGRAPHICS
 70
     1
  9
$MEASUREMENT
 70
     0
  9
$CELWEIGHT
370
    -1
  9
$ENDCAPS
280
     0
  9
$JOINSTYLE
280
     0
  9
$LWDISPLAY
290
     1
  9
$INSUNITS
 70
     1
  9
$HYPERLINKBASE
  1

  9
$STYLESHEET
  1

  9
$XEDIT
290
     1
  9
$CEPSNTYPE
380
     0
  9
$PSTYLEMODE
290
     1
  9
$FINGERPRINTGUID
  2
{823a242d-2fcc-4180-a7b8-23e6f0a0f1a0}
  9
$VERSIONGUID
  2
{FAEB1C32-E019-11D5-929B-00C0DF256EC4}
  9
$EXTNAMES
290
     1
  9
$PSVPSCALE
 40
0.0
  9
$OLESTARTUP
290
     0
  0
ENDSEC
  0
SECTION
  2
CLASSES
  0
CLASS
  1
ACDBDICTIONARYWDFLT
  2
AcDbDictionaryWithDefault
  3
ObjectDBX Classes
 90
        0
280
     0
281
     0
  0
CLASS
  1
VISUALSTYLE
  2
AcDbVisualStyle
  3
ObjectDBX Classes
 90
     4095
280
     0
281
     0
  0
CLASS
  1
MATERIAL
  2
AcDbMaterial
  3
ObjectDBX Classes
 90
     1153
280
     0
281
     0
  0
CLASS
  1
SCALE
  2
AcDbScale
  3
ObjectDBX Classes
 90
     1153
280
     0
281
     0
  0
CLASS
  1
TABLESTYLE
  2
AcDbTableStyle
  3
ObjectDBX Classes
 90
     4095
280
     0
281
     0
  0
CLASS
  1
MLEADERSTYLE
  2
AcDbMLeaderStyle
  3
ACDB_MLEADERSTYLE_CLASS
 90
     4095
280
     0
281
     0
  0
CLASS
  1
SUN
  2
AcDbSun
  3
SCENEOE
 90
     1153
280
     0
281
     0
  0
CLASS
  1
ACDBPLACEHOLDER
  2
AcDbPlaceHolder
  3
ObjectDBX Classes
 90
        0
280
     0
281
     0
  0
CLASS
  1
LAYOUT
  2
AcDbLayout
  3
ObjectDBX Classes
 90
        0
280
     0
281
     0
  0
ENDSEC
  0
SECTION
  2
TABLES
  0
TABLE
  2
VPORT
  5
8
330
0
100
AcDbSymbolTable
 70
     1
  0
VPORT
  5
29
330
8
100
AcDbSymbolTableRecord
100
AcDbViewportTableRecord
  2
*Active
 70
     0
 10
0.0
 20
0.0
 11
1.0
 21
1.0
 12
-19.5866141732
 22
7.874015748
 13
0.0
 23
0.0
 14
0.5
 24
0.5
 15
0.5
 25
0.5
 16
0.0
 26
0.0
 36
1.0
 17
0.0
 27
0.0
 37
0.0
 40
16.062992126
 41
4.975
 42
50.0
 43
0.0
 44
0.0
 50
0.0
 51
0.0
 71
     0
 72
   100
 73
     1
 74
     3
 75
     0
 76
     0
 77
     0
 78
     0
281
     0
 65
     1
110
0.0
120
0.0
130
0.0
111
1.0
121
0.0
131
0.0
112
0.0
122
1.0
132
0.0
 79
     0
146
0.0
  0
ENDTAB
  0
TABLE
  2
LTYPE
  5
5
330
0
100
AcDbSymbolTable
 70
     6
  0
LTYPE
  5
14
330
5
100
AcDbSymbolTableRecord
100
AcDbLinetypeTableRecord
  2
ByBlock
 70
     0
  3

 72
    65
 73
     0
 40
0.0
  0
LTYPE
  5
15
330
5
100
AcDbSymbolTableRecord
100
AcDbLinetypeTableRecord
  2
ByLayer
 70
     0
  3

 72
    65
 73
     0
 40
0.0
  0
LTYPE
  5
16
330
5
100
AcDbSymbolTableRecord
100
AcDbLinetypeTableRecord
  2
Continuous
 70
     0
  3
Solid line
 72
    65
 73
     0
 40
0.0
  0
LTYPE
  5
6E
330
5
100
AcDbSymbolTableRecord
100
AcDbLinetypeTableRecord
  2
HIDDEN
 70
     0
  3
Hidden __ __ __ __ __ __ __ __ __ __ __ __ __ __
 72
    65
 73
     2
 40
0.075
 49
0.05
 74
     0
 49
-0.025
 74
     0
  0
LTYPE
  5
6F
330
5
100
AcDbSymbolTableRecord
100
AcDbLinetypeTableRecord
  2
PHANTOM
 70
     0
  3
Phantom ______  __  __  ______  __  __  ______
 72
    65
 73
     6
 40
0.5
 49
0.25
 74
     0
 49
-0.05
 74
     0
 49
0.05
 74
     0
 49
-0.05
 74
     0
 49
0.05
 74
     0
 49
-0.05
 74
     0
  0
LTYPE
  5
70
330
5
100
AcDbSymbolTableRecord
100
AcDbLinetypeTableRecord
  2
CENTER
 70
     0
  3
Center ____ _ ____ _ ____ _ ____ _ ____ _ ____
 72
    65
 73
     4
 40
0.4
 49
0.25
 74
     0
 49
-0.05
 74
     0
 49
0.05
 74
     0
 49
-0.05
 74
     0
  0
LTYPE
  5
71
330
5
100
AcDbSymbolTableRecord
100
AcDbLinetypeTableRecord
  2
CENTERX2
 70
     0
  3
Center (2x) ________  __  ________  __  _____
 72
    65
 73
     4
 40
0.8
 49
0.5
 74
     0
 49
-0.1
 74
     0
 49
0.1
 74
     0
 49
-0.1
 74
     0
  0
LTYPE
  5
72
330
5
100
AcDbSymbolTableRecord
100
AcDbLinetypeTableRecord
  2
DOT2
 70
     0
  3
Dot (.5x) ........................................
 72
    65
 73
     2
 40
0.025
 49
0.0
 74
     0
 49
-0.025
 74
     0
  0
ENDTAB
  0
TABLE
  2
LAYER
  5
2
330
0
100
AcDbSymbolTable
 70
     1
  0
LAYER
  5
10
330
2
100
AcDbSymbolTableRecord
100
AcDbLayerTableRecord
  2
0
 70
     0
 62
     7
  6
Continuous
370
    -3
390
F
  0
ENDTAB
  0
TABLE
  2
STYLE
  5
3
330
0
100
AcDbSymbolTable
 70
     1
  0
STYLE
  5
11
330
3
100
AcDbSymbolTableRecord
100
AcDbTextStyleTableRecord
  2
Standard
 70
     0
 40
0.0
 41
1.0
 50
0.0
 71
     0
 42
0.1377952756
  3
txt
  4

  0
ENDTAB
  0
TABLE
  2
VIEW
  5
6
330
0
100
AcDbSymbolTable
 70
     0
  0
ENDTAB
  0
TABLE
  2
UCS
  5
7
330
0
100
AcDbSymbolTable
 70
     0
  0
ENDTAB
  0
TABLE
  2
APPID
  5
9
330
0
100
AcDbSymbolTable
 70
     1
  0
APPID
  5
12
330
9
100
AcDbSymbolTableRecord
100
AcDbRegAppTableRecord
  2
ACAD
 70
     0
  0
ENDTAB
  0
TABLE
  2
DIMSTYLE
  5
A
330
0
100
AcDbSymbolTable
 70
     1
100
AcDbDimStyleTable
  0
DIMSTYLE
105
27
330
A
100
AcDbSymbolTableRecord
100
AcDbDimStyleTableRecord
  2
Standard
 70
     0
178
     0
340
11
  0
ENDTAB
  0
TABLE
  2
BLOCK_RECORD
  5
1
330
0
100
AcDbSymbolTable
 70
     3
  0
BLOCK_RECORD
  5
1F
330
1
100
AcDbSymbolTableRecord
100
AcDbBlockTableRecord
  2
*Model_Space
340
22
  0
BLOCK_RECORD
  5
1B
330
1
100
AcDbSymbolTableRecord
100
AcDbBlockTableRecord
  2
*Paper_Space
340
1E
  0
BLOCK_RECORD
  5
23
330
1
100
AcDbSymbolTableRecord
100
AcDbBlockTableRecord
  2
*Paper_Space0
340
26
  0
BLOCK_RECORD
  5
2DF
330
1
100
AcDbSymbolTableRecord
100
AcDbBlockTableRecord
  2
*Paper_Space1
340
2E0
  0
BLOCK_RECORD
  5
44C
330
1
100
AcDbSymbolTableRecord
100
AcDbBlockTableRecord
  2
*Paper_Space2
340
44D
  0
ENDTAB
  0
ENDSEC
  0
SECTION
  2
BLOCKS
  0
BLOCK
  5
20
330
1F
100
AcDbEntity
  8
0
100
AcDbBlockBegin
  2
*Model_Space
 70
     0
 10
0.0
 20
0.0
 30
0.0
  3
*Model_Space
  1

  0
ENDBLK
  5
21
330
1F
100
AcDbEntity
  8
0
100
AcDbBlockEnd
  0
BLOCK
  5
1C
330
1B
100
AcDbEntity
 67
     1
  8
0
100
AcDbBlockBegin
  2
*Paper_Space
 70
     0
 10
0.0
 20
0.0
 30
0.0
  3
*Paper_Space
  1

  0
ENDBLK
  5
1D
330
1B
100
AcDbEntity
 67
     1
  8
0
100
AcDbBlockEnd
  0
BLOCK
  5
24
330
23
100
AcDbEntity
  8
0
100
AcDbBlockBegin
  2
*Paper_Space0
 70
     0
 10
0.0
 20
0.0
 30
0.0
  3
*Paper_Space0
  1

  0
LINE
  5
2D0
330
23
100
AcDbEntity
  8
0
  6
Continuous
 62
     7
370
    25
100
AcDbLine
 10
-8.8616451353
 20
15.7086614173
 30
0.0
 11
-8.8616451353
 21
0.0393700787
 31
0.0
  0
LINE
  5
2D1
330
23
100
AcDbEntity
  8
0
  6
Continuous
 62
     7
370
    25
100
AcDbLine
 10
-8.8222750566
 20
15.7480314961
 30
0.0
 11
-8.8222750566
 21
0.0
 31
0.0
  0
LINE
  5
2D2
330
23
100
AcDbEntity
  8
0
  6
Continuous
 62
     7
370
    25
100
AcDbLine
 10
8.9960629921
 20
15.7086614173
 30
0.0
 11
-8.8616451353
 21
15.7086614173
 31
0.0
  0
LINE
  5
2D3
330
23
100
AcDbEntity
  8
0
  6
Continuous
 62
     7
370
    25
100
AcDbLine
 10
8.9566929134
 20
0.0
 30
0.0
 11
8.9566929134
 21
15.7480314961
 31
0.0
  0
LINE
  5
2D4
330
23
100
AcDbEntity
  8
0
  6
Continuous
 62
     7
370
    25
100
AcDbLine
 10
-8.9173228346
 20
0.0393700787
 30
0.0
 11
8.9960629921
 21
0.0393700787
 31
0.0
  0
LINE
  5
2D5
330
23
100
AcDbEntity
  8
0
  6
Continuous
 62
     7
370
    25
100
AcDbLine
 10
-8.8222750566
 20
15.7480314961
 30
0.0
 11
8.9566929134
 21
15.7480314961
 31
0.0
  0
LINE
  5
2D6
330
23
100
AcDbEntity
  8
0
  6
Continuous
 62
     7
370
    25
100
AcDbLine
 10
8.9566929134
 20
0.0
 30
0.0
 11
-8.8222750566
 21
0.0
 31
0.0
  0
LINE
  5
2D7
330
23
100
AcDbEntity
  8
0
  6
Continuous
 62
     7
370
    25
100
AcDbLine
 10
8.9960629921
 20
15.7086614173
 30
0.0
 11
8.9960629921
 21
0.0393700787
 31
0.0
  0
LINE
  5
2D8
330
23
100
AcDbEntity
  8
0
  6
Continuous
 62
     7
370
    25
100
AcDbLine
 10
-8.9173228346
 20
0.0393700787
 30
0.0
 11
-8.9173228346
 21
13.9437627116
 31
0.0
  0
ARC
  5
2D9
330
23
100
AcDbEntity
  8
0
  6
Continuous
 62
     7
370
    25
100
AcDbCircle
 10
-8.8222750566
 20
15.7086614173
 30
0.0
 40
0.0393700787401574
100
AcDbArc
 50
90.0
 51
180.0
  0
ARC
  5
2DA
330
23
100
AcDbEntity
  8
0
  6
Continuous
 62
     7
370
    25
100
AcDbCircle
 10
-8.8222750566
 20
0.0393700787
 30
0.0
 40
0.0393700787401545
100
AcDbArc
 50
180.0
 51
270.0
  0
ARC
  5
2DB
330
23
100
AcDbEntity
  8
0
  6
Continuous
 62
     7
370
    25
100
AcDbCircle
 10
8.9566929134
 20
0.0393700787
 30
0.0
 40
0.0393700787401597
100
AcDbArc
 50
270.0
 51
360.0
  0
ARC
  5
2DC
330
23
100
AcDbEntity
  8
0
  6
Continuous
 62
     7
370
    25
100
AcDbCircle
 10
8.9566929134
 20
15.7086614173
 30
0.0
 40
0.0393700787401574
100
AcDbArc
 50
0.0
 51
90.0
  0
ARC
  5
2DD
330
23
100
AcDbEntity
  8
0
  6
Continuous
 62
     7
370
    25
100
AcDbCircle
 10
-8.8779527559
 20
13.9437627116
 30
0.0
 40
0.0393700787401574
100
AcDbArc
 50
65.5301994793
 51
180.0
  0
ARC
  5
2DE
330
23
100
AcDbEntity
  8
0
  6
Continuous
 62
     7
370
    25
100
AcDbCircle
 10
-8.8779527559
 20
0.0393700787
 30
0.0
 40
0.0393700787401574
100
AcDbArc
 50
180.0
 51
315.0
  0
VIEWPORT
  5
68E
330
23
100
AcDbEntity
  8
0
100
AcDbViewport
 10
0.0
 20
0.0
 30
0.0
 40
8.4
 41
6.4
 68
     1
 69
     1
 12
-19.5866141732
 22
7.874015748
 13
0.0
 23
0.0
 14
0.5
 24
0.5
 15
0.5
 25
0.5
 16
0.0
 26
0.0
 36
1.0
 17
0.0
 27
0.0
 37
0.0
 42
50.0
 43
0.0
 44
0.0
 45
60.8863892013
 50
0.0
 51
0.0
 72
   100
 90
   557152
  1

281
     0
 71
     1
 74
     0
110
0.0
120
0.0
130
0.0
111
1.0
121
0.0
131
0.0
112
0.0
122
1.0
132
0.0
 79
     0
146
0.0
  0
ENDBLK
  5
25
330
23
100
AcDbEntity
  8
0
100
AcDbBlockEnd
  0
BLOCK
  5
2E1
330
2DF
100
AcDbEntity
  8
0
100
AcDbBlockBegin
  2
*Paper_Space1
 70
     0
 10
0.0
 20
0.0
 30
0.0
  3
*Paper_Space1
  1

  0
LINE
  5
3C9
330
2DF
100
AcDbEntity
  8
0
  6
Continuous
 62
     7
370
    25
100
AcDbLine
 10
-58.7204724409
 20
8.9960629921
 30
0.0
 11
-58.7204724409
 21
-8.8222750566
 31
0.0
  0
LINE
  5
3CA
330
2DF
100
AcDbEntity
  8
0
  6
Continuous
 62
     7
370
    25
100
AcDbLine
 10
-58.0905511811
 20
-8.1923537968
 30
0.0
 11
-58.0905511811
 21
8.9960629921
 31
0.0
  0
LINE
  5
3CB
330
2DF
100
AcDbEntity
  8
0
  6
Continuous
 62
     7
370
    25
100
AcDbLine
 10
-58.7204724409
 20
-8.8222750566
 30
0.0
 11
-58.0905511811
 21
-8.1923537968
 31
0.0
  0
LINE
  5
3CC
330
2DF
100
AcDbEntity
  8
0
  6
Continuous
 62
     7
370
    25
100
AcDbLine
 10
-58.0905511811
 20
-8.1923537968
 30
0.0
 11
-58.0627123314
 21
-8.2201926464
 31
0.0
  0
LINE
  5
3CD
330
2DF
100
AcDbEntity
  8
0
  6
Continuous
 62
     7
370
    25
100
AcDbLine
 10
-58.0627123314
 20
-8.2201926464
 30
0.0
 11
-58.6926335913
 21
-8.8501139063
 31
0.0
  0
LINE
  5
3CE
330
2DF
100
AcDbEntity
  8
0
  6
Continuous
 62
     7
370
    25
100
AcDbLine
 10
-58.6926335913
 20
-8.8501139063
 30
0.0
 11
-58.7204724409
 21
-8.8222750566
 31
0.0
  0
LINE
  5
3CF
330
2DF
100
AcDbEntity
  8
0
  6
Continuous
 62
     7
370
    25
100
AcDbLine
 10
-58.7598425197
 20
-8.8222750566
 30
0.0
 11
-58.7204724409
 21
-8.8222750566
 31
0.0
  0
LINE
  5
3D0
330
2DF
100
AcDbEntity
  8
0
  6
Continuous
 62
     7
370
    25
100
AcDbLine
 10
-58.0905511811
 20
-8.1923537968
 30
0.0
 11
-58.0511811024
 21
-8.1923537968
 31
0.0
  0
LINE
  5
3D1
330
2DF
100
AcDbEntity
  8
0
  6
Continuous
 62
     7
370
    25
100
AcDbLine
 10
-58.7598425197
 20
-8.8222750566
 30
0.0
 11
-58.7598425197
 21
8.9566929134
 31
0.0
  0
LINE
  5
3D2
330
2DF
100
AcDbEntity
  8
0
  6
Continuous
 62
     7
370
    25
100
AcDbLine
 10
-58.0511811024
 20
8.9566929134
 30
0.0
 11
-58.0511811024
 21
-8.1923537968
 31
0.0
  0
LINE
  5
3D3
330
2DF
100
AcDbEntity
  8
0
  6
Continuous
 62
     7
370
    25
100
AcDbLine
 10
-58.7204724409
 20
8.9960629921
 30
0.0
 11
-58.0905511811
 21
8.9960629921
 31
0.0
  0
LINE
  5
3D4
330
2DF
100
AcDbEntity
  8
0
  6
Continuous
 62
     7
370
    25
100
AcDbLine
 10
-19.625984252
 20
-8.8222750566
 30
0.0
 11
-19.625984252
 21
8.9960629921
 31
0.0
  0
LINE
  5
3D5
330
2DF
100
AcDbEntity
  8
0
  6
Continuous
 62
     7
370
    25
100
AcDbLine
 10
-20.2559055118
 20
8.9960629921
 30
0.0
 11
-20.2559055118
 21
-8.1923537968
 31
0.0
  0
LINE
  5
3D6
330
2DF
100
AcDbEntity
  8
0
  6
Continuous
 62
     7
370
    25
100
AcDbLine
 10
-20.2559055118
 20
-8.1923537968
 30
0.0
 11
-20.2952755906
 21
-8.1923537968
 31
0.0
  0
LINE
  5
3D7
330
2DF
100
AcDbEntity
  8
0
  6
Continuous
 62
     7
370
    25
100
AcDbLine
 10
-20.2952755906
 20
-8.1923537968
 30
0.0
 11
-20.2952755906
 21
8.9566929134
 31
0.0
  0
LINE
  5
3D8
330
2DF
100
AcDbEntity
  8
0
  6
Continuous
 62
     7
370
    25
100
AcDbLine
 10
-20.2837443615
 20
-8.2201926464
 30
0.0
 11
-20.2559055118
 21
-8.1923537968
 31
0.0
  0
LINE
  5
3D9
330
2DF
100
AcDbEntity
  8
0
  6
Continuous
 62
     7
370
    25
100
AcDbLine
 10
-20.2559055118
 20
-8.1923537968
 30
0.0
 11
-19.625984252
 21
-8.8222750566
 31
0.0
  0
LINE
  5
3DA
330
2DF
100
AcDbEntity
  8
0
  6
Continuous
 62
     7
370
    25
100
AcDbLine
 10
-20.2559055118
 20
8.9960629921
 30
0.0
 11
-19.625984252
 21
8.9960629921
 31
0.0
  0
LINE
  5
3DB
330
2DF
100
AcDbEntity
  8
0
  6
Continuous
 62
     7
370
    25
100
AcDbLine
 10
-19.5866141732
 20
-8.8222750566
 30
0.0
 11
-19.5866141732
 21
8.9566929134
 31
0.0
  0
LINE
  5
3DC
330
2DF
100
AcDbEntity
  8
0
  6
Continuous
 62
     7
370
    25
100
AcDbLine
 10
-19.625984252
 20
-8.8222750566
 30
0.0
 11
-19.5472440945
 21
-8.8222750566
 31
0.0
  0
LINE
  5
3DD
330
2DF
100
AcDbEntity
  8
0
  6
Continuous
 62
     7
370
    25
100
AcDbLine
 10
-19.6538231016
 20
-8.8501139063
 30
0.0
 11
-20.2837443615
 21
-8.2201926464
 31
0.0
  0
LINE
  5
3DE
330
2DF
100
AcDbEntity
  8
0
  6
Continuous
 62
     7
370
    25
100
AcDbLine
 10
-19.625984252
 20
-8.8222750566
 30
0.0
 11
-19.6538231016
 21
-8.8501139063
 31
0.0
  0
LINE
  5
3DF
330
2DF
100
AcDbEntity
  8
0
  6
Continuous
 62
     7
370
    25
100
AcDbLine
 10
-20.3346456693
 20
8.2874015748
 30
0.0
 11
-58.0118110236
 21
8.2874015748
 31
0.0
  0
LINE
  5
3E0
330
2DF
100
AcDbEntity
  8
0
  6
Continuous
 62
     7
370
    25
100
AcDbLine
 10
-58.0511811024
 20
8.3267716535
 30
0.0
 11
-20.2952755906
 21
8.3267716535
 31
0.0
  0
LINE
  5
3E1
330
2DF
100
AcDbEntity
  8
0
  6
Continuous
 62
     7
370
    25
100
AcDbLine
 10
-58.0118110236
 20
8.9960629921
 30
0.0
 11
-20.3346456693
 21
8.9960629921
 31
0.0
  0
LINE
  5
3E2
330
2DF
100
AcDbEntity
  8
0
  6
Continuous
 62
     7
370
    25
100
AcDbLine
 10
-58.0511811024
 20
-8.1692913386
 30
0.0
 11
-20.2952755906
 21
-8.1692913386
 31
0.0
  0
LINE
  5
3E3
330
2DF
100
AcDbEntity
  8
0
  6
Continuous
 62
     7
370
    25
100
AcDbLine
 10
-20.2952755906
 20
-7.9330708661
 30
0.0
 11
-58.0511811024
 21
-7.9330708661
 31
0.0
  0
LINE
  5
3E4
330
2DF
100
AcDbEntity
  8
0
  6
Continuous
 62
     7
370
    25
100
AcDbLine
 10
-20.3346456693
 20
-8.2086614173
 30
0.0
 11
-20.3346456693
 21
8.9960629921
 31
0.0
  0
LINE
  5
3E5
330
2DF
100
AcDbEntity
  8
0
  6
Continuous
 62
     7
370
    25
100
AcDbLine
 10
-20.3346456693
 20
-8.2086614173
 30
0.0
 11
-58.0118110236
 21
-8.2086614173
 31
0.0
  0
LINE
  5
3E6
330
2DF
100
AcDbEntity
  8
0
  6
Continuous
 62
     7
370
    25
100
AcDbLine
 10
-58.0118110236
 20
-7.8937007874
 30
0.0
 11
-20.3346456693
 21
-7.8937007874
 31
0.0
  0
LINE
  5
3E7
330
2DF
100
AcDbEntity
  8
0
  6
Continuous
 62
     7
370
    25
100
AcDbLine
 10
-58.0511811024
 20
-7.8543307087
 30
0.0
 11
-20.2952755906
 21
-7.8543307087
 31
0.0
  0
LINE
  5
3E8
330
2DF
100
AcDbEntity
  8
0
  6
Continuous
 62
     7
370
    25
100
AcDbLine
 10
-20.2952755906
 20
-7.5393700787
 30
0.0
 11
-58.0511811024
 21
-7.5393700787
 31
0.0
  0
LINE
  5
3E9
330
2DF
100
AcDbEntity
  8
0
  6
Continuous
 62
     7
370
    25
100
AcDbLine
 10
-58.0118110236
 20
-7.5
 30
0.0
 11
-20.3346456693
 21
-7.5
 31
0.0
  0
LINE
  5
3EA
330
2DF
100
AcDbEntity
  8
0
  6
Continuous
 62
     7
370
    25
100
AcDbLine
 10
-58.0118110236
 20
8.9960629921
 30
0.0
 11
-58.0118110236
 21
-8.2086614173
 31
0.0
  0
LINE
  5
3EB
330
2DF
100
AcDbEntity
  8
0
  6
Continuous
 62
     7
370
    25
100
AcDbLine
 10
-19.5472440945
 20
-8.8222750566
 30
0.0
 11
-18.9173228346
 21
-8.1923537968
 31
0.0
  0
LINE
  5
3EC
330
2DF
100
AcDbEntity
  8
0
  6
Continuous
 62
     7
370
    25
100
AcDbLine
 10
-18.9173228346
 20
-8.1923537968
 30
0.0
 11
-18.889483985
 21
-8.2201926464
 31
0.0
  0
LINE
  5
3ED
330
2DF
100
AcDbEntity
  8
0
  6
Continuous
 62
     7
370
    25
100
AcDbLine
 10
-18.889483985
 20
-8.2201926464
 30
0.0
 11
-19.5194052448
 21
-8.8501139063
 31
0.0
  0
LINE
  5
3EE
330
2DF
100
AcDbEntity
  8
0
  6
Continuous
 62
     7
370
    25
100
AcDbLine
 10
-19.5194052448
 20
-8.8501139063
 30
0.0
 11
-19.5472440945
 21
-8.8222750566
 31
0.0
  0
LINE
  5
3EF
330
2DF
100
AcDbEntity
  8
0
  6
Continuous
 62
     7
370
    25
100
AcDbLine
 10
-19.5472440945
 20
8.9960629921
 30
0.0
 11
-18.9173228346
 21
8.9960629921
 31
0.0
  0
LINE
  5
3F0
330
2DF
100
AcDbEntity
  8
0
  6
Continuous
 62
     7
370
    25
100
AcDbLine
 10
-18.9173228346
 20
-8.1923537968
 30
0.0
 11
-18.9173228346
 21
8.9960629921
 31
0.0
  0
LINE
  5
3F1
330
2DF
100
AcDbEntity
  8
0
  6
Continuous
 62
     7
370
    25
100
AcDbLine
 10
-19.5472440945
 20
8.9960629921
 30
0.0
 11
-19.5472440945
 21
-8.8222750566
 31
0.0
  0
LINE
  5
3F2
330
2DF
100
AcDbEntity
  8
0
  6
Continuous
 62
     7
370
    25
100
AcDbLine
 10
-18.9173228346
 20
-8.1923537968
 30
0.0
 11
-18.8779527559
 21
-8.1923537968
 31
0.0
  0
LINE
  5
3F3
330
2DF
100
AcDbEntity
  8
0
  6
Continuous
 62
     7
370
    25
100
AcDbLine
 10
-18.8779527559
 20
8.9566929134
 30
0.0
 11
-18.8779527559
 21
-8.1923537968
 31
0.0
  0
LINE
  5
3F4
330
2DF
100
AcDbEntity
  8
0
  6
Continuous
 62
     7
370
    25
100
AcDbLine
 10
19.5194052448
 20
-8.8501139063
 30
0.0
 11
18.889483985
 21
-8.2201926464
 31
0.0
  0
LINE
  5
3F5
330
2DF
100
AcDbEntity
  8
0
  6
Continuous
 62
     7
370
    25
100
AcDbLine
 10
18.889483985
 20
-8.2201926464
 30
0.0
 11
18.9173228346
 21
-8.1923537968
 31
0.0
  0
LINE
  5
3F6
330
2DF
100
AcDbEntity
  8
0
  6
Continuous
 62
     7
370
    25
100
AcDbLine
 10
18.9173228346
 20
-8.1923537968
 30
0.0
 11
19.5472440945
 21
-8.8222750566
 31
0.0
  0
LINE
  5
3F7
330
2DF
100
AcDbEntity
  8
0
  6
Continuous
 62
     7
370
    25
100
AcDbLine
 10
19.5472440945
 20
-8.8222750566
 30
0.0
 11
19.5194052448
 21
-8.8501139063
 31
0.0
  0
LINE
  5
3F8
330
2DF
100
AcDbEntity
  8
0
  6
Continuous
 62
     7
370
    25
100
AcDbLine
 10
19.5866141732
 20
-8.8222750566
 30
0.0
 11
19.5472440945
 21
-8.8222750566
 31
0.0
  0
LINE
  5
3F9
330
2DF
100
AcDbEntity
  8
0
  6
Continuous
 62
     7
370
    25
100
AcDbLine
 10
18.9173228346
 20
-8.1923537968
 30
0.0
 11
18.8779527559
 21
-8.1923537968
 31
0.0
  0
LINE
  5
3FA
330
2DF
100
AcDbEntity
  8
0
  6
Continuous
 62
     7
370
    25
100
AcDbLine
 10
18.9173228346
 20
8.9960629921
 30
0.0
 11
18.9173228346
 21
-8.1923537968
 31
0.0
  0
LINE
  5
3FB
330
2DF
100
AcDbEntity
  8
0
  6
Continuous
 62
     7
370
    25
100
AcDbLine
 10
18.9173228346
 20
8.9960629921
 30
0.0
 11
19.5472440945
 21
8.9960629921
 31
0.0
  0
LINE
  5
3FC
330
2DF
100
AcDbEntity
  8
0
  6
Continuous
 62
     7
370
    25
100
AcDbLine
 10
19.5472440945
 20
-8.8222750566
 30
0.0
 11
19.5472440945
 21
8.9960629921
 31
0.0
  0
LINE
  5
3FD
330
2DF
100
AcDbEntity
  8
0
  6
Continuous
 62
     7
370
    25
100
AcDbLine
 10
19.5866141732
 20
8.9566929134
 30
0.0
 11
19.5866141732
 21
-8.8222750566
 31
0.0
  0
LINE
  5
3FE
330
2DF
100
AcDbEntity
  8
0
  6
Continuous
 62
     7
370
    25
100
AcDbLine
 10
18.8779527559
 20
-8.1923537968
 30
0.0
 11
18.8779527559
 21
8.9566929134
 31
0.0
  0
LINE
  5
3FF
330
2DF
100
AcDbEntity
  8
0
  6
Continuous
 62
     7
370
    25
100
AcDbLine
 10
18.8385826772
 20
8.2874015748
 30
0.0
 11
-18.8385826772
 21
8.2874015748
 31
0.0
  0
LINE
  5
400
330
2DF
100
AcDbEntity
  8
0
  6
Continuous
 62
     7
370
    25
100
AcDbLine
 10
-18.8779527559
 20
8.3267716535
 30
0.0
 11
18.8779527559
 21
8.3267716535
 31
0.0
  0
LINE
  5
401
330
2DF
100
AcDbEntity
  8
0
  6
Continuous
 62
     7
370
    25
100
AcDbLine
 10
19.5866141732
 20
8.9566929134
 30
0.0
 11
-58.7598425197
 21
8.9566929134
 31
0.0
  0
LINE
  5
402
330
2DF
100
AcDbEntity
  8
0
  6
Continuous
 62
     7
370
    25
100
AcDbLine
 10
-18.8385826772
 20
8.9960629921
 30
0.0
 11
18.8385826772
 21
8.9960629921
 31
0.0
  0
LINE
  5
403
330
2DF
100
AcDbEntity
  8
0
  6
Continuous
 62
     7
370
    25
100
AcDbLine
 10
-18.8779527559
 20
-8.1692913386
 30
0.0
 11
18.8779527559
 21
-8.1692913386
 31
0.0
  0
LINE
  5
404
330
2DF
100
AcDbEntity
  8
0
  6
Continuous
 62
     7
370
    25
100
AcDbLine
 10
18.8385826772
 20
-8.2086614173
 30
0.0
 11
-18.8385826772
 21
-8.2086614173
 31
0.0
  0
LINE
  5
405
330
2DF
100
AcDbEntity
  8
0
  6
Continuous
 62
     7
370
    25
100
AcDbLine
 10
18.8779527559
 20
-7.9330708661
 30
0.0
 11
-18.8779527559
 21
-7.9330708661
 31
0.0
  0
LINE
  5
406
330
2DF
100
AcDbEntity
  8
0
  6
Continuous
 62
     7
370
    25
100
AcDbLine
 10
-18.8385826772
 20
-7.8937007874
 30
0.0
 11
18.8385826772
 21
-7.8937007874
 31
0.0
  0
LINE
  5
407
330
2DF
100
AcDbEntity
  8
0
  6
Continuous
 62
     7
370
    25
100
AcDbLine
 10
-18.8779527559
 20
-7.8543307087
 30
0.0
 11
18.8779527559
 21
-7.8543307087
 31
0.0
  0
LINE
  5
408
330
2DF
100
AcDbEntity
  8
0
  6
Continuous
 62
     7
370
    25
100
AcDbLine
 10
-18.8385826772
 20
-7.5
 30
0.0
 11
18.8385826772
 21
-7.5
 31
0.0
  0
LINE
  5
409
330
2DF
100
AcDbEntity
  8
0
  6
Continuous
 62
     7
370
    25
100
AcDbLine
 10
18.8385826772
 20
-8.2086614173
 30
0.0
 11
18.8385826772
 21
8.9960629921
 31
0.0
  0
LINE
  5
40A
330
2DF
100
AcDbEntity
  8
0
  6
Continuous
 62
     7
370
    25
100
AcDbLine
 10
18.8779527559
 20
-7.5393700787
 30
0.0
 11
-18.8779527559
 21
-7.5393700787
 31
0.0
  0
LINE
  5
40B
330
2DF
100
AcDbEntity
  8
0
  6
Continuous
 62
     7
370
    25
100
AcDbLine
 10
-18.8385826772
 20
8.9960629921
 30
0.0
 11
-18.8385826772
 21
-8.2086614173
 31
0.0
  0
LINE
  5
40C
330
2DF
100
AcDbEntity
  8
0
  6
Continuous
 62
     7
370
    25
100
AcDbLine
 10
19.4128262377
 20
-8.9173228346
 30
0.0
 11
-19.4128262377
 21
-8.9173228346
 31
0.0
  0
LINE
  5
40D
330
2DF
100
AcDbEntity
  8
0
  6
Continuous
 62
     7
370
    25
100
AcDbLine
 10
-19.4406650874
 20
-8.8501139063
 30
0.0
 11
19.4406650874
 21
-8.8501139063
 31
0.0
  0
LINE
  5
40E
330
2DF
100
AcDbEntity
  8
0
  6
Continuous
 62
     7
370
    25
100
AcDbLine
 10
18.7992125984
 20
-8.2086614173
 30
0.0
 11
19.4406650874
 21
-8.8501139063
 31
0.0
  0
LINE
  5
40F
330
2DF
100
AcDbEntity
  8
0
  6
Continuous
 62
     7
370
    25
100
AcDbLine
 10
-18.7992125984
 20
-8.2086614173
 30
0.0
 11
-19.4406650874
 21
-8.8501139063
 31
0.0
  0
LINE
  5
410
330
2DF
100
AcDbEntity
  8
0
  6
Continuous
 62
     7
370
    25
100
AcDbLine
 10
-18.7007874016
 20
7.5393700787
 30
0.0
 11
-18.7007874016
 21
-7.5
 31
0.0
  0
LINE
  5
411
330
2DF
100
AcDbEntity
  8
0
  6
Continuous
 62
     7
370
    25
100
AcDbLine
 10
-17.9921259843
 20
-7.5
 30
0.0
 11
-17.9921259843
 21
7.5393700787
 31
0.0
  0
LINE
  5
412
330
2DF
100
AcDbEntity
  8
0
  6
Continuous
 62
     7
370
    25
100
AcDbLine
 10
18.7007874016
 20
-7.5
 30
0.0
 11
18.7007874016
 21
7.5393700787
 31
0.0
  0
LINE
  5
413
330
2DF
100
AcDbEntity
  8
0
  6
Continuous
 62
     7
370
    25
100
AcDbLine
 10
17.9921259843
 20
7.5393700787
 30
0.0
 11
17.9921259843
 21
-7.5
 31
0.0
  0
LINE
  5
414
330
2DF
100
AcDbEntity
  8
0
  6
Continuous
 62
     7
370
    25
100
AcDbLine
 10
-17.9921259843
 20
6.8307086614
 30
0.0
 11
17.9921259843
 21
6.8307086614
 31
0.0
  0
LINE
  5
415
330
2DF
100
AcDbEntity
  8
0
  6
Continuous
 62
     7
370
    25
100
AcDbLine
 10
-2.9527559055
 20
7.5393700787
 30
0.0
 11
-2.9527559055
 21
6.8307086614
 31
0.0
  0
LINE
  5
416
330
2DF
100
AcDbEntity
  8
0
  6
Continuous
 62
     7
370
    25
100
AcDbLine
 10
18.7007874016
 20
7.5393700787
 30
0.0
 11
-18.7007874016
 21
7.5393700787
 31
0.0
  0
LINE
  5
417
330
2DF
100
AcDbEntity
  8
0
  6
Continuous
 62
     7
370
    25
100
AcDbLine
 10
2.9527559055
 20
6.8307086614
 30
0.0
 11
2.9527559055
 21
7.5393700787
 31
0.0
  0
LINE
  5
418
330
2DF
100
AcDbEntity
  8
0
  6
Continuous
 62
     7
370
    25
100
AcDbLine
 10
-19.7604021088
 20
-8.9173228346
 30
0.0
 11
-58.5860545842
 21
-8.9173228346
 31
0.0
  0
LINE
  5
419
330
2DF
100
AcDbEntity
  8
0
  6
Continuous
 62
     7
370
    25
100
AcDbLine
 10
-58.6138934338
 20
-8.8501139063
 30
0.0
 11
-19.7325632591
 21
-8.8501139063
 31
0.0
  0
LINE
  5
41A
330
2DF
100
AcDbEntity
  8
0
  6
Continuous
 62
     7
370
    25
100
AcDbLine
 10
-20.374015748
 20
-8.2086614173
 30
0.0
 11
-19.7325632591
 21
-8.8501139063
 31
0.0
  0
LINE
  5
41B
330
2DF
100
AcDbEntity
  8
0
  6
Continuous
 62
     7
370
    25
100
AcDbLine
 10
-57.9724409449
 20
-8.2086614173
 30
0.0
 11
-58.6138934338
 21
-8.8501139063
 31
0.0
  0
LINE
  5
41C
330
2DF
100
AcDbEntity
  8
0
  6
Continuous
 62
     7
370
    25
100
AcDbLine
 10
-57.874015748
 20
7.5393700787
 30
0.0
 11
-57.874015748
 21
-7.5
 31
0.0
  0
LINE
  5
41D
330
2DF
100
AcDbEntity
  8
0
  6
Continuous
 62
     7
370
    25
100
AcDbLine
 10
-57.1653543307
 20
-7.5
 30
0.0
 11
-57.1653543307
 21
7.5393700787
 31
0.0
  0
LINE
  5
41E
330
2DF
100
AcDbEntity
  8
0
  6
Continuous
 62
     7
370
    25
100
AcDbLine
 10
-21.1811023622
 20
7.5393700787
 30
0.0
 11
-21.1811023622
 21
-7.5
 31
0.0
  0
LINE
  5
41F
330
2DF
100
AcDbEntity
  8
0
  6
Continuous
 62
     7
370
    25
100
AcDbLine
 10
-20.4724409449
 20
-7.5
 30
0.0
 11
-20.4724409449
 21
7.5393700787
 31
0.0
  0
LINE
  5
420
330
2DF
100
AcDbEntity
  8
0
  6
Continuous
 62
     7
370
    25
100
AcDbLine
 10
-42.125984252
 20
7.5393700787
 30
0.0
 11
-42.125984252
 21
6.8307086614
 31
0.0
  0
LINE
  5
421
330
2DF
100
AcDbEntity
  8
0
  6
Continuous
 62
     7
370
    25
100
AcDbLine
 10
-36.2204724409
 20
6.8307086614
 30
0.0
 11
-36.2204724409
 21
7.5393700787
 31
0.0
  0
LINE
  5
422
330
2DF
100
AcDbEntity
  8
0
  6
Continuous
 62
     7
370
    25
100
AcDbLine
 10
-57.1653543307
 20
6.8307086614
 30
0.0
 11
-21.1811023622
 21
6.8307086614
 31
0.0
  0
LINE
  5
423
330
2DF
100
AcDbEntity
  8
0
  6
Continuous
 62
     7
370
    25
100
AcDbLine
 10
-20.4724409449
 20
7.5393700787
 30
0.0
 11
-57.874015748
 21
7.5393700787
 31
0.0
  0
ARC
  5
424
330
2DF
100
AcDbEntity
  8
0
  6
Continuous
 62
     7
370
    25
100
AcDbCircle
 10
-58.7204724409
 20
-8.8222750566
 30
0.0
 40
0.0393700787401513
100
AcDbArc
 50
180.0
 51
315.0
  0
ARC
  5
425
330
2DF
100
AcDbEntity
  8
0
  6
Continuous
 62
     7
370
    25
100
AcDbCircle
 10
-58.0905511811
 20
-8.1923537968
 30
0.0
 40
0.0393700787401912
100
AcDbArc
 50
315.0
 51
0.0
  0
ARC
  5
426
330
2DF
100
AcDbEntity
  8
0
  6
Continuous
 62
     7
370
    25
100
AcDbCircle
 10
-58.7204724409
 20
8.9566929134
 30
0.0
 40
0.0393700787401485
100
AcDbArc
 50
90.0
 51
180.0
  0
ARC
  5
427
330
2DF
100
AcDbEntity
  8
0
  6
Continuous
 62
     7
370
    25
100
AcDbCircle
 10
-58.0905511811
 20
8.9566929134
 30
0.0
 40
0.0393700787401698
100
AcDbArc
 50
0.0
 51
90.0
  0
ARC
  5
428
330
2DF
100
AcDbEntity
  8
0
  6
Continuous
 62
     7
370
    25
100
AcDbCircle
 10
-19.625984252
 20
8.9566929134
 30
0.0
 40
0.0393700787401592
100
AcDbArc
 50
0.0
 51
90.0
  0
ARC
  5
429
330
2DF
100
AcDbEntity
  8
0
  6
Continuous
 62
     7
370
    25
100
AcDbCircle
 10
-20.2559055118
 20
-8.1923537968
 30
0.0
 40
0.0393700787401953
100
AcDbArc
 50
180.0
 51
225.0
  0
ARC
  5
42A
330
2DF
100
AcDbEntity
  8
0
  6
Continuous
 62
     7
370
    25
100
AcDbCircle
 10
-20.2559055118
 20
8.9566929134
 30
0.0
 40
0.0393700787401627
100
AcDbArc
 50
90.0
 51
180.0
  0
ARC
  5
42B
330
2DF
100
AcDbEntity
  8
0
  6
Continuous
 62
     7
370
    25
100
AcDbCircle
 10
-19.625984252
 20
-8.8222750566
 30
0.0
 40
0.0393700787401592
100
AcDbArc
 50
225.0
 51
0.0
  0
ARC
  5
42C
330
2DF
100
AcDbEntity
  8
0
  6
Continuous
 62
     7
370
    25
100
AcDbCircle
 10
-20.3346456693
 20
8.3267716535
 30
0.0
 40
0.0393700787401556
100
AcDbArc
 50
270.0
 51
0.0
  0
ARC
  5
42D
330
2DF
100
AcDbEntity
  8
0
  6
Continuous
 62
     7
370
    25
100
AcDbCircle
 10
-58.0118110236
 20
8.3267716535
 30
0.0
 40
0.039370078740177
100
AcDbArc
 50
180.0
 51
270.0
  0
ARC
  5
42E
330
2DF
100
AcDbEntity
  8
0
  6
Continuous
 62
     7
370
    25
100
AcDbCircle
 10
-20.3346456693
 20
8.9566929134
 30
0.0
 40
0.0393700787401539
100
AcDbArc
 50
360.0
 51
90.0
  0
ARC
  5
42F
330
2DF
100
AcDbEntity
  8
0
  6
Continuous
 62
     7
370
    25
100
AcDbCircle
 10
-58.0118110236
 20
8.9566929134
 30
0.0
 40
0.0393700787401556
100
AcDbArc
 50
90.0
 51
180.0
  0
ARC
  5
430
330
2DF
100
AcDbEntity
  8
0
  6
Continuous
 62
     7
370
    25
100
AcDbCircle
 10
-20.3346456693
 20
-8.1692913386
 30
0.0
 40
0.0393700787401485
100
AcDbArc
 50
270.0
 51
0.0
  0
ARC
  5
431
330
2DF
100
AcDbEntity
  8
0
  6
Continuous
 62
     7
370
    25
100
AcDbCircle
 10
-20.3346456693
 20
-7.9330708661
 30
0.0
 40
0.0393700787401565
100
AcDbArc
 50
360.0
 51
90.0
  0
ARC
  5
432
330
2DF
100
AcDbEntity
  8
0
  6
Continuous
 62
     7
370
    25
100
AcDbCircle
 10
-58.0118110236
 20
-7.9330708661
 30
0.0
 40
0.039370078740177
100
AcDbArc
 50
90.0
 51
180.0
  0
ARC
  5
433
330
2DF
100
AcDbEntity
  8
0
  6
Continuous
 62
     7
370
    25
100
AcDbCircle
 10
-58.0118110236
 20
-8.1692913386
 30
0.0
 40
0.0393700787401556
100
AcDbArc
 50
180.0
 51
270.0
  0
ARC
  5
434
330
2DF
100
AcDbEntity
  8
0
  6
Continuous
 62
     7
370
    25
100
AcDbCircle
 10
-20.3346456693
 20
-7.5393700787
 30
0.0
 40
0.0393700787401565
100
AcDbArc
 50
360.0
 51
90.0
  0
ARC
  5
435
330
2DF
100
AcDbEntity
  8
0
  6
Continuous
 62
     7
370
    25
100
AcDbCircle
 10
-58.0118110236
 20
-7.5393700787
 30
0.0
 40
0.039370078740177
100
AcDbArc
 50
90.0
 51
180.0
  0
ARC
  5
436
330
2DF
100
AcDbEntity
  8
0
  6
Continuous
 62
     7
370
    25
100
AcDbCircle
 10
-19.5472440945
 20
8.9566929134
 30
0.0
 40
0.0393700787401627
100
AcDbArc
 50
90.0
 51
180.0
  0
ARC
  5
437
330
2DF
100
AcDbEntity
  8
0
  6
Continuous
 62
     7
370
    25
100
AcDbCircle
 10
-18.9173228346
 20
8.9566929134
 30
0.0
 40
0.0393700787401592
100
AcDbArc
 50
0.0
 51
90.0
  0
ARC
  5
438
330
2DF
100
AcDbEntity
  8
0
  6
Continuous
 62
     7
370
    25
100
AcDbCircle
 10
-18.9173228346
 20
-8.1923537968
 30
0.0
 40
0.0393700787401663
100
AcDbArc
 50
315.0
 51
0.0
  0
ARC
  5
439
330
2DF
100
AcDbEntity
  8
0
  6
Continuous
 62
     7
370
    25
100
AcDbCircle
 10
-19.5472440945
 20
-8.8222750566
 30
0.0
 40
0.0393700787401592
100
AcDbArc
 50
180.0
 51
315.0
  0
ARC
  5
43A
330
2DF
100
AcDbEntity
  8
0
  6
Continuous
 62
     7
370
    25
100
AcDbCircle
 10
19.5472440945
 20
-8.8222750566
 30
0.0
 40
0.0393700787401556
100
AcDbArc
 50
225.0
 51
0.0
  0
ARC
  5
43B
330
2DF
100
AcDbEntity
  8
0
  6
Continuous
 62
     7
370
    25
100
AcDbCircle
 10
18.9173228346
 20
-8.1923537968
 30
0.0
 40
0.0393700787401343
100
AcDbArc
 50
180.0
 51
225.0
  0
ARC
  5
43C
330
2DF
100
AcDbEntity
  8
0
  6
Continuous
 62
     7
370
    25
100
AcDbCircle
 10
18.9173228346
 20
8.9566929134
 30
0.0
 40
0.0393700787401556
100
AcDbArc
 50
90.0
 51
180.0
  0
ARC
  5
43D
330
2DF
100
AcDbEntity
  8
0
  6
Continuous
 62
     7
370
    25
100
AcDbCircle
 10
19.5472440945
 20
8.9566929134
 30
0.0
 40
0.0393700787401592
100
AcDbArc
 50
0.0
 51
90.0
  0
ARC
  5
43E
330
2DF
100
AcDbEntity
  8
0
  6
Continuous
 62
     7
370
    25
100
AcDbCircle
 10
-18.8385826772
 20
8.3267716535
 30
0.0
 40
0.0393700787401592
100
AcDbArc
 50
180.0
 51
270.0
  0
ARC
  5
43F
330
2DF
100
AcDbEntity
  8
0
  6
Continuous
 62
     7
370
    25
100
AcDbCircle
 10
18.8385826772
 20
8.3267716535
 30
0.0
 40
0.0393700787401627
100
AcDbArc
 50
270.0
 51
360.0
  0
ARC
  5
440
330
2DF
100
AcDbEntity
  8
0
  6
Continuous
 62
     7
370
    25
100
AcDbCircle
 10
-18.8385826772
 20
8.9566929134
 30
0.0
 40
0.039370078740161
100
AcDbArc
 50
90.0
 51
180.0
  0
ARC
  5
441
330
2DF
100
AcDbEntity
  8
0
  6
Continuous
 62
     7
370
    25
100
AcDbCircle
 10
18.8385826772
 20
8.9566929134
 30
0.0
 40
0.0393700787401627
100
AcDbArc
 50
0.0
 51
90.0
  0
ARC
  5
442
330
2DF
100
AcDbEntity
  8
0
  6
Continuous
 62
     7
370
    25
100
AcDbCircle
 10
-18.8385826772
 20
-7.9330708661
 30
0.0
 40
0.0393700787401592
100
AcDbArc
 50
90.0
 51
180.0
  0
ARC
  5
443
330
2DF
100
AcDbEntity
  8
0
  6
Continuous
 62
     7
370
    25
100
AcDbCircle
 10
18.8385826772
 20
-7.9330708661
 30
0.0
 40
0.0393700787401627
100
AcDbArc
 50
0.0
 51
90.0
  0
ARC
  5
444
330
2DF
100
AcDbEntity
  8
0
  6
Continuous
 62
     7
370
    25
100
AcDbCircle
 10
18.8385826772
 20
-8.1692913386
 30
0.0
 40
0.0393700787401556
100
AcDbArc
 50
270.0
 51
0.0
  0
ARC
  5
445
330
2DF
100
AcDbEntity
  8
0
  6
Continuous
 62
     7
370
    25
100
AcDbCircle
 10
-18.8385826772
 20
-8.1692913386
 30
0.0
 40
0.0393700787401592
100
AcDbArc
 50
180.0
 51
270.0
  0
ARC
  5
446
330
2DF
100
AcDbEntity
  8
0
  6
Continuous
 62
     7
370
    25
100
AcDbCircle
 10
18.8385826772
 20
-7.5393700787
 30
0.0
 40
0.0393700787401627
100
AcDbArc
 50
0.0
 51
90.0
  0
ARC
  5
447
330
2DF
100
AcDbEntity
  8
0
  6
Continuous
 62
     7
370
    25
100
AcDbCircle
 10
-18.8385826772
 20
-7.5393700787
 30
0.0
 40
0.0393700787401574
100
AcDbArc
 50
90.0
 51
180.0
  0
ARC
  5
448
330
2DF
100
AcDbEntity
  8
0
  6
Continuous
 62
     7
370
    25
100
AcDbCircle
 10
19.4128262377
 20
-8.8779527559
 30
0.0
 40
0.0393700787401592
100
AcDbArc
 50
270.0
 51
45.0
  0
ARC
  5
449
330
2DF
100
AcDbEntity
  8
0
  6
Continuous
 62
     7
370
    25
100
AcDbCircle
 10
-19.4128262377
 20
-8.8779527559
 30
0.0
 40
0.0393700787401563
100
AcDbArc
 50
135.0
 51
270.0
  0
ARC
  5
44A
330
2DF
100
AcDbEntity
  8
0
  6
Continuous
 62
     7
370
    25
100
AcDbCircle
 10
-58.5860545842
 20
-8.8779527559
 30
0.0
 40
0.0393700787401574
100
AcDbArc
 50
135.0
 51
270.0
  0
ARC
  5
44B
330
2DF
100
AcDbEntity
  8
0
  6
Continuous
 62
     7
370
    25
100
AcDbCircle
 10
-19.7604021088
 20
-8.8779527559
 30
0.0
 40
0.0393700787401592
100
AcDbArc
 50
270.0
 51
45.0
  0
VIEWPORT
  5
690
330
2DF
100
AcDbEntity
  8
0
100
AcDbViewport
 10
0.0
 20
0.0
 30
0.0
 40
8.4
 41
6.4
 68
     1
 69
     1
 12
-19.5866141732
 22
7.874015748
 13
0.0
 23
0.0
 14
0.5
 24
0.5
 15
0.5
 25
0.5
 16
0.0
 26
0.0
 36
1.0
 17
0.0
 27
0.0
 37
0.0
 42
50.0
 43
0.0
 44
0.0
 45
60.8863892013
 50
0.0
 51
0.0
 72
   100
 90
   557152
  1

281
     0
 71
     1
 74
     0
110
0.0
120
0.0
130
0.0
111
1.0
121
0.0
131
0.0
112
0.0
122
1.0
132
0.0
 79
     0
146
0.0
  0
ENDBLK
  5
2E2
330
2DF
100
AcDbEntity
  8
0
100
AcDbBlockEnd
  0
BLOCK
  5
44E
330
44C
100
AcDbEntity
  8
0
100
AcDbBlockBegin
  2
*Paper_Space2
 70
     0
 10
0.0
 20
0.0
 30
0.0
  3
*Paper_Space2
  1

  0
LWPOLYLINE
  5
4C1
330
44C
100
AcDbEntity
  8
0
  6
Continuous
 62
     7
370
    25
100
AcDbPolyline
 90
        9
 70
   128
 43
0.0
 10
7.6115371844
 20
1.2301393398
 10
7.6022572614
 20
1.2261661802
 10
7.591379056
 20
1.2239192124
 10
7.5798393922
 20
1.2235919438
 10
7.5686320578
 20
1.2252125585
 10
7.5587222212
 20
1.2286414902
 10
7.5509633106
 20
1.2335834416
 10
7.5460235183
 20
1.2396128153
 10
7.544328256
 20
1.2462103656
  0
LWPOLYLINE
  5
4C5
330
44C
100
AcDbEntity
  8
0
  6
Continuous
 62
     7
370
    25
100
AcDbPolyline
 90
        9
 70
   128
 43
0.0
 10
7.6115371844
 20
-11.5644765315
 10
7.6022572614
 20
-11.5684496911
 10
7.591379056
 20
-11.5706966588
 10
7.5798393922
 20
-11.5710239275
 10
7.5686320578
 20
-11.5694033128
 10
7.5587222212
 20
-11.5659743811
 10
7.5509633106
 20
-11.5610324296
 10
7.5460235183
 20
-11.555003056
 10
7.544328256
 20
-11.5484055057
  0
LWPOLYLINE
  5
4DE
330
44C
100
AcDbEntity
  8
0
  6
Continuous
 62
     7
370
    25
100
AcDbPolyline
 90
       14
 70
   128
 43
0.0
 10
-20.0324405211
 20
15.6699583833
 10
-20.037002611
 20
15.67891322
 10
-20.0405032402
 20
15.6881011844
 10
-20.0428277272
 20
15.697221277
 10
-20.0438999216
 20
15.705974722
 10
-20.043684698
 20
15.7140747549
 10
-20.0421891071
 20
15.7212560169
 10
-20.0394621449
 20
15.7272832488
 10
-20.035593147
 20
15.7319589971
 10
-20.0307088627
 20
15.7351300837
 10
-20.0249693019
 20
15.736692623
 10
-20.0185624938
 20
15.7365954259
 10
-20.0116983265
 20
15.7348416768
 10
-20.0046016714
 20
15.7314888287
  0
LWPOLYLINE
  5
4E0
330
44C
100
AcDbEntity
  8
0
  6
Continuous
 62
     7
370
    25
100
AcDbPolyline
 90
       14
 70
   128
 43
0.0
 10
7.4214416283
 20
-0.1788304306
 10
7.4269157241
 20
-0.1756693606
 10
7.4331224935
 20
-0.1720853581
 10
7.4398586014
 20
-0.1681958356
 10
7.4469033717
 20
-0.1641282146
 10
7.4540260165
 20
-0.1600157511
 10
7.4609931966
 20
-0.1559931702
 10
7.4675766658
 20
-0.1521922525
 10
7.4735607485
 20
-0.1487375166
 10
7.478749405
 20
-0.1457421404
 10
7.482972654
 20
-0.1433042529
 10
7.486092141
 20
-0.1415037199
 10
7.4880056711
 20
-0.140399527
 10
7.4886505567
 20
-0.1400278479
  0
LWPOLYLINE
  5
4E2
330
44C
100
AcDbEntity
  8
0
  6
Continuous
 62
     7
370
    25
100
AcDbPolyline
 90
        9
 70
   128
 43
0.0
 10
7.4214416283
 20
-11.5323344798
 10
7.4307215513
 20
-11.5363076394
 10
7.4415997566
 20
-11.5385546072
 10
7.4531394205
 20
-11.5388818758
 10
7.4643467548
 20
-11.5372612612
 10
7.4742565915
 20
-11.5338323295
 10
7.482015502
 20
-11.528890378
 10
7.4869552943
 20
-11.5228610043
 10
7.4886505567
 20
-11.516263454
  0
LWPOLYLINE
  5
4F1
330
44C
100
AcDbEntity
  8
0
  6
Continuous
 62
     7
370
    25
100
AcDbPolyline
 90
       46
 70
   128
 43
0.0
 10
2.7421266908
 20
7.9987435867
 10
2.7472127437
 20
7.8276214244
 10
2.7624461237
 20
7.6514607205
 10
2.7877526152
 20
7.4711197122
 10
2.8230089275
 20
7.2874770026
 10
2.8680432955
 20
7.1014272806
 10
2.9226363163
 20
6.9138769618
 10
2.9865220181
 20
6.7257397725
 10
3.0593891562
 20
6.5379322982
 10
3.1408827293
 20
6.3513695179
 10
3.2306057088
 20
6.1669603468
 10
3.3281209735
 20
5.9856032078
 10
3.4329534386
 20
5.8081816548
 10
3.5445923711
 20
5.6355600675
 10
3.6624938773
 20
5.4685794412
 10
3.7860835528
 20
5.3080532886
 10
3.9147592812
 20
5.154763677
 10
4.0478941673
 20
5.0094574179
 10
4.1848395913
 20
4.8728424289
 10
4.3249283688
 20
4.7455842844
 10
4.4674780015
 20
4.6283029734
 10
4.6117940018
 20
4.5215698786
 10
4.7571732767
 20
4.4259049929
 10
4.9029075529
 20
4.341774386
 10
5.0482868278
 20
4.2695879337
 10
5.1926028281
 20
4.2096973213
 10
5.3351524608
 20
4.1623943297
 10
5.4752412383
 20
4.1279094144
 10
5.6121866623
 20
4.1064105825
 10
5.7453215484
 20
4.0980025739
 10
5.8739972768
 20
4.1027263519
 10
5.9975869523
 20
4.1205589024
 10
6.1154884585
 20
4.1514133473
 10
6.2271273909
 20
4.1951393667
 10
6.3319598561
 20
4.2515239318
 10
6.4294751208
 20
4.3202923427
 10
6.5191981003
 20
4.4011095667
 10
6.6006916734
 20
4.4935818703
 10
6.6735588115
 20
4.5972587377
 10
6.7374445133
 20
4.7116350658
 10
6.7920375341
 20
4.8361536244
 10
6.8370719021
 20
4.9702077718
 10
6.8723282144
 20
5.1131444096
 10
6.8976347059
 20
5.2642671648
 10
6.9128680859
 20
5.4228397826
 10
6.9179541388
 20
5.5880897132
  0
LWPOLYLINE
  5
4F6
330
44C
100
AcDbEntity
  8
0
  6
Continuous
 62
     7
370
    25
100
AcDbPolyline
 90
       33
 70
   128
 43
0.0
 10
6.5354381207
 20
4.417912064
 10
6.4986862461
 20
4.4098373673
 10
6.3750965705
 20
4.3920048167
 10
6.2464208421
 20
4.3872810388
 10
6.113285956
 20
4.3956890473
 10
5.976340532
 20
4.4171878793
 10
5.8362517545
 20
4.4516727946
 10
5.6937021218
 20
4.4989757861
 10
5.5493861216
 20
4.5588663986
 10
5.4040068467
 20
4.6310528508
 10
5.2582725704
 20
4.7151834577
 10
5.1128932955
 20
4.8108483434
 10
4.9685772953
 20
4.9175814382
 10
4.8260276626
 20
5.0348627493
 10
4.6859388851
 20
5.1621208937
 10
4.5489934611
 20
5.2987358827
 10
4.415858575
 20
5.4440421418
 10
4.2871828466
 20
5.5973317534
 10
4.163593171
 20
5.757857906
 10
4.0456916649
 20
5.9248385324
 10
3.9340527324
 20
6.0974601196
 10
3.8292202672
 20
6.2748816726
 10
3.7317050026
 20
6.4562388116
 10
3.6419820231
 20
6.6406479827
 10
3.56048845
 20
6.827210763
 10
3.4876213119
 20
7.0150182374
 10
3.4237356101
 20
7.2031554267
 10
3.3691425893
 20
7.3907057454
 10
3.3241082213
 20
7.5767554674
 10
3.2888519089
 20
7.760398177
 10
3.2635454174
 20
7.9407391854
 10
3.2483120375
 20
8.1168998893
 10
3.2432259846
 20
8.2880220515
  0
LWPOLYLINE
  5
4FA
330
44C
100
AcDbEntity
  8
0
  6
Continuous
 62
     7
370
    25
100
AcDbPolyline
 90
       14
 70
   128
 43
0.0
 10
-47.7320959258
 20
31.6606290774
 10
-47.7366580158
 20
31.6695839141
 10
-47.7401586449
 20
31.6787718786
 10
-47.742483132
 20
31.6878919712
 10
-47.7435553263
 20
31.6966454162
 10
-47.7433401027
 20
31.704745449
 10
-47.7418445119
 20
31.7119267111
 10
-47.7391175496
 20
31.7179539429
 10
-47.7352485518
 20
31.7226296913
 10
-47.7303642674
 20
31.7258007778
 10
-47.7246247067
 20
31.7273633171
 10
-47.7182178985
 20
31.7272661201
 10
-47.7113537312
 20
31.7255123709
 10
-47.7042570762
 20
31.7221595228
  0
LWPOLYLINE
  5
4FC
330
44C
100
AcDbEntity
  8
0
  6
Continuous
 62
     7
370
    25
100
AcDbPolyline
 90
       14
 70
   128
 43
0.0
 10
-20.2782137765
 20
15.8118402636
 10
-20.2727396806
 20
15.8150013335
 10
-20.2665329113
 20
15.8185853361
 10
-20.2597968034
 20
15.8224748586
 10
-20.252752033
 20
15.8265424796
 10
-20.2456293882
 20
15.8306549431
 10
-20.2386622082
 20
15.8346775239
 10
-20.232078739
 20
15.8384784417
 10
-20.2260946563
 20
15.8419331775
 10
-20.2209059997
 20
15.8449285538
 10
-20.2166827508
 20
15.8473664412
 10
-20.2135632637
 20
15.8491669743
 10
-20.2116497336
 20
15.8502711672
 10
-20.2110048481
 20
15.8506428463
  0
LWPOLYLINE
  5
4FE
330
44C
100
AcDbEntity
  8
0
  6
Continuous
 62
     7
370
    25
100
AcDbPolyline
 90
        9
 70
   128
 43
0.0
 10
-20.2782137765
 20
4.4583362143
 10
-20.2689338535
 20
4.4543630548
 10
-20.2580556482
 20
4.452116087
 10
-20.2465159843
 20
4.4517888183
 10
-20.23530865
 20
4.453409433
 10
-20.2253988133
 20
4.4568383647
 10
-20.2176399027
 20
4.4617803162
 10
-20.2127001105
 20
4.4678096899
 10
-20.2110048481
 20
4.4744072401
  0
LWPOLYLINE
  5
50D
330
44C
100
AcDbEntity
  8
0
  6
Continuous
 62
     7
370
    25
100
AcDbPolyline
 90
       46
 70
   128
 43
0.0
 10
-24.9575287139
 20
23.9894142808
 10
-24.952442661
 20
23.8182921186
 10
-24.9372092811
 20
23.6421314147
 10
-24.9119027896
 20
23.4617904063
 10
-24.8766464772
 20
23.2781476967
 10
-24.8316121092
 20
23.0920979748
 10
-24.7770190884
 20
22.904547656
 10
-24.7131333866
 20
22.7164104667
 10
-24.6402662485
 20
22.5286029923
 10
-24.5587726754
 20
22.342040212
 10
-24.4690496959
 20
22.1576310409
 10
-24.3715344313
 20
21.976273902
 10
-24.2667019661
 20
21.7988523489
 10
-24.1550630336
 20
21.6262307617
 10
-24.0371615275
 20
21.4592501354
 10
-23.9135718519
 20
21.2987239828
 10
-23.7848961235
 20
21.1454343711
 10
-23.6517612374
 20
21.0001281121
 10
-23.5148158134
 20
20.8635131231
 10
-23.3747270359
 20
20.7362549786
 10
-23.2321774032
 20
20.6189736676
 10
-23.087861403
 20
20.5122405728
 10
-22.9424821281
 20
20.416575687
 10
-22.7967478518
 20
20.3324450801
 10
-22.6513685769
 20
20.2602586279
 10
-22.5070525767
 20
20.2003680155
 10
-22.364502944
 20
20.1530650239
 10
-22.2244141665
 20
20.1185801086
 10
-22.0874687425
 20
20.0970812766
 10
-21.9543338564
 20
20.0886732681
 10
-21.825658128
 20
20.093397046
 10
-21.7020684524
 20
20.1112295966
 10
-21.5841669463
 20
20.1420840415
 10
-21.4725280138
 20
20.1858100608
 10
-21.3676955486
 20
20.2421946259
 10
-21.270180284
 20
20.3109630369
 10
-21.1804573045
 20
20.3917802608
 10
-21.0989637314
 20
20.4842525644
 10
-21.0260965933
 20
20.5879294319
 10
-20.9622108915
 20
20.7023057599
 10
-20.9076178707
 20
20.8268243186
 10
-20.8625835027
 20
20.960878466
 10
-20.8273271903
 20
21.1038151038
 10
-20.8020206988
 20
21.254937859
 10
-20.7867873189
 20
21.4135104768
 10
-20.781701266
 20
21.5787604073
  0
LWPOLYLINE
  5
512
330
44C
100
AcDbEntity
  8
0
  6
Continuous
 62
     7
370
    25
100
AcDbPolyline
 90
       33
 70
   128
 43
0.0
 10
-21.1642172841
 20
20.4085827582
 10
-21.2009691587
 20
20.4005080614
 10
-21.3245588342
 20
20.3826755108
 10
-21.4532345626
 20
20.3779517329
 10
-21.5863694487
 20
20.3863597414
 10
-21.7233148727
 20
20.4078585734
 10
-21.8634036502
 20
20.4423434887
 10
-22.0059532829
 20
20.4896464803
 10
-22.1502692832
 20
20.5495370927
 10
-22.2956485581
 20
20.621723545
 10
-22.4413828343
 20
20.7058541519
 10
-22.5867621092
 20
20.8015190376
 10
-22.7310781095
 20
20.9082521324
 10
-22.8736277421
 20
21.0255334434
 10
-23.0137165197
 20
21.1527915879
 10
-23.1506619437
 20
21.2894065769
 10
-23.2837968298
 20
21.434712836
 10
-23.4124725582
 20
21.5880024476
 10
-23.5360622337
 20
21.7485286002
 10
-23.6539637399
 20
21.9155092265
 10
-23.7656026723
 20
22.0881308137
 10
-23.8704351375
 20
22.2655523668
 10
-23.9679504022
 20
22.4469095058
 10
-24.0576733817
 20
22.6313186769
 10
-24.1391669548
 20
22.8178814572
 10
-24.2120340929
 20
23.0056889315
 10
-24.2759197947
 20
23.1938261208
 10
-24.3305128155
 20
23.3813764396
 10
-24.3755471835
 20
23.5674261616
 10
-24.4108034958
 20
23.7510688711
 10
-24.4361099873
 20
23.9314098795
 10
-24.4513433673
 20
24.1075705834
 10
-24.4564294202
 20
24.2786927456
  0
LWPOLYLINE
  5
518
330
44C
100
AcDbEntity
  8
0
  6
Continuous
 62
     8
370
    25
100
AcDbPolyline
 90
        7
 70
   128
 43
0.0
 10
-47.7599347755
 20
33.1726818396
 10
-47.7713633061
 20
33.1736604938
 10
-47.7818076193
 20
33.1765121751
 10
-47.7903682579
 20
33.1809912988
 10
-47.7963079854
 20
33.1867121258
 10
-47.7991152765
 20
33.1931819822
 10
-47.7993048542
 20
33.1954097023
  0
LWPOLYLINE
  5
51B
330
44C
100
AcDbEntity
  8
0
  6
Continuous
 62
     8
370
    25
100
AcDbPolyline
 90
        7
 70
   128
 43
0.0
 10
-47.7599347755
 20
20.3780659683
 10
-47.7713633061
 20
20.3790446225
 10
-47.7818076193
 20
20.3818963038
 10
-47.7903682579
 20
20.3863754276
 10
-47.7963079854
 20
20.3920962545
 10
-47.7991152765
 20
20.3985661109
 10
-47.7993048542
 20
20.400793831
  0
LWPOLYLINE
  5
523
330
44C
100
AcDbEntity
  8
0
  6
Continuous
 62
     8
370
    25
100
AcDbPolyline
 90
        8
 70
   128
 43
0.0
 10
-20.0977821749
 20
17.2167199421
 10
-20.1082763487
 20
17.2145899066
 10
-20.1198160126
 20
17.214262638
 10
-20.1310233469
 20
17.2158832526
 10
-20.1409331836
 20
17.2193121843
 10
-20.1486920941
 20
17.2242541358
 10
-20.1536318864
 20
17.2302835095
 10
-20.1553271488
 20
17.2368810598
  0
LWPOLYLINE
  5
525
330
44C
100
AcDbEntity
  8
0
  6
Continuous
 62
     8
370
    25
100
AcDbPolyline
 90
        8
 70
   128
 43
0.0
 10
-20.0996494495
 20
4.4215787488
 10
-20.1082763487
 20
4.4199740353
 10
-20.1198160126
 20
4.4196467667
 10
-20.1310233469
 20
4.4212673813
 10
-20.1409331836
 20
4.4246963131
 10
-20.1486920941
 20
4.4296382645
 10
-20.1536318864
 20
4.4356676382
 10
-20.1553271488
 20
4.4422651885
  0
LWPOLYLINE
  5
548
330
44C
100
AcDbEntity
  8
0
  6
Continuous
 62
     8
370
    25
100
AcDbPolyline
 90
        7
 70
   128
 43
0.0
 10
-20.0602793707
 20
17.1820111454
 10
-20.0717079013
 20
17.1829897996
 10
-20.0821522146
 20
17.185841481
 10
-20.0907128532
 20
17.1903206047
 10
-20.0966525807
 20
17.1960414316
 10
-20.0994598718
 20
17.202511288
 10
-20.0996494495
 20
17.2047390081
  0
LWPOLYLINE
  5
54B
330
44C
100
AcDbEntity
  8
0
  6
Continuous
 62
     8
370
    25
100
AcDbPolyline
 90
        7
 70
   128
 43
0.0
 10
-20.0602793707
 20
4.3873952742
 10
-20.0717079013
 20
4.3883739283
 10
-20.0821522146
 20
4.3912256097
 10
-20.0907128532
 20
4.3957047334
 10
-20.0966525807
 20
4.4014255603
 10
-20.0994598718
 20
4.4078954167
 10
-20.0996494495
 20
4.4101231368
  0
LINE
  5
57B
330
44C
100
AcDbEntity
  8
0
  6
Continuous
 62
     7
370
    25
100
AcDbLine
 10
-47.7993048542
 20
33.1954097023
 30
0.0
 11
-47.7993048542
 21
20.400793831
 31
0.0
  0
LINE
  5
57C
330
44C
100
AcDbEntity
  8
0
  6
Continuous
 62
     7
370
    25
100
AcDbLine
 10
-35.207989401
 20
40.4869529495
 30
0.0
 11
-47.7796182151
 21
33.2295061142
 31
0.0
  0
LINE
  5
57D
330
44C
100
AcDbEntity
  8
0
  6
Continuous
 62
     7
370
    25
100
AcDbLine
 10
-47.7599347755
 20
20.3614237523
 30
0.0
 11
-47.7436271549
 21
20.3614237523
 31
0.0
  0
LINE
  5
57E
330
44C
100
AcDbEntity
  8
0
  6
Continuous
 62
     7
370
    25
100
AcDbLine
 10
-34.7035142882
 20
31.1338800715
 30
0.0
 11
-34.7035142882
 21
40.1957201244
 31
0.0
  0
LINE
  5
57F
330
44C
100
AcDbEntity
  8
0
  6
Continuous
 62
     7
370
    25
100
AcDbLine
 10
-34.7232009273
 20
40.2298165363
 30
0.0
 11
-35.1686225218
 21
40.4869529495
 31
0.0
  0
LINE
  5
580
330
44C
100
AcDbEntity
  8
0
  6
Continuous
 62
     7
370
    25
100
AcDbLine
 10
-8.00943329
 20
24.7855607201
 30
0.0
 11
-20.1356405097
 21
17.785250298
 31
0.0
  0
LINE
  5
581
330
44C
100
AcDbEntity
  8
0
  6
Continuous
 62
     7
370
    25
100
AcDbLine
 10
-7.5246448163
 20
24.5284243069
 30
0.0
 11
-7.9700664108
 21
24.7855607201
 31
0.0
  0
LINE
  5
582
330
44C
100
AcDbEntity
  8
0
  6
Continuous
 62
     7
370
    25
100
AcDbLine
 10
-15.8415814923
 20
20.2641578037
 30
0.0
 11
-34.667523228
 21
31.1321426362
 31
0.0
  0
LINE
  5
583
330
44C
100
AcDbEntity
  8
0
  6
Continuous
 62
     7
370
    25
100
AcDbLine
 10
-35.1719983408
 20
30.8409098111
 30
0.0
 11
-35.1719983408
 21
30.7539844961
 31
0.0
  0
LINE
  5
584
330
44C
100
AcDbEntity
  8
0
  6
Continuous
 62
     7
370
    25
100
AcDbLine
 10
-34.7068901073
 20
31.1321426362
 30
0.0
 11
-35.1523117017
 21
30.875006223
 31
0.0
  0
LINE
  5
585
330
44C
100
AcDbEntity
  8
0
  6
Continuous
 62
     7
370
    25
100
AcDbLine
 10
-20.2110048481
 20
4.9847768874
 30
0.0
 11
-20.1750105884
 21
4.9639978435
 31
0.0
  0
LINE
  5
586
330
44C
100
AcDbEntity
  8
0
  6
Continuous
 62
     7
370
    25
100
AcDbLine
 10
-19.9686106112
 20
17.9232326936
 30
0.0
 11
-46.6103897292
 21
33.3032044065
 31
0.0
  0
LINE
  5
587
330
44C
100
AcDbEntity
  8
0
  6
Continuous
 62
     7
370
    25
100
AcDbLine
 10
-20.2110048481
 20
14.6289597049
 30
0.0
 11
-20.1750105884
 21
14.6081806611
 31
0.0
  0
LINE
  5
588
330
44C
100
AcDbEntity
  8
0
  6
Continuous
 62
     7
370
    25
100
AcDbLine
 10
-46.8364763455
 20
33.1726818396
 30
0.0
 11
-46.8364763455
 21
31.2212003702
 31
0.0
  0
LINE
  5
589
330
44C
100
AcDbEntity
  8
0
  6
Continuous
 62
     7
370
    25
100
AcDbLine
 10
-46.6497566084
 20
33.3032044065
 30
0.0
 11
-46.8167897063
 21
33.2067782515
 31
0.0
  0
LINE
  5
58A
330
44C
100
AcDbEntity
  8
0
  6
Continuous
 62
     7
370
    25
100
AcDbLine
 10
-20.0996494495
 20
17.2047390081
 30
0.0
 11
-20.0996494495
 21
4.4101231368
 31
0.0
  0
LINE
  5
58B
330
44C
100
AcDbEntity
  8
0
  6
Continuous
 62
     7
370
    25
100
AcDbLine
 10
-7.5083339963
 20
24.4962822553
 30
0.0
 11
-20.0799628104
 21
17.23883542
 31
0.0
  0
LINE
  5
58C
330
44C
100
AcDbEntity
  8
0
  6
Continuous
 62
     7
370
    25
100
AcDbLine
 10
-20.0602793707
 20
4.3707530581
 30
0.0
 11
-20.0439717502
 21
4.3707530581
 31
0.0
  0
LINE
  5
58D
330
44C
100
AcDbEntity
  8
0
  6
Continuous
 62
     7
370
    25
100
AcDbLine
 10
-7.0038588835
 20
15.1432093774
 30
0.0
 11
-7.0038588835
 21
24.2050494302
 31
0.0
  0
LINE
  5
58E
330
44C
100
AcDbEntity
  8
0
  6
Continuous
 62
     7
370
    25
100
AcDbLine
 10
-7.0235455226
 20
24.2391458421
 30
0.0
 11
-7.468967117
 21
24.4962822553
 31
0.0
  0
LINE
  5
58F
330
44C
100
AcDbEntity
  8
0
  6
Continuous
 62
     7
370
    25
100
AcDbLine
 10
19.6902221147
 20
8.794890026
 30
0.0
 11
7.5640148951
 21
1.7945796039
 31
0.0
  0
LINE
  5
590
330
44C
100
AcDbEntity
  8
0
  6
Continuous
 62
     7
370
    25
100
AcDbLine
 10
7.6033817743
 20
-11.5825019176
 30
0.0
 11
20.1750105884
 21
-4.3250550823
 31
0.0
  0
LINE
  5
591
330
44C
100
AcDbEntity
  8
0
  6
Continuous
 62
     7
370
    25
100
AcDbLine
 10
20.1946972275
 20
-4.2909586704
 30
0.0
 11
20.1946972275
 21
8.5036572009
 31
0.0
  0
LINE
  5
592
330
44C
100
AcDbEntity
  8
0
  6
Continuous
 62
     7
370
    25
100
AcDbLine
 10
20.1750105884
 20
8.5377536128
 30
0.0
 11
19.729588994
 21
8.794890026
 31
0.0
  0
LINE
  5
593
330
44C
100
AcDbEntity
  8
0
  6
Continuous
 62
     7
370
    25
100
AcDbLine
 10
11.8580739124
 20
4.2734871095
 30
0.0
 11
-6.9678678233
 21
15.141471942
 31
0.0
  0
LINE
  5
594
330
44C
100
AcDbEntity
  8
0
  6
Continuous
 62
     7
370
    25
100
AcDbLine
 10
-7.4723429361
 20
14.8502391169
 30
0.0
 11
-7.4723429361
 21
14.7633138019
 31
0.0
  0
LINE
  5
595
330
44C
100
AcDbEntity
  8
0
  6
Continuous
 62
     7
370
    25
100
AcDbLine
 10
-7.0072347025
 20
15.141471942
 30
0.0
 11
-7.452656297
 21
14.8843355288
 31
0.0
  0
LINE
  5
596
330
44C
100
AcDbEntity
  8
0
  6
Continuous
 62
     7
370
    25
100
AcDbLine
 10
7.4886505567
 20
-11.0058938068
 30
0.0
 11
7.5246448163
 21
-11.0266728506
 31
0.0
  0
LINE
  5
597
330
44C
100
AcDbEntity
  8
0
  6
Continuous
 62
     7
370
    25
100
AcDbLine
 10
7.7310447935
 20
1.9325619994
 30
0.0
 11
-18.9107343244
 21
17.3125337123
 31
0.0
  0
LINE
  5
598
330
44C
100
AcDbEntity
  8
0
  6
Continuous
 62
     7
370
    25
100
AcDbLine
 10
7.4886505567
 20
-1.3617109892
 30
0.0
 11
7.5246448163
 21
-1.3824900331
 31
0.0
  0
LINE
  5
599
330
44C
100
AcDbEntity
  8
0
  6
Continuous
 62
     7
370
    25
100
AcDbLine
 10
-19.1368209407
 20
17.1820111454
 30
0.0
 11
-19.1368209407
 21
15.230529676
 31
0.0
  0
LINE
  5
59A
330
44C
100
AcDbEntity
  8
0
  6
Continuous
 62
     7
370
    25
100
AcDbLine
 10
-18.9501012037
 20
17.3125337123
 30
0.0
 11
-19.1171343016
 21
17.2161075574
 31
0.0
  0
LINE
  5
59B
330
44C
100
AcDbEntity
  8
0
  6
Continuous
 62
     7
370
    25
100
AcDbLine
 10
-20.024285111
 20
4.2984289479
 30
0.0
 11
7.4295970383
 21
-11.5503598659
 31
0.0
  0
LINE
  5
59C
330
44C
100
AcDbEntity
  8
0
  6
Continuous
 62
     7
370
    25
100
AcDbLine
 10
-20.0439717502
 20
15.708760966
 30
0.0
 11
-20.0439717502
 21
4.3325253598
 31
0.0
  0
LINE
  5
59D
330
44C
100
AcDbEntity
  8
0
  6
Continuous
 62
     7
370
    25
100
AcDbLine
 10
-47.7239405158
 20
20.2890996421
 30
0.0
 11
-20.2700583664
 21
4.4403108282
 31
0.0
  0
LINE
  5
59E
330
44C
100
AcDbEntity
  8
0
  6
Continuous
 62
     7
370
    25
100
AcDbLine
 10
-47.7436271549
 20
31.6994316601
 30
0.0
 11
-47.7436271549
 21
20.323196054
 31
0.0
  0
LINE
  5
59F
330
44C
100
AcDbEntity
  8
0
  6
Continuous
 62
     7
370
    25
100
AcDbLine
 10
-47.7599347755
 20
33.2275569784
 30
0.0
 11
-46.8690915866
 21
33.2275569784
 31
0.0
  0
LINE
  5
5A0
330
44C
100
AcDbEntity
  8
0
  6
Continuous
 62
     7
370
    25
100
AcDbLine
 10
-46.8690915866
 20
31.2400287481
 30
0.0
 11
-46.8690915866
 21
33.2275569784
 31
0.0
  0
LINE
  5
5A1
330
44C
100
AcDbEntity
  8
0
  6
Continuous
 62
     7
370
    25
100
AcDbLine
 10
-46.8690915866
 20
33.1726818396
 30
0.0
 11
-47.7599347755
 21
33.1726818396
 31
0.0
  0
LINE
  5
5A2
330
44C
100
AcDbEntity
  8
0
  6
Continuous
 62
     7
370
    25
100
AcDbLine
 10
-47.7599347755
 20
33.2275569784
 30
0.0
 11
-47.7599347755
 21
20.3614237523
 31
0.0
  0
LINE
  5
5A3
330
44C
100
AcDbEntity
  8
0
  6
Continuous
 62
     7
370
    25
100
AcDbLine
 10
-35.1883059614
 20
40.4850038136
 30
0.0
 11
-47.7599347755
 21
33.2275569784
 31
0.0
  0
LINE
  5
5A4
330
44C
100
AcDbEntity
  8
0
  6
Continuous
 62
     7
370
    25
100
AcDbLine
 10
-34.742884367
 20
40.2278674004
 30
0.0
 11
-35.1883059614
 21
40.4850038136
 31
0.0
  0
LINE
  5
5A5
330
44C
100
AcDbEntity
  8
0
  6
Continuous
 62
     7
370
    25
100
AcDbLine
 10
-46.8690915866
 20
33.2275569784
 30
0.0
 11
-34.742884367
 21
40.2278674004
 31
0.0
  0
LINE
  5
5A6
330
44C
100
AcDbEntity
  8
0
  6
Continuous
 62
     7
370
    25
100
AcDbLine
 10
-20.1553271488
 20
4.4422651885
 30
0.0
 11
-20.1553271488
 21
17.7511538861
 31
0.0
  0
LINE
  5
5A7
330
44C
100
AcDbEntity
  8
0
  6
Continuous
 62
     7
370
    25
100
AcDbLine
 10
-20.11595707
 20
17.2690283358
 30
0.0
 11
-7.544328256
 21
24.5264751711
 31
0.0
  0
LINE
  5
5A8
330
44C
100
AcDbEntity
  8
0
  6
Continuous
 62
     7
370
    25
100
AcDbLine
 10
-20.11595707
 20
17.7833011622
 30
0.0
 11
-20.11595707
 21
17.2690283358
 31
0.0
  0
LINE
  5
5A9
330
44C
100
AcDbEntity
  8
0
  6
Continuous
 62
     7
370
    25
100
AcDbLine
 10
-7.9897498504
 20
24.7836115843
 30
0.0
 11
-20.11595707
 21
17.7833011622
 31
0.0
  0
LINE
  5
5AA
330
44C
100
AcDbEntity
  8
0
  6
Continuous
 62
     7
370
    25
100
AcDbLine
 10
-7.544328256
 20
24.5264751711
 30
0.0
 11
-7.9897498504
 21
24.7836115843
 31
0.0
  0
LINE
  5
5AB
330
44C
100
AcDbEntity
  8
0
  6
Continuous
 62
     7
370
    25
100
AcDbLine
 10
-34.6872066677
 20
31.1301935003
 30
0.0
 11
-35.1326282621
 21
30.8730570871
 31
0.0
  0
LINE
  5
5AC
330
44C
100
AcDbEntity
  8
0
  6
Continuous
 62
     7
370
    25
100
AcDbLine
 10
-20.1831659984
 20
4.9820232296
 30
0.0
 11
-20.1831659984
 21
5.4963796466
 31
0.0
  0
LINE
  5
5AD
330
44C
100
AcDbEntity
  8
0
  6
Continuous
 62
     7
370
    25
100
AcDbLine
 10
-20.1831659984
 20
14.6262060472
 30
0.0
 11
-20.1831659984
 21
17.7766391009
 31
0.0
  0
LINE
  5
5AE
330
44C
100
AcDbEntity
  8
0
  6
Continuous
 62
     7
370
    25
100
AcDbLine
 10
-20.1553271488
 20
17.8248574028
 30
0.0
 11
-19.9882940509
 21
17.9212835577
 31
0.0
  0
LINE
  5
5AF
330
44C
100
AcDbEntity
  8
0
  6
Continuous
 62
     7
370
    25
100
AcDbLine
 10
-46.7971062667
 20
33.2048291157
 30
0.0
 11
-20.1553271488
 21
17.8248574028
 31
0.0
  0
LINE
  5
5B0
330
44C
100
AcDbEntity
  8
0
  6
Continuous
 62
     7
370
    25
100
AcDbLine
 10
-20.1831659984
 20
17.7766391009
 30
0.0
 11
-46.8249451164
 21
33.1566108138
 31
0.0
  0
LINE
  5
5B1
330
44C
100
AcDbEntity
  8
0
  6
Continuous
 62
     7
370
    25
100
AcDbLine
 10
-46.6300731688
 20
33.3012552706
 30
0.0
 11
-46.7971062667
 21
33.2048291157
 31
0.0
  0
LINE
  5
5B2
330
44C
100
AcDbEntity
  8
0
  6
Continuous
 62
     7
370
    25
100
AcDbLine
 10
-19.9882940509
 20
17.9212835577
 30
0.0
 11
-46.6300731688
 21
33.3012552706
 31
0.0
  0
LINE
  5
5B3
330
44C
100
AcDbEntity
  8
0
  6
Continuous
 62
     7
370
    25
100
AcDbLine
 10
-20.0602793707
 20
17.2368862842
 30
0.0
 11
-19.1694361818
 21
17.2368862842
 31
0.0
  0
LINE
  5
5B4
330
44C
100
AcDbEntity
  8
0
  6
Continuous
 62
     7
370
    25
100
AcDbLine
 10
-19.1694361818
 20
15.249358054
 30
0.0
 11
-19.1694361818
 21
17.2368862842
 31
0.0
  0
LINE
  5
5B5
330
44C
100
AcDbEntity
  8
0
  6
Continuous
 62
     7
370
    25
100
AcDbLine
 10
-19.1694361818
 20
17.1820111454
 30
0.0
 11
-20.0602793707
 21
17.1820111454
 31
0.0
  0
LINE
  5
5B6
330
44C
100
AcDbEntity
  8
0
  6
Continuous
 62
     7
370
    25
100
AcDbLine
 10
-20.0602793707
 20
17.2368862842
 30
0.0
 11
-20.0602793707
 21
4.3707530581
 31
0.0
  0
LINE
  5
5B7
330
44C
100
AcDbEntity
  8
0
  6
Continuous
 62
     7
370
    25
100
AcDbLine
 10
-7.4886505567
 20
24.4943331195
 30
0.0
 11
-20.0602793707
 21
17.2368862842
 31
0.0
  0
LINE
  5
5B8
330
44C
100
AcDbEntity
  8
0
  6
Continuous
 62
     7
370
    25
100
AcDbLine
 10
-7.0432289622
 20
24.2371967063
 30
0.0
 11
-7.4886505567
 21
24.4943331195
 31
0.0
  0
LINE
  5
5B9
330
44C
100
AcDbEntity
  8
0
  6
Continuous
 62
     7
370
    25
100
AcDbLine
 10
-19.1694361818
 20
17.2368862842
 30
0.0
 11
-7.0432289622
 21
24.2371967063
 31
0.0
  0
LINE
  5
5BA
330
44C
100
AcDbEntity
  8
0
  6
Continuous
 62
     7
370
    25
100
AcDbLine
 10
7.6115371844
 20
1.2301393398
 30
0.0
 11
7.6115371844
 21
-11.5644765315
 31
0.0
  0
LINE
  5
5BB
330
44C
100
AcDbEntity
  8
0
  6
Continuous
 62
     7
370
    25
100
AcDbLine
 10
7.544328256
 20
-11.5484055057
 30
0.0
 11
7.544328256
 21
1.760483192
 31
0.0
  0
LINE
  5
5BC
330
44C
100
AcDbEntity
  8
0
  6
Continuous
 62
     7
370
    25
100
AcDbLine
 10
20.1831659984
 20
8.4875861751
 30
0.0
 11
7.6115371844
 21
1.2301393398
 31
0.0
  0
LINE
  5
5BD
330
44C
100
AcDbEntity
  8
0
  6
Continuous
 62
     7
370
    25
100
AcDbLine
 10
7.5836983347
 20
1.2783576417
 30
0.0
 11
20.1553271488
 21
8.5358044769
 31
0.0
  0
LINE
  5
5BE
330
44C
100
AcDbEntity
  8
0
  6
Continuous
 62
     7
370
    25
100
AcDbLine
 10
7.5836983347
 20
1.792630468
 30
0.0
 11
7.5836983347
 21
1.2783576417
 31
0.0
  0
LINE
  5
5BF
330
44C
100
AcDbEntity
  8
0
  6
Continuous
 62
     7
370
    25
100
AcDbLine
 10
20.1831659984
 20
-4.3070296962
 30
0.0
 11
20.1831659984
 21
8.4875861751
 31
0.0
  0
LINE
  5
5C0
330
44C
100
AcDbEntity
  8
0
  6
Continuous
 62
     7
370
    25
100
AcDbLine
 10
7.6115371844
 20
-11.5644765315
 30
0.0
 11
20.1831659984
 21
-4.3070296962
 31
0.0
  0
LINE
  5
5C1
330
44C
100
AcDbEntity
  8
0
  6
Continuous
 62
     7
370
    25
100
AcDbLine
 10
19.7099055543
 20
8.7929408901
 30
0.0
 11
7.5836983347
 21
1.792630468
 31
0.0
  0
LINE
  5
5C2
330
44C
100
AcDbEntity
  8
0
  6
Continuous
 62
     7
370
    25
100
AcDbLine
 10
20.1553271488
 20
8.5358044769
 30
0.0
 11
19.7099055543
 21
8.7929408901
 31
0.0
  0
LINE
  5
5C3
330
44C
100
AcDbEntity
  8
0
  6
Continuous
 62
     7
370
    25
100
AcDbLine
 10
-6.9875512629
 20
15.1395228061
 30
0.0
 11
-7.4329728574
 21
14.882386393
 31
0.0
  0
LINE
  5
5C4
330
44C
100
AcDbEntity
  8
0
  6
Continuous
 62
     7
370
    25
100
AcDbLine
 10
7.5164894063
 20
-11.0086474645
 30
0.0
 11
7.5164894063
 21
-10.4942910476
 31
0.0
  0
LINE
  5
5C5
330
44C
100
AcDbEntity
  8
0
  6
Continuous
 62
     7
370
    25
100
AcDbLine
 10
7.5164894063
 20
-1.364464647
 30
0.0
 11
7.5164894063
 21
1.7859684067
 31
0.0
  0
LINE
  5
5C6
330
44C
100
AcDbEntity
  8
0
  6
Continuous
 62
     7
370
    25
100
AcDbLine
 10
-19.097450862
 20
17.2141584215
 30
0.0
 11
7.544328256
 21
1.8341867086
 31
0.0
  0
LINE
  5
5C7
330
44C
100
AcDbEntity
  8
0
  6
Continuous
 62
     7
370
    25
100
AcDbLine
 10
7.5164894063
 20
1.7859684067
 30
0.0
 11
-19.1252897116
 21
17.1659401196
 31
0.0
  0
LINE
  5
5C8
330
44C
100
AcDbEntity
  8
0
  6
Continuous
 62
     7
370
    25
100
AcDbLine
 10
7.544328256
 20
1.8341867086
 30
0.0
 11
7.7113613539
 21
1.9306128636
 31
0.0
  0
LINE
  5
5C9
330
44C
100
AcDbEntity
  8
0
  6
Continuous
 62
     7
370
    25
100
AcDbLine
 10
-18.930417764
 20
17.3105845764
 30
0.0
 11
-19.097450862
 21
17.2141584215
 31
0.0
  0
LINE
  5
5CA
330
44C
100
AcDbEntity
  8
0
  6
Continuous
 62
     7
370
    25
100
AcDbLine
 10
7.7113613539
 20
1.9306128636
 30
0.0
 11
-18.930417764
 21
17.3105845764
 31
0.0
  0
LINE
  5
5CB
330
44C
100
AcDbEntity
  8
0
  6
Continuous
 62
     7
370
    25
100
AcDbLine
 10
7.4214416283
 20
-0.1788304306
 30
0.0
 11
-20.0324405211
 21
15.6699583833
 31
0.0
  0
LINE
  5
5CC
330
44C
100
AcDbEntity
  8
0
  6
Continuous
 62
     7
370
    25
100
AcDbLine
 10
-20.0046016714
 20
15.7314888287
 30
0.0
 11
7.4886505567
 21
-0.1400278479
 31
0.0
  0
LINE
  5
5CD
330
44C
100
AcDbEntity
  8
0
  6
Continuous
 62
     7
370
    25
100
AcDbLine
 10
7.4886505567
 20
-0.1400278479
 30
0.0
 11
7.4886505567
 21
-11.516263454
 31
0.0
  0
LINE
  5
5CE
330
44C
100
AcDbEntity
  8
0
  6
Continuous
 62
     7
370
    25
100
AcDbLine
 10
7.4214416283
 20
-11.5323344798
 30
0.0
 11
7.4214416283
 21
-0.1788304306
 31
0.0
  0
LINE
  5
5CF
330
44C
100
AcDbEntity
  8
0
  6
Continuous
 62
     7
370
    25
100
AcDbLine
 10
-20.0324405211
 20
4.316454334
 30
0.0
 11
7.4214416283
 21
-11.5323344798
 31
0.0
  0
LINE
  5
5D0
330
44C
100
AcDbEntity
  8
0
  6
Continuous
 62
     7
370
    25
100
AcDbLine
 10
-20.0324405211
 20
15.6699583833
 30
0.0
 11
-20.0324405211
 21
4.316454334
 31
0.0
  0
LINE
  5
5D1
330
44C
100
AcDbEntity
  8
0
  6
Continuous
 62
     7
370
    25
100
AcDbLine
 10
-8.4244215003
 20
11.2589141738
 30
0.0
 11
-7.8923138766
 21
11.5660933665
 31
0.0
  0
LINE
  5
5D2
330
44C
100
AcDbEntity
  8
0
  6
Continuous
 62
     7
370
    25
100
AcDbLine
 10
-10.9024818412
 20
12.6894679584
 30
0.0
 11
-7.3912145829
 21
14.7164794005
 31
0.0
  0
LINE
  5
5D3
330
44C
100
AcDbEntity
  8
0
  6
Continuous
 62
     7
370
    25
100
AcDbLine
 10
-7.3912145829
 20
14.427153916
 30
0.0
 11
-7.3912145829
 21
14.7164794005
 31
0.0
  0
LINE
  5
5D4
330
44C
100
AcDbEntity
  8
0
  6
Continuous
 62
     7
370
    25
100
AcDbLine
 10
-7.8923138766
 20
15.0057578653
 30
0.0
 11
-11.4035811349
 21
12.9787464233
 31
0.0
  0
LINE
  5
5D5
330
44C
100
AcDbEntity
  8
0
  6
Continuous
 62
     7
370
    25
100
AcDbLine
 10
-7.3912145829
 20
14.7164794005
 30
0.0
 11
-7.8923138766
 21
15.0057578653
 31
0.0
  0
LINE
  5
5D6
330
44C
100
AcDbEntity
  8
0
  6
Continuous
 62
     7
370
    25
100
AcDbLine
 10
7.4886505567
 20
-10.0254134177
 30
0.0
 11
7.544328256
 21
-9.993271366
 31
0.0
  0
LINE
  5
5D7
330
44C
100
AcDbEntity
  8
0
  6
Continuous
 62
     7
370
    25
100
AcDbLine
 10
7.4886505567
 20
-6.6499494316
 30
0.0
 11
7.544328256
 21
-6.6178073799
 31
0.0
  0
LINE
  5
5D8
330
44C
100
AcDbEntity
  8
0
  6
Continuous
 62
     7
370
    25
100
AcDbLine
 10
7.544328256
 20
-6.0392504503
 30
0.0
 11
7.4886505567
 21
-6.0713925019
 31
0.0
  0
LINE
  5
5D9
330
44C
100
AcDbEntity
  8
0
  6
Continuous
 62
     7
370
    25
100
AcDbLine
 10
-7.8923138766
 20
11.5660933665
 30
0.0
 11
8.2991466768
 21
2.2189621482
 31
0.0
  0
LINE
  5
5DA
330
44C
100
AcDbEntity
  8
0
  6
Continuous
 62
     7
370
    25
100
AcDbLine
 10
-7.8923138766
 20
14.1378754512
 30
0.0
 11
-7.8923138766
 21
11.5660933665
 31
0.0
  0
LINE
  5
5DB
330
44C
100
AcDbEntity
  8
0
  6
Continuous
 62
     7
370
    25
100
AcDbLine
 10
-7.8923138766
 20
14.1378754512
 30
0.0
 11
2.7421266908
 21
7.9987435867
 31
0.0
  0
LINE
  5
5DC
330
44C
100
AcDbEntity
  8
0
  6
Continuous
 62
     7
370
    25
100
AcDbLine
 10
6.9179541388
 20
5.5880897132
 30
0.0
 11
10.5266166462
 21
3.5048531906
 31
0.0
  0
LINE
  5
5DD
330
44C
100
AcDbEntity
  8
0
  6
Continuous
 62
     7
370
    25
100
AcDbLine
 10
11.0277159399
 20
3.7941316554
 30
0.0
 11
7.4190534325
 21
5.877368178
 31
0.0
  0
LINE
  5
5DE
330
44C
100
AcDbEntity
  8
0
  6
Continuous
 62
     7
370
    25
100
AcDbLine
 10
6.9179541388
 20
5.5880897132
 30
0.0
 11
7.4190534325
 21
5.877368178
 31
0.0
  0
LINE
  5
5DF
330
44C
100
AcDbEntity
  8
0
  6
Continuous
 62
     7
370
    25
100
AcDbLine
 10
3.2432259846
 20
8.2880220515
 30
0.0
 11
2.7421266908
 21
7.9987435867
 31
0.0
  0
LINE
  5
5E0
330
44C
100
AcDbEntity
  8
0
  6
Continuous
 62
     7
370
    25
100
AcDbLine
 10
-7.3912145829
 20
14.427153916
 30
0.0
 11
-7.8923138766
 21
14.1378754512
 31
0.0
  0
LINE
  5
5E1
330
44C
100
AcDbEntity
  8
0
  6
Continuous
 62
     7
370
    25
100
AcDbLine
 10
3.2432259846
 20
8.2880220515
 30
0.0
 11
-7.3912145829
 21
14.427153916
 31
0.0
  0
LINE
  5
5E2
330
44C
100
AcDbEntity
  8
0
  6
Continuous
 62
     7
370
    25
100
AcDbLine
 10
-20.2782137765
 20
15.8118402636
 30
0.0
 11
-47.7320959258
 21
31.6606290774
 31
0.0
  0
LINE
  5
5E3
330
44C
100
AcDbEntity
  8
0
  6
Continuous
 62
     7
370
    25
100
AcDbLine
 10
-47.7042570762
 20
31.7221595228
 30
0.0
 11
-20.2110048481
 21
15.8506428463
 31
0.0
  0
LINE
  5
5E4
330
44C
100
AcDbEntity
  8
0
  6
Continuous
 62
     7
370
    25
100
AcDbLine
 10
-20.2110048481
 20
15.8506428463
 30
0.0
 11
-20.2110048481
 21
4.4744072401
 31
0.0
  0
LINE
  5
5E5
330
44C
100
AcDbEntity
  8
0
  6
Continuous
 62
     7
370
    25
100
AcDbLine
 10
-20.2782137765
 20
4.4583362143
 30
0.0
 11
-20.2782137765
 21
15.8118402636
 31
0.0
  0
LINE
  5
5E6
330
44C
100
AcDbEntity
  8
0
  6
Continuous
 62
     7
370
    25
100
AcDbLine
 10
-47.7320959258
 20
20.3071250282
 30
0.0
 11
-20.2782137765
 21
4.4583362143
 31
0.0
  0
LINE
  5
5E7
330
44C
100
AcDbEntity
  8
0
  6
Continuous
 62
     7
370
    25
100
AcDbLine
 10
-47.7320959258
 20
31.6606290774
 30
0.0
 11
-47.7320959258
 21
20.3071250282
 31
0.0
  0
LINE
  5
5E8
330
44C
100
AcDbEntity
  8
0
  6
Continuous
 62
     7
370
    25
100
AcDbLine
 10
-36.124076905
 20
27.249584868
 30
0.0
 11
-35.5919692814
 21
27.5567640606
 31
0.0
  0
LINE
  5
5E9
330
44C
100
AcDbEntity
  8
0
  6
Continuous
 62
     7
370
    25
100
AcDbLine
 10
-38.6021372459
 20
28.6801386526
 30
0.0
 11
-35.0908699876
 21
30.7071500947
 31
0.0
  0
LINE
  5
5EA
330
44C
100
AcDbEntity
  8
0
  6
Continuous
 62
     7
370
    25
100
AcDbLine
 10
-35.0908699876
 20
30.4178246101
 30
0.0
 11
-35.0908699876
 21
30.7071500947
 31
0.0
  0
LINE
  5
5EB
330
44C
100
AcDbEntity
  8
0
  6
Continuous
 62
     7
370
    25
100
AcDbLine
 10
-35.5919692814
 20
30.9964285595
 30
0.0
 11
-39.1032365397
 21
28.9694171174
 31
0.0
  0
LINE
  5
5EC
330
44C
100
AcDbEntity
  8
0
  6
Continuous
 62
     7
370
    25
100
AcDbLine
 10
-35.0908699876
 20
30.7071500947
 30
0.0
 11
-35.5919692814
 21
30.9964285595
 31
0.0
  0
LINE
  5
5ED
330
44C
100
AcDbEntity
  8
0
  6
Continuous
 62
     7
370
    25
100
AcDbLine
 10
-20.2110048481
 20
5.9652572765
 30
0.0
 11
-20.1553271488
 21
5.9973993281
 31
0.0
  0
LINE
  5
5EE
330
44C
100
AcDbEntity
  8
0
  6
Continuous
 62
     7
370
    25
100
AcDbLine
 10
-20.2110048481
 20
9.3407212626
 30
0.0
 11
-20.1553271488
 21
9.3728633143
 31
0.0
  0
LINE
  5
5EF
330
44C
100
AcDbEntity
  8
0
  6
Continuous
 62
     7
370
    25
100
AcDbLine
 10
-20.1553271488
 20
9.9514202439
 30
0.0
 11
-20.2110048481
 21
9.9192781923
 31
0.0
  0
LINE
  5
5F0
330
44C
100
AcDbEntity
  8
0
  6
Continuous
 62
     7
370
    25
100
AcDbLine
 10
-35.5919692814
 20
27.5567640606
 30
0.0
 11
-19.4005087279
 21
18.2096328424
 31
0.0
  0
LINE
  5
5F1
330
44C
100
AcDbEntity
  8
0
  6
Continuous
 62
     7
370
    25
100
AcDbLine
 10
-35.5919692814
 20
30.1285461453
 30
0.0
 11
-35.5919692814
 21
27.5567640606
 31
0.0
  0
LINE
  5
5F2
330
44C
100
AcDbEntity
  8
0
  6
Continuous
 62
     7
370
    25
100
AcDbLine
 10
-35.5919692814
 20
30.1285461453
 30
0.0
 11
-24.9575287139
 21
23.9894142808
 31
0.0
  0
LINE
  5
5F3
330
44C
100
AcDbEntity
  8
0
  6
Continuous
 62
     7
370
    25
100
AcDbLine
 10
-20.781701266
 20
21.5787604073
 30
0.0
 11
-17.1730387586
 21
19.4955238847
 31
0.0
  0
LINE
  5
5F4
330
44C
100
AcDbEntity
  8
0
  6
Continuous
 62
     7
370
    25
100
AcDbLine
 10
-16.6719394648
 20
19.7848023496
 30
0.0
 11
-20.2806019722
 21
21.8680388722
 31
0.0
  0
LINE
  5
5F5
330
44C
100
AcDbEntity
  8
0
  6
Continuous
 62
     7
370
    25
100
AcDbLine
 10
-20.781701266
 20
21.5787604073
 30
0.0
 11
-20.2806019722
 21
21.8680388722
 31
0.0
  0
LINE
  5
5F6
330
44C
100
AcDbEntity
  8
0
  6
Continuous
 62
     7
370
    25
100
AcDbLine
 10
-24.4564294202
 20
24.2786927456
 30
0.0
 11
-24.9575287139
 21
23.9894142808
 31
0.0
  0
LINE
  5
5F7
330
44C
100
AcDbEntity
  8
0
  6
Continuous
 62
     7
370
    25
100
AcDbLine
 10
-35.0908699876
 20
30.4178246101
 30
0.0
 11
-35.5919692814
 21
30.1285461453
 31
0.0
  0
LINE
  5
5F8
330
44C
100
AcDbEntity
  8
0
  6
Continuous
 62
     7
370
    25
100
AcDbLine
 10
-24.4564294202
 20
24.2786927456
 30
0.0
 11
-35.0908699876
 21
30.4178246101
 31
0.0
  0
LINE
  5
5F9
330
44C
100
AcDbEntity
  8
0
  6
Continuous
 62
     8
370
    25
100
AcDbLine
 10
-47.7599347755
 20
20.3780659683
 30
0.0
 11
-47.7436271549
 21
20.3780659683
 31
0.0
  0
LINE
  5
5FA
330
44C
100
AcDbEntity
  8
0
  6
Continuous
 62
     8
370
    25
100
AcDbLine
 10
-34.7150455173
 20
40.1796490986
 30
0.0
 11
-46.6198785681
 21
33.3071352639
 31
0.0
  0
LINE
  5
5FB
330
44C
100
AcDbEntity
  8
0
  6
Continuous
 62
     8
370
    25
100
AcDbLine
 10
-46.8351351925
 20
33.1828702597
 30
0.0
 11
-46.8412527369
 21
33.1793386765
 31
0.0
  0
LINE
  5
5FC
330
44C
100
AcDbEntity
  8
0
  6
Continuous
 62
     8
370
    25
100
AcDbLine
 10
-46.8412527369
 20
33.1793386765
 30
0.0
 11
-46.8412527369
 21
31.2239577223
 31
0.0
  0
LINE
  5
5FD
330
44C
100
AcDbEntity
  8
0
  6
Continuous
 62
     8
370
    25
100
AcDbLine
 10
-34.7150455173
 20
31.1274346182
 30
0.0
 11
-34.7150455173
 21
40.1796490986
 31
0.0
  0
LINE
  5
5FE
330
44C
100
AcDbEntity
  8
0
  6
Continuous
 62
     8
370
    25
100
AcDbLine
 10
-16.3542152149
 20
19.9682206548
 30
0.0
 11
-35.1604671118
 21
30.8248387853
 31
0.0
  0
LINE
  5
5FF
330
44C
100
AcDbEntity
  8
0
  6
Continuous
 62
     8
370
    25
100
AcDbLine
 10
-35.1326282621
 20
30.8730570871
 30
0.0
 11
-16.2985329907
 21
20.0003653187
 31
0.0
  0
LINE
  5
600
330
44C
100
AcDbEntity
  8
0
  6
Continuous
 62
     8
370
    25
100
AcDbLine
 10
-35.1604671118
 20
30.8248387853
 30
0.0
 11
-35.1604671118
 21
30.7473276592
 31
0.0
  0
LINE
  5
601
330
44C
100
AcDbEntity
  8
0
  6
Continuous
 62
     8
370
    25
100
AcDbLine
 10
-15.8531113962
 20
20.2575017319
 30
0.0
 11
-34.6872066677
 21
31.1301935003
 31
0.0
  0
LINE
  5
602
330
44C
100
AcDbEntity
  8
0
  6
Continuous
 62
     8
370
    25
100
AcDbLine
 10
-20.1831659984
 20
5.4963796466
 30
0.0
 11
-20.2110048481
 21
5.5124506724
 31
0.0
  0
LINE
  5
603
330
44C
100
AcDbEntity
  8
0
  6
Continuous
 62
     8
370
    25
100
AcDbLine
 10
-20.2110048481
 20
5.5767400001
 30
0.0
 11
-20.1553271488
 21
5.5445979484
 31
0.0
  0
LINE
  5
604
330
44C
100
AcDbEntity
  8
0
  6
Continuous
 62
     8
370
    25
100
AcDbLine
 10
-20.2110048481
 20
4.9980942555
 30
0.0
 11
-20.1831659984
 21
4.9820232296
 31
0.0
  0
LINE
  5
605
330
44C
100
AcDbEntity
  8
0
  6
Continuous
 62
     8
370
    25
100
AcDbLine
 10
-46.8249451164
 20
33.1566108138
 30
0.0
 11
-46.8249451164
 21
31.2145435333
 31
0.0
  0
LINE
  5
606
330
44C
100
AcDbEntity
  8
0
  6
Continuous
 62
     8
370
    25
100
AcDbLine
 10
-20.2110048481
 20
14.642277073
 30
0.0
 11
-20.1831659984
 21
14.6262060472
 31
0.0
  0
LINE
  5
607
330
44C
100
AcDbEntity
  8
0
  6
Continuous
 62
     8
370
    25
100
AcDbLine
 10
-20.0602793707
 20
4.3873952742
 30
0.0
 11
-20.0439717502
 21
4.3873952742
 31
0.0
  0
LINE
  5
608
330
44C
100
AcDbEntity
  8
0
  6
Continuous
 62
     8
370
    25
100
AcDbLine
 10
-7.0153901126
 20
24.1889784044
 30
0.0
 11
-18.9202231633
 21
17.3164645698
 31
0.0
  0
LINE
  5
609
330
44C
100
AcDbEntity
  8
0
  6
Continuous
 62
     8
370
    25
100
AcDbLine
 10
-19.1354797877
 20
17.1921995655
 30
0.0
 11
-19.1415973322
 21
17.1886679823
 31
0.0
  0
LINE
  5
60A
330
44C
100
AcDbEntity
  8
0
  6
Continuous
 62
     8
370
    25
100
AcDbLine
 10
-19.1415973322
 20
17.1886679823
 30
0.0
 11
-19.1415973322
 21
15.2332870281
 31
0.0
  0
LINE
  5
60B
330
44C
100
AcDbEntity
  8
0
  6
Continuous
 62
     8
370
    25
100
AcDbLine
 10
-7.0153901126
 20
15.136763924
 30
0.0
 11
-7.0153901126
 21
24.1889784044
 31
0.0
  0
LINE
  5
60C
330
44C
100
AcDbEntity
  8
0
  6
Continuous
 62
     8
370
    25
100
AcDbLine
 10
11.3454401898
 20
3.9775499607
 30
0.0
 11
-7.460811707
 21
14.8341680911
 31
0.0
  0
LINE
  5
60D
330
44C
100
AcDbEntity
  8
0
  6
Continuous
 62
     8
370
    25
100
AcDbLine
 10
-7.4329728574
 20
14.882386393
 30
0.0
 11
11.4011224141
 21
4.0096946245
 31
0.0
  0
LINE
  5
60E
330
44C
100
AcDbEntity
  8
0
  6
Continuous
 62
     8
370
    25
100
AcDbLine
 10
-7.460811707
 20
14.8341680911
 30
0.0
 11
-7.460811707
 21
14.7566569651
 31
0.0
  0
LINE
  5
60F
330
44C
100
AcDbEntity
  8
0
  6
Continuous
 62
     8
370
    25
100
AcDbLine
 10
11.8465440085
 20
4.2668310377
 30
0.0
 11
-6.9875512629
 21
15.1395228061
 31
0.0
  0
LINE
  5
610
330
44C
100
AcDbEntity
  8
0
  6
Continuous
 62
     8
370
    25
100
AcDbLine
 10
7.5164894063
 20
-10.4942910476
 30
0.0
 11
7.4886505567
 21
-10.4782200218
 31
0.0
  0
LINE
  5
611
330
44C
100
AcDbEntity
  8
0
  6
Continuous
 62
     8
370
    25
100
AcDbLine
 10
7.4886505567
 20
-10.4139306941
 30
0.0
 11
7.544328256
 21
-10.4460727457
 31
0.0
  0
LINE
  5
612
330
44C
100
AcDbEntity
  8
0
  6
Continuous
 62
     8
370
    25
100
AcDbLine
 10
7.4886505567
 20
-10.9925764387
 30
0.0
 11
7.5164894063
 21
-11.0086474645
 31
0.0
  0
LINE
  5
613
330
44C
100
AcDbEntity
  8
0
  6
Continuous
 62
     8
370
    25
100
AcDbLine
 10
-19.1252897116
 20
17.1659401196
 30
0.0
 11
-19.1252897116
 21
15.2238728392
 31
0.0
  0
LINE
  5
614
330
44C
100
AcDbEntity
  8
0
  6
Continuous
 62
     8
370
    25
100
AcDbLine
 10
7.4886505567
 20
-1.3483936212
 30
0.0
 11
7.5164894063
 21
-1.364464647
 31
0.0
  0
ARC
  5
615
330
44C
100
AcDbEntity
  8
0
  6
Continuous
 62
     7
370
    25
100
AcDbCircle
 10
-47.7599347755
 20
33.1954097023
 30
0.0
 40
0.0393700787401556
100
AcDbArc
 50
119.9973117336
 51
180.0
  0
ARC
  5
616
330
44C
100
AcDbEntity
  8
0
  6
Continuous
 62
     7
370
    25
100
AcDbCircle
 10
-47.7599347755
 20
20.400793831
 30
0.0
 40
0.0393700787401521
100
AcDbArc
 50
180.0
 51
270.0
  0
ARC
  5
617
330
44C
100
AcDbEntity
  8
0
  6
Continuous
 62
     7
370
    25
100
AcDbCircle
 10
-34.742884367
 20
40.1957201244
 30
0.0
 40
0.039370078740163
100
AcDbArc
 50
0.0
 51
60.0026882663
  0
ARC
  5
618
330
44C
100
AcDbEntity
  8
0
  6
Continuous
 62
     7
370
    25
100
AcDbCircle
 10
-35.1883059614
 20
40.4528565376
 30
0.0
 40
0.0393700787401594
100
AcDbArc
 50
60.0026882664
 51
119.9973117336
  0
ARC
  5
619
330
44C
100
AcDbEntity
  8
0
  6
Continuous
 62
     7
370
    25
100
AcDbCircle
 10
-20.11595707
 20
17.7511538861
 30
0.0
 40
0.0393700787401745
100
AcDbArc
 50
119.9973117337
 51
180.0
  0
ARC
  5
61A
330
44C
100
AcDbEntity
  8
0
  6
Continuous
 62
     7
370
    25
100
AcDbCircle
 10
-20.11595707
 20
4.4422651885
 30
0.0
 40
0.0393700787401592
100
AcDbArc
 50
180.0
 51
294.7361038296
  0
ARC
  5
61B
330
44C
100
AcDbEntity
  8
0
  6
Continuous
 62
     7
370
    25
100
AcDbCircle
 10
-7.544328256
 20
24.494327895
 30
0.0
 40
0.0393700787401612
100
AcDbArc
 50
5.2692727003
 51
60.0026882664
  0
ARC
  5
61C
330
44C
100
AcDbEntity
  8
0
  6
Continuous
 62
     7
370
    25
100
AcDbCircle
 10
-7.9897498504
 20
24.7514643082
 30
0.0
 40
0.0393700787401458
100
AcDbArc
 50
60.0026882663
 51
119.9973117337
  0
ARC
  5
61D
330
44C
100
AcDbEntity
  8
0
  6
Continuous
 62
     7
370
    25
100
AcDbCircle
 10
-35.1326282621
 20
30.8409098111
 30
0.0
 40
0.0393700787402125
100
AcDbArc
 50
119.9973117337
 51
179.9999999999
  0
ARC
  5
61E
330
44C
100
AcDbEntity
  8
0
  6
Continuous
 62
     7
370
    25
100
AcDbCircle
 10
-34.6872066677
 20
31.0980462242
 30
0.0
 40
0.0393700787401107
100
AcDbArc
 50
60.0026882663
 51
119.9973117337
  0
ARC
  5
61F
330
44C
100
AcDbEntity
  8
0
  6
Continuous
 62
     7
370
    25
100
AcDbCircle
 10
-20.1553271488
 20
4.9980942555
 30
0.0
 40
0.0393700787401095
100
AcDbArc
 50
240.0026882663
 51
270.0
  0
ARC
  5
620
330
44C
100
AcDbEntity
  8
0
  6
Continuous
 62
     7
370
    25
100
AcDbCircle
 10
-19.9882940509
 20
17.8891362817
 30
0.0
 40
0.0393700787401804
100
AcDbArc
 50
5.5347458071
 51
60.0026882663
  0
ARC
  5
621
330
44C
100
AcDbEntity
  8
0
  6
Continuous
 62
     7
370
    25
100
AcDbCircle
 10
-20.1553271488
 20
14.642277073
 30
0.0
 40
0.0393700787401876
100
AcDbArc
 50
240.0026882664
 51
270.0
  0
ARC
  5
622
330
44C
100
AcDbEntity
  8
0
  6
Continuous
 62
     7
370
    25
100
AcDbCircle
 10
-46.7971062667
 20
33.1726818396
 30
0.0
 40
0.039370078740186
100
AcDbArc
 50
119.9973117337
 51
180.0
  0
ARC
  5
623
330
44C
100
AcDbEntity
  8
0
  6
Continuous
 62
     7
370
    25
100
AcDbCircle
 10
-46.6300731688
 20
33.2691079946
 30
0.0
 40
0.0393700787401445
100
AcDbArc
 50
60.0026882664
 51
119.9973117337
  0
ARC
  5
624
330
44C
100
AcDbEntity
  8
0
  6
Continuous
 62
     7
370
    25
100
AcDbCircle
 10
-20.0602793707
 20
17.2047390081
 30
0.0
 40
0.0393700787401663
100
AcDbArc
 50
119.9973117337
 51
180.0
  0
ARC
  5
625
330
44C
100
AcDbEntity
  8
0
  6
Continuous
 62
     7
370
    25
100
AcDbCircle
 10
-20.0602793707
 20
4.4101231368
 30
0.0
 40
0.0393700787401521
100
AcDbArc
 50
180.0
 51
270.0
  0
ARC
  5
626
330
44C
100
AcDbEntity
  8
0
  6
Continuous
 62
     7
370
    25
100
AcDbCircle
 10
-7.0432289622
 20
24.2050494302
 30
0.0
 40
0.0393700787401537
100
AcDbArc
 50
360.0
 51
60.0026882664
  0
ARC
  5
627
330
44C
100
AcDbEntity
  8
0
  6
Continuous
 62
     7
370
    25
100
AcDbCircle
 10
-7.4886505567
 20
24.4621858434
 30
0.0
 40
0.0393700787401661
100
AcDbArc
 50
60.0026882664
 51
119.9973117336
  0
ARC
  5
628
330
44C
100
AcDbEntity
  8
0
  6
Continuous
 62
     7
370
    25
100
AcDbCircle
 10
7.5836983347
 20
1.760483192
 30
0.0
 40
0.0393700787401592
100
AcDbArc
 50
119.9973117337
 51
180.0
  0
ARC
  5
629
330
44C
100
AcDbEntity
  8
0
  6
Continuous
 62
     7
370
    25
100
AcDbCircle
 10
7.5836983347
 20
-11.5484055057
 30
0.0
 40
0.0393700787401583
100
AcDbArc
 50
180.0
 51
299.9973117336
  0
ARC
  5
62A
330
44C
100
AcDbEntity
  8
0
  6
Continuous
 62
     7
370
    25
100
AcDbCircle
 10
20.1553271488
 20
8.5036572009
 30
0.0
 40
0.0393700787401352
100
AcDbArc
 50
360.0
 51
60.0026882664
  0
ARC
  5
62B
330
44C
100
AcDbEntity
  8
0
  6
Continuous
 62
     7
370
    25
100
AcDbCircle
 10
19.7099055543
 20
8.760793614
 30
0.0
 40
0.0393700787401691
100
AcDbArc
 50
60.0026882664
 51
119.9973117336
  0
ARC
  5
62C
330
44C
100
AcDbEntity
  8
0
  6
Continuous
 62
     7
370
    25
100
AcDbCircle
 10
20.1553271488
 20
-4.2909586704
 30
0.0
 40
0.0393700787401311
100
AcDbArc
 50
299.9973117336
 51
0.0
  0
ARC
  5
62D
330
44C
100
AcDbEntity
  8
0
  6
Continuous
 62
     7
370
    25
100
AcDbCircle
 10
-7.4329728574
 20
14.8502391169
 30
0.0
 40
0.0393700787401521
100
AcDbArc
 50
119.9973117336
 51
180.0
  0
ARC
  5
62E
330
44C
100
AcDbEntity
  8
0
  6
Continuous
 62
     7
370
    25
100
AcDbCircle
 10
-6.9875512629
 20
15.1073755301
 30
0.0
 40
0.0393700787401678
100
AcDbArc
 50
60.0026882664
 51
119.9973117336
  0
ARC
  5
62F
330
44C
100
AcDbEntity
  8
0
  6
Continuous
 62
     7
370
    25
100
AcDbCircle
 10
7.544328256
 20
-10.9925764387
 30
0.0
 40
0.0393700787402143
100
AcDbArc
 50
240.0026882664
 51
270.0
  0
ARC
  5
630
330
44C
100
AcDbEntity
  8
0
  6
Continuous
 62
     7
370
    25
100
AcDbCircle
 10
7.7113613539
 20
1.8984655875
 30
0.0
 40
0.0393700787401439
100
AcDbArc
 50
5.5347458071
 51
60.0026882664
  0
ARC
  5
631
330
44C
100
AcDbEntity
  8
0
  6
Continuous
 62
     7
370
    25
100
AcDbCircle
 10
7.544328256
 20
-1.3483936212
 30
0.0
 40
0.0393700787401761
100
AcDbArc
 50
240.0026882664
 51
270.0
  0
ARC
  5
632
330
44C
100
AcDbEntity
  8
0
  6
Continuous
 62
     7
370
    25
100
AcDbCircle
 10
-19.097450862
 20
17.1820111454
 30
0.0
 40
0.0393700787401418
100
AcDbArc
 50
119.9973117336
 51
180.0
  0
ARC
  5
633
330
44C
100
AcDbEntity
  8
0
  6
Continuous
 62
     7
370
    25
100
AcDbCircle
 10
-18.930417764
 20
17.2784373004
 30
0.0
 40
0.0393700787401876
100
AcDbArc
 50
60.0026882664
 51
119.9973117336
  0
ARC
  5
634
330
44C
100
AcDbEntity
  8
0
  6
Continuous
 62
     7
370
    25
100
AcDbCircle
 10
7.4492804779
 20
-11.516263454
 30
0.0
 40
0.0393700787401601
100
AcDbArc
 50
240.0026882664
 51
360.0
  0
ARC
  5
635
330
44C
100
AcDbEntity
  8
0
  6
Continuous
 62
     7
370
    25
100
AcDbCircle
 10
-20.0046016714
 20
4.3325253598
 30
0.0
 40
0.0393700787401464
100
AcDbArc
 50
180.0
 51
240.0026882664
  0
ARC
  5
636
330
44C
100
AcDbEntity
  8
0
  6
Continuous
 62
     7
370
    25
100
AcDbCircle
 10
-20.2503749268
 20
4.4744072401
 30
0.0
 40
0.0393700787401521
100
AcDbArc
 50
240.0026882663
 51
0.0
  0
ARC
  5
637
330
44C
100
AcDbEntity
  8
0
  6
Continuous
 62
     7
370
    25
100
AcDbCircle
 10
-47.7042570762
 20
20.323196054
 30
0.0
 40
0.0393700787401921
100
AcDbArc
 50
180.0
 51
240.0026882663
  0
ARC
  5
638
330
44C
100
AcDbEntity
  8
0
  6
Continuous
 62
     7
370
    25
100
AcDbCircle
 10
-46.8679573213
 20
33.2294777144
 30
0.0
 40
0.0568071998464621
100
AcDbArc
 50
268.8559032541
 51
298.0402391154
  0
ARC
  5
639
330
44C
100
AcDbEntity
  8
0
  6
Continuous
 62
     7
370
    25
100
AcDbCircle
 10
-46.9016943157
 20
33.1765882492
 30
0.0
 40
0.0605041262824131
100
AcDbArc
 50
2.6054784857
 51
57.39452166
  0
ARC
  5
63A
330
44C
100
AcDbEntity
  8
0
  6
Continuous
 62
     7
370
    25
100
AcDbCircle
 10
-34.7754870961
 20
40.1768986713
 30
0.0
 40
0.060504126282454
100
AcDbArc
 50
2.6054784857
 51
57.3945216599
  0
ARC
  5
63B
330
44C
100
AcDbEntity
  8
0
  6
Continuous
 62
     7
370
    25
100
AcDbCircle
 10
-20.119237199
 20
17.2328639563
 30
0.0
 40
0.0363128296282973
100
AcDbArc
 50
84.8174221345
 51
173.6486598634
  0
ARC
  5
63C
330
44C
100
AcDbEntity
  8
0
  6
Continuous
 62
     7
370
    25
100
AcDbCircle
 10
-20.119237199
 20
17.7471367826
 30
0.0
 40
0.0363128296282934
100
AcDbArc
 50
84.8174221345
 51
173.6486598635
  0
ARC
  5
63D
330
44C
100
AcDbEntity
  8
0
  6
Continuous
 62
     7
370
    25
100
AcDbCircle
 10
-35.100025533
 20
30.822088358
 30
0.0
 40
0.0605041262824335
100
AcDbArc
 50
122.6054783401
 51
177.3945215143
  0
ARC
  5
63E
330
44C
100
AcDbEntity
  8
0
  6
Continuous
 62
     7
370
    25
100
AcDbCircle
 10
-20.1227244196
 20
5.4936292193
 30
0.0
 40
0.0605041262823523
100
AcDbArc
 50
122.60547834
 51
177.3945215144
  0
ARC
  5
63F
330
44C
100
AcDbEntity
  8
0
  6
Continuous
 62
     7
370
    25
100
AcDbCircle
 10
-20.1227244196
 20
17.7738886737
 30
0.0
 40
0.0605041262823598
100
AcDbArc
 50
122.60547834
 51
177.3945215143
  0
ARC
  5
640
330
44C
100
AcDbEntity
  8
0
  6
Continuous
 62
     7
370
    25
100
AcDbCircle
 10
-46.7645035376
 20
33.1538603865
 30
0.0
 40
0.0605041262824039
100
AcDbArc
 50
122.60547834
 51
177.3945215143
  0
ARC
  5
641
330
44C
100
AcDbEntity
  8
0
  6
Continuous
 62
     7
370
    25
100
AcDbCircle
 10
-19.1683019166
 20
17.2388070203
 30
0.0
 40
0.0568071998464868
100
AcDbArc
 50
268.8559032541
 51
298.0402391154
  0
ARC
  5
642
330
44C
100
AcDbEntity
  8
0
  6
Continuous
 62
     7
370
    25
100
AcDbCircle
 10
-19.202038911
 20
17.1859175551
 30
0.0
 40
0.0605041262823779
100
AcDbArc
 50
2.6054784857
 51
57.39452166
  0
ARC
  5
643
330
44C
100
AcDbEntity
  8
0
  6
Continuous
 62
     7
370
    25
100
AcDbCircle
 10
-7.0758316914
 20
24.1862279771
 30
0.0
 40
0.060504126282372
100
AcDbArc
 50
2.6054784857
 51
57.39452166
  0
ARC
  5
644
330
44C
100
AcDbEntity
  8
0
  6
Continuous
 62
     7
370
    25
100
AcDbCircle
 10
7.5804182057
 20
1.2421932621
 30
0.0
 40
0.0363128296282981
100
AcDbArc
 50
84.8174221345
 51
173.6486598634
  0
ARC
  5
645
330
44C
100
AcDbEntity
  8
0
  6
Continuous
 62
     7
370
    25
100
AcDbCircle
 10
7.5510956056
 20
1.2273889125
 30
0.0
 40
0.0605041262823671
100
AcDbArc
 50
2.6054784857
 51
57.39452166
  0
ARC
  5
646
330
44C
100
AcDbEntity
  8
0
  6
Continuous
 62
     7
370
    25
100
AcDbCircle
 10
20.1227244196
 20
8.4848357478
 30
0.0
 40
0.0605041262824143
100
AcDbArc
 50
2.6054784857
 51
57.3945216599
  0
ARC
  5
647
330
44C
100
AcDbEntity
  8
0
  6
Continuous
 62
     7
370
    25
100
AcDbCircle
 10
7.5804182057
 20
1.7564660884
 30
0.0
 40
0.0363128296282996
100
AcDbArc
 50
84.8174221345
 51
173.6486598634
  0
ARC
  5
648
330
44C
100
AcDbEntity
  8
0
  6
Continuous
 62
     7
370
    25
100
AcDbCircle
 10
-7.4003701282
 20
14.8314176638
 30
0.0
 40
0.0605041262823701
100
AcDbArc
 50
122.60547834
 51
177.3945215143
  0
ARC
  5
649
330
44C
100
AcDbEntity
  8
0
  6
Continuous
 62
     7
370
    25
100
AcDbCircle
 10
7.5769309851
 20
-10.4970414749
 30
0.0
 40
0.0605041262823597
100
AcDbArc
 50
122.60547834
 51
177.3945215144
  0
ARC
  5
64A
330
44C
100
AcDbEntity
  8
0
  6
Continuous
 62
     7
370
    25
100
AcDbCircle
 10
7.5769309851
 20
1.7832179795
 30
0.0
 40
0.0605041262823511
100
AcDbArc
 50
122.60547834
 51
177.3945215144
  0
ARC
  5
64B
330
44C
100
AcDbEntity
  8
0
  6
Continuous
 62
     7
370
    25
100
AcDbCircle
 10
-19.0648481328
 20
17.1631896924
 30
0.0
 40
0.0605041262823528
100
AcDbArc
 50
122.60547834
 51
177.3945215143
  0
ARC
  5
64C
330
44C
100
AcDbEntity
  8
0
  6
Continuous
 62
     8
370
    25
100
AcDbCircle
 10
-47.7714670611
 20
33.2114592882
 30
0.0
 40
0.0198022533819543
100
AcDbArc
 50
54.3824225248
 51
114.3071190461
  0
ARC
  5
64D
330
44C
100
AcDbEntity
  8
0
  6
Continuous
 62
     8
370
    25
100
AcDbCircle
 10
-35.199838247
 20
40.4689061235
 30
0.0
 40
0.0198022533819695
100
AcDbArc
 50
54.3824225248
 51
114.3071190461
  0
ARC
  5
64E
330
44C
100
AcDbEntity
  8
0
  6
Continuous
 62
     8
370
    25
100
AcDbCircle
 10
-34.7232173222
 20
40.1976849424
 30
0.0
 40
0.0198007589958455
100
AcDbArc
 50
294.3746582936
 51
354.3052007488
  0
ARC
  5
64F
330
44C
100
AcDbEntity
  8
0
  6
Continuous
 62
     8
370
    25
100
AcDbCircle
 10
-34.7313520813
 20
40.2117697103
 30
0.0
 40
0.019802253381953
100
AcDbArc
 50
65.6928809539
 51
125.6175774752
  0
ARC
  5
650
330
44C
100
AcDbEntity
  8
0
  6
Continuous
 62
     8
370
    25
100
AcDbCircle
 10
-35.1767736758
 20
40.4689061235
 30
0.0
 40
0.0198022533819832
100
AcDbArc
 50
65.6928809539
 51
125.6175774751
  0
ARC
  5
651
330
44C
100
AcDbEntity
  8
0
  6
Continuous
 62
     8
370
    25
100
AcDbCircle
 10
-20.1489125349
 20
17.217659128
 30
0.0
 40
0.0610316162214688
100
AcDbArc
 50
12.8432761464
 51
57.3181546135
  0
ARC
  5
652
330
44C
100
AcDbEntity
  8
0
  6
Continuous
 62
     8
370
    25
100
AcDbCircle
 10
-7.5772762932
 20
24.4751419557
 30
0.0
 40
0.0609973126904806
100
AcDbArc
 50
14.6347164038
 51
57.305771306
  0
ARC
  5
653
330
44C
100
AcDbEntity
  8
0
  6
Continuous
 62
     8
370
    25
100
AcDbCircle
 10
-20.1274893557
 20
17.7672034721
 30
0.0
 40
0.0198022533819469
100
AcDbArc
 50
54.3824225248
 51
114.3071190461
  0
ARC
  5
654
330
44C
100
AcDbEntity
  8
0
  6
Continuous
 62
     8
370
    25
100
AcDbCircle
 10
-8.001282136
 20
24.7675138941
 30
0.0
 40
0.0198022533819591
100
AcDbArc
 50
54.3824225248
 51
114.3071190461
  0
ARC
  5
655
330
44C
100
AcDbEntity
  8
0
  6
Continuous
 62
     8
370
    25
100
AcDbCircle
 10
-7.5327959703
 20
24.510377481
 30
0.0
 40
0.0198022533819275
100
AcDbArc
 50
65.6928809538
 51
125.6175774752
  0
ARC
  5
656
330
44C
100
AcDbEntity
  8
0
  6
Continuous
 62
     8
370
    25
100
AcDbCircle
 10
-7.9782175648
 20
24.7675138941
 30
0.0
 40
0.0198022533819749
100
AcDbArc
 50
65.6928809539
 51
125.6175774752
  0
ARC
  5
657
330
44C
100
AcDbEntity
  8
0
  6
Continuous
 62
     8
370
    25
100
AcDbCircle
 10
-34.675674382
 20
31.1140958102
 30
0.0
 40
0.0198022533819242
100
AcDbArc
 50
65.6928809538
 51
125.6175774752
  0
ARC
  5
658
330
44C
100
AcDbEntity
  8
0
  6
Continuous
 62
     8
370
    25
100
AcDbCircle
 10
-35.1522953069
 20
30.8428746291
 30
0.0
 40
0.0198007589958268
100
AcDbArc
 50
185.6947992512
 51
245.6253417064
  0
ARC
  5
659
330
44C
100
AcDbEntity
  8
0
  6
Continuous
 62
     8
370
    25
100
AcDbCircle
 10
-35.1441605477
 20
30.856959397
 30
0.0
 40
0.0198022533819861
100
AcDbArc
 50
54.3824225249
 51
114.3071190461
  0
ARC
  5
65A
330
44C
100
AcDbEntity
  8
0
  6
Continuous
 62
     8
370
    25
100
AcDbCircle
 10
-34.6987389533
 20
31.1140958102
 30
0.0
 40
0.0198022533819613
100
AcDbArc
 50
54.3824225248
 51
114.3071190461
  0
ARC
  5
65B
330
44C
100
AcDbEntity
  8
0
  6
Continuous
 62
     8
370
    25
100
AcDbCircle
 10
-20.1564614141
 20
5.5465186845
 30
0.0
 40
0.0568071998465499
100
AcDbArc
 50
241.9597608846
 51
271.1440967458
  0
ARC
  5
65C
330
44C
100
AcDbEntity
  8
0
  6
Continuous
 62
     8
370
    25
100
AcDbCircle
 10
-20.1564614141
 20
5.0321622676
 30
0.0
 40
0.0568071998465415
100
AcDbArc
 50
241.9597608846
 51
271.1440967458
  0
ARC
  5
65D
330
44C
100
AcDbEntity
  8
0
  6
Continuous
 62
     8
370
    25
100
AcDbCircle
 10
-20.163874585
 20
4.9798938305
 30
0.0
 40
0.0194085799221587
100
AcDbArc
 50
173.701152483
 51
234.9866671236
  0
ARC
  5
65E
330
44C
100
AcDbEntity
  8
0
  6
Continuous
 62
     8
370
    25
100
AcDbCircle
 10
-20.1892029701
 20
17.7728508487
 30
0.0
 40
0.0620665202662354
100
AcDbArc
 50
15.019743397
 51
56.9207443128
  0
ARC
  5
65F
330
44C
100
AcDbEntity
  8
0
  6
Continuous
 62
     8
370
    25
100
AcDbCircle
 10
-20.1557221066
 20
17.829350913
 30
0.0
 40
0.0594281274016718
100
AcDbArc
 50
242.4966996037
 51
275.1026363475
  0
ARC
  5
660
330
44C
100
AcDbEntity
  8
0
  6
Continuous
 62
     8
370
    25
100
AcDbCircle
 10
-20.1564614141
 20
14.6763450851
 30
0.0
 40
0.056807199846455
100
AcDbArc
 50
241.9597608846
 51
271.1440967459
  0
ARC
  5
661
330
44C
100
AcDbEntity
  8
0
  6
Continuous
 62
     8
370
    25
100
AcDbCircle
 10
-20.0212420881
 20
17.8699503424
 30
0.0
 40
0.0609973126905144
100
AcDbArc
 50
14.6347164038
 51
57.305771306
  0
ARC
  5
662
330
44C
100
AcDbEntity
  8
0
  6
Continuous
 62
     8
370
    25
100
AcDbCircle
 10
-19.9767617652
 20
17.9051858676
 30
0.0
 40
0.019802253381975
100
AcDbArc
 50
65.6928809539
 51
125.6175774752
  0
ARC
  5
663
330
44C
100
AcDbEntity
  8
0
  6
Continuous
 62
     8
370
    25
100
AcDbCircle
 10
-46.6185408832
 20
33.2851575805
 30
0.0
 40
0.0198022533819766
100
AcDbArc
 50
65.692880954
 51
125.6175774752
  0
ARC
  5
664
330
44C
100
AcDbEntity
  8
0
  6
Continuous
 62
     8
370
    25
100
AcDbCircle
 10
-20.1644382207
 20
14.6238216366
 30
0.0
 40
0.0188789585030129
100
AcDbArc
 50
172.7441704059
 51
235.9436492007
  0
ARC
  5
665
330
44C
100
AcDbEntity
  8
0
  6
Continuous
 62
     8
370
    25
100
AcDbCircle
 10
-46.8167733115
 20
33.1746466576
 30
0.0
 40
0.0198007589957564
100
AcDbArc
 50
185.6947992511
 51
245.6253417065
  0
ARC
  5
666
330
44C
100
AcDbEntity
  8
0
  6
Continuous
 62
     8
370
    25
100
AcDbCircle
 10
-46.8086385523
 20
33.1887314255
 30
0.0
 40
0.0198022533819353
100
AcDbArc
 50
54.3824225248
 51
114.3071190461
  0
ARC
  5
667
330
44C
100
AcDbEntity
  8
0
  6
Continuous
 62
     8
370
    25
100
AcDbCircle
 10
-46.6416054544
 20
33.2851575805
 30
0.0
 40
0.0198022533819342
100
AcDbArc
 50
54.3824225247
 51
114.3071190461
  0
ARC
  5
668
330
44C
100
AcDbEntity
  8
0
  6
Continuous
 62
     8
370
    25
100
AcDbCircle
 10
-20.0718116564
 20
17.2207885941
 30
0.0
 40
0.01980225338197
100
AcDbArc
 50
54.3824225248
 51
114.3071190461
  0
ARC
  5
669
330
44C
100
AcDbEntity
  8
0
  6
Continuous
 62
     8
370
    25
100
AcDbCircle
 10
-7.5001828423
 20
24.4782354293
 30
0.0
 40
0.0198022533819551
100
AcDbArc
 50
54.3824225248
 51
114.3071190461
  0
ARC
  5
66A
330
44C
100
AcDbEntity
  8
0
  6
Continuous
 62
     8
370
    25
100
AcDbCircle
 10
-7.0235619174
 20
24.2070142482
 30
0.0
 40
0.0198007589958205
100
AcDbArc
 50
294.3746582936
 51
354.3052007488
  0
ARC
  5
66B
330
44C
100
AcDbEntity
  8
0
  6
Continuous
 62
     8
370
    25
100
AcDbCircle
 10
-7.0316966766
 20
24.2210990162
 30
0.0
 40
0.019802253381961
100
AcDbArc
 50
65.6928809539
 51
125.6175774752
  0
ARC
  5
66C
330
44C
100
AcDbEntity
  8
0
  6
Continuous
 62
     8
370
    25
100
AcDbCircle
 10
-7.477118271
 20
24.4782354293
 30
0.0
 40
0.019802253381961
100
AcDbArc
 50
65.6928809539
 51
125.6175774752
  0
ARC
  5
66D
330
44C
100
AcDbEntity
  8
0
  6
Continuous
 62
     8
370
    25
100
AcDbCircle
 10
7.5721660491
 20
1.7765327779
 30
0.0
 40
0.0198022533819581
100
AcDbArc
 50
54.3824225248
 51
114.3071190461
  0
ARC
  5
66E
330
44C
100
AcDbEntity
  8
0
  6
Continuous
 62
     8
370
    25
100
AcDbCircle
 10
19.6983732687
 20
8.7768432
 30
0.0
 40
0.0198022533819697
100
AcDbArc
 50
54.3824225248
 51
114.3071190461
  0
ARC
  5
66F
330
44C
100
AcDbEntity
  8
0
  6
Continuous
 62
     8
370
    25
100
AcDbCircle
 10
7.5922457709
 20
-11.5666059306
 30
0.0
 40
0.0194085799236586
100
AcDbArc
 50
305.013332879
 51
6.2988475144
  0
ARC
  5
670
330
44C
100
AcDbEntity
  8
0
  6
Continuous
 62
     8
370
    25
100
AcDbCircle
 10
20.163874585
 20
-4.3091590953
 30
0.0
 40
0.0194085799221944
100
AcDbArc
 50
305.0133328764
 51
6.2988475169
  0
ARC
  5
671
330
44C
100
AcDbEntity
  8
0
  6
Continuous
 62
     8
370
    25
100
AcDbCircle
 10
20.1668594344
 20
8.5197067868
 30
0.0
 40
0.0198022533819551
100
AcDbArc
 50
65.6928809539
 51
125.6175774752
  0
ARC
  5
672
330
44C
100
AcDbEntity
  8
0
  6
Continuous
 62
     8
370
    25
100
AcDbCircle
 10
20.1749941936
 20
8.5056220189
 30
0.0
 40
0.0198007589957974
100
AcDbArc
 50
294.3746582936
 51
354.3052007488
  0
ARC
  5
673
330
44C
100
AcDbEntity
  8
0
  6
Continuous
 62
     8
370
    25
100
AcDbCircle
 10
20.1749941936
 20
-4.2889938524
 30
0.0
 40
0.0198007589958011
100
AcDbArc
 50
294.3746582936
 51
354.3052007488
  0
ARC
  5
674
330
44C
100
AcDbEntity
  8
0
  6
Continuous
 62
     8
370
    25
100
AcDbCircle
 10
19.72143784
 20
8.7768432
 30
0.0
 40
0.0198022533819692
100
AcDbArc
 50
65.6928809539
 51
125.6175774752
  0
ARC
  5
675
330
44C
100
AcDbEntity
  8
0
  6
Continuous
 62
     8
370
    25
100
AcDbCircle
 10
-6.9760189773
 20
15.123425116
 30
0.0
 40
0.0198022533819681
100
AcDbArc
 50
65.6928809539
 51
125.6175774752
  0
ARC
  5
676
330
44C
100
AcDbEntity
  8
0
  6
Continuous
 62
     8
370
    25
100
AcDbCircle
 10
-7.4526399021
 20
14.8522039349
 30
0.0
 40
0.0198007589958177
100
AcDbArc
 50
185.6947992512
 51
245.6253417064
  0
ARC
  5
677
330
44C
100
AcDbEntity
  8
0
  6
Continuous
 62
     8
370
    25
100
AcDbCircle
 10
-7.444505143
 20
14.8662887028
 30
0.0
 40
0.0198022533819697
100
AcDbArc
 50
54.3824225248
 51
114.3071190461
  0
ARC
  5
678
330
44C
100
AcDbEntity
  8
0
  6
Continuous
 62
     8
370
    25
100
AcDbCircle
 10
-6.9990835485
 20
15.123425116
 30
0.0
 40
0.0198022533819661
100
AcDbArc
 50
54.3824225248
 51
114.3071190461
  0
ARC
  5
679
330
44C
100
AcDbEntity
  8
0
  6
Continuous
 62
     8
370
    25
100
AcDbCircle
 10
7.5431939907
 20
-10.4441520096
 30
0.0
 40
0.0568071998464584
100
AcDbArc
 50
241.9597608846
 51
271.1440967459
  0
ARC
  5
67A
330
44C
100
AcDbEntity
  8
0
  6
Continuous
 62
     8
370
    25
100
AcDbCircle
 10
7.5431939907
 20
-10.9585084266
 30
0.0
 40
0.0568071998464533
100
AcDbArc
 50
241.9597608846
 51
271.1440967459
  0
ARC
  5
67B
330
44C
100
AcDbEntity
  8
0
  6
Continuous
 62
     8
370
    25
100
AcDbCircle
 10
7.5357808198
 20
-11.0107768636
 30
0.0
 40
0.0194085799216281
100
AcDbArc
 50
173.7011524821
 51
234.9866671246
  0
ARC
  5
67C
330
44C
100
AcDbEntity
  8
0
  6
Continuous
 62
     8
370
    25
100
AcDbCircle
 10
7.5104524346
 20
1.7821801546
 30
0.0
 40
0.0620665202661878
100
AcDbArc
 50
15.019743397
 51
56.9207443128
  0
ARC
  5
67D
330
44C
100
AcDbEntity
  8
0
  6
Continuous
 62
     8
370
    25
100
AcDbCircle
 10
7.5439332981
 20
1.8386802188
 30
0.0
 40
0.0594281274014961
100
AcDbArc
 50
242.4966996037
 51
275.1026363465
  0
ARC
  5
67E
330
44C
100
AcDbEntity
  8
0
  6
Continuous
 62
     8
370
    25
100
AcDbCircle
 10
7.5431939907
 20
-1.314325609
 30
0.0
 40
0.0568071998464936
100
AcDbArc
 50
241.9597608846
 51
271.1440967458
  0
ARC
  5
67F
330
44C
100
AcDbEntity
  8
0
  6
Continuous
 62
     8
370
    25
100
AcDbCircle
 10
7.6784133167
 20
1.8792796482
 30
0.0
 40
0.0609973126905311
100
AcDbArc
 50
14.6347164039
 51
57.305771306
  0
ARC
  5
680
330
44C
100
AcDbEntity
  8
0
  6
Continuous
 62
     8
370
    25
100
AcDbCircle
 10
7.7228936395
 20
1.9145151734
 30
0.0
 40
0.0198022533819525
100
AcDbArc
 50
65.6928809539
 51
125.6175774752
  0
ARC
  5
681
330
44C
100
AcDbEntity
  8
0
  6
Continuous
 62
     8
370
    25
100
AcDbCircle
 10
-18.9188854784
 20
17.2944868863
 30
0.0
 40
0.0198022533819684
100
AcDbArc
 50
65.6928809539
 51
125.6175774752
  0
ARC
  5
682
330
44C
100
AcDbEntity
  8
0
  6
Continuous
 62
     8
370
    25
100
AcDbCircle
 10
7.5352171841
 20
-1.3668490576
 30
0.0
 40
0.018878958519031
100
AcDbArc
 50
172.7441704359
 51
235.9436491708
  0
ARC
  5
683
330
44C
100
AcDbEntity
  8
0
  6
Continuous
 62
     8
370
    25
100
AcDbCircle
 10
-19.1171179068
 20
17.1839759634
 30
0.0
 40
0.0198007589958021
100
AcDbArc
 50
185.6947992512
 51
245.6253417065
  0
ARC
  5
684
330
44C
100
AcDbEntity
  8
0
  6
Continuous
 62
     8
370
    25
100
AcDbCircle
 10
-19.1089831476
 20
17.1980607314
 30
0.0
 40
0.0198022533819663
100
AcDbArc
 50
54.3824225248
 51
114.3071190461
  0
ARC
  5
685
330
44C
100
AcDbEntity
  8
0
  6
Continuous
 62
     8
370
    25
100
AcDbCircle
 10
-18.9419500497
 20
17.2944868863
 30
0.0
 40
0.0198022533819411
100
AcDbArc
 50
54.3824225248
 51
114.3071190461
  0
ARC
  5
686
330
44C
100
AcDbEntity
  8
0
  6
Continuous
 62
     8
370
    25
100
AcDbCircle
 10
7.4406776255
 20
-11.5344889515
 30
0.0
 40
0.0193562738973007
100
AcDbArc
 50
173.6093872136
 51
235.078432393
  0
ARC
  5
687
330
44C
100
AcDbEntity
  8
0
  6
Continuous
 62
     8
370
    25
100
AcDbCircle
 10
-20.0132045238
 20
4.3142998624
 30
0.0
 40
0.0193562738972767
100
AcDbArc
 50
173.6093872136
 51
235.078432393
  0
ARC
  5
688
330
44C
100
AcDbEntity
  8
0
  6
Continuous
 62
     8
370
    25
100
AcDbCircle
 10
-20.0246916924
 20
4.3341866853
 30
0.0
 40
0.0193515019933854
100
AcDbArc
 50
184.9249021695
 51
246.3952387881
  0
ARC
  5
689
330
44C
100
AcDbEntity
  8
0
  6
Continuous
 62
     8
370
    25
100
AcDbCircle
 10
-20.2589777792
 20
4.4561817427
 30
0.0
 40
0.0193562738972921
100
AcDbArc
 50
173.6093872136
 51
235.078432393
  0
ARC
  5
68A
330
44C
100
AcDbEntity
  8
0
  6
Continuous
 62
     8
370
    25
100
AcDbCircle
 10
-47.7128599286
 20
20.3049705566
 30
0.0
 40
0.0193562738973223
100
AcDbArc
 50
173.6093872137
 51
235.078432393
  0
ARC
  5
68B
330
44C
100
AcDbEntity
  8
0
  6
Continuous
 62
     8
370
    25
100
AcDbCircle
 10
-47.7243470972
 20
20.3248573795
 30
0.0
 40
0.0193515019934412
100
AcDbArc
 50
184.9249021696
 51
246.395238788
  0
VIEWPORT
  5
692
330
44C
100
AcDbEntity
  8
0
100
AcDbViewport
 10
0.0
 20
0.0
 30
0.0
 40
8.4
 41
6.4
 68
     1
 69
     1
 12
-19.5866141732
 22
7.874015748
 13
0.0
 23
0.0
 14
0.5
 24
0.5
 15
0.5
 25
0.5
 16
0.0
 26
0.0
 36
1.0
 17
0.0
 27
0.0
 37
0.0
 42
50.0
 43
0.0
 44
0.0
 45
60.8863892013
 50
0.0
 51
0.0
 72
   100
 90
   557152
  1

281
     0
 71
     1
 74
     0
110
0.0
120
0.0
130
0.0
111
1.0
121
0.0
131
0.0
112
0.0
122
1.0
132
0.0
 79
     0
146
0.0
  0
ENDBLK
  5
44F
330
44C
100
AcDbEntity
  8
0
100
AcDbBlockEnd
  0
ENDSEC
  0
SECTION
  2
ENTITIES
  0
LINE
  5
EC
330
1F
100
AcDbEntity
  8
0
  6
Continuous
 62
     7
370
    25
100
AcDbLine
 10
-19.5472440945
 20
0.0
 30
0.0
 11
19.5472440945
 21
0.0
 31
0.0
  0
LINE
  5
ED
330
1F
100
AcDbEntity
  8
0
  6
Continuous
 62
     7
370
    25
100
AcDbLine
 10
-19.4521963164
 20
13.9831327904
 30
0.0
 11
-19.4521963164
 21
0.0393700787
 31
0.0
  0
LINE
  5
EE
330
1F
100
AcDbEntity
  8
0
  6
Continuous
 62
     7
370
    25
100
AcDbLine
 10
19.4521963164
 20
13.9831327904
 30
0.0
 11
-19.4521963164
 21
13.9831327904
 31
0.0
  0
LINE
  5
EF
330
1F
100
AcDbEntity
  8
0
  6
Continuous
 62
     7
370
    25
100
AcDbLine
 10
19.4521963164
 20
0.0393700787
 30
0.0
 11
19.4521963164
 21
13.9831327904
 31
0.0
  0
LINE
  5
F0
330
1F
100
AcDbEntity
  8
0
  6
Continuous
 62
     7
370
    25
100
AcDbLine
 10
-58.7204724409
 20
0.0
 30
0.0
 11
-19.625984252
 21
0.0
 31
0.0
  0
LINE
  5
F1
330
1F
100
AcDbEntity
  8
0
  6
Continuous
 62
     7
370
    25
100
AcDbLine
 10
-58.6254246629
 20
13.9831327904
 30
0.0
 11
-58.6254246629
 21
0.0393700787
 31
0.0
  0
LINE
  5
F2
330
1F
100
AcDbEntity
  8
0
  6
Continuous
 62
     7
370
    25
100
AcDbLine
 10
-19.72103203
 20
13.9831327904
 30
0.0
 11
-58.6254246629
 21
13.9831327904
 31
0.0
  0
LINE
  5
F3
330
1F
100
AcDbEntity
  8
0
  6
Continuous
 62
     7
370
    25
100
AcDbLine
 10
-19.72103203
 20
0.0393700787
 30
0.0
 11
-19.72103203
 21
13.9831327904
 31
0.0
  0
LINE
  5
F4
330
1F
100
AcDbEntity
  8
0
  6
Continuous
 62
     7
370
    25
100
AcDbLine
 10
-58.6926335913
 20
15.7086614173
 30
0.0
 11
-58.6926335913
 21
0.0393700787
 31
0.0
  0
LINE
  5
F5
330
1F
100
AcDbEntity
  8
0
  6
Continuous
 62
     7
370
    25
100
AcDbLine
 10
-58.7598425197
 20
0.0393700787
 30
0.0
 11
-58.7598425197
 21
15.7086614173
 31
0.0
  0
LINE
  5
F6
330
1F
100
AcDbEntity
  8
0
  6
Continuous
 62
     7
370
    25
100
AcDbLine
 10
-58.7204724409
 20
15.7480314961
 30
0.0
 11
-58.0905511811
 21
15.7480314961
 31
0.0
  0
LINE
  5
F7
330
1F
100
AcDbEntity
  8
0
  6
Continuous
 62
     7
370
    25
100
AcDbLine
 10
-58.0511811024
 20
15.7086614173
 30
0.0
 11
-58.0511811024
 21
13.9831327904
 31
0.0
  0
LINE
  5
F8
330
1F
100
AcDbEntity
  8
0
  6
Continuous
 62
     7
370
    25
100
AcDbLine
 10
-19.5866141732
 20
0.0393700787
 30
0.0
 11
-19.5866141732
 21
15.7086614173
 31
0.0
  0
LINE
  5
F9
330
1F
100
AcDbEntity
  8
0
  6
Continuous
 62
     7
370
    25
100
AcDbLine
 10
-19.6538231016
 20
0.0393700787
 30
0.0
 11
-19.6538231016
 21
15.7086614173
 31
0.0
  0
LINE
  5
FA
330
1F
100
AcDbEntity
  8
0
  6
Continuous
 62
     7
370
    25
100
AcDbLine
 10
-20.2559055118
 20
15.7480314961
 30
0.0
 11
-19.625984252
 21
15.7480314961
 31
0.0
  0
LINE
  5
FB
330
1F
100
AcDbEntity
  8
0
  6
Continuous
 62
     7
370
    25
100
AcDbLine
 10
-20.2952755906
 20
13.9831327904
 30
0.0
 11
-20.2952755906
 21
15.7086614173
 31
0.0
  0
LINE
  5
FC
330
1F
100
AcDbEntity
  8
0
  6
Continuous
 62
     7
370
    25
100
AcDbLine
 10
-58.0118110236
 20
15.7480314961
 30
0.0
 11
-58.0118110236
 21
13.9831327904
 31
0.0
  0
LINE
  5
FD
330
1F
100
AcDbEntity
  8
0
  6
Continuous
 62
     7
370
    25
100
AcDbLine
 10
-58.0118110236
 20
15.7480314961
 30
0.0
 11
-20.3346456693
 21
15.7480314961
 31
0.0
  0
LINE
  5
FE
330
1F
100
AcDbEntity
  8
0
  6
Continuous
 62
     7
370
    25
100
AcDbLine
 10
-20.3346456693
 20
13.9831327904
 30
0.0
 11
-20.3346456693
 21
15.7480314961
 31
0.0
  0
LINE
  5
FF
330
1F
100
AcDbEntity
  8
0
  6
Continuous
 62
     7
370
    25
100
AcDbLine
 10
-19.5194052448
 20
15.7086614173
 30
0.0
 11
-19.5194052448
 21
0.0393700787
 31
0.0
  0
LINE
  5
100
330
1F
100
AcDbEntity
  8
0
  6
Continuous
 62
     7
370
    25
100
AcDbLine
 10
-19.5472440945
 20
15.7480314961
 30
0.0
 11
-18.9173228346
 21
15.7480314961
 31
0.0
  0
LINE
  5
101
330
1F
100
AcDbEntity
  8
0
  6
Continuous
 62
     7
370
    25
100
AcDbLine
 10
-18.8779527559
 20
15.7086614173
 30
0.0
 11
-18.8779527559
 21
13.9831327904
 31
0.0
  0
LINE
  5
102
330
1F
100
AcDbEntity
  8
0
  6
Continuous
 62
     7
370
    25
100
AcDbLine
 10
19.5866141732
 20
15.7086614173
 30
0.0
 11
19.5866141732
 21
0.0393700787
 31
0.0
  0
LINE
  5
103
330
1F
100
AcDbEntity
  8
0
  6
Continuous
 62
     7
370
    25
100
AcDbLine
 10
19.5194052448
 20
0.0393700787
 30
0.0
 11
19.5194052448
 21
15.7086614173
 31
0.0
  0
LINE
  5
104
330
1F
100
AcDbEntity
  8
0
  6
Continuous
 62
     7
370
    25
100
AcDbLine
 10
19.5866141732
 20
15.7086614173
 30
0.0
 11
-58.7598425197
 21
15.7086614173
 31
0.0
  0
LINE
  5
105
330
1F
100
AcDbEntity
  8
0
  6
Continuous
 62
     7
370
    25
100
AcDbLine
 10
18.9173228346
 20
15.7480314961
 30
0.0
 11
19.5472440945
 21
15.7480314961
 31
0.0
  0
LINE
  5
106
330
1F
100
AcDbEntity
  8
0
  6
Continuous
 62
     7
370
    25
100
AcDbLine
 10
18.8779527559
 20
13.9831327904
 30
0.0
 11
18.8779527559
 21
15.7086614173
 31
0.0
  0
LINE
  5
107
330
1F
100
AcDbEntity
  8
0
  6
Continuous
 62
     7
370
    25
100
AcDbLine
 10
-18.8385826772
 20
15.7480314961
 30
0.0
 11
-18.8385826772
 21
13.9831327904
 31
0.0
  0
LINE
  5
108
330
1F
100
AcDbEntity
  8
0
  6
Continuous
 62
     7
370
    25
100
AcDbLine
 10
18.8385826772
 20
13.9831327904
 30
0.0
 11
18.8385826772
 21
15.7480314961
 31
0.0
  0
LINE
  5
109
330
1F
100
AcDbEntity
  8
0
  6
Continuous
 62
     7
370
    25
100
AcDbLine
 10
-18.8385826772
 20
15.7480314961
 30
0.0
 11
18.8385826772
 21
15.7480314961
 31
0.0
  0
LINE
  5
10A
330
1F
100
AcDbEntity
  8
0
  6
Continuous
 62
     7
370
    25
100
AcDbLine
 10
-19.4128262377
 20
13.9437627116
 30
0.0
 11
-19.4521963164
 21
13.9831327904
 31
0.0
  0
LINE
  5
10B
330
1F
100
AcDbEntity
  8
0
  6
Continuous
 62
     7
370
    25
100
AcDbLine
 10
-19.4128262377
 20
13.9437627116
 30
0.0
 11
-19.4128262377
 21
0.0
 31
0.0
  0
LINE
  5
10C
330
1F
100
AcDbEntity
  8
0
  6
Continuous
 62
     7
370
    25
100
AcDbLine
 10
19.4128262377
 20
13.9437627116
 30
0.0
 11
-19.4128262377
 21
13.9437627116
 31
0.0
  0
LINE
  5
10D
330
1F
100
AcDbEntity
  8
0
  6
Continuous
 62
     7
370
    25
100
AcDbLine
 10
19.4128262377
 20
13.9437627116
 30
0.0
 11
19.4521963164
 21
13.9831327904
 31
0.0
  0
LINE
  5
10E
330
1F
100
AcDbEntity
  8
0
  6
Continuous
 62
     7
370
    25
100
AcDbLine
 10
19.4128262377
 20
0.0
 30
0.0
 11
19.4128262377
 21
13.9437627116
 31
0.0
  0
LINE
  5
10F
330
1F
100
AcDbEntity
  8
0
  6
Continuous
 62
     7
370
    25
100
AcDbLine
 10
-58.7598425197
 20
0.0393700787
 30
0.0
 11
19.5866141732
 21
0.0393700787
 31
0.0
  0
LINE
  5
110
330
1F
100
AcDbEntity
  8
0
  6
Continuous
 62
     7
370
    25
100
AcDbLine
 10
-58.5860545842
 20
13.9437627116
 30
0.0
 11
-58.6254246629
 21
13.9831327904
 31
0.0
  0
LINE
  5
111
330
1F
100
AcDbEntity
  8
0
  6
Continuous
 62
     7
370
    25
100
AcDbLine
 10
-58.5860545842
 20
13.9437627116
 30
0.0
 11
-58.5860545842
 21
0.0
 31
0.0
  0
LINE
  5
112
330
1F
100
AcDbEntity
  8
0
  6
Continuous
 62
     7
370
    25
100
AcDbLine
 10
-19.7604021088
 20
13.9437627116
 30
0.0
 11
-58.5860545842
 21
13.9437627116
 31
0.0
  0
LINE
  5
113
330
1F
100
AcDbEntity
  8
0
  6
Continuous
 62
     7
370
    25
100
AcDbLine
 10
-19.7604021088
 20
13.9437627116
 30
0.0
 11
-19.72103203
 21
13.9831327904
 31
0.0
  0
LINE
  5
114
330
1F
100
AcDbEntity
  8
0
  6
Continuous
 62
     7
370
    25
100
AcDbLine
 10
-19.7604021088
 20
0.0
 30
0.0
 11
-19.7604021088
 21
13.9437627116
 31
0.0
  0
LINE
  5
115
330
1F
100
AcDbEntity
  8
0
  6
Continuous
 62
     8
370
    25
100
AcDbLine
 10
-58.0627123314
 20
13.9831327904
 30
0.0
 11
-58.0627123314
 21
15.7086614173
 31
0.0
  0
LINE
  5
116
330
1F
100
AcDbEntity
  8
0
  6
Continuous
 62
     8
370
    25
100
AcDbLine
 10
-20.2837443615
 20
15.7086614173
 30
0.0
 11
-20.2837443615
 21
13.9831327904
 31
0.0
  0
LINE
  5
117
330
1F
100
AcDbEntity
  8
0
  6
Continuous
 62
     8
370
    25
100
AcDbLine
 10
-18.889483985
 20
13.9831327904
 30
0.0
 11
-18.889483985
 21
15.7086614173
 31
0.0
  0
LINE
  5
118
330
1F
100
AcDbEntity
  8
0
  6
Continuous
 62
     8
370
    25
100
AcDbLine
 10
18.889483985
 20
15.7086614173
 30
0.0
 11
18.889483985
 21
13.9831327904
 31
0.0
  0
ARC
  5
119
330
1F
100
AcDbEntity
  8
0
  6
Continuous
 62
     7
370
    25
100
AcDbCircle
 10
-19.4128262377
 20
0.0393700787
 30
0.0
 40
0.0393700787401592
100
AcDbArc
 50
180.0
 51
270.0
  0
ARC
  5
11A
330
1F
100
AcDbEntity
  8
0
  6
Continuous
 62
     7
370
    25
100
AcDbCircle
 10
19.4128262377
 20
0.0393700787
 30
0.0
 40
0.0393700787401592
100
AcDbArc
 50
270.0
 51
0.0
  0
ARC
  5
11B
330
1F
100
AcDbEntity
  8
0
  6
Continuous
 62
     7
370
    25
100
AcDbCircle
 10
-58.5860545842
 20
0.0393700787
 30
0.0
 40
0.0393700787401485
100
AcDbArc
 50
180.0
 51
270.0
  0
ARC
  5
11C
330
1F
100
AcDbEntity
  8
0
  6
Continuous
 62
     7
370
    25
100
AcDbCircle
 10
-19.7604021088
 20
0.0393700787
 30
0.0
 40
0.0393700787401627
100
AcDbArc
 50
270.0
 51
360.0
  0
ARC
  5
11D
330
1F
100
AcDbEntity
  8
0
  6
Continuous
 62
     7
370
    25
100
AcDbCircle
 10
-58.7204724409
 20
0.0393700787
 30
0.0
 40
0.0393700787401416
100
AcDbArc
 50
180.0
 51
270.0
  0
ARC
  5
11E
330
1F
100
AcDbEntity
  8
0
  6
Continuous
 62
     7
370
    25
100
AcDbCircle
 10
-58.7274321534
 20
0.0344488189
 30
0.0
 40
0.0351448249436214
100
AcDbArc
 50
281.4217536589
 51
8.0494669755
  0
ARC
  5
11F
330
1F
100
AcDbEntity
  8
0
  6
Continuous
 62
     7
370
    25
100
AcDbCircle
 10
-58.7204724409
 20
15.7086614173
 30
0.0
 40
0.0393700787401485
100
AcDbArc
 50
90.0
 51
180.0
  0
ARC
  5
120
330
1F
100
AcDbEntity
  8
0
  6
Continuous
 62
     7
370
    25
100
AcDbCircle
 10
-58.7274321534
 20
15.7135826772
 30
0.0
 40
0.0351448249435952
100
AcDbArc
 50
351.9505330244
 51
78.5782463411
  0
ARC
  5
121
330
1F
100
AcDbEntity
  8
0
  6
Continuous
 62
     7
370
    25
100
AcDbCircle
 10
-58.0975108935
 20
15.7135826772
 30
0.0
 40
0.0351448249436318
100
AcDbArc
 50
351.9505330245
 51
78.578246341
  0
ARC
  5
122
330
1F
100
AcDbEntity
  8
0
  6
Continuous
 62
     7
370
    25
100
AcDbCircle
 10
-58.0905511811
 20
15.7086614173
 30
0.0
 40
0.0393700787401627
100
AcDbArc
 50
0.0
 51
90.0
  0
ARC
  5
123
330
1F
100
AcDbEntity
  8
0
  6
Continuous
 62
     7
370
    25
100
AcDbCircle
 10
-19.6190245396
 20
0.0344488189
 30
0.0
 40
0.0351448249436141
100
AcDbArc
 50
171.9505330245
 51
258.578246341
  0
ARC
  5
124
330
1F
100
AcDbEntity
  8
0
  6
Continuous
 62
     7
370
    25
100
AcDbCircle
 10
-19.625984252
 20
0.0393700787
 30
0.0
 40
0.0393700787401592
100
AcDbArc
 50
270.0
 51
0.0
  0
ARC
  5
125
330
1F
100
AcDbEntity
  8
0
  6
Continuous
 62
     7
370
    25
100
AcDbCircle
 10
-19.6190245396
 20
15.7135826772
 30
0.0
 40
0.0351448249436137
100
AcDbArc
 50
101.421753659
 51
188.0494669755
  0
ARC
  5
126
330
1F
100
AcDbEntity
  8
0
  6
Continuous
 62
     7
370
    25
100
AcDbCircle
 10
-19.625984252
 20
15.7086614173
 30
0.0
 40
0.0393700787401574
100
AcDbArc
 50
0.0
 51
90.0
  0
ARC
  5
127
330
1F
100
AcDbEntity
  8
0
  6
Continuous
 62
     7
370
    25
100
AcDbCircle
 10
-20.2489457994
 20
15.7135826772
 30
0.0
 40
0.0351448249436179
100
AcDbArc
 50
101.421753659
 51
188.0494669755
  0
ARC
  5
128
330
1F
100
AcDbEntity
  8
0
  6
Continuous
 62
     7
370
    25
100
AcDbCircle
 10
-20.2559055118
 20
15.7086614173
 30
0.0
 40
0.0393700787401592
100
AcDbArc
 50
90.0
 51
180.0
  0
ARC
  5
129
330
1F
100
AcDbEntity
  8
0
  6
Continuous
 62
     7
370
    25
100
AcDbCircle
 10
-58.0118110236
 20
15.7086614173
 30
0.0
 40
0.0393700787401698
100
AcDbArc
 50
90.0
 51
180.0
  0
ARC
  5
12A
330
1F
100
AcDbEntity
  8
0
  6
Continuous
 62
     7
370
    25
100
AcDbCircle
 10
-20.3346456693
 20
15.7086614173
 30
0.0
 40
0.0393700787401539
100
AcDbArc
 50
360.0
 51
90.0
  0
ARC
  5
12B
330
1F
100
AcDbEntity
  8
0
  6
Continuous
 62
     7
370
    25
100
AcDbCircle
 10
-19.5472440945
 20
0.0393700787
 30
0.0
 40
0.0393700787401627
100
AcDbArc
 50
180.0
 51
270.0
  0
ARC
  5
12C
330
1F
100
AcDbEntity
  8
0
  6
Continuous
 62
     7
370
    25
100
AcDbCircle
 10
-19.5542038069
 20
0.0344488189
 30
0.0
 40
0.0351448249436241
100
AcDbArc
 50
281.421753659
 51
8.0494669755
  0
ARC
  5
12D
330
1F
100
AcDbEntity
  8
0
  6
Continuous
 62
     7
370
    25
100
AcDbCircle
 10
-19.5472440945
 20
15.7086614173
 30
0.0
 40
0.0393700787401592
100
AcDbArc
 50
90.0
 51
180.0
  0
ARC
  5
12E
330
1F
100
AcDbEntity
  8
0
  6
Continuous
 62
     7
370
    25
100
AcDbCircle
 10
-19.5542038069
 20
15.7135826772
 30
0.0
 40
0.0351448249436147
100
AcDbArc
 50
351.9505330245
 51
78.578246341
  0
ARC
  5
12F
330
1F
100
AcDbEntity
  8
0
  6
Continuous
 62
     7
370
    25
100
AcDbCircle
 10
-18.9242825471
 20
15.7135826772
 30
0.0
 40
0.0351448249436081
100
AcDbArc
 50
351.9505330245
 51
78.5782463411
  0
ARC
  5
130
330
1F
100
AcDbEntity
  8
0
  6
Continuous
 62
     7
370
    25
100
AcDbCircle
 10
-18.9173228346
 20
15.7086614173
 30
0.0
 40
0.0393700787401574
100
AcDbArc
 50
0.0
 51
90.0
  0
ARC
  5
131
330
1F
100
AcDbEntity
  8
0
  6
Continuous
 62
     7
370
    25
100
AcDbCircle
 10
19.5542038069
 20
0.0344488189
 30
0.0
 40
0.0351448249436053
100
AcDbArc
 50
171.9505330245
 51
258.5782463411
  0
ARC
  5
132
330
1F
100
AcDbEntity
  8
0
  6
Continuous
 62
     7
370
    25
100
AcDbCircle
 10
19.5472440945
 20
0.0393700787
 30
0.0
 40
0.0393700787401556
100
AcDbArc
 50
270.0
 51
0.0
  0
ARC
  5
133
330
1F
100
AcDbEntity
  8
0
  6
Continuous
 62
     7
370
    25
100
AcDbCircle
 10
19.5542038069
 20
15.7135826772
 30
0.0
 40
0.0351448249436046
100
AcDbArc
 50
101.4217536589
 51
188.0494669755
  0
ARC
  5
134
330
1F
100
AcDbEntity
  8
0
  6
Continuous
 62
     7
370
    25
100
AcDbCircle
 10
19.5472440945
 20
15.7086614173
 30
0.0
 40
0.0393700787401556
100
AcDbArc
 50
360.0
 51
90.0
  0
ARC
  5
135
330
1F
100
AcDbEntity
  8
0
  6
Continuous
 62
     7
370
    25
100
AcDbCircle
 10
18.9242825471
 20
15.7135826772
 30
0.0
 40
0.0351448249436053
100
AcDbArc
 50
101.421753659
 51
188.0494669755
  0
ARC
  5
136
330
1F
100
AcDbEntity
  8
0
  6
Continuous
 62
     7
370
    25
100
AcDbCircle
 10
18.9173228346
 20
15.7086614173
 30
0.0
 40
0.0393700787401503
100
AcDbArc
 50
90.0
 51
180.0
  0
ARC
  5
137
330
1F
100
AcDbEntity
  8
0
  6
Continuous
 62
     7
370
    25
100
AcDbCircle
 10
-18.8385826772
 20
15.7086614173
 30
0.0
 40
0.0393700787401574
100
AcDbArc
 50
90.0
 51
180.0
  0
ARC
  5
138
330
1F
100
AcDbEntity
  8
0
  6
Continuous
 62
     7
370
    25
100
AcDbCircle
 10
18.8385826772
 20
15.7086614173
 30
0.0
 40
0.0393700787401592
100
AcDbArc
 50
0.0
 51
90.0
  0
LWPOLYLINE
  5
22B
330
1B
100
AcDbEntity
 67
     1
  8
0
  6
Continuous
 62
     7
370
    25
100
AcDbPolyline
 90
        3
 70
   128
 43
0.0
 10
-2.9527559055
 20
4.904952222
 10
-2.9455631405
 20
4.6989783822
 10
-2.9413499961
 20
4.6456692913
  0
LWPOLYLINE
  5
22C
330
1B
100
AcDbEntity
 67
     1
  8
0
  6
Continuous
 62
     7
370
    25
100
AcDbPolyline
 90
        3
 70
   128
 43
0.0
 10
2.9413499961
 20
4.6456692913
 10
2.9455631405
 20
4.6989783822
 10
2.9527559055
 20
4.904952222
  0
LWPOLYLINE
  5
238
330
1B
100
AcDbEntity
 67
     1
  8
0
  6
Continuous
 62
     7
370
    25
100
AcDbPolyline
 90
        3
 70
   128
 43
0.0
 10
36.2204724409
 20
4.904952222
 10
36.2276652059
 20
4.6989783822
 10
36.2318783504
 20
4.6456692913
  0
LWPOLYLINE
  5
239
330
1B
100
AcDbEntity
 67
     1
  8
0
  6
Continuous
 62
     7
370
    25
100
AcDbPolyline
 90
        3
 70
   128
 43
0.0
 10
42.1145783425
 20
4.6456692913
 10
42.118791487
 20
4.6989783822
 10
42.125984252
 20
4.904952222
  0
LINE
  5
23F
330
1B
100
AcDbEntity
 67
     1
  8
0
  6
Continuous
 62
     7
370
    25
100
AcDbLine
 10
19.5472440945
 20
0.0
 30
0.0
 11
-19.5472440945
 21
0.0
 31
0.0
  0
LINE
  5
240
330
1B
100
AcDbEntity
 67
     1
  8
0
  6
Continuous
 62
     7
370
    25
100
AcDbLine
 10
58.7204724409
 20
0.0
 30
0.0
 11
19.625984252
 21
0.0
 31
0.0
  0
LINE
  5
241
330
1B
100
AcDbEntity
 67
     1
  8
0
  6
Continuous
 62
     7
370
    25
100
AcDbLine
 10
58.7204724409
 20
0.0
 30
0.0
 11
58.7204724409
 21
15.7480314961
 31
0.0
  0
LINE
  5
242
330
1B
100
AcDbEntity
 67
     1
  8
0
  6
Continuous
 62
     7
370
    25
100
AcDbLine
 10
58.0905511811
 20
15.7480314961
 30
0.0
 11
58.0905511811
 21
0.0
 31
0.0
  0
LINE
  5
243
330
1B
100
AcDbEntity
 67
     1
  8
0
  6
Continuous
 62
     7
370
    25
100
AcDbLine
 10
58.0905511811
 20
15.7480314961
 30
0.0
 11
58.7204724409
 21
15.7480314961
 31
0.0
  0
LINE
  5
244
330
1B
100
AcDbEntity
 67
     1
  8
0
  6
Continuous
 62
     7
370
    25
100
AcDbLine
 10
58.7598425197
 20
15.7086614173
 30
0.0
 11
58.7598425197
 21
0.0393700787
 31
0.0
  0
LINE
  5
245
330
1B
100
AcDbEntity
 67
     1
  8
0
  6
Continuous
 62
     7
370
    25
100
AcDbLine
 10
58.0511811024
 20
0.0393700787
 30
0.0
 11
58.0511811024
 21
15.7086614173
 31
0.0
  0
LINE
  5
246
330
1B
100
AcDbEntity
 67
     1
  8
0
  6
Continuous
 62
     7
370
    25
100
AcDbLine
 10
19.625984252
 20
15.7480314961
 30
0.0
 11
20.2559055118
 21
15.7480314961
 31
0.0
  0
LINE
  5
247
330
1B
100
AcDbEntity
 67
     1
  8
0
  6
Continuous
 62
     7
370
    25
100
AcDbLine
 10
20.2559055118
 20
0.0
 30
0.0
 11
20.2559055118
 21
15.7480314961
 31
0.0
  0
LINE
  5
248
330
1B
100
AcDbEntity
 67
     1
  8
0
  6
Continuous
 62
     7
370
    25
100
AcDbLine
 10
19.625984252
 20
15.7480314961
 30
0.0
 11
19.625984252
 21
0.0
 31
0.0
  0
LINE
  5
249
330
1B
100
AcDbEntity
 67
     1
  8
0
  6
Continuous
 62
     7
370
    25
100
AcDbLine
 10
20.2952755906
 20
15.7086614173
 30
0.0
 11
20.2952755906
 21
0.0393700787
 31
0.0
  0
LINE
  5
24A
330
1B
100
AcDbEntity
 67
     1
  8
0
  6
Continuous
 62
     7
370
    25
100
AcDbLine
 10
19.5866141732
 20
15.7086614173
 30
0.0
 11
19.5866141732
 21
0.0393700787
 31
0.0
  0
LINE
  5
24B
330
1B
100
AcDbEntity
 67
     1
  8
0
  6
Continuous
 62
     7
370
    25
100
AcDbLine
 10
20.2952755906
 20
0.7480314961
 30
0.0
 11
58.0511811024
 21
0.7480314961
 31
0.0
  0
LINE
  5
24C
330
1B
100
AcDbEntity
 67
     1
  8
0
  6
Continuous
 62
     7
370
    25
100
AcDbLine
 10
58.0511811024
 20
4.6062992126
 30
0.0
 11
20.2952755906
 21
4.6062992126
 31
0.0
  0
LINE
  5
24D
330
1B
100
AcDbEntity
 67
     1
  8
0
  6
Continuous
 62
     7
370
    25
100
AcDbLine
 10
20.3346456693
 20
4.6456692913
 30
0.0
 11
58.0118110236
 21
4.6456692913
 31
0.0
  0
LINE
  5
24E
330
1B
100
AcDbEntity
 67
     1
  8
0
  6
Continuous
 62
     7
370
    25
100
AcDbLine
 10
58.0118110236
 20
0.7086614173
 30
0.0
 11
20.3346456693
 21
0.7086614173
 31
0.0
  0
LINE
  5
24F
330
1B
100
AcDbEntity
 67
     1
  8
0
  6
Continuous
 62
     7
370
    25
100
AcDbLine
 10
58.0118110236
 20
0.0
 30
0.0
 11
58.0118110236
 21
4.6456692913
 31
0.0
  0
LINE
  5
250
330
1B
100
AcDbEntity
 67
     1
  8
0
  6
Continuous
 62
     7
370
    25
100
AcDbLine
 10
20.3346456693
 20
4.6456692913
 30
0.0
 11
20.3346456693
 21
0.0
 31
0.0
  0
LINE
  5
251
330
1B
100
AcDbEntity
 67
     1
  8
0
  6
Continuous
 62
     7
370
    25
100
AcDbLine
 10
58.0511811024
 20
0.6692913386
 30
0.0
 11
20.2952755906
 21
0.6692913386
 31
0.0
  0
LINE
  5
252
330
1B
100
AcDbEntity
 67
     1
  8
0
  6
Continuous
 62
     7
370
    25
100
AcDbLine
 10
58.0118110236
 20
11.811023622
 30
0.0
 11
58.0118110236
 21
15.7480314961
 31
0.0
  0
LINE
  5
253
330
1B
100
AcDbEntity
 67
     1
  8
0
  6
Continuous
 62
     7
370
    25
100
AcDbLine
 10
20.2952755906
 20
11.8503937008
 30
0.0
 11
58.0511811024
 21
11.8503937008
 31
0.0
  0
LINE
  5
254
330
1B
100
AcDbEntity
 67
     1
  8
0
  6
Continuous
 62
     7
370
    25
100
AcDbLine
 10
20.3346456693
 20
15.7480314961
 30
0.0
 11
20.3346456693
 21
11.811023622
 31
0.0
  0
LINE
  5
255
330
1B
100
AcDbEntity
 67
     1
  8
0
  6
Continuous
 62
     7
370
    25
100
AcDbLine
 10
58.0511811024
 20
14.1338582677
 30
0.0
 11
20.2952755906
 21
14.1338582677
 31
0.0
  0
LINE
  5
256
330
1B
100
AcDbEntity
 67
     1
  8
0
  6
Continuous
 62
     7
370
    25
100
AcDbLine
 10
58.0118110236
 20
11.811023622
 30
0.0
 11
20.3346456693
 21
11.811023622
 31
0.0
  0
LINE
  5
257
330
1B
100
AcDbEntity
 67
     1
  8
0
  6
Continuous
 62
     7
370
    25
100
AcDbLine
 10
20.3346456693
 20
14.1732283465
 30
0.0
 11
58.0118110236
 21
14.1732283465
 31
0.0
  0
LINE
  5
258
330
1B
100
AcDbEntity
 67
     1
  8
0
  6
Continuous
 62
     7
370
    25
100
AcDbLine
 10
20.2952755906
 20
14.2125984252
 30
0.0
 11
58.0511811024
 21
14.2125984252
 31
0.0
  0
LINE
  5
259
330
1B
100
AcDbEntity
 67
     1
  8
0
  6
Continuous
 62
     7
370
    25
100
AcDbLine
 10
20.3346456693
 20
15.7480314961
 30
0.0
 11
58.0118110236
 21
15.7480314961
 31
0.0
  0
LINE
  5
25A
330
1B
100
AcDbEntity
 67
     1
  8
0
  6
Continuous
 62
     7
370
    25
100
AcDbLine
 10
18.9173228346
 20
15.7480314961
 30
0.0
 11
18.9173228346
 21
0.0
 31
0.0
  0
LINE
  5
25B
330
1B
100
AcDbEntity
 67
     1
  8
0
  6
Continuous
 62
     7
370
    25
100
AcDbLine
 10
19.5472440945
 20
0.0
 30
0.0
 11
19.5472440945
 21
15.7480314961
 31
0.0
  0
LINE
  5
25C
330
1B
100
AcDbEntity
 67
     1
  8
0
  6
Continuous
 62
     7
370
    25
100
AcDbLine
 10
18.9173228346
 20
15.7480314961
 30
0.0
 11
19.5472440945
 21
15.7480314961
 31
0.0
  0
LINE
  5
25D
330
1B
100
AcDbEntity
 67
     1
  8
0
  6
Continuous
 62
     7
370
    25
100
AcDbLine
 10
18.8779527559
 20
0.0393700787
 30
0.0
 11
18.8779527559
 21
15.7086614173
 31
0.0
  0
LINE
  5
25E
330
1B
100
AcDbEntity
 67
     1
  8
0
  6
Continuous
 62
     7
370
    25
100
AcDbLine
 10
-19.5472440945
 20
15.7480314961
 30
0.0
 11
-19.5472440945
 21
0.0
 31
0.0
  0
LINE
  5
25F
330
1B
100
AcDbEntity
 67
     1
  8
0
  6
Continuous
 62
     7
370
    25
100
AcDbLine
 10
-18.9173228346
 20
0.0
 30
0.0
 11
-18.9173228346
 21
15.7480314961
 31
0.0
  0
LINE
  5
260
330
1B
100
AcDbEntity
 67
     1
  8
0
  6
Continuous
 62
     7
370
    25
100
AcDbLine
 10
58.7598425197
 20
15.7086614173
 30
0.0
 11
-19.5866141732
 21
15.7086614173
 31
0.0
  0
LINE
  5
261
330
1B
100
AcDbEntity
 67
     1
  8
0
  6
Continuous
 62
     7
370
    25
100
AcDbLine
 10
-18.8779527559
 20
15.7086614173
 30
0.0
 11
-18.8779527559
 21
0.0393700787
 31
0.0
  0
LINE
  5
262
330
1B
100
AcDbEntity
 67
     1
  8
0
  6
Continuous
 62
     7
370
    25
100
AcDbLine
 10
-19.5472440945
 20
15.7480314961
 30
0.0
 11
-18.9173228346
 21
15.7480314961
 31
0.0
  0
LINE
  5
263
330
1B
100
AcDbEntity
 67
     1
  8
0
  6
Continuous
 62
     7
370
    25
100
AcDbLine
 10
-19.5866141732
 20
0.0393700787
 30
0.0
 11
-19.5866141732
 21
15.7086614173
 31
0.0
  0
LINE
  5
264
330
1B
100
AcDbEntity
 67
     1
  8
0
  6
Continuous
 62
     7
370
    25
100
AcDbLine
 10
-18.8779527559
 20
0.7480314961
 30
0.0
 11
18.8779527559
 21
0.7480314961
 31
0.0
  0
LINE
  5
265
330
1B
100
AcDbEntity
 67
     1
  8
0
  6
Continuous
 62
     7
370
    25
100
AcDbLine
 10
18.8779527559
 20
4.6062992126
 30
0.0
 11
-18.8779527559
 21
4.6062992126
 31
0.0
  0
LINE
  5
266
330
1B
100
AcDbEntity
 67
     1
  8
0
  6
Continuous
 62
     7
370
    25
100
AcDbLine
 10
-18.8385826772
 20
4.6456692913
 30
0.0
 11
18.8385826772
 21
4.6456692913
 31
0.0
  0
LINE
  5
267
330
1B
100
AcDbEntity
 67
     1
  8
0
  6
Continuous
 62
     7
370
    25
100
AcDbLine
 10
18.8385826772
 20
0.7086614173
 30
0.0
 11
-18.8385826772
 21
0.7086614173
 31
0.0
  0
LINE
  5
268
330
1B
100
AcDbEntity
 67
     1
  8
0
  6
Continuous
 62
     7
370
    25
100
AcDbLine
 10
-19.5866141732
 20
0.0393700787
 30
0.0
 11
58.7598425197
 21
0.0393700787
 31
0.0
  0
LINE
  5
269
330
1B
100
AcDbEntity
 67
     1
  8
0
  6
Continuous
 62
     7
370
    25
100
AcDbLine
 10
18.8385826772
 20
0.0
 30
0.0
 11
18.8385826772
 21
4.6456692913
 31
0.0
  0
LINE
  5
26A
330
1B
100
AcDbEntity
 67
     1
  8
0
  6
Continuous
 62
     7
370
    25
100
AcDbLine
 10
-18.8385826772
 20
4.6456692913
 30
0.0
 11
-18.8385826772
 21
0.0
 31
0.0
  0
LINE
  5
26B
330
1B
100
AcDbEntity
 67
     1
  8
0
  6
Continuous
 62
     7
370
    25
100
AcDbLine
 10
18.8779527559
 20
0.6692913386
 30
0.0
 11
-18.8779527559
 21
0.6692913386
 31
0.0
  0
LINE
  5
26C
330
1B
100
AcDbEntity
 67
     1
  8
0
  6
Continuous
 62
     7
370
    25
100
AcDbLine
 10
18.8779527559
 20
14.1338582677
 30
0.0
 11
-18.8779527559
 21
14.1338582677
 31
0.0
  0
LINE
  5
26D
330
1B
100
AcDbEntity
 67
     1
  8
0
  6
Continuous
 62
     7
370
    25
100
AcDbLine
 10
-18.8385826772
 20
15.7480314961
 30
0.0
 11
-18.8385826772
 21
11.811023622
 31
0.0
  0
LINE
  5
26E
330
1B
100
AcDbEntity
 67
     1
  8
0
  6
Continuous
 62
     7
370
    25
100
AcDbLine
 10
-18.8779527559
 20
11.8503937008
 30
0.0
 11
18.8779527559
 21
11.8503937008
 31
0.0
  0
LINE
  5
26F
330
1B
100
AcDbEntity
 67
     1
  8
0
  6
Continuous
 62
     7
370
    25
100
AcDbLine
 10
-18.8385826772
 20
14.1732283465
 30
0.0
 11
18.8385826772
 21
14.1732283465
 31
0.0
  0
LINE
  5
270
330
1B
100
AcDbEntity
 67
     1
  8
0
  6
Continuous
 62
     7
370
    25
100
AcDbLine
 10
18.8385826772
 20
11.811023622
 30
0.0
 11
-18.8385826772
 21
11.811023622
 31
0.0
  0
LINE
  5
271
330
1B
100
AcDbEntity
 67
     1
  8
0
  6
Continuous
 62
     7
370
    25
100
AcDbLine
 10
-18.8779527559
 20
14.2125984252
 30
0.0
 11
18.8779527559
 21
14.2125984252
 31
0.0
  0
LINE
  5
272
330
1B
100
AcDbEntity
 67
     1
  8
0
  6
Continuous
 62
     7
370
    25
100
AcDbLine
 10
18.8385826772
 20
11.811023622
 30
0.0
 11
18.8385826772
 21
15.7480314961
 31
0.0
  0
LINE
  5
273
330
1B
100
AcDbEntity
 67
     1
  8
0
  6
Continuous
 62
     7
370
    25
100
AcDbLine
 10
-18.8385826772
 20
15.7480314961
 30
0.0
 11
18.8385826772
 21
15.7480314961
 31
0.0
  0
LINE
  5
274
330
1B
100
AcDbEntity
 67
     1
  8
0
  6
Continuous
 62
     7
370
    25
100
AcDbLine
 10
-18.7992125984
 20
11.811023622
 30
0.0
 11
-18.7992125984
 21
4.6456692913
 31
0.0
  0
LINE
  5
275
330
1B
100
AcDbEntity
 67
     1
  8
0
  6
Continuous
 62
     7
370
    25
100
AcDbLine
 10
18.7992125984
 20
4.6456692913
 30
0.0
 11
18.7992125984
 21
11.811023622
 31
0.0
  0
LINE
  5
276
330
1B
100
AcDbEntity
 67
     1
  8
0
  6
Continuous
 62
     7
370
    25
100
AcDbLine
 10
18.7007874016
 20
4.6456692913
 30
0.0
 11
18.7007874016
 21
5.2592829306
 31
0.0
  0
LINE
  5
277
330
1B
100
AcDbEntity
 67
     1
  8
0
  6
Continuous
 62
     7
370
    25
100
AcDbLine
 10
17.9921259843
 20
4.6456692913
 30
0.0
 11
17.9921259843
 21
5.2592829306
 31
0.0
  0
LINE
  5
278
330
1B
100
AcDbEntity
 67
     1
  8
0
  6
Continuous
 62
     7
370
    25
100
AcDbLine
 10
17.9921259843
 20
5.2592829306
 30
0.0
 11
18.7007874016
 21
5.2592829306
 31
0.0
  0
LINE
  5
279
330
1B
100
AcDbEntity
 67
     1
  8
0
  6
Continuous
 62
     7
370
    25
100
AcDbLine
 10
-18.7007874016
 20
5.2592829306
 30
0.0
 11
-17.9921259843
 21
5.2592829306
 31
0.0
  0
LINE
  5
27A
330
1B
100
AcDbEntity
 67
     1
  8
0
  6
Continuous
 62
     7
370
    25
100
AcDbLine
 10
-17.9921259843
 20
4.6456692913
 30
0.0
 11
-17.9921259843
 21
5.2592829306
 31
0.0
  0
LINE
  5
27B
330
1B
100
AcDbEntity
 67
     1
  8
0
  6
Continuous
 62
     7
370
    25
100
AcDbLine
 10
-18.7007874016
 20
4.6456692913
 30
0.0
 11
-18.7007874016
 21
5.2592829306
 31
0.0
  0
LINE
  5
27C
330
1B
100
AcDbEntity
 67
     1
  8
0
  6
Continuous
 62
     7
370
    25
100
AcDbLine
 10
-17.9921259843
 20
4.904952222
 30
0.0
 11
-2.9527559055
 21
4.904952222
 31
0.0
  0
LINE
  5
27D
330
1B
100
AcDbEntity
 67
     1
  8
0
  6
Continuous
 62
     7
370
    25
100
AcDbLine
 10
2.9527559055
 20
4.904952222
 30
0.0
 11
17.9921259843
 21
4.904952222
 31
0.0
  0
LINE
  5
27E
330
1B
100
AcDbEntity
 67
     1
  8
0
  6
Continuous
 62
     7
370
    25
100
AcDbLine
 10
20.374015748
 20
11.811023622
 30
0.0
 11
20.374015748
 21
4.6456692913
 31
0.0
  0
LINE
  5
27F
330
1B
100
AcDbEntity
 67
     1
  8
0
  6
Continuous
 62
     7
370
    25
100
AcDbLine
 10
57.9724409449
 20
4.6456692913
 30
0.0
 11
57.9724409449
 21
11.811023622
 31
0.0
  0
LINE
  5
280
330
1B
100
AcDbEntity
 67
     1
  8
0
  6
Continuous
 62
     7
370
    25
100
AcDbLine
 10
57.874015748
 20
4.6456692913
 30
0.0
 11
57.874015748
 21
5.2592829306
 31
0.0
  0
LINE
  5
281
330
1B
100
AcDbEntity
 67
     1
  8
0
  6
Continuous
 62
     7
370
    25
100
AcDbLine
 10
57.1653543307
 20
5.2592829306
 30
0.0
 11
57.874015748
 21
5.2592829306
 31
0.0
  0
LINE
  5
282
330
1B
100
AcDbEntity
 67
     1
  8
0
  6
Continuous
 62
     7
370
    25
100
AcDbLine
 10
57.1653543307
 20
4.6456692913
 30
0.0
 11
57.1653543307
 21
5.2592829306
 31
0.0
  0
LINE
  5
283
330
1B
100
AcDbEntity
 67
     1
  8
0
  6
Continuous
 62
     7
370
    25
100
AcDbLine
 10
20.4724409449
 20
4.6456692913
 30
0.0
 11
20.4724409449
 21
5.2592829306
 31
0.0
  0
LINE
  5
284
330
1B
100
AcDbEntity
 67
     1
  8
0
  6
Continuous
 62
     7
370
    25
100
AcDbLine
 10
20.4724409449
 20
5.2592829306
 30
0.0
 11
21.1811023622
 21
5.2592829306
 31
0.0
  0
LINE
  5
285
330
1B
100
AcDbEntity
 67
     1
  8
0
  6
Continuous
 62
     7
370
    25
100
AcDbLine
 10
21.1811023622
 20
4.6456692913
 30
0.0
 11
21.1811023622
 21
5.2592829306
 31
0.0
  0
LINE
  5
286
330
1B
100
AcDbEntity
 67
     1
  8
0
  6
Continuous
 62
     7
370
    25
100
AcDbLine
 10
21.1811023622
 20
4.904952222
 30
0.0
 11
36.2204724409
 21
4.904952222
 31
0.0
  0
LINE
  5
287
330
1B
100
AcDbEntity
 67
     1
  8
0
  6
Continuous
 62
     7
370
    25
100
AcDbLine
 10
42.125984252
 20
4.904952222
 30
0.0
 11
57.1653543307
 21
4.904952222
 31
0.0
  0
LINE
  5
288
330
1B
100
AcDbEntity
 67
     1
  8
0
  6
Continuous
 62
     8
370
    25
100
AcDbLine
 10
-18.889483985
 20
0.0115312291
 30
0.0
 11
-18.8664215268
 21
0.0115312291
 31
0.0
  0
LINE
  5
289
330
1B
100
AcDbEntity
 67
     1
  8
0
  6
Continuous
 62
     8
370
    25
100
AcDbLine
 10
18.8664215268
 20
0.0115312291
 30
0.0
 11
18.889483985
 21
0.0115312291
 31
0.0
  0
LINE
  5
28A
330
1B
100
AcDbEntity
 67
     1
  8
0
  6
Continuous
 62
     8
370
    25
100
AcDbLine
 10
20.2837443615
 20
0.0115312291
 30
0.0
 11
20.3068068196
 21
0.0115312291
 31
0.0
  0
LINE
  5
28B
330
1B
100
AcDbEntity
 67
     1
  8
0
  6
Continuous
 62
     8
370
    25
100
AcDbLine
 10
58.0396498733
 20
0.0115312291
 30
0.0
 11
58.0627123314
 21
0.0115312291
 31
0.0
  0
ARC
  5
28C
330
1B
100
AcDbEntity
 67
     1
  8
0
  6
Continuous
 62
     7
370
    25
100
AcDbCircle
 10
58.7204724409
 20
15.7086614173
 30
0.0
 40
0.0393700787401485
100
AcDbArc
 50
360.0
 51
90.0
  0
ARC
  5
28D
330
1B
100
AcDbEntity
 67
     1
  8
0
  6
Continuous
 62
     7
370
    25
100
AcDbCircle
 10
58.0905511811
 20
15.7086614173
 30
0.0
 40
0.0393700787401627
100
AcDbArc
 50
90.0
 51
180.0
  0
ARC
  5
28E
330
1B
100
AcDbEntity
 67
     1
  8
0
  6
Continuous
 62
     7
370
    25
100
AcDbCircle
 10
58.7204724409
 20
0.0393700787
 30
0.0
 40
0.0393700787401416
100
AcDbArc
 50
270.0
 51
0.0
  0
ARC
  5
28F
330
1B
100
AcDbEntity
 67
     1
  8
0
  6
Continuous
 62
     7
370
    25
100
AcDbCircle
 10
58.0905511811
 20
0.0393700787
 30
0.0
 40
0.0393700787401472
100
AcDbArc
 50
180.0
 51
270.0
  0
ARC
  5
290
330
1B
100
AcDbEntity
 67
     1
  8
0
  6
Continuous
 62
     7
370
    25
100
AcDbCircle
 10
20.2559055118
 20
0.0393700787
 30
0.0
 40
0.0393700787401627
100
AcDbArc
 50
270.0
 51
360.0
  0
ARC
  5
291
330
1B
100
AcDbEntity
 67
     1
  8
0
  6
Continuous
 62
     7
370
    25
100
AcDbCircle
 10
19.625984252
 20
15.7086614173
 30
0.0
 40
0.0393700787401574
100
AcDbArc
 50
90.0
 51
180.0
  0
ARC
  5
292
330
1B
100
AcDbEntity
 67
     1
  8
0
  6
Continuous
 62
     7
370
    25
100
AcDbCircle
 10
20.2559055118
 20
15.7086614173
 30
0.0
 40
0.0393700787401592
100
AcDbArc
 50
0.0
 51
90.0
  0
ARC
  5
293
330
1B
100
AcDbEntity
 67
     1
  8
0
  6
Continuous
 62
     7
370
    25
100
AcDbCircle
 10
19.625984252
 20
0.0393700787
 30
0.0
 40
0.0393700787401592
100
AcDbArc
 50
180.0
 51
270.0
  0
ARC
  5
294
330
1B
100
AcDbEntity
 67
     1
  8
0
  6
Continuous
 62
     7
370
    25
100
AcDbCircle
 10
58.0118110236
 20
4.6062992126
 30
0.0
 40
0.039370078740177
100
AcDbArc
 50
0.0
 51
90.0
  0
ARC
  5
295
330
1B
100
AcDbEntity
 67
     1
  8
0
  6
Continuous
 62
     7
370
    25
100
AcDbCircle
 10
20.3346456693
 20
4.6062992126
 30
0.0
 40
0.0393700787401521
100
AcDbArc
 50
90.0
 51
180.0
  0
ARC
  5
296
330
1B
100
AcDbEntity
 67
     1
  8
0
  6
Continuous
 62
     7
370
    25
100
AcDbCircle
 10
58.0118110236
 20
0.7480314961
 30
0.0
 40
0.0393700787401631
100
AcDbArc
 50
270.0
 51
360.0
  0
ARC
  5
297
330
1B
100
AcDbEntity
 67
     1
  8
0
  6
Continuous
 62
     7
370
    25
100
AcDbCircle
 10
20.3346456693
 20
0.7480314961
 30
0.0
 40
0.0393700787401534
100
AcDbArc
 50
180.0
 51
270.0
  0
ARC
  5
298
330
1B
100
AcDbEntity
 67
     1
  8
0
  6
Continuous
 62
     7
370
    25
100
AcDbCircle
 10
58.0118110236
 20
0.6692913386
 30
0.0
 40
0.039370078740177
100
AcDbArc
 50
0.0
 51
90.0
  0
ARC
  5
299
330
1B
100
AcDbEntity
 67
     1
  8
0
  6
Continuous
 62
     7
370
    25
100
AcDbCircle
 10
58.0118110236
 20
0.0393700787
 30
0.0
 40
0.0393700787401556
100
AcDbArc
 50
270.0
 51
0.0
  0
ARC
  5
29A
330
1B
100
AcDbEntity
 67
     1
  8
0
  6
Continuous
 62
     7
370
    25
100
AcDbCircle
 10
20.3346456693
 20
0.6692913386
 30
0.0
 40
0.0393700787401521
100
AcDbArc
 50
90.0
 51
180.0
  0
ARC
  5
29B
330
1B
100
AcDbEntity
 67
     1
  8
0
  6
Continuous
 62
     7
370
    25
100
AcDbCircle
 10
20.3346456693
 20
0.0393700787
 30
0.0
 40
0.0393700787401533
100
AcDbArc
 50
180.0
 51
270.0
  0
ARC
  5
29C
330
1B
100
AcDbEntity
 67
     1
  8
0
  6
Continuous
 62
     7
370
    25
100
AcDbCircle
 10
58.0118110236
 20
14.1338582677
 30
0.0
 40
0.0393700787401698
100
AcDbArc
 50
0.0
 51
90.0
  0
ARC
  5
29D
330
1B
100
AcDbEntity
 67
     1
  8
0
  6
Continuous
 62
     7
370
    25
100
AcDbCircle
 10
20.3346456693
 20
14.1338582677
 30
0.0
 40
0.039370078740161
100
AcDbArc
 50
90.0
 51
180.0
  0
ARC
  5
29E
330
1B
100
AcDbEntity
 67
     1
  8
0
  6
Continuous
 62
     7
370
    25
100
AcDbCircle
 10
58.0118110236
 20
11.8503937008
 30
0.0
 40
0.0393700787401556
100
AcDbArc
 50
270.0
 51
0.0
  0
ARC
  5
29F
330
1B
100
AcDbEntity
 67
     1
  8
0
  6
Continuous
 62
     7
370
    25
100
AcDbCircle
 10
20.3346456693
 20
11.8503937008
 30
0.0
 40
0.0393700787401592
100
AcDbArc
 50
180.0
 51
270.0
  0
ARC
  5
2A0
330
1B
100
AcDbEntity
 67
     1
  8
0
  6
Continuous
 62
     7
370
    25
100
AcDbCircle
 10
20.3346456693
 20
15.7086614173
 30
0.0
 40
0.0393700787401663
100
AcDbArc
 50
90.0
 51
180.0
  0
ARC
  5
2A1
330
1B
100
AcDbEntity
 67
     1
  8
0
  6
Continuous
 62
     7
370
    25
100
AcDbCircle
 10
58.0118110236
 20
15.7086614173
 30
0.0
 40
0.0393700787401556
100
AcDbArc
 50
360.0
 51
90.0
  0
ARC
  5
2A2
330
1B
100
AcDbEntity
 67
     1
  8
0
  6
Continuous
 62
     7
370
    25
100
AcDbCircle
 10
19.5472440945
 20
15.7086614173
 30
0.0
 40
0.0393700787401592
100
AcDbArc
 50
0.0
 51
90.0
  0
ARC
  5
2A3
330
1B
100
AcDbEntity
 67
     1
  8
0
  6
Continuous
 62
     7
370
    25
100
AcDbCircle
 10
18.9173228346
 20
0.0393700787
 30
0.0
 40
0.0393700787401592
100
AcDbArc
 50
180.0
 51
270.0
  0
ARC
  5
2A4
330
1B
100
AcDbEntity
 67
     1
  8
0
  6
Continuous
 62
     7
370
    25
100
AcDbCircle
 10
18.9173228346
 20
15.7086614173
 30
0.0
 40
0.0393700787401574
100
AcDbArc
 50
90.0
 51
180.0
  0
ARC
  5
2A5
330
1B
100
AcDbEntity
 67
     1
  8
0
  6
Continuous
 62
     7
370
    25
100
AcDbCircle
 10
19.5472440945
 20
0.0393700787
 30
0.0
 40
0.0393700787401627
100
AcDbArc
 50
270.0
 51
360.0
  0
ARC
  5
2A6
330
1B
100
AcDbEntity
 67
     1
  8
0
  6
Continuous
 62
     7
370
    25
100
AcDbCircle
 10
-19.5472440945
 20
0.0393700787
 30
0.0
 40
0.0393700787401556
100
AcDbArc
 50
180.0
 51
270.0
  0
ARC
  5
2A7
330
1B
100
AcDbEntity
 67
     1
  8
0
  6
Continuous
 62
     7
370
    25
100
AcDbCircle
 10
-18.9173228346
 20
0.0393700787
 30
0.0
 40
0.0393700787401522
100
AcDbArc
 50
270.0
 51
0.0
  0
ARC
  5
2A8
330
1B
100
AcDbEntity
 67
     1
  8
0
  6
Continuous
 62
     7
370
    25
100
AcDbCircle
 10
-19.5472440945
 20
15.7086614173
 30
0.0
 40
0.0393700787401556
100
AcDbArc
 50
90.0
 51
180.0
  0
ARC
  5
2A9
330
1B
100
AcDbEntity
 67
     1
  8
0
  6
Continuous
 62
     7
370
    25
100
AcDbCircle
 10
-18.9173228346
 20
15.7086614173
 30
0.0
 40
0.0393700787401503
100
AcDbArc
 50
360.0
 51
90.0
  0
ARC
  5
2AA
330
1B
100
AcDbEntity
 67
     1
  8
0
  6
Continuous
 62
     7
370
    25
100
AcDbCircle
 10
18.8385826772
 20
4.6062992126
 30
0.0
 40
0.0393700787401574
100
AcDbArc
 50
0.0
 51
90.0
  0
ARC
  5
2AB
330
1B
100
AcDbEntity
 67
     1
  8
0
  6
Continuous
 62
     7
370
    25
100
AcDbCircle
 10
18.8385826772
 20
0.7480314961
 30
0.0
 40
0.0393700787401663
100
AcDbArc
 50
270.0
 51
360.0
  0
ARC
  5
2AC
330
1B
100
AcDbEntity
 67
     1
  8
0
  6
Continuous
 62
     7
370
    25
100
AcDbCircle
 10
-18.8385826772
 20
0.7480314961
 30
0.0
 40
0.0393700787401627
100
AcDbArc
 50
180.0
 51
270.0
  0
ARC
  5
2AD
330
1B
100
AcDbEntity
 67
     1
  8
0
  6
Continuous
 62
     7
370
    25
100
AcDbCircle
 10
-18.8385826772
 20
4.6062992126
 30
0.0
 40
0.0393700787401627
100
AcDbArc
 50
90.0
 51
180.0
  0
ARC
  5
2AE
330
1B
100
AcDbEntity
 67
     1
  8
0
  6
Continuous
 62
     7
370
    25
100
AcDbCircle
 10
18.8385826772
 20
0.6692913386
 30
0.0
 40
0.0393700787401567
100
AcDbArc
 50
0.0
 51
90.0
  0
ARC
  5
2AF
330
1B
100
AcDbEntity
 67
     1
  8
0
  6
Continuous
 62
     7
370
    25
100
AcDbCircle
 10
18.8385826772
 20
0.0393700787
 30
0.0
 40
0.0393700787401573
100
AcDbArc
 50
270.0
 51
0.0
  0
ARC
  5
2B0
330
1B
100
AcDbEntity
 67
     1
  8
0
  6
Continuous
 62
     7
370
    25
100
AcDbCircle
 10
-18.8385826772
 20
0.6692913386
 30
0.0
 40
0.0393700787401627
100
AcDbArc
 50
90.0
 51
180.0
  0
ARC
  5
2B1
330
1B
100
AcDbEntity
 67
     1
  8
0
  6
Continuous
 62
     7
370
    25
100
AcDbCircle
 10
-18.8385826772
 20
0.0393700787
 30
0.0
 40
0.0393700787401627
100
AcDbArc
 50
180.0
 51
270.0
  0
ARC
  5
2B2
330
1B
100
AcDbEntity
 67
     1
  8
0
  6
Continuous
 62
     7
370
    25
100
AcDbCircle
 10
-18.8385826772
 20
14.1338582677
 30
0.0
 40
0.0393700787401698
100
AcDbArc
 50
90.0
 51
180.0
  0
ARC
  5
2B3
330
1B
100
AcDbEntity
 67
     1
  8
0
  6
Continuous
 62
     7
370
    25
100
AcDbCircle
 10
-18.8385826772
 20
11.8503937008
 30
0.0
 40
0.0393700787401627
100
AcDbArc
 50
180.0
 51
270.0
  0
ARC
  5
2B4
330
1B
100
AcDbEntity
 67
     1
  8
0
  6
Continuous
 62
     7
370
    25
100
AcDbCircle
 10
18.8385826772
 20
14.1338582677
 30
0.0
 40
0.0393700787401556
100
AcDbArc
 50
360.0
 51
90.0
  0
ARC
  5
2B5
330
1B
100
AcDbEntity
 67
     1
  8
0
  6
Continuous
 62
     7
370
    25
100
AcDbCircle
 10
18.8385826772
 20
11.8503937008
 30
0.0
 40
0.0393700787401592
100
AcDbArc
 50
270.0
 51
360.0
  0
ARC
  5
2B6
330
1B
100
AcDbEntity
 67
     1
  8
0
  6
Continuous
 62
     7
370
    25
100
AcDbCircle
 10
18.8385826772
 20
15.7086614173
 30
0.0
 40
0.0393700787401574
100
AcDbArc
 50
0.0
 51
90.0
  0
ARC
  5
2B7
330
1B
100
AcDbEntity
 67
     1
  8
0
  6
Continuous
 62
     7
370
    25
100
AcDbCircle
 10
-18.8385826772
 20
15.7086614173
 30
0.0
 40
0.0393700787401681
100
AcDbArc
 50
90.0
 51
180.0
  0
VIEWPORT
  5
68C
330
1B
100
AcDbEntity
 67
     1
  8
0
100
AcDbViewport
 10
0.0
 20
0.0
 30
0.0
 40
8.4
 41
6.4
 68
     1
 69
     1
 12
-19.5866141732
 22
7.874015748
 13
0.0
 23
0.0
 14
0.5
 24
0.5
 15
0.5
 25
0.5
 16
0.0
 26
0.0
 36
1.0
 17
0.0
 27
0.0
 37
0.0
 42
50.0
 43
0.0
 44
0.0
 45
60.8863892013
 50
0.0
 51
0.0
 72
   100
 90
   557152
  1

281
     0
 71
     1
 74
     0
110
0.0
120
0.0
130
0.0
111
1.0
121
0.0
131
0.0
112
0.0
122
1.0
132
0.0
 79
     0
146
0.0
  0
ENDSEC
  0
SECTION
  2
OBJECTS
  0
DICTIONARY
  5
C
330
0
100
AcDbDictionary
281
     1
  3
ACAD_GROUP
350
D
  3
ACAD_LAYOUT
350
1A
  3
ACAD_MLINESTYLE
350
17
  3
ACAD_PLOTSETTINGS
350
19
  3
ACAD_PLOTSTYLENAME
350
E
  3
ACAD_SCALELIST
350
47
  0
DICTIONARY
  5
D
102
{ACAD_REACTORS
330
C
102
}
330
C
100
AcDbDictionary
281
     1
  0
DICTIONARY
  5
1A
102
{ACAD_REACTORS
330
C
102
}
330
C
100
AcDbDictionary
281
     1
  3
_Back
350
1E
  3
_Isometric
350
44D
  3
_Right
350
26
  3
_Top
350
2E0
  3
Model
350
22
  0
DICTIONARY
  5
17
102
{ACAD_REACTORS
330
C
102
}
330
C
100
AcDbDictionary
281
     1
  3
Standard
350
18
  0
DICTIONARY
  5
19
102
{ACAD_REACTORS
330
C
102
}
330
C
100
AcDbDictionary
281
     1
  0
ACDBDICTIONARYWDFLT
  5
E
102
{ACAD_REACTORS
330
C
102
}
330
C
100
AcDbDictionary
281
     1
  3
Normal
350
F
100
AcDbDictionaryWithDefault
340
F
  0
DICTIONARY
  5
47
102
{ACAD_REACTORS
330
C
102
}
330
C
100
AcDbDictionary
281
     1
  3
A0
350
48
  3
A1
350
49
  3
A2
350
4A
  3
A3
350
4B
  3
A4
350
4C
  3
A5
350
4D
  3
A6
350
4E
  3
A7
350
4F
  3
A8
350
50
  3
A9
350
51
  3
B0
350
52
  3
B1
350
53
  3
B2
350
54
  3
B3
350
55
  3
B4
350
56
  3
B5
350
57
  3
B6
350
58
  3
B7
350
59
  3
B8
350
5A
  3
B9
350
5B
  3
C0
350
5C
  3
C1
350
5D
  3
C2
350
5E
  3
C3
350
5F
  3
C4
350
60
  3
C5
350
61
  3
C6
350
62
  3
C7
350
63
  3
C8
350
64
  3
C9
350
65
  3
D0
350
66
  3
D1
350
67
  3
D2
350
68
  0
LAYOUT
  5
1E
102
{ACAD_REACTORS
330
1A
102
}
330
1A
100
AcDbPlotSettings
  1

  2
none_device
  4
Letter_(8.50_x_11.00_Inches)
  6

 40
6.35
 41
6.35
 42
6.35001
 43
6.35001
 44
215.9
 45
279.4
 46
0.0
 47
0.0
 48
0.0
 49
0.0
140
0.0
141
0.0
142
1.0
143
7.4615675839
 70
   688
 72
     0
 73
     1
 74
     1
  7

 75
     0
147
0.1340200955
148
497.5
149
0.0
100
AcDbLayout
  1
_Back
 70
     1
 71
     1
 10
-21.4520090068
 20
-1.865391896
 11
60.6252344157
 21
61.5579325669
 12
0.0
 22
0.0
 32
0.0
 14
-19.5866141732
 24
0.0
 34
0.0
 15
58.7598425197
 25
15.7480314961
 35
0.0
146
0.0
 13
0.0
 23
0.0
 33
0.0
 16
1.0
 26
0.0
 36
0.0
 17
0.0
 27
1.0
 37
0.0
 76
     0
330
1B
331
68C
  0
LAYOUT
  5
44D
102
{ACAD_REACTORS
330
1A
102
}
330
1A
100
AcDbPlotSettings
  1

  2
none_device
  4
Letter_(8.50_x_11.00_Inches)
  6

 40
6.35
 41
6.35
 42
6.35001
 43
6.35001
 44
215.9
 45
279.4
 46
0.0
 47
0.0
 48
0.0
 49
0.0
140
0.0
141
0.0
142
1.0
143
7.4615675839
 70
   688
 72
     0
 73
     1
 74
     1
  7

 75
     0
147
0.1340200955
148
497.5
149
0.0
100
AcDbLayout
  1
_Isometric
 70
     1
 71
     4
 10
0.0
 20
0.0
 11
0.0
 21
0.0
 12
0.0
 22
0.0
 32
0.0
 14
0.0
 24
0.0
 34
0.0
 15
0.0
 25
0.0
 35
0.0
146
0.0
 13
0.0
 23
0.0
 33
0.0
 16
1.0
 26
0.0
 36
0.0
 17
0.0
 27
1.0
 37
0.0
 76
     0
330
44C
331
692
  0
LAYOUT
  5
26
102
{ACAD_REACTORS
330
1A
102
}
330
1A
100
AcDbPlotSettings
  1

  2
none_device
  4
Letter_(8.50_x_11.00_Inches)
  6

 40
6.35
 41
6.35
 42
6.35001
 43
6.35001
 44
215.9
 45
279.4
 46
0.0
 47
0.0
 48
0.0
 49
0.0
140
0.0
141
0.0
142
1.0
143
7.4615675839
 70
   688
 72
     0
 73
     1
 74
     1
  7

 75
     0
147
0.1340200955
148
497.5
149
0.0
100
AcDbLayout
  1
_Right
 70
     1
 71
     2
 10
0.0
 20
0.0
 11
0.0
 21
0.0
 12
0.0
 22
0.0
 32
0.0
 14
0.0
 24
0.0
 34
0.0
 15
0.0
 25
0.0
 35
0.0
146
0.0
 13
0.0
 23
0.0
 33
0.0
 16
1.0
 26
0.0
 36
0.0
 17
0.0
 27
1.0
 37
0.0
 76
     0
330
23
331
68E
  0
LAYOUT
  5
2E0
102
{ACAD_REACTORS
330
1A
102
}
330
1A
100
AcDbPlotSettings
  1

  2
none_device
  4
Letter_(8.50_x_11.00_Inches)
  6

 40
6.35
 41
6.35
 42
6.35001
 43
6.35001
 44
215.9
 45
279.4
 46
0.0
 47
0.0
 48
0.0
 49
0.0
140
0.0
141
0.0
142
1.0
143
7.4615675839
 70
   688
 72
     0
 73
     1
 74
     1
  7

 75
     0
147
0.1340200955
148
497.5
149
0.0
100
AcDbLayout
  1
_Top
 70
     1
 71
     3
 10
0.0
 20
0.0
 11
0.0
 21
0.0
 12
0.0
 22
0.0
 32
0.0
 14
0.0
 24
0.0
 34
0.0
 15
0.0
 25
0.0
 35
0.0
146
0.0
 13
0.0
 23
0.0
 33
0.0
 16
1.0
 26
0.0
 36
0.0
 17
0.0
 27
1.0
 37
0.0
 76
     0
330
2DF
331
690
  0
LAYOUT
  5
22
102
{ACAD_REACTORS
330
1A
102
}
330
1A
100
AcDbPlotSettings
  1

  2
none_device
  4
ANSI_A_(11.00_x_8.50_Inches)
  6

 40
6.35
 41
19.05
 42
6.35000508
 43
19.05000254
 44
279.4
 45
215.9
 46
202.50149746
 47
61.1004007401
 48
0.0
 49
0.0
140
0.0
141
0.0
142
0.1389979899
143
1.0
 70
  1696
 72
     0
 73
     0
 74
     0
  7

 75
     0
147
0.5913241897
148
-39.4088153714
149
0.0
100
AcDbLayout
  1
Model
 70
     1
 71
     0
 10
0.0
 20
0.0
 11
12.0
 21
9.0
 12
0.0
 22
0.0
 32
0.0
 14
-58.7598425197
 24
0.0
 34
0.0
 15
19.5866141732
 25
15.7480314961
 35
0.0
146
0.0
 13
0.0
 23
0.0
 33
0.0
 16
1.0
 26
0.0
 36
0.0
 17
0.0
 27
1.0
 37
0.0
 76
     0
330
1F
331
29
  0
MLINESTYLE
  5
18
102
{ACAD_REACTORS
330
17
102
}
330
17
100
AcDbMlineStyle
  2
Standard
 70
     0
  3

 62
   256
 51
90.0
 52
90.0
 71
     2
 49
0.5
 62
   256
  6
BYLAYER
 49
-0.5
 62
   256
  6
BYLAYER
  0
ACDBPLACEHOLDER
  5
F
102
{ACAD_REACTORS
330
E
102
}
330
E
  0
SCALE
  5
48
102
{ACAD_REACTORS
330
47
102
}
330
47
100
AcDbScale
 70
     0
300
1:1
140
1.0
141
1.0
290
     1
  0
SCALE
  5
49
102
{ACAD_REACTORS
330
47
102
}
330
47
100
AcDbScale
 70
     0
300
1:2
140
1.0
141
2.0
290
     0
  0
SCALE
  5
4A
102
{ACAD_REACTORS
330
47
102
}
330
47
100
AcDbScale
 70
     0
300
1:4
140
1.0
141
4.0
290
     0
  0
SCALE
  5
4B
102
{ACAD_REACTORS
330
47
102
}
330
47
100
AcDbScale
 70
     0
300
1:5
140
1.0
141
5.0
290
     0
  0
SCALE
  5
4C
102
{ACAD_REACTORS
330
47
102
}
330
47
100
AcDbScale
 70
     0
300
1:8
140
1.0
141
8.0
290
     0
  0
SCALE
  5
4D
102
{ACAD_REACTORS
330
47
102
}
330
47
100
AcDbScale
 70
     0
300
1:10
140
1.0
141
10.0
290
     0
  0
SCALE
  5
4E
102
{ACAD_REACTORS
330
47
102
}
330
47
100
AcDbScale
 70
     0
300
1:16
140
1.0
141
16.0
290
     0
  0
SCALE
  5
4F
102
{ACAD_REACTORS
330
47
102
}
330
47
100
AcDbScale
 70
     0
300
1:20
140
1.0
141
20.0
290
     0
  0
SCALE
  5
50
102
{ACAD_REACTORS
330
47
102
}
330
47
100
AcDbScale
 70
     0
300
1:30
140
1.0
141
30.0
290
     0
  0
SCALE
  5
51
102
{ACAD_REACTORS
330
47
102
}
330
47
100
AcDbScale
 70
     0
300
1:40
140
1.0
141
40.0
290
     0
  0
SCALE
  5
52
102
{ACAD_REACTORS
330
47
102
}
330
47
100
AcDbScale
 70
     0
300
1:50
140
1.0
141
50.0
290
     0
  0
SCALE
  5
53
102
{ACAD_REACTORS
330
47
102
}
330
47
100
AcDbScale
 70
     0
300
1:100
140
1.0
141
100.0
290
     0
  0
SCALE
  5
54
102
{ACAD_REACTORS
330
47
102
}
330
47
100
AcDbScale
 70
     0
300
2:1
140
2.0
141
1.0
290
     0
  0
SCALE
  5
55
102
{ACAD_REACTORS
330
47
102
}
330
47
100
AcDbScale
 70
     0
300
4:1
140
4.0
141
1.0
290
     0
  0
SCALE
  5
56
102
{ACAD_REACTORS
330
47
102
}
330
47
100
AcDbScale
 70
     0
300
8:1
140
8.0
141
1.0
290
     0
  0
SCALE
  5
57
102
{ACAD_REACTORS
330
47
102
}
330
47
100
AcDbScale
 70
     0
300
10:1
140
10.0
141
1.0
290
     0
  0
SCALE
  5
58
102
{ACAD_REACTORS
330
47
102
}
330
47
100
AcDbScale
 70
     0
300
100:1
140
100.0
141
1.0
290
     0
  0
SCALE
  5
59
102
{ACAD_REACTORS
330
47
102
}
330
47
100
AcDbScale
 70
     0
300
1/128" = 1'-0"
140
0.0078125
141
12.0
290
     0
  0
SCALE
  5
5A
102
{ACAD_REACTORS
330
47
102
}
330
47
100
AcDbScale
 70
     0
300
1/64" = 1'-0"
140
0.015625
141
12.0
290
     0
  0
SCALE
  5
5B
102
{ACAD_REACTORS
330
47
102
}
330
47
100
AcDbScale
 70
     0
300
1/32" = 1'-0"
140
0.03125
141
12.0
290
     0
  0
SCALE
  5
5C
102
{ACAD_REACTORS
330
47
102
}
330
47
100
AcDbScale
 70
     0
300
1/16" = 1'-0"
140
0.0625
141
12.0
290
     0
  0
SCALE
  5
5D
102
{ACAD_REACTORS
330
47
102
}
330
47
100
AcDbScale
 70
     0
300
3/32" = 1'-0"
140
0.09375
141
12.0
290
     0
  0
SCALE
  5
5E
102
{ACAD_REACTORS
330
47
102
}
330
47
100
AcDbScale
 70
     0
300
1/8" = 1'-0"
140
0.125
141
12.0
290
     0
  0
SCALE
  5
5F
102
{ACAD_REACTORS
330
47
102
}
330
47
100
AcDbScale
 70
     0
300
3/16" = 1'-0"
140
0.1875
141
12.0
290
     0
  0
SCALE
  5
60
102
{ACAD_REACTORS
330
47
102
}
330
47
100
AcDbScale
 70
     0
300
1/4" = 1'-0"
140
0.25
141
12.0
290
     0
  0
SCALE
  5
61
102
{ACAD_REACTORS
330
47
102
}
330
47
100
AcDbScale
 70
     0
300
3/8" = 1'-0"
140
0.375
141
12.0
290
     0
  0
SCALE
  5
62
102
{ACAD_REACTORS
330
47
102
}
330
47
100
AcDbScale
 70
     0
300
1/2" = 1'-0"
140
0.5
141
12.0
290
     0
  0
SCALE
  5
63
102
{ACAD_REACTORS
330
47
102
}
330
47
100
AcDbScale
 70
     0
300
3/4" = 1'-0"
140
0.75
141
12.0
290
     0
  0
SCALE
  5
64
102
{ACAD_REACTORS
330
47
102
}
330
47
100
AcDbScale
 70
     0
300
1" = 1'-0"
140
1.0
141
12.0
290
     0
  0
SCALE
  5
65
102
{ACAD_REACTORS
330
47
102
}
330
47
100
AcDbScale
 70
     0
300
1-1/2" = 1'-0"
140
1.5
141
12.0
290
     0
  0
SCALE
  5
66
102
{ACAD_REACTORS
330
47
102
}
330
47
100
AcDbScale
 70
     0
300
3" = 1'-0"
140
3.0
141
12.0
290
     0
  0
SCALE
  5
67
102
{ACAD_REACTORS
330
47
102
}
330
47
100
AcDbScale
 70
     0
300
6" = 1'-0"
140
6.0
141
12.0
290
     0
  0
SCALE
  5
68
102
{ACAD_REACTORS
330
47
102
}
330
47
100
AcDbScale
 70
     0
300
1'-0" = 1'-0"
140
12.0
141
12.0
290
     0
  0
ENDSEC
  0
EOF
