  0
SECTION
  2
HEADER
  9
$ACADVER
  1
AC1015
  9
$ACADMAINTVER
 70
     6
  9
$DWGCODEPAGE
  3
ANSI_1252
  9
$INSBASE
 10
0.0
 20
0.0
 30
0.0
  9
$EXTMIN
 10
-54.8228346457
 20
0.0
 30
0.0
  9
$EXTMAX
 10
23.5236220472
 20
15.7480314961
 30
0.0
  9
$LIMMIN
 10
0.0
 20
0.0
  9
$LIMMAX
 10
12.0
 20
9.0
  9
$ORTHOMODE
 70
     0
  9
$REGENMODE
 70
     1
  9
$FILLMODE
 70
     1
  9
$QTEXTMODE
 70
     0
  9
$MIRRTEXT
 70
     1
  9
$LTSCALE
 40
1.0
  9
$ATTMODE
 70
     1
  9
$TEXTSIZE
 40
0.1377952756
  9
$TRACEWID
 40
0.05
  9
$TEXTSTYLE
  7
Standard
  9
$CLAYER
  8
0
  9
$CELTYPE
  6
ByLayer
  9
$CECOLOR
 62
   256
  9
$CELTSCALE
 40
1.0
  9
$DISPSILH
 70
     0
  9
$DIMSCALE
 40
1.0
  9
$DIMASZ
 40
0.13
  9
$DIMEXO
 40
0.0393700787
  9
$DIMDLI
 40
0.38
  9
$DIMRND
 40
0.0
  9
$DIMDLE
 40
0.0
  9
$DIMEXE
 40
0.0393700787
  9
$DIMTP
 40
0.0
  9
$DIMTM
 40
0.0
  9
$DIMTXT
 40
0.1377952756
  9
$DIMCEN
 40
0.09
  9
$DIMTSZ
 40
0.0
  9
$DIMTOL
 70
     0
  9
$DIMLIM
 70
     0
  9
$DIMTIH
 70
     1
  9
$DIMTOH
 70
     1
  9
$DIMSE1
 70
     0
  9
$DIMSE2
 70
     0
  9
$DIMTAD
 70
     1
  9
$DIMZIN
 70
     1
  9
$DIMBLK
  1

  9
$DIMASO
 70
     1
  9
$DIMSHO
 70
     1
  9
$DIMPOST
  1

  9
$DIMAPOST
  1

  9
$DIMALT
 70
     0
  9
$DIMALTD
 70
     2
  9
$DIMALTF
 40
25.4
  9
$DIMLFAC
 40
1.0
  9
$DIMTOFL
 70
     0
  9
$DIMTVP
 40
0.0
  9
$DIMTIX
 70
     0
  9
$DIMSOXD
 70
     0
  9
$DIMSAH
 70
     0
  9
$DIMBLK1
  1

  9
$DIMBLK2
  1

  9
$DIMSTYLE
  2
Standard
  9
$DIMCLRD
 70
     0
  9
$DIMCLRE
 70
     0
  9
$DIMCLRT
 70
     0
  9
$DIMTFAC
 40
1.0
  9
$DIMGAP
 40
0.06
  9
$DIMJUST
 70
     0
  9
$DIMSD1
 70
     0
  9
$DIMSD2
 70
     0
  9
$DIMTOLJ
 70
     1
  9
$DIMTZIN
 70
     1
  9
$DIMALTZ
 70
     0
  9
$DIMALTTZ
 70
     0
  9
$DIMUPT
 70
     0
  9
$DIMDEC
 70
     2
  9
$DIMTDEC
 70
     2
  9
$DIMALTU
 70
     2
  9
$DIMALTTD
 70
     2
  9
$DIMTXSTY
  7
Standard
  9
$DIMAUNIT
 70
     0
  9
$DIMADEC
 70
     2
  9
$DIMALTRND
 40
0.0
  9
$DIMAZIN
 70
     0
  9
$DIMDSEP
 70
    46
  9
$DIMATFIT
 70
     3
  9
$DIMFRAC
 70
     0
  9
$DIMLDRBLK
  1

  9
$DIMLUNIT
 70
     2
  9
$DIMLWD
 70
    -2
  9
$DIMLWE
 70
    -2
  9
$DIMTMOVE
 70
     0
  9
$LUNITS
 70
     2
  9
$LUPREC
 70
     2
  9
$SKETCHINC
 40
0.1
  9
$FILLETRAD
 40
0.5
  9
$AUNITS
 70
     0
  9
$AUPREC
 70
     2
  9
$MENU
  1
.
  9
$ELEVATION
 40
0.0
  9
$PELEVATION
 40
0.0
  9
$THICKNESS
 40
0.0
  9
$LIMCHECK
 70
     0
  9
$CHAMFERA
 40
0.0
  9
$CHAMFERB
 40
0.0
  9
$CHAMFERC
 40
0.0
  9
$CHAMFERD
 40
0.0
  9
$SKPOLY
 70
     0
  9
$TDCREATE
 40
2460405.628028484
  9
$TDUCREATE
 40
2460405.586361817
  9
$TDUPDATE
 40
2460405.628076146
  9
$TDUUPDATE
 40
2460405.586409479
  9
$TDINDWG
 40
0.0000000116
  9
$TDUSRTIMER
 40
0.0000000116
  9
$USRTIMER
 70
     1
  9
$ANGBASE
 50
0.0
  9
$ANGDIR
 70
     0
  9
$PDMODE
 70
     0
  9
$PDSIZE
 40
-1.0
  9
$PLINEWID
 40
0.0
  9
$SPLFRAME
 70
     0
  9
$SPLINETYPE
 70
     6
  9
$SPLINESEGS
 70
     8
  9
$HANDSEED
  5
564
  9
$SURFTAB1
 70
     6
  9
$SURFTAB2
 70
     6
  9
$SURFTYPE
 70
     6
  9
$SURFU
 70
     6
  9
$SURFV
 70
     6
  9
$UCSBASE
  2

  9
$UCSNAME
  2

  9
$UCSORG
 10
0.0
 20
0.0
 30
0.0
  9
$UCSXDIR
 10
1.0
 20
0.0
 30
0.0
  9
$UCSYDIR
 10
0.0
 20
1.0
 30
0.0
  9
$UCSORTHOREF
  2

  9
$UCSORTHOVIEW
 70
     0
  9
$UCSORGTOP
 10
0.0
 20
0.0
 30
0.0
  9
$UCSORGBOTTOM
 10
0.0
 20
0.0
 30
0.0
  9
$UCSORGLEFT
 10
0.0
 20
0.0
 30
0.0
  9
$UCSORGRIGHT
 10
0.0
 20
0.0
 30
0.0
  9
$UCSORGFRONT
 10
0.0
 20
0.0
 30
0.0
  9
$UCSORGBACK
 10
0.0
 20
0.0
 30
0.0
  9
$PUCSBASE
  2

  9
$PUCSNAME
  2

  9
$PUCSORG
 10
0.0
 20
0.0
 30
0.0
  9
$PUCSXDIR
 10
1.0
 20
0.0
 30
0.0
  9
$PUCSYDIR
 10
0.0
 20
1.0
 30
0.0
  9
$PUCSORTHOREF
  2

  9
$PUCSORTHOVIEW
 70
     0
  9
$PUCSORGTOP
 10
0.0
 20
0.0
 30
0.0
  9
$PUCSORGBOTTOM
 10
0.0
 20
0.0
 30
0.0
  9
$PUCSORGLEFT
 10
0.0
 20
0.0
 30
0.0
  9
$PUCSORGRIGHT
 10
0.0
 20
0.0
 30
0.0
  9
$PUCSORGFRONT
 10
0.0
 20
0.0
 30
0.0
  9
$PUCSORGBACK
 10
0.0
 20
0.0
 30
0.0
  9
$USERI1
 70
     0
  9
$USERI2
 70
     0
  9
$USERI3
 70
     0
  9
$USERI4
 70
     0
  9
$USERI5
 70
     0
  9
$USERR1
 40
0.0
  9
$USERR2
 40
0.0
  9
$USERR3
 40
0.0
  9
$USERR4
 40
0.0
  9
$USERR5
 40
0.0
  9
$WORLDVIEW
 70
     1
  9
$SHADEDGE
 70
     3
  9
$SHADEDIF
 70
    70
  9
$TILEMODE
 70
     1
  9
$MAXACTVP
 70
    64
  9
$PINSBASE
 10
0.0
 20
0.0
 30
0.0
  9
$PLIMCHECK
 70
     0
  9
$PEXTMIN
 10
-8.9960629921
 20
0.0
 30
0.0
  9
$PEXTMAX
 10
8.9173228346
 20
15.7480314961
 30
0.0
  9
$PLIMMIN
 10
-9.4881897756
 20
-0.4921260085
  9
$PLIMMAX
 10
12.1653545971
 20
16.2401582795
  9
$UNITMODE
 70
     0
  9
$VISRETAIN
 70
     1
  9
$PLINEGEN
 70
     0
  9
$PSLTSCALE
 70
     1
  9
$TREEDEPTH
 70
  3020
  9
$CMLSTYLE
  2
Standard
  9
$CMLJUST
 70
     0
  9
$CMLSCALE
 40
1.0
  9
$PROXYGRAPHICS
 70
     1
  9
$MEASUREMENT
 70
     0
  9
$CELWEIGHT
370
    -1
  9
$ENDCAPS
280
     0
  9
$JOINSTYLE
280
     0
  9
$LWDISPLAY
290
     1
  9
$INSUNITS
 70
     1
  9
$HYPERLINKBASE
  1

  9
$STYLESHEET
  1

  9
$XEDIT
290
     1
  9
$CEPSNTYPE
380
     0
  9
$PSTYLEMODE
290
     1
  9
$FINGERPRINTGUID
  2
{2dfa9f15-6fdb-4dc0-8901-6354c1e328cc}
  9
$VERSIONGUID
  2
{FAEB1C32-E019-11D5-929B-00C0DF256EC4}
  9
$EXTNAMES
290
     1
  9
$PSVPSCALE
 40
0.0
  9
$OLESTARTUP
290
     0
  0
ENDSEC
  0
SECTION
  2
CLASSES
  0
CLASS
  1
ACDBDICTIONARYWDFLT
  2
AcDbDictionaryWithDefault
  3
ObjectDBX Classes
 90
        0
280
     0
281
     0
  0
CLASS
  1
VISUALSTYLE
  2
AcDbVisualStyle
  3
ObjectDBX Classes
 90
     4095
280
     0
281
     0
  0
CLASS
  1
MATERIAL
  2
AcDbMaterial
  3
ObjectDBX Classes
 90
     1153
280
     0
281
     0
  0
CLASS
  1
SCALE
  2
AcDbScale
  3
ObjectDBX Classes
 90
     1153
280
     0
281
     0
  0
CLASS
  1
TABLESTYLE
  2
AcDbTableStyle
  3
ObjectDBX Classes
 90
     4095
280
     0
281
     0
  0
CLASS
  1
MLEADERSTYLE
  2
AcDbMLeaderStyle
  3
ACDB_MLEADERSTYLE_CLASS
 90
     4095
280
     0
281
     0
  0
CLASS
  1
SUN
  2
AcDbSun
  3
SCENEOE
 90
     1153
280
     0
281
     0
  0
CLASS
  1
ACDBPLACEHOLDER
  2
AcDbPlaceHolder
  3
ObjectDBX Classes
 90
        0
280
     0
281
     0
  0
CLASS
  1
LAYOUT
  2
AcDbLayout
  3
ObjectDBX Classes
 90
        0
280
     0
281
     0
  0
ENDSEC
  0
SECTION
  2
TABLES
  0
TABLE
  2
VPORT
  5
8
330
0
100
AcDbSymbolTable
 70
     1
  0
VPORT
  5
29
330
8
100
AcDbSymbolTableRecord
100
AcDbViewportTableRecord
  2
*Active
 70
     0
 10
0.0
 20
0.0
 11
1.0
 21
1.0
 12
-15.6496062992
 22
7.874015748
 13
0.0
 23
0.0
 14
0.5
 24
0.5
 15
0.5
 25
0.5
 16
0.0
 26
0.0
 36
1.0
 17
0.0
 27
0.0
 37
0.0
 40
16.062992126
 41
4.975
 42
50.0
 43
0.0
 44
0.0
 50
0.0
 51
0.0
 71
     0
 72
   100
 73
     1
 74
     3
 75
     0
 76
     0
 77
     0
 78
     0
281
     0
 65
     1
110
0.0
120
0.0
130
0.0
111
1.0
121
0.0
131
0.0
112
0.0
122
1.0
132
0.0
 79
     0
146
0.0
  0
ENDTAB
  0
TABLE
  2
LTYPE
  5
5
330
0
100
AcDbSymbolTable
 70
     6
  0
LTYPE
  5
14
330
5
100
AcDbSymbolTableRecord
100
AcDbLinetypeTableRecord
  2
ByBlock
 70
     0
  3

 72
    65
 73
     0
 40
0.0
  0
LTYPE
  5
15
330
5
100
AcDbSymbolTableRecord
100
AcDbLinetypeTableRecord
  2
ByLayer
 70
     0
  3

 72
    65
 73
     0
 40
0.0
  0
LTYPE
  5
16
330
5
100
AcDbSymbolTableRecord
100
AcDbLinetypeTableRecord
  2
Continuous
 70
     0
  3
Solid line
 72
    65
 73
     0
 40
0.0
  0
LTYPE
  5
6E
330
5
100
AcDbSymbolTableRecord
100
AcDbLinetypeTableRecord
  2
HIDDEN
 70
     0
  3
Hidden __ __ __ __ __ __ __ __ __ __ __ __ __ __
 72
    65
 73
     2
 40
0.075
 49
0.05
 74
     0
 49
-0.025
 74
     0
  0
LTYPE
  5
6F
330
5
100
AcDbSymbolTableRecord
100
AcDbLinetypeTableRecord
  2
PHANTOM
 70
     0
  3
Phantom ______  __  __  ______  __  __  ______
 72
    65
 73
     6
 40
0.5
 49
0.25
 74
     0
 49
-0.05
 74
     0
 49
0.05
 74
     0
 49
-0.05
 74
     0
 49
0.05
 74
     0
 49
-0.05
 74
     0
  0
LTYPE
  5
70
330
5
100
AcDbSymbolTableRecord
100
AcDbLinetypeTableRecord
  2
CENTER
 70
     0
  3
Center ____ _ ____ _ ____ _ ____ _ ____ _ ____
 72
    65
 73
     4
 40
0.4
 49
0.25
 74
     0
 49
-0.05
 74
     0
 49
0.05
 74
     0
 49
-0.05
 74
     0
  0
LTYPE
  5
71
330
5
100
AcDbSymbolTableRecord
100
AcDbLinetypeTableRecord
  2
CENTERX2
 70
     0
  3
Center (2x) ________  __  ________  __  _____
 72
    65
 73
     4
 40
0.8
 49
0.5
 74
     0
 49
-0.1
 74
     0
 49
0.1
 74
     0
 49
-0.1
 74
     0
  0
LTYPE
  5
72
330
5
100
AcDbSymbolTableRecord
100
AcDbLinetypeTableRecord
  2
DOT2
 70
     0
  3
Dot (.5x) ........................................
 72
    65
 73
     2
 40
0.025
 49
0.0
 74
     0
 49
-0.025
 74
     0
  0
ENDTAB
  0
TABLE
  2
LAYER
  5
2
330
0
100
AcDbSymbolTable
 70
     1
  0
LAYER
  5
10
330
2
100
AcDbSymbolTableRecord
100
AcDbLayerTableRecord
  2
0
 70
     0
 62
     7
  6
Continuous
370
    -3
390
F
  0
ENDTAB
  0
TABLE
  2
STYLE
  5
3
330
0
100
AcDbSymbolTable
 70
     1
  0
STYLE
  5
11
330
3
100
AcDbSymbolTableRecord
100
AcDbTextStyleTableRecord
  2
Standard
 70
     0
 40
0.0
 41
1.0
 50
0.0
 71
     0
 42
0.1377952756
  3
txt
  4

  0
ENDTAB
  0
TABLE
  2
VIEW
  5
6
330
0
100
AcDbSymbolTable
 70
     0
  0
ENDTAB
  0
TABLE
  2
UCS
  5
7
330
0
100
AcDbSymbolTable
 70
     0
  0
ENDTAB
  0
TABLE
  2
APPID
  5
9
330
0
100
AcDbSymbolTable
 70
     1
  0
APPID
  5
12
330
9
100
AcDbSymbolTableRecord
100
AcDbRegAppTableRecord
  2
ACAD
 70
     0
  0
ENDTAB
  0
TABLE
  2
DIMSTYLE
  5
A
330
0
100
AcDbSymbolTable
 70
     1
100
AcDbDimStyleTable
  0
DIMSTYLE
105
27
330
A
100
AcDbSymbolTableRecord
100
AcDbDimStyleTableRecord
  2
Standard
 70
     0
178
     0
340
11
  0
ENDTAB
  0
TABLE
  2
BLOCK_RECORD
  5
1
330
0
100
AcDbSymbolTable
 70
     3
  0
BLOCK_RECORD
  5
1F
330
1
100
AcDbSymbolTableRecord
100
AcDbBlockTableRecord
  2
*Model_Space
340
22
  0
BLOCK_RECORD
  5
1B
330
1
100
AcDbSymbolTableRecord
100
AcDbBlockTableRecord
  2
*Paper_Space
340
1E
  0
BLOCK_RECORD
  5
23
330
1
100
AcDbSymbolTableRecord
100
AcDbBlockTableRecord
  2
*Paper_Space0
340
26
  0
BLOCK_RECORD
  5
172
330
1
100
AcDbSymbolTableRecord
100
AcDbBlockTableRecord
  2
*Paper_Space1
340
173
  0
BLOCK_RECORD
  5
2EB
330
1
100
AcDbSymbolTableRecord
100
AcDbBlockTableRecord
  2
*Paper_Space2
340
2EC
  0
ENDTAB
  0
ENDSEC
  0
SECTION
  2
BLOCKS
  0
BLOCK
  5
20
330
1F
100
AcDbEntity
  8
0
100
AcDbBlockBegin
  2
*Model_Space
 70
     0
 10
0.0
 20
0.0
 30
0.0
  3
*Model_Space
  1

  0
ENDBLK
  5
21
330
1F
100
AcDbEntity
  8
0
100
AcDbBlockEnd
  0
BLOCK
  5
1C
330
1B
100
AcDbEntity
 67
     1
  8
0
100
AcDbBlockBegin
  2
*Paper_Space
 70
     0
 10
0.0
 20
0.0
 30
0.0
  3
*Paper_Space
  1

  0
ENDBLK
  5
1D
330
1B
100
AcDbEntity
 67
     1
  8
0
100
AcDbBlockEnd
  0
BLOCK
  5
24
330
23
100
AcDbEntity
  8
0
100
AcDbBlockBegin
  2
*Paper_Space0
 70
     0
 10
0.0
 20
0.0
 30
0.0
  3
*Paper_Space0
  1

  0
LINE
  5
16E
330
23
100
AcDbEntity
  8
0
  6
Continuous
 62
     7
370
    25
100
AcDbLine
 10
-8.9173228346
 20
0.0
 30
0.0
 11
8.9960629921
 21
0.0
 31
0.0
  0
LINE
  5
16F
330
23
100
AcDbEntity
  8
0
  6
Continuous
 62
     7
370
    25
100
AcDbLine
 10
-8.9173228346
 20
0.0
 30
0.0
 11
-8.9173228346
 21
15.7480314961
 31
0.0
  0
LINE
  5
170
330
23
100
AcDbEntity
  8
0
  6
Continuous
 62
     7
370
    25
100
AcDbLine
 10
-8.9173228346
 20
15.7480314961
 30
0.0
 11
8.9960629921
 21
15.7480314961
 31
0.0
  0
LINE
  5
171
330
23
100
AcDbEntity
  8
0
  6
Continuous
 62
     7
370
    25
100
AcDbLine
 10
8.9960629921
 20
0.0
 30
0.0
 11
8.9960629921
 21
15.7480314961
 31
0.0
  0
VIEWPORT
  5
55E
330
23
100
AcDbEntity
  8
0
100
AcDbViewport
 10
0.0
 20
0.0
 30
0.0
 40
8.4
 41
6.4
 68
     1
 69
     1
 12
-15.6496062992
 22
7.874015748
 13
0.0
 23
0.0
 14
0.5
 24
0.5
 15
0.5
 25
0.5
 16
0.0
 26
0.0
 36
1.0
 17
0.0
 27
0.0
 37
0.0
 42
50.0
 43
0.0
 44
0.0
 45
60.8863892013
 50
0.0
 51
0.0
 72
   100
 90
   557152
  1

281
     0
 71
     1
 74
     0
110
0.0
120
0.0
130
0.0
111
1.0
121
0.0
131
0.0
112
0.0
122
1.0
132
0.0
 79
     0
146
0.0
  0
ENDBLK
  5
25
330
23
100
AcDbEntity
  8
0
100
AcDbBlockEnd
  0
BLOCK
  5
174
330
172
100
AcDbEntity
  8
0
100
AcDbBlockBegin
  2
*Paper_Space1
 70
     0
 10
0.0
 20
0.0
 30
0.0
  3
*Paper_Space1
  1

  0
LINE
  5
262
330
172
100
AcDbEntity
  8
0
  6
Continuous
 62
     7
370
    25
100
AcDbLine
 10
-54.8228346457
 20
-8.9173228346
 30
0.0
 11
-54.8228346457
 21
8.9960629921
 31
0.0
  0
LINE
  5
263
330
172
100
AcDbEntity
  8
0
  6
Continuous
 62
     7
370
    25
100
AcDbLine
 10
-46.9488188976
 20
8.9960629921
 30
0.0
 11
-54.8228346457
 21
8.9960629921
 31
0.0
  0
LINE
  5
264
330
172
100
AcDbEntity
  8
0
  6
Continuous
 62
     7
370
    25
100
AcDbLine
 10
-46.9488188976
 20
-8.9173228346
 30
0.0
 11
-54.8228346457
 21
-8.9173228346
 31
0.0
  0
LINE
  5
265
330
172
100
AcDbEntity
  8
0
  6
Continuous
 62
     7
370
    25
100
AcDbLine
 10
-46.9488188976
 20
-8.9173228346
 30
0.0
 11
-46.9488188976
 21
8.9960629921
 31
0.0
  0
LINE
  5
266
330
172
100
AcDbEntity
  8
0
  6
Continuous
 62
     7
370
    25
100
AcDbLine
 10
-14.0551181102
 20
-7.5
 30
0.0
 11
-14.0551181102
 21
7.5393700787
 31
0.0
  0
LINE
  5
267
330
172
100
AcDbEntity
  8
0
  6
Continuous
 62
     7
370
    25
100
AcDbLine
 10
-14.7637795276
 20
7.5393700787
 30
0.0
 11
-14.7637795276
 21
-7.5
 31
0.0
  0
LINE
  5
268
330
172
100
AcDbEntity
  8
0
  6
Continuous
 62
     7
370
    25
100
AcDbLine
 10
-46.062992126
 20
7.5393700787
 30
0.0
 11
-46.062992126
 21
-7.5
 31
0.0
  0
LINE
  5
269
330
172
100
AcDbEntity
  8
0
  6
Continuous
 62
     7
370
    25
100
AcDbLine
 10
-45.3543307087
 20
-7.5
 30
0.0
 11
-45.3543307087
 21
7.5393700787
 31
0.0
  0
LINE
  5
26A
330
172
100
AcDbEntity
  8
0
  6
Continuous
 62
     7
370
    25
100
AcDbLine
 10
23.5236220472
 20
-8.9173228346
 30
0.0
 11
15.6496062992
 21
-8.9173228346
 31
0.0
  0
LINE
  5
26B
330
172
100
AcDbEntity
  8
0
  6
Continuous
 62
     7
370
    25
100
AcDbLine
 10
15.6496062992
 20
-8.9173228346
 30
0.0
 11
15.6496062992
 21
8.9960629921
 31
0.0
  0
LINE
  5
26C
330
172
100
AcDbEntity
  8
0
  6
Continuous
 62
     7
370
    25
100
AcDbLine
 10
23.5236220472
 20
8.9960629921
 30
0.0
 11
15.6496062992
 21
8.9960629921
 31
0.0
  0
LINE
  5
26D
330
172
100
AcDbEntity
  8
0
  6
Continuous
 62
     7
370
    25
100
AcDbLine
 10
23.5236220472
 20
-8.9173228346
 30
0.0
 11
23.5236220472
 21
8.9960629921
 31
0.0
  0
LINE
  5
26E
330
172
100
AcDbEntity
  8
0
  6
Continuous
 62
     7
370
    25
100
AcDbLine
 10
15.4758183637
 20
-8.9173228346
 30
0.0
 11
-15.4758183637
 21
-8.9173228346
 31
0.0
  0
LINE
  5
26F
330
172
100
AcDbEntity
  8
0
  6
Continuous
 62
     7
370
    25
100
AcDbLine
 10
-15.5036572133
 20
-8.8501139063
 30
0.0
 11
15.5036572133
 21
-8.8501139063
 31
0.0
  0
LINE
  5
270
330
172
100
AcDbEntity
  8
0
  6
Continuous
 62
     7
370
    25
100
AcDbLine
 10
-14.8622047244
 20
-8.2086614173
 30
0.0
 11
-15.5036572133
 21
-8.8501139063
 31
0.0
  0
LINE
  5
271
330
172
100
AcDbEntity
  8
0
  6
Continuous
 62
     7
370
    25
100
AcDbLine
 10
14.8622047244
 20
-8.2086614173
 30
0.0
 11
15.5036572133
 21
-8.8501139063
 31
0.0
  0
LINE
  5
272
330
172
100
AcDbEntity
  8
0
  6
Continuous
 62
     7
370
    25
100
AcDbLine
 10
-15.8233942347
 20
-8.9173228346
 30
0.0
 11
-46.7750309621
 21
-8.9173228346
 31
0.0
  0
LINE
  5
273
330
172
100
AcDbEntity
  8
0
  6
Continuous
 62
     7
370
    25
100
AcDbLine
 10
-46.8028698118
 20
-8.8501139063
 30
0.0
 11
-15.7955553851
 21
-8.8501139063
 31
0.0
  0
LINE
  5
274
330
172
100
AcDbEntity
  8
0
  6
Continuous
 62
     7
370
    25
100
AcDbLine
 10
-16.437007874
 20
-8.2086614173
 30
0.0
 11
-15.7955553851
 21
-8.8501139063
 31
0.0
  0
LINE
  5
275
330
172
100
AcDbEntity
  8
0
  6
Continuous
 62
     7
370
    25
100
AcDbLine
 10
-46.1614173228
 20
-8.2086614173
 30
0.0
 11
-46.8028698118
 21
-8.8501139063
 31
0.0
  0
LINE
  5
276
330
172
100
AcDbEntity
  8
0
  6
Continuous
 62
     7
370
    25
100
AcDbLine
 10
-15.6102362205
 20
8.9960629921
 30
0.0
 11
-15.6102362205
 21
-8.8222750566
 31
0.0
  0
LINE
  5
277
330
172
100
AcDbEntity
  8
0
  6
Continuous
 62
     7
370
    25
100
AcDbLine
 10
-14.9803149606
 20
-8.1923537968
 30
0.0
 11
-14.9803149606
 21
8.9960629921
 31
0.0
  0
LINE
  5
278
330
172
100
AcDbEntity
  8
0
  6
Continuous
 62
     7
370
    25
100
AcDbLine
 10
-15.6102362205
 20
-8.8222750566
 30
0.0
 11
-14.9803149606
 21
-8.1923537968
 31
0.0
  0
LINE
  5
279
330
172
100
AcDbEntity
  8
0
  6
Continuous
 62
     7
370
    25
100
AcDbLine
 10
-15.6102362205
 20
-8.8222750566
 30
0.0
 11
-15.688976378
 21
-8.8222750566
 31
0.0
  0
LINE
  5
27A
330
172
100
AcDbEntity
  8
0
  6
Continuous
 62
     7
370
    25
100
AcDbLine
 10
-15.5823973708
 20
-8.8501139063
 30
0.0
 11
-15.6102362205
 21
-8.8222750566
 31
0.0
  0
LINE
  5
27B
330
172
100
AcDbEntity
  8
0
  6
Continuous
 62
     7
370
    25
100
AcDbLine
 10
-14.9803149606
 20
-8.1923537968
 30
0.0
 11
-14.952476111
 21
-8.2201926464
 31
0.0
  0
LINE
  5
27C
330
172
100
AcDbEntity
  8
0
  6
Continuous
 62
     7
370
    25
100
AcDbLine
 10
-14.9803149606
 20
-8.1923537968
 30
0.0
 11
-14.9409448819
 21
-8.1923537968
 31
0.0
  0
LINE
  5
27D
330
172
100
AcDbEntity
  8
0
  6
Continuous
 62
     7
370
    25
100
AcDbLine
 10
-14.952476111
 20
-8.2201926464
 30
0.0
 11
-15.5823973708
 21
-8.8501139063
 31
0.0
  0
LINE
  5
27E
330
172
100
AcDbEntity
  8
0
  6
Continuous
 62
     7
370
    25
100
AcDbLine
 10
-15.6496062992
 20
8.9566929134
 30
0.0
 11
-15.6496062992
 21
-8.8222750566
 31
0.0
  0
LINE
  5
27F
330
172
100
AcDbEntity
  8
0
  6
Continuous
 62
     7
370
    25
100
AcDbLine
 10
-14.9409448819
 20
8.9566929134
 30
0.0
 11
-14.9409448819
 21
-8.1923537968
 31
0.0
  0
LINE
  5
280
330
172
100
AcDbEntity
  8
0
  6
Continuous
 62
     7
370
    25
100
AcDbLine
 10
-15.6102362205
 20
8.9960629921
 30
0.0
 11
-14.9803149606
 21
8.9960629921
 31
0.0
  0
LINE
  5
281
330
172
100
AcDbEntity
  8
0
  6
Continuous
 62
     7
370
    25
100
AcDbLine
 10
-46.9094488189
 20
8.9960629921
 30
0.0
 11
-46.2795275591
 21
8.9960629921
 31
0.0
  0
LINE
  5
282
330
172
100
AcDbEntity
  8
0
  6
Continuous
 62
     7
370
    25
100
AcDbLine
 10
-46.2795275591
 20
-8.1923537968
 30
0.0
 11
-46.2795275591
 21
8.9960629921
 31
0.0
  0
LINE
  5
283
330
172
100
AcDbEntity
  8
0
  6
Continuous
 62
     7
370
    25
100
AcDbLine
 10
-46.9094488189
 20
8.9960629921
 30
0.0
 11
-46.9094488189
 21
-8.8222750566
 31
0.0
  0
LINE
  5
284
330
172
100
AcDbEntity
  8
0
  6
Continuous
 62
     7
370
    25
100
AcDbLine
 10
-46.9094488189
 20
-8.8222750566
 30
0.0
 11
-46.2795275591
 21
-8.1923537968
 31
0.0
  0
LINE
  5
285
330
172
100
AcDbEntity
  8
0
  6
Continuous
 62
     7
370
    25
100
AcDbLine
 10
-46.2795275591
 20
-8.1923537968
 30
0.0
 11
-46.2516887094
 21
-8.2201926464
 31
0.0
  0
LINE
  5
286
330
172
100
AcDbEntity
  8
0
  6
Continuous
 62
     7
370
    25
100
AcDbLine
 10
-46.2516887094
 20
-8.2201926464
 30
0.0
 11
-46.8816099692
 21
-8.8501139063
 31
0.0
  0
LINE
  5
287
330
172
100
AcDbEntity
  8
0
  6
Continuous
 62
     7
370
    25
100
AcDbLine
 10
-46.8816099692
 20
-8.8501139063
 30
0.0
 11
-46.9094488189
 21
-8.8222750566
 31
0.0
  0
LINE
  5
288
330
172
100
AcDbEntity
  8
0
  6
Continuous
 62
     7
370
    25
100
AcDbLine
 10
-46.9488188976
 20
-8.8222750566
 30
0.0
 11
-46.9094488189
 21
-8.8222750566
 31
0.0
  0
LINE
  5
289
330
172
100
AcDbEntity
  8
0
  6
Continuous
 62
     7
370
    25
100
AcDbLine
 10
-46.2795275591
 20
-8.1923537968
 30
0.0
 11
-46.2401574803
 21
-8.1923537968
 31
0.0
  0
LINE
  5
28A
330
172
100
AcDbEntity
  8
0
  6
Continuous
 62
     7
370
    25
100
AcDbLine
 10
-46.2401574803
 20
8.9566929134
 30
0.0
 11
-46.2401574803
 21
-8.1923537968
 31
0.0
  0
LINE
  5
28B
330
172
100
AcDbEntity
  8
0
  6
Continuous
 62
     7
370
    25
100
AcDbLine
 10
14.9803149606
 20
8.9960629921
 30
0.0
 11
14.9803149606
 21
-8.1923537968
 31
0.0
  0
LINE
  5
28C
330
172
100
AcDbEntity
  8
0
  6
Continuous
 62
     7
370
    25
100
AcDbLine
 10
14.9803149606
 20
-8.1923537968
 30
0.0
 11
14.9409448819
 21
-8.1923537968
 31
0.0
  0
LINE
  5
28D
330
172
100
AcDbEntity
  8
0
  6
Continuous
 62
     7
370
    25
100
AcDbLine
 10
14.9409448819
 20
-8.1923537968
 30
0.0
 11
14.9409448819
 21
8.9566929134
 31
0.0
  0
LINE
  5
28E
330
172
100
AcDbEntity
  8
0
  6
Continuous
 62
     7
370
    25
100
AcDbLine
 10
14.9803149606
 20
8.9960629921
 30
0.0
 11
15.6102362205
 21
8.9960629921
 31
0.0
  0
LINE
  5
28F
330
172
100
AcDbEntity
  8
0
  6
Continuous
 62
     7
370
    25
100
AcDbLine
 10
15.6102362205
 20
-8.8222750566
 30
0.0
 11
15.6102362205
 21
8.9960629921
 31
0.0
  0
LINE
  5
290
330
172
100
AcDbEntity
  8
0
  6
Continuous
 62
     7
370
    25
100
AcDbLine
 10
15.6496062992
 20
-8.8222750566
 30
0.0
 11
15.6102362205
 21
-8.8222750566
 31
0.0
  0
LINE
  5
291
330
172
100
AcDbEntity
  8
0
  6
Continuous
 62
     7
370
    25
100
AcDbLine
 10
15.5823973708
 20
-8.8501139063
 30
0.0
 11
14.952476111
 21
-8.2201926464
 31
0.0
  0
LINE
  5
292
330
172
100
AcDbEntity
  8
0
  6
Continuous
 62
     7
370
    25
100
AcDbLine
 10
14.952476111
 20
-8.2201926464
 30
0.0
 11
14.9803149606
 21
-8.1923537968
 31
0.0
  0
LINE
  5
293
330
172
100
AcDbEntity
  8
0
  6
Continuous
 62
     7
370
    25
100
AcDbLine
 10
14.9803149606
 20
-8.1923537968
 30
0.0
 11
15.6102362205
 21
-8.8222750566
 31
0.0
  0
LINE
  5
294
330
172
100
AcDbEntity
  8
0
  6
Continuous
 62
     7
370
    25
100
AcDbLine
 10
15.6102362205
 20
-8.8222750566
 30
0.0
 11
15.5823973708
 21
-8.8501139063
 31
0.0
  0
LINE
  5
295
330
172
100
AcDbEntity
  8
0
  6
Continuous
 62
     7
370
    25
100
AcDbLine
 10
-16.3188976378
 20
8.9960629921
 30
0.0
 11
-16.3188976378
 21
-8.1923537968
 31
0.0
  0
LINE
  5
296
330
172
100
AcDbEntity
  8
0
  6
Continuous
 62
     7
370
    25
100
AcDbLine
 10
15.6496062992
 20
8.9566929134
 30
0.0
 11
-46.9488188976
 21
8.9566929134
 31
0.0
  0
LINE
  5
297
330
172
100
AcDbEntity
  8
0
  6
Continuous
 62
     7
370
    25
100
AcDbLine
 10
-15.688976378
 20
-8.8222750566
 30
0.0
 11
-15.688976378
 21
8.9960629921
 31
0.0
  0
LINE
  5
298
330
172
100
AcDbEntity
  8
0
  6
Continuous
 62
     7
370
    25
100
AcDbLine
 10
-16.3188976378
 20
-8.1923537968
 30
0.0
 11
-16.3582677165
 21
-8.1923537968
 31
0.0
  0
LINE
  5
299
330
172
100
AcDbEntity
  8
0
  6
Continuous
 62
     7
370
    25
100
AcDbLine
 10
-16.3467364874
 20
-8.2201926464
 30
0.0
 11
-16.3188976378
 21
-8.1923537968
 31
0.0
  0
LINE
  5
29A
330
172
100
AcDbEntity
  8
0
  6
Continuous
 62
     7
370
    25
100
AcDbLine
 10
-15.688976378
 20
-8.8222750566
 30
0.0
 11
-15.7168152276
 21
-8.8501139063
 31
0.0
  0
LINE
  5
29B
330
172
100
AcDbEntity
  8
0
  6
Continuous
 62
     7
370
    25
100
AcDbLine
 10
-16.3188976378
 20
-8.1923537968
 30
0.0
 11
-15.688976378
 21
-8.8222750566
 31
0.0
  0
LINE
  5
29C
330
172
100
AcDbEntity
  8
0
  6
Continuous
 62
     7
370
    25
100
AcDbLine
 10
-16.3188976378
 20
8.9960629921
 30
0.0
 11
-15.688976378
 21
8.9960629921
 31
0.0
  0
LINE
  5
29D
330
172
100
AcDbEntity
  8
0
  6
Continuous
 62
     7
370
    25
100
AcDbLine
 10
-16.3582677165
 20
-8.1923537968
 30
0.0
 11
-16.3582677165
 21
8.9566929134
 31
0.0
  0
LINE
  5
29E
330
172
100
AcDbEntity
  8
0
  6
Continuous
 62
     7
370
    25
100
AcDbLine
 10
-15.7168152276
 20
-8.8501139063
 30
0.0
 11
-16.3467364874
 21
-8.2201926464
 31
0.0
  0
LINE
  5
29F
330
172
100
AcDbEntity
  8
0
  6
Continuous
 62
     7
370
    25
100
AcDbLine
 10
-14.9409448819
 20
8.3267716535
 30
0.0
 11
14.9409448819
 21
8.3267716535
 31
0.0
  0
LINE
  5
2A0
330
172
100
AcDbEntity
  8
0
  6
Continuous
 62
     7
370
    25
100
AcDbLine
 10
14.9015748031
 20
8.2874015748
 30
0.0
 11
-14.9015748031
 21
8.2874015748
 31
0.0
  0
LINE
  5
2A1
330
172
100
AcDbEntity
  8
0
  6
Continuous
 62
     7
370
    25
100
AcDbLine
 10
-14.9015748031
 20
8.9960629921
 30
0.0
 11
14.9015748031
 21
8.9960629921
 31
0.0
  0
LINE
  5
2A2
330
172
100
AcDbEntity
  8
0
  6
Continuous
 62
     7
370
    25
100
AcDbLine
 10
-2.9527559055
 20
7.5393700787
 30
0.0
 11
-2.9527559055
 21
6.8307086614
 31
0.0
  0
LINE
  5
2A3
330
172
100
AcDbEntity
  8
0
  6
Continuous
 62
     7
370
    25
100
AcDbLine
 10
-14.0551181102
 20
6.8307086614
 30
0.0
 11
14.0551181102
 21
6.8307086614
 31
0.0
  0
LINE
  5
2A4
330
172
100
AcDbEntity
  8
0
  6
Continuous
 62
     7
370
    25
100
AcDbLine
 10
2.9527559055
 20
6.8307086614
 30
0.0
 11
2.9527559055
 21
7.5393700787
 31
0.0
  0
LINE
  5
2A5
330
172
100
AcDbEntity
  8
0
  6
Continuous
 62
     7
370
    25
100
AcDbLine
 10
14.7637795276
 20
7.5393700787
 30
0.0
 11
-14.7637795276
 21
7.5393700787
 31
0.0
  0
LINE
  5
2A6
330
172
100
AcDbEntity
  8
0
  6
Continuous
 62
     7
370
    25
100
AcDbLine
 10
-46.2401574803
 20
8.3267716535
 30
0.0
 11
-16.3582677165
 21
8.3267716535
 31
0.0
  0
LINE
  5
2A7
330
172
100
AcDbEntity
  8
0
  6
Continuous
 62
     7
370
    25
100
AcDbLine
 10
-16.3976377953
 20
8.2874015748
 30
0.0
 11
-46.2007874016
 21
8.2874015748
 31
0.0
  0
LINE
  5
2A8
330
172
100
AcDbEntity
  8
0
  6
Continuous
 62
     7
370
    25
100
AcDbLine
 10
-46.2007874016
 20
8.9960629921
 30
0.0
 11
-16.3976377953
 21
8.9960629921
 31
0.0
  0
LINE
  5
2A9
330
172
100
AcDbEntity
  8
0
  6
Continuous
 62
     7
370
    25
100
AcDbLine
 10
-34.2519685039
 20
7.5393700787
 30
0.0
 11
-34.2519685039
 21
6.8307086614
 31
0.0
  0
LINE
  5
2AA
330
172
100
AcDbEntity
  8
0
  6
Continuous
 62
     7
370
    25
100
AcDbLine
 10
-28.3464566929
 20
6.8307086614
 30
0.0
 11
-28.3464566929
 21
7.5393700787
 31
0.0
  0
LINE
  5
2AB
330
172
100
AcDbEntity
  8
0
  6
Continuous
 62
     7
370
    25
100
AcDbLine
 10
-45.3543307087
 20
6.8307086614
 30
0.0
 11
-17.2440944882
 21
6.8307086614
 31
0.0
  0
LINE
  5
2AC
330
172
100
AcDbEntity
  8
0
  6
Continuous
 62
     7
370
    25
100
AcDbLine
 10
-16.5354330709
 20
7.5393700787
 30
0.0
 11
-46.062992126
 21
7.5393700787
 31
0.0
  0
LINE
  5
2AD
330
172
100
AcDbEntity
  8
0
  6
Continuous
 62
     7
370
    25
100
AcDbLine
 10
14.7637795276
 20
-7.5
 30
0.0
 11
14.7637795276
 21
7.5393700787
 31
0.0
  0
LINE
  5
2AE
330
172
100
AcDbEntity
  8
0
  6
Continuous
 62
     7
370
    25
100
AcDbLine
 10
14.0551181102
 20
7.5393700787
 30
0.0
 11
14.0551181102
 21
-7.5
 31
0.0
  0
LINE
  5
2AF
330
172
100
AcDbEntity
  8
0
  6
Continuous
 62
     7
370
    25
100
AcDbLine
 10
-17.2440944882
 20
7.5393700787
 30
0.0
 11
-17.2440944882
 21
-7.5
 31
0.0
  0
LINE
  5
2B0
330
172
100
AcDbEntity
  8
0
  6
Continuous
 62
     7
370
    25
100
AcDbLine
 10
-16.5354330709
 20
-7.5
 30
0.0
 11
-16.5354330709
 21
7.5393700787
 31
0.0
  0
LINE
  5
2B1
330
172
100
AcDbEntity
  8
0
  6
Continuous
 62
     7
370
    25
100
AcDbLine
 10
14.9409448819
 20
-7.9330708661
 30
0.0
 11
-14.9409448819
 21
-7.9330708661
 31
0.0
  0
LINE
  5
2B2
330
172
100
AcDbEntity
  8
0
  6
Continuous
 62
     7
370
    25
100
AcDbLine
 10
-14.9015748031
 20
8.9960629921
 30
0.0
 11
-14.9015748031
 21
-8.2086614173
 31
0.0
  0
LINE
  5
2B3
330
172
100
AcDbEntity
  8
0
  6
Continuous
 62
     7
370
    25
100
AcDbLine
 10
-14.9409448819
 20
-8.1692913386
 30
0.0
 11
14.9409448819
 21
-8.1692913386
 31
0.0
  0
LINE
  5
2B4
330
172
100
AcDbEntity
  8
0
  6
Continuous
 62
     7
370
    25
100
AcDbLine
 10
14.9015748031
 20
-8.2086614173
 30
0.0
 11
-14.9015748031
 21
-8.2086614173
 31
0.0
  0
LINE
  5
2B5
330
172
100
AcDbEntity
  8
0
  6
Continuous
 62
     7
370
    25
100
AcDbLine
 10
-14.9015748031
 20
-7.8937007874
 30
0.0
 11
14.9015748031
 21
-7.8937007874
 31
0.0
  0
LINE
  5
2B6
330
172
100
AcDbEntity
  8
0
  6
Continuous
 62
     7
370
    25
100
AcDbLine
 10
-14.9409448819
 20
-7.8543307087
 30
0.0
 11
14.9409448819
 21
-7.8543307087
 31
0.0
  0
LINE
  5
2B7
330
172
100
AcDbEntity
  8
0
  6
Continuous
 62
     7
370
    25
100
AcDbLine
 10
14.9409448819
 20
-7.5393700787
 30
0.0
 11
-14.9409448819
 21
-7.5393700787
 31
0.0
  0
LINE
  5
2B8
330
172
100
AcDbEntity
  8
0
  6
Continuous
 62
     7
370
    25
100
AcDbLine
 10
-14.9015748031
 20
-7.5
 30
0.0
 11
14.9015748031
 21
-7.5
 31
0.0
  0
LINE
  5
2B9
330
172
100
AcDbEntity
  8
0
  6
Continuous
 62
     7
370
    25
100
AcDbLine
 10
14.9015748031
 20
-8.2086614173
 30
0.0
 11
14.9015748031
 21
8.9960629921
 31
0.0
  0
LINE
  5
2BA
330
172
100
AcDbEntity
  8
0
  6
Continuous
 62
     7
370
    25
100
AcDbLine
 10
-16.3582677165
 20
-7.9330708661
 30
0.0
 11
-46.2401574803
 21
-7.9330708661
 31
0.0
  0
LINE
  5
2BB
330
172
100
AcDbEntity
  8
0
  6
Continuous
 62
     7
370
    25
100
AcDbLine
 10
-46.2401574803
 20
-8.1692913386
 30
0.0
 11
-16.3582677165
 21
-8.1692913386
 31
0.0
  0
LINE
  5
2BC
330
172
100
AcDbEntity
  8
0
  6
Continuous
 62
     7
370
    25
100
AcDbLine
 10
-16.3976377953
 20
-8.2086614173
 30
0.0
 11
-46.2007874016
 21
-8.2086614173
 31
0.0
  0
LINE
  5
2BD
330
172
100
AcDbEntity
  8
0
  6
Continuous
 62
     7
370
    25
100
AcDbLine
 10
-46.2007874016
 20
-7.8937007874
 30
0.0
 11
-16.3976377953
 21
-7.8937007874
 31
0.0
  0
LINE
  5
2BE
330
172
100
AcDbEntity
  8
0
  6
Continuous
 62
     7
370
    25
100
AcDbLine
 10
-46.2401574803
 20
-7.8543307087
 30
0.0
 11
-16.3582677165
 21
-7.8543307087
 31
0.0
  0
LINE
  5
2BF
330
172
100
AcDbEntity
  8
0
  6
Continuous
 62
     7
370
    25
100
AcDbLine
 10
-16.3582677165
 20
-7.5393700787
 30
0.0
 11
-46.2401574803
 21
-7.5393700787
 31
0.0
  0
LINE
  5
2C0
330
172
100
AcDbEntity
  8
0
  6
Continuous
 62
     7
370
    25
100
AcDbLine
 10
-46.2007874016
 20
8.9960629921
 30
0.0
 11
-46.2007874016
 21
-8.2086614173
 31
0.0
  0
LINE
  5
2C1
330
172
100
AcDbEntity
  8
0
  6
Continuous
 62
     7
370
    25
100
AcDbLine
 10
-46.2007874016
 20
-7.5
 30
0.0
 11
-16.3976377953
 21
-7.5
 31
0.0
  0
LINE
  5
2C2
330
172
100
AcDbEntity
  8
0
  6
Continuous
 62
     7
370
    25
100
AcDbLine
 10
-16.3976377953
 20
-8.2086614173
 30
0.0
 11
-16.3976377953
 21
8.9960629921
 31
0.0
  0
ARC
  5
2C3
330
172
100
AcDbEntity
  8
0
  6
Continuous
 62
     7
370
    25
100
AcDbCircle
 10
-15.4758183637
 20
-8.8779527559
 30
0.0
 40
0.0393700787401576
100
AcDbArc
 50
135.0
 51
270.0
  0
ARC
  5
2C4
330
172
100
AcDbEntity
  8
0
  6
Continuous
 62
     7
370
    25
100
AcDbCircle
 10
15.4758183637
 20
-8.8779527559
 30
0.0
 40
0.0393700787401592
100
AcDbArc
 50
270.0
 51
45.0
  0
ARC
  5
2C5
330
172
100
AcDbEntity
  8
0
  6
Continuous
 62
     7
370
    25
100
AcDbCircle
 10
-46.7750309621
 20
-8.8779527559
 30
0.0
 40
0.0393700787401574
100
AcDbArc
 50
135.0
 51
270.0
  0
ARC
  5
2C6
330
172
100
AcDbEntity
  8
0
  6
Continuous
 62
     7
370
    25
100
AcDbCircle
 10
-15.8233942347
 20
-8.8779527559
 30
0.0
 40
0.0393700787401574
100
AcDbArc
 50
270.0
 51
45.0
  0
ARC
  5
2C7
330
172
100
AcDbEntity
  8
0
  6
Continuous
 62
     7
370
    25
100
AcDbCircle
 10
-15.6102362205
 20
-8.8222750566
 30
0.0
 40
0.039370078740161
100
AcDbArc
 50
180.0
 51
315.0
  0
ARC
  5
2C8
330
172
100
AcDbEntity
  8
0
  6
Continuous
 62
     7
370
    25
100
AcDbCircle
 10
-14.9803149606
 20
-8.1923537968
 30
0.0
 40
0.0393700787401463
100
AcDbArc
 50
315.0
 51
0.0
  0
ARC
  5
2C9
330
172
100
AcDbEntity
  8
0
  6
Continuous
 62
     7
370
    25
100
AcDbCircle
 10
-15.6102362205
 20
8.9566929134
 30
0.0
 40
0.039370078740161
100
AcDbArc
 50
90.0
 51
180.0
  0
ARC
  5
2CA
330
172
100
AcDbEntity
  8
0
  6
Continuous
 62
     7
370
    25
100
AcDbCircle
 10
-14.9803149606
 20
8.9566929134
 30
0.0
 40
0.0393700787401574
100
AcDbArc
 50
0.0
 51
90.0
  0
ARC
  5
2CB
330
172
100
AcDbEntity
  8
0
  6
Continuous
 62
     7
370
    25
100
AcDbCircle
 10
-46.9094488189
 20
-8.8222750566
 30
0.0
 40
0.0393700787401556
100
AcDbArc
 50
180.0
 51
315.0
  0
ARC
  5
2CC
330
172
100
AcDbEntity
  8
0
  6
Continuous
 62
     7
370
    25
100
AcDbCircle
 10
-46.2795275591
 20
8.9566929134
 30
0.0
 40
0.0393700787401841
100
AcDbArc
 50
0.0
 51
90.0
  0
ARC
  5
2CD
330
172
100
AcDbEntity
  8
0
  6
Continuous
 62
     7
370
    25
100
AcDbCircle
 10
-46.2795275591
 20
-8.1923537968
 30
0.0
 40
0.0393700787401915
100
AcDbArc
 50
315.0
 51
360.0
  0
ARC
  5
2CE
330
172
100
AcDbEntity
  8
0
  6
Continuous
 62
     7
370
    25
100
AcDbCircle
 10
-46.9094488189
 20
8.9566929134
 30
0.0
 40
0.0393700787401627
100
AcDbArc
 50
90.0
 51
180.0
  0
ARC
  5
2CF
330
172
100
AcDbEntity
  8
0
  6
Continuous
 62
     7
370
    25
100
AcDbCircle
 10
15.6102362205
 20
8.9566929134
 30
0.0
 40
0.0393700787401592
100
AcDbArc
 50
0.0
 51
90.0
  0
ARC
  5
2D0
330
172
100
AcDbEntity
  8
0
  6
Continuous
 62
     7
370
    25
100
AcDbCircle
 10
14.9803149606
 20
8.9566929134
 30
0.0
 40
0.0393700787401592
100
AcDbArc
 50
90.0
 51
180.0
  0
ARC
  5
2D1
330
172
100
AcDbEntity
  8
0
  6
Continuous
 62
     7
370
    25
100
AcDbCircle
 10
15.6102362205
 20
-8.8222750566
 30
0.0
 40
0.0393700787401576
100
AcDbArc
 50
225.0
 51
0.0
  0
ARC
  5
2D2
330
172
100
AcDbEntity
  8
0
  6
Continuous
 62
     7
370
    25
100
AcDbCircle
 10
14.9803149606
 20
-8.1923537968
 30
0.0
 40
0.039370078740199
100
AcDbArc
 50
180.0
 51
225.0
  0
ARC
  5
2D3
330
172
100
AcDbEntity
  8
0
  6
Continuous
 62
     7
370
    25
100
AcDbCircle
 10
-16.3188976378
 20
8.9566929134
 30
0.0
 40
0.039370078740161
100
AcDbArc
 50
90.0
 51
180.0
  0
ARC
  5
2D4
330
172
100
AcDbEntity
  8
0
  6
Continuous
 62
     7
370
    25
100
AcDbCircle
 10
-16.3188976378
 20
-8.1923537968
 30
0.0
 40
0.0393700787401841
100
AcDbArc
 50
180.0
 51
225.0
  0
ARC
  5
2D5
330
172
100
AcDbEntity
  8
0
  6
Continuous
 62
     7
370
    25
100
AcDbCircle
 10
-15.688976378
 20
-8.8222750566
 30
0.0
 40
0.0393700787401576
100
AcDbArc
 50
225.0
 51
360.0
  0
ARC
  5
2D6
330
172
100
AcDbEntity
  8
0
  6
Continuous
 62
     7
370
    25
100
AcDbCircle
 10
-15.688976378
 20
8.9566929134
 30
0.0
 40
0.0393700787401592
100
AcDbArc
 50
0.0
 51
90.0
  0
ARC
  5
2D7
330
172
100
AcDbEntity
  8
0
  6
Continuous
 62
     7
370
    25
100
AcDbCircle
 10
14.9015748031
 20
8.3267716535
 30
0.0
 40
0.0393700787401592
100
AcDbArc
 50
270.0
 51
360.0
  0
ARC
  5
2D8
330
172
100
AcDbEntity
  8
0
  6
Continuous
 62
     7
370
    25
100
AcDbCircle
 10
-14.9015748031
 20
8.9566929134
 30
0.0
 40
0.039370078740161
100
AcDbArc
 50
90.0
 51
180.0
  0
ARC
  5
2D9
330
172
100
AcDbEntity
  8
0
  6
Continuous
 62
     7
370
    25
100
AcDbCircle
 10
14.9015748031
 20
8.9566929134
 30
0.0
 40
0.0393700787401627
100
AcDbArc
 50
0.0
 51
90.0
  0
ARC
  5
2DA
330
172
100
AcDbEntity
  8
0
  6
Continuous
 62
     7
370
    25
100
AcDbCircle
 10
-14.9015748031
 20
8.3267716535
 30
0.0
 40
0.039370078740161
100
AcDbArc
 50
180.0
 51
270.0
  0
ARC
  5
2DB
330
172
100
AcDbEntity
  8
0
  6
Continuous
 62
     7
370
    25
100
AcDbCircle
 10
-46.2007874016
 20
8.3267716535
 30
0.0
 40
0.0393700787401698
100
AcDbArc
 50
180.0
 51
270.0
  0
ARC
  5
2DC
330
172
100
AcDbEntity
  8
0
  6
Continuous
 62
     7
370
    25
100
AcDbCircle
 10
-16.3976377953
 20
8.3267716535
 30
0.0
 40
0.0393700787401556
100
AcDbArc
 50
270.0
 51
0.0
  0
ARC
  5
2DD
330
172
100
AcDbEntity
  8
0
  6
Continuous
 62
     7
370
    25
100
AcDbCircle
 10
-46.2007874016
 20
8.9566929134
 30
0.0
 40
0.0393700787401485
100
AcDbArc
 50
90.0
 51
180.0
  0
ARC
  5
2DE
330
172
100
AcDbEntity
  8
0
  6
Continuous
 62
     7
370
    25
100
AcDbCircle
 10
-16.3976377953
 20
8.9566929134
 30
0.0
 40
0.0393700787401556
100
AcDbArc
 50
360.0
 51
90.0
  0
ARC
  5
2DF
330
172
100
AcDbEntity
  8
0
  6
Continuous
 62
     7
370
    25
100
AcDbCircle
 10
14.9015748031
 20
-7.9330708661
 30
0.0
 40
0.0393700787401601
100
AcDbArc
 50
0.0
 51
90.0
  0
ARC
  5
2E0
330
172
100
AcDbEntity
  8
0
  6
Continuous
 62
     7
370
    25
100
AcDbCircle
 10
-14.9015748031
 20
-8.1692913386
 30
0.0
 40
0.039370078740161
100
AcDbArc
 50
180.0
 51
270.0
  0
ARC
  5
2E1
330
172
100
AcDbEntity
  8
0
  6
Continuous
 62
     7
370
    25
100
AcDbCircle
 10
-14.9015748031
 20
-7.9330708661
 30
0.0
 40
0.039370078740161
100
AcDbArc
 50
90.0
 51
180.0
  0
ARC
  5
2E2
330
172
100
AcDbEntity
  8
0
  6
Continuous
 62
     7
370
    25
100
AcDbCircle
 10
14.9015748031
 20
-8.1692913386
 30
0.0
 40
0.0393700787401627
100
AcDbArc
 50
270.0
 51
360.0
  0
ARC
  5
2E3
330
172
100
AcDbEntity
  8
0
  6
Continuous
 62
     7
370
    25
100
AcDbCircle
 10
-14.9015748031
 20
-7.5393700787
 30
0.0
 40
0.039370078740161
100
AcDbArc
 50
90.0
 51
180.0
  0
ARC
  5
2E4
330
172
100
AcDbEntity
  8
0
  6
Continuous
 62
     7
370
    25
100
AcDbCircle
 10
14.9015748031
 20
-7.5393700787
 30
0.0
 40
0.0393700787401592
100
AcDbArc
 50
0.0
 51
90.0
  0
ARC
  5
2E5
330
172
100
AcDbEntity
  8
0
  6
Continuous
 62
     7
370
    25
100
AcDbCircle
 10
-46.2007874016
 20
-7.9330708661
 30
0.0
 40
0.0393700787401698
100
AcDbArc
 50
90.0
 51
180.0
  0
ARC
  5
2E6
330
172
100
AcDbEntity
  8
0
  6
Continuous
 62
     7
370
    25
100
AcDbCircle
 10
-46.2007874016
 20
-8.1692913386
 30
0.0
 40
0.0393700787401485
100
AcDbArc
 50
180.0
 51
270.0
  0
ARC
  5
2E7
330
172
100
AcDbEntity
  8
0
  6
Continuous
 62
     7
370
    25
100
AcDbCircle
 10
-16.3976377953
 20
-8.1692913386
 30
0.0
 40
0.0393700787401556
100
AcDbArc
 50
270.0
 51
0.0
  0
ARC
  5
2E8
330
172
100
AcDbEntity
  8
0
  6
Continuous
 62
     7
370
    25
100
AcDbCircle
 10
-16.3976377953
 20
-7.9330708661
 30
0.0
 40
0.0393700787401556
100
AcDbArc
 50
360.0
 51
90.0
  0
ARC
  5
2E9
330
172
100
AcDbEntity
  8
0
  6
Continuous
 62
     7
370
    25
100
AcDbCircle
 10
-46.2007874016
 20
-7.5393700787
 30
0.0
 40
0.0393700787401698
100
AcDbArc
 50
90.0
 51
180.0
  0
ARC
  5
2EA
330
172
100
AcDbEntity
  8
0
  6
Continuous
 62
     7
370
    25
100
AcDbCircle
 10
-16.3976377953
 20
-7.5393700787
 30
0.0
 40
0.0393700787401556
100
AcDbArc
 50
360.0
 51
90.0
  0
VIEWPORT
  5
560
330
172
100
AcDbEntity
  8
0
100
AcDbViewport
 10
0.0
 20
0.0
 30
0.0
 40
8.4
 41
6.4
 68
     1
 69
     1
 12
-15.6496062992
 22
7.874015748
 13
0.0
 23
0.0
 14
0.5
 24
0.5
 15
0.5
 25
0.5
 16
0.0
 26
0.0
 36
1.0
 17
0.0
 27
0.0
 37
0.0
 42
50.0
 43
0.0
 44
0.0
 45
60.8863892013
 50
0.0
 51
0.0
 72
   100
 90
   557152
  1

281
     0
 71
     1
 74
     0
110
0.0
120
0.0
130
0.0
111
1.0
121
0.0
131
0.0
112
0.0
122
1.0
132
0.0
 79
     0
146
0.0
  0
ENDBLK
  5
175
330
172
100
AcDbEntity
  8
0
100
AcDbBlockEnd
  0
BLOCK
  5
2ED
330
2EB
100
AcDbEntity
  8
0
100
AcDbBlockBegin
  2
*Paper_Space2
 70
     0
 10
0.0
 20
0.0
 30
0.0
  3
*Paper_Space2
  1

  0
LWPOLYLINE
  5
362
330
2EB
100
AcDbEntity
  8
0
  6
Continuous
 62
     7
370
    25
100
AcDbPolyline
 90
       14
 70
   128
 43
0.0
 10
4.637556663
 20
1.4282721517
 10
4.6430307588
 20
1.4314332217
 10
4.6492375282
 20
1.4350172243
 10
4.6559736361
 20
1.4389067468
 10
4.6630184064
 20
1.4429743678
 10
4.6701410512
 20
1.4470868312
 10
4.6771082313
 20
1.4511094121
 10
4.6836917005
 20
1.4549103298
 10
4.6896757832
 20
1.4583650657
 10
4.6948644397
 20
1.4613604419
 10
4.6990876887
 20
1.4637983294
 10
4.7022071757
 20
1.4655988624
 10
4.7041207058
 20
1.4667030553
 10
4.7047655914
 20
1.4670747344
  0
LWPOLYLINE
  5
364
330
2EB
100
AcDbEntity
  8
0
  6
Continuous
 62
     7
370
    25
100
AcDbPolyline
 90
        9
 70
   128
 43
0.0
 10
4.637556663
 20
-9.9252318975
 10
4.646836586
 20
-9.9292050571
 10
4.6577147913
 20
-9.9314520249
 10
4.6692544552
 20
-9.9317792935
 10
4.6804617895
 20
-9.9301586788
 10
4.6903716262
 20
-9.9267297471
 10
4.6981305367
 20
-9.9217877957
 10
4.703070329
 20
-9.915758422
 10
4.7047655914
 20
-9.9091608717
  0
LWPOLYLINE
  5
367
330
2EB
100
AcDbEntity
  8
0
  6
Continuous
 62
     7
370
    25
100
AcDbPolyline
 90
       14
 70
   128
 43
0.0
 10
-17.2485555558
 20
14.0628558009
 10
-17.2531176457
 20
14.0718106377
 10
-17.2566182749
 20
14.0809986021
 10
-17.2589427619
 20
14.0901186947
 10
-17.2600149563
 20
14.0988721397
 10
-17.2597997327
 20
14.1069721725
 10
-17.2583041418
 20
14.1141534346
 10
-17.2555771796
 20
14.1201806664
 10
-17.2517081817
 20
14.1248564148
 10
-17.2468238974
 20
14.1280275013
 10
-17.2410843366
 20
14.1295900406
 10
-17.2346775285
 20
14.1294928436
 10
-17.2278133612
 20
14.1277390944
 10
-17.2207167061
 20
14.1243862463
  0
LWPOLYLINE
  5
36B
330
2EB
100
AcDbEntity
  8
0
  6
Continuous
 62
     7
370
    25
100
AcDbPolyline
 90
       14
 70
   128
 43
0.0
 10
-17.4943288112
 20
14.2047376812
 10
-17.4888547153
 20
14.2078987512
 10
-17.482647946
 20
14.2114827538
 10
-17.4759118381
 20
14.2153722763
 10
-17.4688670677
 20
14.2194398973
 10
-17.4617444229
 20
14.2235523607
 10
-17.4547772429
 20
14.2275749416
 10
-17.4481937737
 20
14.2313758593
 10
-17.442209691
 20
14.2348305952
 10
-17.4370210344
 20
14.2378259714
 10
-17.4327977855
 20
14.2402638589
 10
-17.4296782984
 20
14.242064392
 10
-17.4277647683
 20
14.2431685848
 10
-17.4271198828
 20
14.2435402639
  0
LWPOLYLINE
  5
36D
330
2EB
100
AcDbEntity
  8
0
  6
Continuous
 62
     7
370
    25
100
AcDbPolyline
 90
        9
 70
   128
 43
0.0
 10
-17.4943288112
 20
2.851233632
 10
-17.4850488882
 20
2.8472604724
 10
-17.4741706829
 20
2.8450135046
 10
-17.462631019
 20
2.844686236
 10
-17.4514236847
 20
2.8463068507
 10
-17.441513848
 20
2.8497357824
 10
-17.4337549374
 20
2.8546777338
 10
-17.4288151452
 20
2.8607071075
 10
-17.4271198828
 20
2.8673046578
  0
LWPOLYLINE
  5
370
330
2EB
100
AcDbEntity
  8
0
  6
Continuous
 62
     7
370
    25
100
AcDbPolyline
 90
       14
 70
   128
 43
0.0
 10
-39.3804410299
 20
26.8393213304
 10
-39.3850031199
 20
26.8482761672
 10
-39.388503749
 20
26.8574641316
 10
-39.3908282361
 20
26.8665842242
 10
-39.3919004304
 20
26.8753376692
 10
-39.3916852068
 20
26.883437702
 10
-39.390189616
 20
26.8906189641
 10
-39.3874626537
 20
26.8966461959
 10
-39.3835936559
 20
26.9013219443
 10
-39.3787093715
 20
26.9044930309
 10
-39.3729698108
 20
26.9060555701
 10
-39.3665630026
 20
26.9059583731
 10
-39.3596988353
 20
26.904204624
 10
-39.3526021803
 20
26.9008517758
  0
LWPOLYLINE
  5
39F
330
2EB
100
AcDbEntity
  8
0
  6
Continuous
 62
     7
370
    25
100
AcDbPolyline
 90
       33
 70
   128
 43
0.0
 10
2.7421266908
 20
7.9987435867
 10
2.7472127437
 20
7.8276214244
 10
2.7624461237
 20
7.6514607205
 10
2.7877526152
 20
7.4711197122
 10
2.8230089275
 20
7.2874770026
 10
2.8680432955
 20
7.1014272806
 10
2.9226363163
 20
6.9138769618
 10
2.9865220181
 20
6.7257397725
 10
3.0593891562
 20
6.5379322982
 10
3.1408827293
 20
6.3513695179
 10
3.2306057088
 20
6.1669603468
 10
3.3281209735
 20
5.9856032078
 10
3.4329534386
 20
5.8081816548
 10
3.5445923711
 20
5.6355600675
 10
3.6624938773
 20
5.4685794412
 10
3.7860835528
 20
5.3080532886
 10
3.9147592812
 20
5.154763677
 10
4.0478941673
 20
5.0094574179
 10
4.1848395913
 20
4.8728424289
 10
4.3249283688
 20
4.7455842844
 10
4.4674780015
 20
4.6283029734
 10
4.6117940018
 20
4.5215698786
 10
4.7571732767
 20
4.4259049929
 10
4.9029075529
 20
4.341774386
 10
5.0482868278
 20
4.2695879337
 10
5.1926028281
 20
4.2096973213
 10
5.3351524608
 20
4.1623943297
 10
5.4752412383
 20
4.1279094144
 10
5.6121866623
 20
4.1064105825
 10
5.7453215484
 20
4.0980025739
 10
5.8739972768
 20
4.1027263519
 10
5.9975869523
 20
4.1205589024
 10
6.043037085
 20
4.1307429684
  0
LWPOLYLINE
  5
3A0
330
2EB
100
AcDbEntity
  8
0
  6
Continuous
 62
     7
370
    25
100
AcDbPolyline
 90
       10
 70
   128
 43
0.0
 10
6.5292616164
 20
4.4114344157
 10
6.6006916734
 20
4.4935818703
 10
6.6735588115
 20
4.5972587377
 10
6.7374445133
 20
4.7116350658
 10
6.7920375341
 20
4.8361536244
 10
6.8370719021
 20
4.9702077718
 10
6.8723282144
 20
5.1131444096
 10
6.8976347059
 20
5.2642671648
 10
6.9128680859
 20
5.4228397826
 10
6.9179541388
 20
5.5880897132
  0
LWPOLYLINE
  5
3A5
330
2EB
100
AcDbEntity
  8
0
  6
Continuous
 62
     7
370
    25
100
AcDbPolyline
 90
       33
 70
   128
 43
0.0
 10
6.5354381207
 20
4.417912064
 10
6.4986862461
 20
4.4098373673
 10
6.3750965705
 20
4.3920048167
 10
6.2464208421
 20
4.3872810388
 10
6.113285956
 20
4.3956890473
 10
5.976340532
 20
4.4171878793
 10
5.8362517545
 20
4.4516727946
 10
5.6937021218
 20
4.4989757861
 10
5.5493861216
 20
4.5588663986
 10
5.4040068467
 20
4.6310528508
 10
5.2582725704
 20
4.7151834577
 10
5.1128932955
 20
4.8108483434
 10
4.9685772953
 20
4.9175814382
 10
4.8260276626
 20
5.0348627493
 10
4.6859388851
 20
5.1621208937
 10
4.5489934611
 20
5.2987358827
 10
4.415858575
 20
5.4440421418
 10
4.2871828466
 20
5.5973317534
 10
4.163593171
 20
5.757857906
 10
4.0456916649
 20
5.9248385324
 10
3.9340527324
 20
6.0974601196
 10
3.8292202672
 20
6.2748816726
 10
3.7317050026
 20
6.4562388116
 10
3.6419820231
 20
6.6406479827
 10
3.56048845
 20
6.827210763
 10
3.4876213119
 20
7.0150182374
 10
3.4237356101
 20
7.2031554267
 10
3.3691425893
 20
7.3907057454
 10
3.3241082213
 20
7.5767554674
 10
3.2888519089
 20
7.760398177
 10
3.2635454174
 20
7.9407391854
 10
3.2483120375
 20
8.1168998893
 10
3.2432259846
 20
8.2880220515
  0
LWPOLYLINE
  5
3B0
330
2EB
100
AcDbEntity
  8
0
  6
Continuous
 62
     7
370
    25
100
AcDbPolyline
 90
       33
 70
   128
 43
0.0
 10
-19.3897587833
 20
20.7752091162
 10
-19.3846727304
 20
20.604086954
 10
-19.3694393505
 20
20.42792625
 10
-19.344132859
 20
20.2475852417
 10
-19.3088765466
 20
20.0639425321
 10
-19.2638421786
 20
19.8778928101
 10
-19.2092491578
 20
19.6903424914
 10
-19.145363456
 20
19.502205302
 10
-19.0724963179
 20
19.3143978277
 10
-18.9910027448
 20
19.1278350474
 10
-18.9012797653
 20
18.9434258763
 10
-18.8037645007
 20
18.7620687373
 10
-18.6989320355
 20
18.5846471843
 10
-18.587293103
 20
18.4120255971
 10
-18.4693915969
 20
18.2450449707
 10
-18.3458019213
 20
18.0845188181
 10
-18.2171261929
 20
17.9312292065
 10
-18.0839913068
 20
17.7859229474
 10
-17.9470458828
 20
17.6493079584
 10
-17.8069571053
 20
17.522049814
 10
-17.6644074726
 20
17.4047685029
 10
-17.5200914724
 20
17.2980354081
 10
-17.3747121975
 20
17.2023705224
 10
-17.2289779212
 20
17.1182399155
 10
-17.0835986463
 20
17.0460534632
 10
-16.9392826461
 20
16.9861628508
 10
-16.7967330134
 20
16.9388598592
 10
-16.6566442359
 20
16.9043749439
 10
-16.5196988119
 20
16.882876112
 10
-16.3865639258
 20
16.8744681034
 10
-16.2578881974
 20
16.8791918814
 10
-16.1342985218
 20
16.8970244319
 10
-16.0888483892
 20
16.9072084979
  0
LWPOLYLINE
  5
3B1
330
2EB
100
AcDbEntity
  8
0
  6
Continuous
 62
     7
370
    25
100
AcDbPolyline
 90
       10
 70
   128
 43
0.0
 10
-15.6026238577
 20
17.1878999452
 10
-15.5311938008
 20
17.2700473998
 10
-15.4583266627
 20
17.3737242672
 10
-15.3944409609
 20
17.4881005953
 10
-15.3398479401
 20
17.6126191539
 10
-15.2948135721
 20
17.7466733013
 10
-15.2595572597
 20
17.8896099391
 10
-15.2342507682
 20
18.0407326943
 10
-15.2190173883
 20
18.1993053121
 10
-15.2139313354
 20
18.3645552427
  0
LWPOLYLINE
  5
3B3
330
2EB
100
AcDbEntity
  8
0
  6
Continuous
 62
     7
370
    25
100
AcDbPolyline
 90
       33
 70
   128
 43
0.0
 10
-15.5964473535
 20
17.1943775935
 10
-15.6331992281
 20
17.1863028968
 10
-15.7567889036
 20
17.1684703462
 10
-15.885464632
 20
17.1637465683
 10
-16.0185995181
 20
17.1721545768
 10
-16.1555449421
 20
17.1936534088
 10
-16.2956337196
 20
17.2281383241
 10
-16.4381833523
 20
17.2754413156
 10
-16.5824993526
 20
17.3353319281
 10
-16.7278786275
 20
17.4075183803
 10
-16.8736129037
 20
17.4916489872
 10
-17.0189921786
 20
17.5873138729
 10
-17.1633081789
 20
17.6940469678
 10
-17.3058578115
 20
17.8113282788
 10
-17.4459465891
 20
17.9385864232
 10
-17.5828920131
 20
18.0752014122
 10
-17.7160268992
 20
18.2205076713
 10
-17.8447026276
 20
18.3737972829
 10
-17.9682923031
 20
18.5343234355
 10
-18.0861938092
 20
18.7013040619
 10
-18.1978327417
 20
18.8739256491
 10
-18.3026652069
 20
19.0513472022
 10
-18.4001804716
 20
19.2327043411
 10
-18.4899034511
 20
19.4171135122
 10
-18.5713970242
 20
19.6036762925
 10
-18.6442641623
 20
19.7914837669
 10
-18.7081498641
 20
19.9796209562
 10
-18.7627428849
 20
20.167171275
 10
-18.8077772529
 20
20.3532209969
 10
-18.8430335652
 20
20.5368637065
 10
-18.8683400567
 20
20.7172047149
 10
-18.8835734367
 20
20.8933654188
 10
-18.8886594896
 20
21.064487581
  0
LWPOLYLINE
  5
3D9
330
2EB
100
AcDbEntity
  8
0
  6
Continuous
 62
     8
370
    25
100
AcDbPolyline
 90
        7
 70
   128
 43
0.0
 10
-17.2763944054
 20
15.5749085631
 10
-17.287822936
 20
15.5758872173
 10
-17.2982672493
 20
15.5787388986
 10
-17.3068278879
 20
15.5832180224
 10
-17.3127676154
 20
15.5889388493
 10
-17.3155749065
 20
15.5954087057
 10
-17.3157644842
 20
15.5976364258
  0
LWPOLYLINE
  5
3DC
330
2EB
100
AcDbEntity
  8
0
  6
Continuous
 62
     8
370
    25
100
AcDbPolyline
 90
        7
 70
   128
 43
0.0
 10
-17.2763944054
 20
2.7802926918
 10
-17.287822936
 20
2.781271346
 10
-17.2982672493
 20
2.7841230273
 10
-17.3068278879
 20
2.7886021511
 10
-17.3127676154
 20
2.794322978
 10
-17.3155749065
 20
2.8007928344
 10
-17.3157644842
 20
2.8030205545
  0
LWPOLYLINE
  5
3E7
330
2EB
100
AcDbEntity
  8
0
  6
Continuous
 62
     8
370
    25
100
AcDbPolyline
 90
        7
 70
   128
 43
0.0
 10
-39.4082798796
 20
28.3513740926
 10
-39.4197084102
 20
28.3523527468
 10
-39.4301527234
 20
28.3552044281
 10
-39.438713362
 20
28.3596835519
 10
-39.4446530895
 20
28.3654043788
 10
-39.4474603806
 20
28.3718742352
 10
-39.4476499583
 20
28.3741019553
  0
LWPOLYLINE
  5
3EA
330
2EB
100
AcDbEntity
  8
0
  6
Continuous
 62
     8
370
    25
100
AcDbPolyline
 90
        7
 70
   128
 43
0.0
 10
-39.4082798796
 20
15.5567582213
 10
-39.4197084102
 20
15.5577368755
 10
-39.4301527234
 20
15.5605885569
 10
-39.438713362
 20
15.5650676806
 10
-39.4446530895
 20
15.5707885075
 10
-39.4474603806
 20
15.5772583639
 10
-39.4476499583
 20
15.579486084
  0
LWPOLYLINE
  5
3F9
330
2EB
100
AcDbEntity
  8
0
  6
Continuous
 62
     8
370
    25
100
AcDbPolyline
 90
        8
 70
   128
 43
0.0
 10
-17.3138972096
 20
15.6096173598
 10
-17.3243913834
 20
15.6074873243
 10
-17.3359310473
 20
15.6071600556
 10
-17.3471383816
 20
15.6087806703
 10
-17.3570482183
 20
15.612209602
 10
-17.3648071288
 20
15.6171515535
 10
-17.3697469211
 20
15.6231809272
 10
-17.3714421835
 20
15.6297784774
  0
LWPOLYLINE
  5
3FB
330
2EB
100
AcDbEntity
  8
0
  6
Continuous
 62
     8
370
    25
100
AcDbPolyline
 90
        8
 70
   128
 43
0.0
 10
-17.3157644842
 20
2.8144761665
 10
-17.3243913834
 20
2.812871453
 10
-17.3359310473
 20
2.8125441844
 10
-17.3471383816
 20
2.814164799
 10
-17.3570482183
 20
2.8175937307
 10
-17.3648071288
 20
2.8225356822
 10
-17.3697469211
 20
2.8285650559
 10
-17.3714421835
 20
2.8351626062
  0
LINE
  5
435
330
2EB
100
AcDbEntity
  8
0
  6
Continuous
 62
     7
370
    25
100
AcDbLine
 10
-17.2404001457
 20
2.6913263656
 30
0.0
 11
4.645712073
 21
-9.9432572836
 31
0.0
  0
LINE
  5
436
330
2EB
100
AcDbEntity
  8
0
  6
Continuous
 62
     7
370
    25
100
AcDbLine
 10
-17.2600867849
 20
14.1016583836
 30
0.0
 11
-17.2600867849
 21
2.7254227775
 31
0.0
  0
LINE
  5
437
330
2EB
100
AcDbEntity
  8
0
  6
Continuous
 62
     7
370
    25
100
AcDbLine
 10
-39.3722856199
 20
15.4677918951
 30
0.0
 11
-17.4861734011
 21
2.8332082459
 31
0.0
  0
LINE
  5
438
330
2EB
100
AcDbEntity
  8
0
  6
Continuous
 62
     7
370
    25
100
AcDbLine
 10
-39.391972259
 20
26.8781239132
 30
0.0
 11
-39.391972259
 21
15.501888307
 31
0.0
  0
LINE
  5
439
330
2EB
100
AcDbEntity
  8
0
  6
Continuous
 62
     7
370
    25
100
AcDbLine
 10
-17.3157644842
 20
15.5976364258
 30
0.0
 11
-17.3157644842
 21
2.8030205545
 31
0.0
  0
LINE
  5
43A
330
2EB
100
AcDbEntity
  8
0
  6
Continuous
 62
     7
370
    25
100
AcDbLine
 10
-4.724449031
 20
22.889179673
 30
0.0
 11
-17.2960778451
 21
15.6317328377
 31
0.0
  0
LINE
  5
43B
330
2EB
100
AcDbEntity
  8
0
  6
Continuous
 62
     7
370
    25
100
AcDbLine
 10
-17.2763944054
 20
2.7636504758
 30
0.0
 11
-17.2600867849
 21
2.7636504758
 31
0.0
  0
LINE
  5
43C
330
2EB
100
AcDbEntity
  8
0
  6
Continuous
 62
     7
370
    25
100
AcDbLine
 10
-4.2199739182
 20
13.536106795
 30
0.0
 11
-4.2199739182
 21
22.5979468479
 31
0.0
  0
LINE
  5
43D
330
2EB
100
AcDbEntity
  8
0
  6
Continuous
 62
     7
370
    25
100
AcDbLine
 10
-4.2396605573
 20
22.6320432598
 30
0.0
 11
-4.6850821517
 21
22.889179673
 31
0.0
  0
LINE
  5
43E
330
2EB
100
AcDbEntity
  8
0
  6
Continuous
 62
     7
370
    25
100
AcDbLine
 10
-39.4476499583
 20
28.3741019553
 30
0.0
 11
-39.4476499583
 21
15.579486084
 31
0.0
  0
LINE
  5
43F
330
2EB
100
AcDbEntity
  8
0
  6
Continuous
 62
     7
370
    25
100
AcDbLine
 10
-26.8563345051
 20
35.6656452025
 30
0.0
 11
-39.4279633192
 21
28.4081983672
 31
0.0
  0
LINE
  5
440
330
2EB
100
AcDbEntity
  8
0
  6
Continuous
 62
     7
370
    25
100
AcDbLine
 10
-39.4082798796
 20
15.5401160053
 30
0.0
 11
-39.391972259
 21
15.5401160053
 31
0.0
  0
LINE
  5
441
330
2EB
100
AcDbEntity
  8
0
  6
Continuous
 62
     7
370
    25
100
AcDbLine
 10
-26.3518593923
 20
26.3125723245
 30
0.0
 11
-26.3518593923
 21
35.3744123774
 31
0.0
  0
LINE
  5
442
330
2EB
100
AcDbEntity
  8
0
  6
Continuous
 62
     7
370
    25
100
AcDbLine
 10
-26.3715460314
 20
35.4085087893
 30
0.0
 11
-26.8169676259
 21
35.6656452025
 31
0.0
  0
LINE
  5
443
330
2EB
100
AcDbEntity
  8
0
  6
Continuous
 62
     7
370
    25
100
AcDbLine
 10
16.9063371494
 20
10.4019926083
 30
0.0
 11
4.7801299298
 21
3.4016821862
 31
0.0
  0
LINE
  5
444
330
2EB
100
AcDbEntity
  8
0
  6
Continuous
 62
     7
370
    25
100
AcDbLine
 10
17.3911256231
 20
10.1448561951
 30
0.0
 11
16.9457040287
 21
10.4019926083
 31
0.0
  0
LINE
  5
445
330
2EB
100
AcDbEntity
  8
0
  6
Continuous
 62
     7
370
    25
100
AcDbLine
 10
-5.2255483247
 20
23.1784581378
 30
0.0
 11
-17.3517555444
 21
16.1781477157
 31
0.0
  0
LINE
  5
446
330
2EB
100
AcDbEntity
  8
0
  6
Continuous
 62
     7
370
    25
100
AcDbLine
 10
-4.740759851
 20
22.9213217246
 30
0.0
 11
-5.1861814455
 21
23.1784581378
 31
0.0
  0
LINE
  5
447
330
2EB
100
AcDbEntity
  8
0
  6
Continuous
 62
     7
370
    25
100
AcDbLine
 10
9.0741889471
 20
5.8805896919
 30
0.0
 11
-4.183982858
 21
13.5343693597
 31
0.0
  0
LINE
  5
448
330
2EB
100
AcDbEntity
  8
0
  6
Continuous
 62
     7
370
    25
100
AcDbLine
 10
-4.6884579708
 20
13.2431365346
 30
0.0
 11
-4.6884579708
 21
13.1562112196
 31
0.0
  0
LINE
  5
449
330
2EB
100
AcDbEntity
  8
0
  6
Continuous
 62
     7
370
    25
100
AcDbLine
 10
-4.2233497372
 20
13.5343693597
 30
0.0
 11
-4.6687713317
 21
13.2772329465
 31
0.0
  0
LINE
  5
44A
330
2EB
100
AcDbEntity
  8
0
  6
Continuous
 62
     7
370
    25
100
AcDbLine
 10
-13.057696527
 20
18.6570552214
 30
0.0
 11
-26.3158683321
 21
26.3108348892
 31
0.0
  0
LINE
  5
44B
330
2EB
100
AcDbEntity
  8
0
  6
Continuous
 62
     7
370
    25
100
AcDbLine
 10
-26.8203434449
 20
26.0196020641
 30
0.0
 11
-26.8203434449
 21
25.9326767491
 31
0.0
  0
LINE
  5
44C
330
2EB
100
AcDbEntity
  8
0
  6
Continuous
 62
     7
370
    25
100
AcDbLine
 10
-26.3552352114
 20
26.3108348892
 30
0.0
 11
-26.8006568058
 21
26.053698476
 31
0.0
  0
LINE
  5
44D
330
2EB
100
AcDbEntity
  8
0
  6
Continuous
 62
     7
370
    25
100
AcDbLine
 10
4.7047655914
 20
-9.3987912245
 30
0.0
 11
4.740759851
 21
-9.4195702683
 31
0.0
  0
LINE
  5
44E
330
2EB
100
AcDbEntity
  8
0
  6
Continuous
 62
     7
370
    25
100
AcDbLine
 10
-17.4271198828
 20
3.377674305
 30
0.0
 11
-17.3911256231
 21
3.3568952612
 31
0.0
  0
LINE
  5
44F
330
2EB
100
AcDbEntity
  8
0
  6
Continuous
 62
     7
370
    25
100
AcDbLine
 10
4.9471598282
 20
3.5396645817
 30
0.0
 11
-16.1268493591
 21
15.70543113
 31
0.0
  0
LINE
  5
450
330
2EB
100
AcDbEntity
  8
0
  6
Continuous
 62
     7
370
    25
100
AcDbLine
 10
4.7047655914
 20
0.2453915931
 30
0.0
 11
4.740759851
 21
0.2246125493
 31
0.0
  0
LINE
  5
451
330
2EB
100
AcDbEntity
  8
0
  6
Continuous
 62
     7
370
    25
100
AcDbLine
 10
-16.3529359754
 20
15.5749085631
 30
0.0
 11
-16.3529359754
 21
13.6234270937
 31
0.0
  0
LINE
  5
452
330
2EB
100
AcDbEntity
  8
0
  6
Continuous
 62
     7
370
    25
100
AcDbLine
 10
-16.1662162384
 20
15.70543113
 30
0.0
 11
-16.3332493363
 21
15.609004975
 31
0.0
  0
LINE
  5
453
330
2EB
100
AcDbEntity
  8
0
  6
Continuous
 62
     7
370
    25
100
AcDbLine
 10
-17.1847256459
 20
16.3161301112
 30
0.0
 11
-38.2587348333
 21
28.4818966595
 31
0.0
  0
LINE
  5
454
330
2EB
100
AcDbEntity
  8
0
  6
Continuous
 62
     7
370
    25
100
AcDbLine
 10
-17.4271198828
 20
13.0218571226
 30
0.0
 11
-17.3911256231
 21
13.0010780788
 31
0.0
  0
LINE
  5
455
330
2EB
100
AcDbEntity
  8
0
  6
Continuous
 62
     7
370
    25
100
AcDbLine
 10
-38.4848214496
 20
28.3513740926
 30
0.0
 11
-38.4848214496
 21
26.3998926232
 31
0.0
  0
LINE
  5
456
330
2EB
100
AcDbEntity
  8
0
  6
Continuous
 62
     7
370
    25
100
AcDbLine
 10
-38.2981017125
 20
28.4818966595
 30
0.0
 11
-38.4651348104
 21
28.3854705045
 31
0.0
  0
LINE
  5
457
330
2EB
100
AcDbEntity
  8
0
  6
Continuous
 62
     7
370
    25
100
AcDbLine
 10
-39.9487492521
 20
16.2961037754
 30
0.0
 11
-39.9487492521
 21
28.1263013649
 31
0.0
  0
LINE
  5
458
330
2EB
100
AcDbEntity
  8
0
  6
Continuous
 62
     7
370
    25
100
AcDbLine
 10
-39.9487492521
 20
28.1263013649
 30
0.0
 11
-44.6256759938
 21
30.8262337032
 31
0.0
  0
LINE
  5
459
330
2EB
100
AcDbEntity
  8
0
  6
Continuous
 62
     7
370
    25
100
AcDbLine
 10
-44.6256759938
 20
30.8262337032
 30
0.0
 11
-44.6256759938
 21
18.9960361137
 31
0.0
  0
LINE
  5
45A
330
2EB
100
AcDbEntity
  8
0
  6
Continuous
 62
     7
370
    25
100
AcDbLine
 10
-44.6256759938
 20
18.9960361137
 30
0.0
 11
-39.9487492521
 21
16.2961037754
 31
0.0
  0
LINE
  5
45B
330
2EB
100
AcDbEntity
  8
0
  6
Continuous
 62
     7
370
    25
100
AcDbLine
 10
-45.0710975882
 20
18.7388161099
 30
0.0
 11
-39.5033276576
 21
15.5246109453
 31
0.0
  0
LINE
  5
45C
330
2EB
100
AcDbEntity
  8
0
  6
Continuous
 62
     7
370
    25
100
AcDbLine
 10
-45.0710975882
 20
31.5977265333
 30
0.0
 11
-45.0710975882
 21
18.7388161099
 31
0.0
  0
LINE
  5
45D
330
2EB
100
AcDbEntity
  8
0
  6
Continuous
 62
     7
370
    25
100
AcDbLine
 10
-39.5033276576
 20
28.3835213687
 30
0.0
 11
-45.0710975882
 21
31.5977265333
 31
0.0
  0
LINE
  5
45E
330
2EB
100
AcDbEntity
  8
0
  6
Continuous
 62
     7
370
    25
100
AcDbLine
 10
-39.5033276576
 20
15.5246109453
 30
0.0
 11
-39.5033276576
 21
28.3835213687
 31
0.0
  0
LINE
  5
45F
330
2EB
100
AcDbEntity
  8
0
  6
Continuous
 62
     7
370
    25
100
AcDbLine
 10
-39.5033276576
 20
28.3835213687
 30
0.0
 11
-26.8366510655
 21
35.6958381183
 31
0.0
  0
LINE
  5
460
330
2EB
100
AcDbEntity
  8
0
  6
Continuous
 62
     7
370
    25
100
AcDbLine
 10
-45.0710975882
 20
31.5977265333
 30
0.0
 11
-32.4044209961
 21
38.9100432829
 31
0.0
  0
LINE
  5
461
330
2EB
100
AcDbEntity
  8
0
  6
Continuous
 62
     7
370
    25
100
AcDbLine
 10
-26.8366510655
 20
35.6958381183
 30
0.0
 11
-32.4044209961
 21
38.9100432829
 31
0.0
  0
LINE
  5
462
330
2EB
100
AcDbEntity
  8
0
  6
Continuous
 62
     7
370
    25
100
AcDbLine
 10
-39.5033276576
 20
15.5246109453
 30
0.0
 11
-39.4423740291
 21
15.559798726
 31
0.0
  0
LINE
  5
463
330
2EB
100
AcDbEntity
  8
0
  6
Continuous
 62
     7
370
    25
100
AcDbLine
 10
-26.8366510655
 20
35.6709188693
 30
0.0
 11
-26.8366510655
 21
35.6958381183
 31
0.0
  0
LINE
  5
464
330
2EB
100
AcDbEntity
  8
0
  6
Continuous
 62
     7
370
    25
100
AcDbLine
 10
-44.6256759938
 20
18.9960361137
 30
0.0
 11
-39.9487492521
 21
21.695968452
 31
0.0
  0
LINE
  5
465
330
2EB
100
AcDbEntity
  8
0
  6
Continuous
 62
     7
370
    25
100
AcDbLine
 10
-39.9487492521
 20
27.8682454553
 30
0.0
 11
-44.6256759938
 21
25.1683131169
 31
0.0
  0
LINE
  5
466
330
2EB
100
AcDbEntity
  8
0
  6
Continuous
 62
     7
370
    25
100
AcDbLine
 10
-39.9487492521
 20
22.4683807786
 30
0.0
 11
-44.6256759938
 21
25.1683131169
 31
0.0
  0
LINE
  5
467
330
2EB
100
AcDbEntity
  8
0
  6
Continuous
 62
     7
370
    25
100
AcDbLine
 10
-39.9487492521
 20
21.9540243617
 30
0.0
 11
-44.6256759938
 21
24.6539567
 31
0.0
  0
LINE
  5
468
330
2EB
100
AcDbEntity
  8
0
  6
Continuous
 62
     7
370
    25
100
AcDbLine
 10
-8.1185968759
 20
11.0823653761
 30
0.0
 11
-4.6073296176
 21
13.1093768182
 31
0.0
  0
LINE
  5
469
330
2EB
100
AcDbEntity
  8
0
  6
Continuous
 62
     7
370
    25
100
AcDbLine
 10
-4.6073296176
 20
12.8200513336
 30
0.0
 11
-4.6073296176
 21
13.1093768182
 31
0.0
  0
LINE
  5
46A
330
2EB
100
AcDbEntity
  8
0
  6
Continuous
 62
     7
370
    25
100
AcDbLine
 10
-5.1084289113
 20
13.398655283
 30
0.0
 11
-8.6196961696
 21
11.3716438409
 31
0.0
  0
LINE
  5
46B
330
2EB
100
AcDbEntity
  8
0
  6
Continuous
 62
     7
370
    25
100
AcDbLine
 10
-4.6073296176
 20
13.1093768182
 30
0.0
 11
-5.1084289113
 21
13.398655283
 31
0.0
  0
LINE
  5
46C
330
2EB
100
AcDbEntity
  8
0
  6
Continuous
 62
     7
370
    25
100
AcDbLine
 10
-27.2403143855
 20
26.1751208125
 30
0.0
 11
-30.7515816438
 21
24.1481093704
 31
0.0
  0
LINE
  5
46D
330
2EB
100
AcDbEntity
  8
0
  6
Continuous
 62
     7
370
    25
100
AcDbLine
 10
-26.7392150917
 20
25.8858423477
 30
0.0
 11
-27.2403143855
 21
26.1751208125
 31
0.0
  0
LINE
  5
46E
330
2EB
100
AcDbEntity
  8
0
  6
Continuous
 62
     7
370
    25
100
AcDbLine
 10
-30.25048235
 20
23.8588309056
 30
0.0
 11
-26.7392150917
 21
25.8858423477
 31
0.0
  0
LINE
  5
46F
330
2EB
100
AcDbEntity
  8
0
  6
Continuous
 62
     7
370
    25
100
AcDbLine
 10
-26.7392150917
 20
25.5965168632
 30
0.0
 11
-26.7392150917
 21
25.8858423477
 31
0.0
  0
LINE
  5
470
330
2EB
100
AcDbEntity
  8
0
  6
Continuous
 62
     7
370
    25
100
AcDbLine
 10
-5.640536535
 20
9.6518115915
 30
0.0
 11
-5.1084289113
 21
9.9589907841
 31
0.0
  0
LINE
  5
471
330
2EB
100
AcDbEntity
  8
0
  6
Continuous
 62
     7
370
    25
100
AcDbLine
 10
-27.7724220091
 20
22.428277121
 30
0.0
 11
-27.2403143855
 21
22.7354563137
 31
0.0
  0
LINE
  5
472
330
2EB
100
AcDbEntity
  8
0
  6
Continuous
 62
     7
370
    25
100
AcDbLine
 10
10.3282132213
 20
-13.2425252784
 30
0.0
 11
22.9948898134
 21
-5.9302085288
 31
0.0
  0
LINE
  5
473
330
2EB
100
AcDbEntity
  8
0
  6
Continuous
 62
     7
370
    25
100
AcDbLine
 10
10.3282132213
 20
-13.2425252784
 30
0.0
 11
10.3282132213
 21
-0.383614855
 31
0.0
  0
LINE
  5
474
330
2EB
100
AcDbEntity
  8
0
  6
Continuous
 62
     7
370
    25
100
AcDbLine
 10
10.3282132213
 20
-0.383614855
 30
0.0
 11
22.9948898134
 21
6.9287018946
 31
0.0
  0
LINE
  5
475
330
2EB
100
AcDbEntity
  8
0
  6
Continuous
 62
     7
370
    25
100
AcDbLine
 10
22.9948898134
 20
-5.9302085288
 30
0.0
 11
22.9948898134
 21
6.9287018946
 31
0.0
  0
LINE
  5
476
330
2EB
100
AcDbEntity
  8
0
  6
Continuous
 62
     7
370
    25
100
AcDbLine
 10
9.8827916268
 20
-12.4710324483
 30
0.0
 11
9.8827916268
 21
-0.6408348587
 31
0.0
  0
LINE
  5
477
330
2EB
100
AcDbEntity
  8
0
  6
Continuous
 62
     7
370
    25
100
AcDbLine
 10
9.8827916268
 20
-0.6408348587
 30
0.0
 11
5.2058648851
 21
2.0590974796
 31
0.0
  0
LINE
  5
478
330
2EB
100
AcDbEntity
  8
0
  6
Continuous
 62
     7
370
    25
100
AcDbLine
 10
5.2058648851
 20
2.0590974796
 30
0.0
 11
5.2058648851
 21
-9.77110011
 31
0.0
  0
LINE
  5
479
330
2EB
100
AcDbEntity
  8
0
  6
Continuous
 62
     7
370
    25
100
AcDbLine
 10
5.2058648851
 20
-9.77110011
 30
0.0
 11
9.8827916268
 21
-12.4710324483
 31
0.0
  0
LINE
  5
47A
330
2EB
100
AcDbEntity
  8
0
  6
Continuous
 62
     7
370
    25
100
AcDbLine
 10
4.7604432907
 20
-10.0283201137
 30
0.0
 11
10.3282132213
 21
-13.2425252784
 31
0.0
  0
LINE
  5
47B
330
2EB
100
AcDbEntity
  8
0
  6
Continuous
 62
     7
370
    25
100
AcDbLine
 10
4.7604432907
 20
3.3675857743
 30
0.0
 11
4.7604432907
 21
-10.0283201137
 31
0.0
  0
LINE
  5
47C
330
2EB
100
AcDbEntity
  8
0
  6
Continuous
 62
     7
370
    25
100
AcDbLine
 10
10.3282132213
 20
-0.383614855
 30
0.0
 11
4.7604432907
 21
2.8305903097
 31
0.0
  0
LINE
  5
47D
330
2EB
100
AcDbEntity
  8
0
  6
Continuous
 62
     7
370
    25
100
AcDbLine
 10
4.7604432907
 20
2.8305903097
 30
0.0
 11
17.4271198828
 21
10.1429070593
 31
0.0
  0
LINE
  5
47E
330
2EB
100
AcDbEntity
  8
0
  6
Continuous
 62
     7
370
    25
100
AcDbLine
 10
22.9948898134
 20
6.9287018946
 30
0.0
 11
17.4271198828
 21
10.1429070593
 31
0.0
  0
LINE
  5
47F
330
2EB
100
AcDbEntity
  8
0
  6
Continuous
 62
     7
370
    25
100
AcDbLine
 10
5.2058648851
 20
-9.77110011
 30
0.0
 11
9.8827916268
 21
-7.0711677717
 31
0.0
  0
LINE
  5
480
330
2EB
100
AcDbEntity
  8
0
  6
Continuous
 62
     7
370
    25
100
AcDbLine
 10
9.8827916268
 20
-6.298755445
 30
0.0
 11
5.2058648851
 21
-3.5988231067
 31
0.0
  0
LINE
  5
481
330
2EB
100
AcDbEntity
  8
0
  6
Continuous
 62
     7
370
    25
100
AcDbLine
 10
9.8827916268
 20
-6.813111862
 30
0.0
 11
5.2058648851
 21
-4.1131795237
 31
0.0
  0
LINE
  5
482
330
2EB
100
AcDbEntity
  8
0
  6
Continuous
 62
     7
370
    25
100
AcDbLine
 10
9.8827916268
 20
-0.8988907684
 30
0.0
 11
5.2058648851
 21
-3.5988231067
 31
0.0
  0
LINE
  5
483
330
2EB
100
AcDbEntity
  8
0
  6
Continuous
 62
     7
370
    25
100
AcDbLine
 10
4.7047655914
 20
1.4670747344
 30
0.0
 11
4.7047655914
 21
-9.9091608717
 31
0.0
  0
LINE
  5
484
330
2EB
100
AcDbEntity
  8
0
  6
Continuous
 62
     7
370
    25
100
AcDbLine
 10
4.637556663
 20
-9.9252318975
 30
0.0
 11
4.637556663
 21
1.4282721517
 31
0.0
  0
LINE
  5
485
330
2EB
100
AcDbEntity
  8
0
  6
Continuous
 62
     7
370
    25
100
AcDbLine
 10
4.637556663
 20
1.4282721517
 30
0.0
 11
-17.2485555558
 21
14.0628558009
 31
0.0
  0
LINE
  5
486
330
2EB
100
AcDbEntity
  8
0
  6
Continuous
 62
     7
370
    25
100
AcDbLine
 10
-17.2207167061
 20
14.1243862463
 30
0.0
 11
4.7047655914
 21
1.4670747344
 31
0.0
  0
LINE
  5
487
330
2EB
100
AcDbEntity
  8
0
  6
Continuous
 62
     7
370
    25
100
AcDbLine
 10
-17.2485555558
 20
2.7093517517
 30
0.0
 11
4.637556663
 21
-9.9252318975
 31
0.0
  0
LINE
  5
488
330
2EB
100
AcDbEntity
  8
0
  6
Continuous
 62
     7
370
    25
100
AcDbLine
 10
-17.2485555558
 20
14.0628558009
 30
0.0
 11
-17.2485555558
 21
2.7093517517
 31
0.0
  0
LINE
  5
489
330
2EB
100
AcDbEntity
  8
0
  6
Continuous
 62
     7
370
    25
100
AcDbLine
 10
-17.4271198828
 20
14.2435402639
 30
0.0
 11
-17.4271198828
 21
2.8673046578
 31
0.0
  0
LINE
  5
48A
330
2EB
100
AcDbEntity
  8
0
  6
Continuous
 62
     7
370
    25
100
AcDbLine
 10
-17.4943288112
 20
2.851233632
 30
0.0
 11
-17.4943288112
 21
14.2047376812
 31
0.0
  0
LINE
  5
48B
330
2EB
100
AcDbEntity
  8
0
  6
Continuous
 62
     7
370
    25
100
AcDbLine
 10
-17.4943288112
 20
14.2047376812
 30
0.0
 11
-39.3804410299
 21
26.8393213304
 31
0.0
  0
LINE
  5
48C
330
2EB
100
AcDbEntity
  8
0
  6
Continuous
 62
     7
370
    25
100
AcDbLine
 10
-39.3526021803
 20
26.9008517758
 30
0.0
 11
-17.4271198828
 21
14.2435402639
 31
0.0
  0
LINE
  5
48D
330
2EB
100
AcDbEntity
  8
0
  6
Continuous
 62
     7
370
    25
100
AcDbLine
 10
-39.3804410299
 20
15.4858172812
 30
0.0
 11
-17.4943288112
 21
2.851233632
 31
0.0
  0
LINE
  5
48E
330
2EB
100
AcDbEntity
  8
0
  6
Continuous
 62
     7
370
    25
100
AcDbLine
 10
-39.3804410299
 20
26.8393213304
 30
0.0
 11
-39.3804410299
 21
15.4858172812
 31
0.0
  0
LINE
  5
48F
330
2EB
100
AcDbEntity
  8
0
  6
Continuous
 62
     7
370
    25
100
AcDbLine
 10
-17.2763944054
 20
15.6297837019
 30
0.0
 11
-16.3855512165
 21
15.6297837019
 31
0.0
  0
LINE
  5
490
330
2EB
100
AcDbEntity
  8
0
  6
Continuous
 62
     7
370
    25
100
AcDbLine
 10
-16.3855512165
 20
13.6422554716
 30
0.0
 11
-16.3855512165
 21
15.6297837019
 31
0.0
  0
LINE
  5
491
330
2EB
100
AcDbEntity
  8
0
  6
Continuous
 62
     7
370
    25
100
AcDbLine
 10
-16.3855512165
 20
15.5749085631
 30
0.0
 11
-17.2763944054
 21
15.5749085631
 31
0.0
  0
LINE
  5
492
330
2EB
100
AcDbEntity
  8
0
  6
Continuous
 62
     7
370
    25
100
AcDbLine
 10
-17.2763944054
 20
15.6297837019
 30
0.0
 11
-17.2763944054
 21
2.7636504758
 31
0.0
  0
LINE
  5
493
330
2EB
100
AcDbEntity
  8
0
  6
Continuous
 62
     7
370
    25
100
AcDbLine
 10
-4.7047655914
 20
22.8872305371
 30
0.0
 11
-17.2763944054
 21
15.6297837019
 31
0.0
  0
LINE
  5
494
330
2EB
100
AcDbEntity
  8
0
  6
Continuous
 62
     7
370
    25
100
AcDbLine
 10
-4.2593439969
 20
22.630094124
 30
0.0
 11
-4.7047655914
 21
22.8872305371
 31
0.0
  0
LINE
  5
495
330
2EB
100
AcDbEntity
  8
0
  6
Continuous
 62
     7
370
    25
100
AcDbLine
 10
-16.3855512165
 20
15.6297837019
 30
0.0
 11
-4.2593439969
 21
22.630094124
 31
0.0
  0
LINE
  5
496
330
2EB
100
AcDbEntity
  8
0
  6
Continuous
 62
     7
370
    25
100
AcDbLine
 10
-39.4082798796
 20
28.4062492314
 30
0.0
 11
-38.5174366907
 21
28.4062492314
 31
0.0
  0
LINE
  5
497
330
2EB
100
AcDbEntity
  8
0
  6
Continuous
 62
     7
370
    25
100
AcDbLine
 10
-38.5174366907
 20
26.4187210011
 30
0.0
 11
-38.5174366907
 21
28.4062492314
 31
0.0
  0
LINE
  5
498
330
2EB
100
AcDbEntity
  8
0
  6
Continuous
 62
     7
370
    25
100
AcDbLine
 10
-38.5174366907
 20
28.3513740926
 30
0.0
 11
-39.4082798796
 21
28.3513740926
 31
0.0
  0
LINE
  5
499
330
2EB
100
AcDbEntity
  8
0
  6
Continuous
 62
     7
370
    25
100
AcDbLine
 10
-39.4082798796
 20
28.4062492314
 30
0.0
 11
-39.4082798796
 21
15.5401160053
 31
0.0
  0
LINE
  5
49A
330
2EB
100
AcDbEntity
  8
0
  6
Continuous
 62
     7
370
    25
100
AcDbLine
 10
-26.8366510655
 20
35.6636960666
 30
0.0
 11
-39.4082798796
 21
28.4062492314
 31
0.0
  0
LINE
  5
49B
330
2EB
100
AcDbEntity
  8
0
  6
Continuous
 62
     7
370
    25
100
AcDbLine
 10
-26.3912294711
 20
35.4065596535
 30
0.0
 11
-26.8366510655
 21
35.6636960666
 31
0.0
  0
LINE
  5
49C
330
2EB
100
AcDbEntity
  8
0
  6
Continuous
 62
     7
370
    25
100
AcDbLine
 10
-38.5174366907
 20
28.4062492314
 30
0.0
 11
-26.3912294711
 21
35.4065596535
 31
0.0
  0
LINE
  5
49D
330
2EB
100
AcDbEntity
  8
0
  6
Continuous
 62
     7
370
    25
100
AcDbLine
 10
4.7998133694
 20
2.885460224
 30
0.0
 11
17.3714421835
 21
10.1429070593
 31
0.0
  0
LINE
  5
49E
330
2EB
100
AcDbEntity
  8
0
  6
Continuous
 62
     7
370
    25
100
AcDbLine
 10
4.7998133694
 20
3.3997330503
 30
0.0
 11
4.7998133694
 21
2.885460224
 31
0.0
  0
LINE
  5
49F
330
2EB
100
AcDbEntity
  8
0
  6
Continuous
 62
     7
370
    25
100
AcDbLine
 10
16.926020589
 20
10.4000434724
 30
0.0
 11
4.7998133694
 21
3.3997330503
 31
0.0
  0
LINE
  5
4A0
330
2EB
100
AcDbEntity
  8
0
  6
Continuous
 62
     7
370
    25
100
AcDbLine
 10
17.3714421835
 20
10.1429070593
 30
0.0
 11
16.926020589
 21
10.4000434724
 31
0.0
  0
LINE
  5
4A1
330
2EB
100
AcDbEntity
  8
0
  6
Continuous
 62
     7
370
    25
100
AcDbLine
 10
-17.3714421835
 20
2.8351626062
 30
0.0
 11
-17.3714421835
 21
16.1440513038
 31
0.0
  0
LINE
  5
4A2
330
2EB
100
AcDbEntity
  8
0
  6
Continuous
 62
     7
370
    25
100
AcDbLine
 10
-17.3320721047
 20
15.6619257535
 30
0.0
 11
-4.7604432907
 21
22.9193725888
 31
0.0
  0
LINE
  5
4A3
330
2EB
100
AcDbEntity
  8
0
  6
Continuous
 62
     7
370
    25
100
AcDbLine
 10
-17.3320721047
 20
16.1761985799
 30
0.0
 11
-17.3320721047
 21
15.6619257535
 31
0.0
  0
LINE
  5
4A4
330
2EB
100
AcDbEntity
  8
0
  6
Continuous
 62
     7
370
    25
100
AcDbLine
 10
-5.2058648851
 20
23.1765090019
 30
0.0
 11
-17.3320721047
 21
16.1761985799
 31
0.0
  0
LINE
  5
4A5
330
2EB
100
AcDbEntity
  8
0
  6
Continuous
 62
     7
370
    25
100
AcDbLine
 10
-4.7604432907
 20
22.9193725888
 30
0.0
 11
-5.2058648851
 21
23.1765090019
 31
0.0
  0
LINE
  5
4A6
330
2EB
100
AcDbEntity
  8
0
  6
Continuous
 62
     7
370
    25
100
AcDbLine
 10
-4.2036662976
 20
13.5324202238
 30
0.0
 11
-4.6490878921
 21
13.2752838106
 31
0.0
  0
LINE
  5
4A7
330
2EB
100
AcDbEntity
  8
0
  6
Continuous
 62
     7
370
    25
100
AcDbLine
 10
-5.1084289113
 20
9.9589907841
 30
0.0
 11
5.5152617115
 21
3.8260647306
 31
0.0
  0
LINE
  5
4A8
330
2EB
100
AcDbEntity
  8
0
  6
Continuous
 62
     7
370
    25
100
AcDbLine
 10
-5.1084289113
 20
12.5307728688
 30
0.0
 11
-5.1084289113
 21
9.9589907841
 31
0.0
  0
LINE
  5
4A9
330
2EB
100
AcDbEntity
  8
0
  6
Continuous
 62
     7
370
    25
100
AcDbLine
 10
-5.1084289113
 20
12.5307728688
 30
0.0
 11
2.7421266908
 21
7.9987435867
 31
0.0
  0
LINE
  5
4AA
330
2EB
100
AcDbEntity
  8
0
  6
Continuous
 62
     7
370
    25
100
AcDbLine
 10
6.9179541388
 20
5.5880897132
 30
0.0
 11
7.7427316809
 21
5.1119557729
 31
0.0
  0
LINE
  5
4AB
330
2EB
100
AcDbEntity
  8
0
  6
Continuous
 62
     7
370
    25
100
AcDbLine
 10
8.2438309746
 20
5.4012342377
 30
0.0
 11
7.4190534325
 21
5.877368178
 31
0.0
  0
LINE
  5
4AC
330
2EB
100
AcDbEntity
  8
0
  6
Continuous
 62
     7
370
    25
100
AcDbLine
 10
6.9179541388
 20
5.5880897132
 30
0.0
 11
7.4190534325
 21
5.877368178
 31
0.0
  0
LINE
  5
4AD
330
2EB
100
AcDbEntity
  8
0
  6
Continuous
 62
     7
370
    25
100
AcDbLine
 10
3.2432259846
 20
8.2880220515
 30
0.0
 11
2.7421266908
 21
7.9987435867
 31
0.0
  0
LINE
  5
4AE
330
2EB
100
AcDbEntity
  8
0
  6
Continuous
 62
     7
370
    25
100
AcDbLine
 10
-4.6073296176
 20
12.8200513336
 30
0.0
 11
-5.1084289113
 21
12.5307728688
 31
0.0
  0
LINE
  5
4AF
330
2EB
100
AcDbEntity
  8
0
  6
Continuous
 62
     7
370
    25
100
AcDbLine
 10
3.2432259846
 20
8.2880220515
 30
0.0
 11
-4.6073296176
 21
12.8200513336
 31
0.0
  0
LINE
  5
4B0
330
2EB
100
AcDbEntity
  8
0
  6
Continuous
 62
     7
370
    25
100
AcDbLine
 10
-26.3355517718
 20
26.3088857533
 30
0.0
 11
-26.7809733662
 21
26.0517493401
 31
0.0
  0
LINE
  5
4B1
330
2EB
100
AcDbEntity
  8
0
  6
Continuous
 62
     7
370
    25
100
AcDbLine
 10
-13.8880544995
 20
18.1776997672
 30
0.0
 11
-14.7128320416
 21
18.6538337075
 31
0.0
  0
LINE
  5
4B2
330
2EB
100
AcDbEntity
  8
0
  6
Continuous
 62
     7
370
    25
100
AcDbLine
 10
-15.2139313354
 20
18.3645552427
 30
0.0
 11
-14.3891537933
 21
17.8884213024
 31
0.0
  0
LINE
  5
4B3
330
2EB
100
AcDbEntity
  8
0
  6
Continuous
 62
     7
370
    25
100
AcDbLine
 10
-15.2139313354
 20
18.3645552427
 30
0.0
 11
-14.7128320416
 21
18.6538337075
 31
0.0
  0
LINE
  5
4B4
330
2EB
100
AcDbEntity
  8
0
  6
Continuous
 62
     7
370
    25
100
AcDbLine
 10
-27.2403143855
 20
22.7354563137
 30
0.0
 11
-16.6166237626
 21
16.6025302601
 31
0.0
  0
LINE
  5
4B5
330
2EB
100
AcDbEntity
  8
0
  6
Continuous
 62
     7
370
    25
100
AcDbLine
 10
-27.2403143855
 20
25.3072383983
 30
0.0
 11
-27.2403143855
 21
22.7354563137
 31
0.0
  0
LINE
  5
4B6
330
2EB
100
AcDbEntity
  8
0
  6
Continuous
 62
     7
370
    25
100
AcDbLine
 10
-27.2403143855
 20
25.3072383983
 30
0.0
 11
-19.3897587833
 21
20.7752091162
 31
0.0
  0
LINE
  5
4B7
330
2EB
100
AcDbEntity
  8
0
  6
Continuous
 62
     7
370
    25
100
AcDbLine
 10
-18.8886594896
 20
21.064487581
 30
0.0
 11
-19.3897587833
 21
20.7752091162
 31
0.0
  0
LINE
  5
4B8
330
2EB
100
AcDbEntity
  8
0
  6
Continuous
 62
     7
370
    25
100
AcDbLine
 10
-26.7392150917
 20
25.5965168632
 30
0.0
 11
-27.2403143855
 21
25.3072383983
 31
0.0
  0
LINE
  5
4B9
330
2EB
100
AcDbEntity
  8
0
  6
Continuous
 62
     7
370
    25
100
AcDbLine
 10
-18.8886594896
 20
21.064487581
 30
0.0
 11
-26.7392150917
 21
25.5965168632
 31
0.0
  0
LINE
  5
4BA
330
2EB
100
AcDbEntity
  8
0
  6
Continuous
 62
     7
370
    25
100
AcDbLine
 10
4.732604441
 20
-9.4015448822
 30
0.0
 11
4.732604441
 21
-8.8871884653
 31
0.0
  0
LINE
  5
4BB
330
2EB
100
AcDbEntity
  8
0
  6
Continuous
 62
     7
370
    25
100
AcDbLine
 10
4.7047655914
 20
-5.0428468492
 30
0.0
 11
4.7604432907
 21
-5.0107047976
 31
0.0
  0
LINE
  5
4BC
330
2EB
100
AcDbEntity
  8
0
  6
Continuous
 62
     7
370
    25
100
AcDbLine
 10
4.7604432907
 20
-4.4321478679
 30
0.0
 11
4.7047655914
 21
-4.4642899196
 31
0.0
  0
LINE
  5
4BD
330
2EB
100
AcDbEntity
  8
0
  6
Continuous
 62
     7
370
    25
100
AcDbLine
 10
4.7047655914
 20
-8.4183108354
 30
0.0
 11
4.7604432907
 21
-8.3861687837
 31
0.0
  0
LINE
  5
4BE
330
2EB
100
AcDbEntity
  8
0
  6
Continuous
 62
     7
370
    25
100
AcDbLine
 10
-17.3992810331
 20
3.3749206473
 30
0.0
 11
-17.3992810331
 21
3.8892770642
 31
0.0
  0
LINE
  5
4BF
330
2EB
100
AcDbEntity
  8
0
  6
Continuous
 62
     7
370
    25
100
AcDbLine
 10
-17.4271198828
 20
7.7336186803
 30
0.0
 11
-17.3714421835
 21
7.7657607319
 31
0.0
  0
LINE
  5
4C0
330
2EB
100
AcDbEntity
  8
0
  6
Continuous
 62
     7
370
    25
100
AcDbLine
 10
-17.3714421835
 20
8.3443176616
 30
0.0
 11
-17.4271198828
 21
8.3121756099
 31
0.0
  0
LINE
  5
4C1
330
2EB
100
AcDbEntity
  8
0
  6
Continuous
 62
     7
370
    25
100
AcDbLine
 10
-17.4271198828
 20
4.3581546941
 30
0.0
 11
-17.3714421835
 21
4.3902967458
 31
0.0
  0
LINE
  5
4C2
330
2EB
100
AcDbEntity
  8
0
  6
Continuous
 62
     7
370
    25
100
AcDbLine
 10
4.732604441
 20
0.2426379353
 30
0.0
 11
4.732604441
 21
3.3930709891
 31
0.0
  0
LINE
  5
4C3
330
2EB
100
AcDbEntity
  8
0
  6
Continuous
 62
     7
370
    25
100
AcDbLine
 10
-16.3135658967
 20
15.6070558392
 30
0.0
 11
4.7604432907
 21
3.441289291
 31
0.0
  0
LINE
  5
4C4
330
2EB
100
AcDbEntity
  8
0
  6
Continuous
 62
     7
370
    25
100
AcDbLine
 10
4.732604441
 20
3.3930709891
 30
0.0
 11
-16.3414047463
 21
15.5588375373
 31
0.0
  0
LINE
  5
4C5
330
2EB
100
AcDbEntity
  8
0
  6
Continuous
 62
     7
370
    25
100
AcDbLine
 10
4.7604432907
 20
3.441289291
 30
0.0
 11
4.9274763886
 21
3.5377154459
 31
0.0
  0
LINE
  5
4C6
330
2EB
100
AcDbEntity
  8
0
  6
Continuous
 62
     7
370
    25
100
AcDbLine
 10
-16.1465327987
 20
15.7034819941
 30
0.0
 11
-16.3135658967
 21
15.6070558392
 31
0.0
  0
LINE
  5
4C7
330
2EB
100
AcDbEntity
  8
0
  6
Continuous
 62
     7
370
    25
100
AcDbLine
 10
4.9274763886
 20
3.5377154459
 30
0.0
 11
-16.1465327987
 21
15.7034819941
 31
0.0
  0
LINE
  5
4C8
330
2EB
100
AcDbEntity
  8
0
  6
Continuous
 62
     7
370
    25
100
AcDbLine
 10
-17.3992810331
 20
13.0191034648
 30
0.0
 11
-17.3992810331
 21
16.1695365186
 31
0.0
  0
LINE
  5
4C9
330
2EB
100
AcDbEntity
  8
0
  6
Continuous
 62
     7
370
    25
100
AcDbLine
 10
-17.3714421835
 20
16.2177548205
 30
0.0
 11
-17.2044090856
 21
16.3141809754
 31
0.0
  0
LINE
  5
4CA
330
2EB
100
AcDbEntity
  8
0
  6
Continuous
 62
     7
370
    25
100
AcDbLine
 10
-38.4454513708
 20
28.3835213687
 30
0.0
 11
-17.3714421835
 21
16.2177548205
 31
0.0
  0
LINE
  5
4CB
330
2EB
100
AcDbEntity
  8
0
  6
Continuous
 62
     7
370
    25
100
AcDbLine
 10
-17.3992810331
 20
16.1695365186
 30
0.0
 11
-38.4732902205
 21
28.3353030668
 31
0.0
  0
LINE
  5
4CC
330
2EB
100
AcDbEntity
  8
0
  6
Continuous
 62
     7
370
    25
100
AcDbLine
 10
-38.2784182729
 20
28.4799475236
 30
0.0
 11
-38.4454513708
 21
28.3835213687
 31
0.0
  0
LINE
  5
4CD
330
2EB
100
AcDbEntity
  8
0
  6
Continuous
 62
     7
370
    25
100
AcDbLine
 10
-17.2044090856
 20
16.3141809754
 30
0.0
 11
-38.2784182729
 21
28.4799475236
 31
0.0
  0
LINE
  5
4CE
330
2EB
100
AcDbEntity
  8
0
  6
Continuous
 62
     8
370
    25
100
AcDbLine
 10
-17.2763944054
 20
2.7802926918
 30
0.0
 11
-17.2600867849
 21
2.7802926918
 31
0.0
  0
LINE
  5
4CF
330
2EB
100
AcDbEntity
  8
0
  6
Continuous
 62
     8
370
    25
100
AcDbLine
 10
-4.2315051473
 20
22.5818758221
 30
0.0
 11
-16.136338198
 21
15.7093619874
 31
0.0
  0
LINE
  5
4D0
330
2EB
100
AcDbEntity
  8
0
  6
Continuous
 62
     8
370
    25
100
AcDbLine
 10
-16.3515948224
 20
15.5850969832
 30
0.0
 11
-16.3577123669
 21
15.5815654
 31
0.0
  0
LINE
  5
4D1
330
2EB
100
AcDbEntity
  8
0
  6
Continuous
 62
     8
370
    25
100
AcDbLine
 10
-16.3577123669
 20
15.5815654
 30
0.0
 11
-16.3577123669
 21
13.6261844458
 31
0.0
  0
LINE
  5
4D2
330
2EB
100
AcDbEntity
  8
0
  6
Continuous
 62
     8
370
    25
100
AcDbLine
 10
-4.2315051473
 20
13.5296613417
 30
0.0
 11
-4.2315051473
 21
22.5818758221
 31
0.0
  0
LINE
  5
4D3
330
2EB
100
AcDbEntity
  8
0
  6
Continuous
 62
     8
370
    25
100
AcDbLine
 10
-39.4082798796
 20
15.5567582213
 30
0.0
 11
-39.391972259
 21
15.5567582213
 31
0.0
  0
LINE
  5
4D4
330
2EB
100
AcDbEntity
  8
0
  6
Continuous
 62
     8
370
    25
100
AcDbLine
 10
-26.3633906214
 20
35.3583413516
 30
0.0
 11
-38.2682236722
 21
28.4858275169
 31
0.0
  0
LINE
  5
4D5
330
2EB
100
AcDbEntity
  8
0
  6
Continuous
 62
     8
370
    25
100
AcDbLine
 10
-38.4834802966
 20
28.3615625127
 30
0.0
 11
-38.489597841
 21
28.3580309295
 31
0.0
  0
LINE
  5
4D6
330
2EB
100
AcDbEntity
  8
0
  6
Continuous
 62
     8
370
    25
100
AcDbLine
 10
-38.489597841
 20
28.3580309295
 30
0.0
 11
-38.489597841
 21
26.4026499753
 31
0.0
  0
LINE
  5
4D7
330
2EB
100
AcDbEntity
  8
0
  6
Continuous
 62
     8
370
    25
100
AcDbLine
 10
-26.3633906214
 20
26.3061268712
 30
0.0
 11
-26.3633906214
 21
35.3583413516
 31
0.0
  0
LINE
  5
4D8
330
2EB
100
AcDbEntity
  8
0
  6
Continuous
 62
     8
370
    25
100
AcDbLine
 10
8.5615552245
 20
5.584652543
 30
0.0
 11
-4.6769267417
 21
13.2270655088
 31
0.0
  0
LINE
  5
4D9
330
2EB
100
AcDbEntity
  8
0
  6
Continuous
 62
     8
370
    25
100
AcDbLine
 10
-4.6490878921
 20
13.2752838106
 30
0.0
 11
8.6172374488
 21
5.6167972069
 31
0.0
  0
LINE
  5
4DA
330
2EB
100
AcDbEntity
  8
0
  6
Continuous
 62
     8
370
    25
100
AcDbLine
 10
-4.6769267417
 20
13.2270655088
 30
0.0
 11
-4.6769267417
 21
13.1495543827
 31
0.0
  0
LINE
  5
4DB
330
2EB
100
AcDbEntity
  8
0
  6
Continuous
 62
     8
370
    25
100
AcDbLine
 10
9.0626590432
 20
5.87393362
 30
0.0
 11
-4.2036662976
 21
13.5324202238
 31
0.0
  0
LINE
  5
4DC
330
2EB
100
AcDbEntity
  8
0
  6
Continuous
 62
     8
370
    25
100
AcDbLine
 10
-13.5703302496
 20
18.3611180725
 30
0.0
 11
-26.8088122159
 21
26.0035310383
 31
0.0
  0
LINE
  5
4DD
330
2EB
100
AcDbEntity
  8
0
  6
Continuous
 62
     8
370
    25
100
AcDbLine
 10
-26.7809733662
 20
26.0517493401
 30
0.0
 11
-13.5146480254
 21
18.3932627364
 31
0.0
  0
LINE
  5
4DE
330
2EB
100
AcDbEntity
  8
0
  6
Continuous
 62
     8
370
    25
100
AcDbLine
 10
-26.8088122159
 20
26.0035310383
 30
0.0
 11
-26.8088122159
 21
25.9260199122
 31
0.0
  0
LINE
  5
4DF
330
2EB
100
AcDbEntity
  8
0
  6
Continuous
 62
     8
370
    25
100
AcDbLine
 10
-13.0692264309
 20
18.6503991495
 30
0.0
 11
-26.3355517718
 21
26.3088857533
 31
0.0
  0
LINE
  5
4E0
330
2EB
100
AcDbEntity
  8
0
  6
Continuous
 62
     8
370
    25
100
AcDbLine
 10
4.732604441
 20
-8.8871884653
 30
0.0
 11
4.7047655914
 21
-8.8711174394
 31
0.0
  0
LINE
  5
4E1
330
2EB
100
AcDbEntity
  8
0
  6
Continuous
 62
     8
370
    25
100
AcDbLine
 10
4.7047655914
 20
-8.8068281117
 30
0.0
 11
4.7604432907
 21
-8.8389701634
 31
0.0
  0
LINE
  5
4E2
330
2EB
100
AcDbEntity
  8
0
  6
Continuous
 62
     8
370
    25
100
AcDbLine
 10
4.7047655914
 20
-9.3854738564
 30
0.0
 11
4.732604441
 21
-9.4015448822
 31
0.0
  0
LINE
  5
4E3
330
2EB
100
AcDbEntity
  8
0
  6
Continuous
 62
     8
370
    25
100
AcDbLine
 10
-17.3992810331
 20
3.8892770642
 30
0.0
 11
-17.4271198828
 21
3.9053480901
 31
0.0
  0
LINE
  5
4E4
330
2EB
100
AcDbEntity
  8
0
  6
Continuous
 62
     8
370
    25
100
AcDbLine
 10
-17.4271198828
 20
3.9696374178
 30
0.0
 11
-17.3714421835
 21
3.9374953661
 31
0.0
  0
LINE
  5
4E5
330
2EB
100
AcDbEntity
  8
0
  6
Continuous
 62
     8
370
    25
100
AcDbLine
 10
-17.4271198828
 20
3.3909916731
 30
0.0
 11
-17.3992810331
 21
3.3749206473
 31
0.0
  0
LINE
  5
4E6
330
2EB
100
AcDbEntity
  8
0
  6
Continuous
 62
     8
370
    25
100
AcDbLine
 10
-16.3414047463
 20
15.5588375373
 30
0.0
 11
-16.3414047463
 21
13.6167702568
 31
0.0
  0
LINE
  5
4E7
330
2EB
100
AcDbEntity
  8
0
  6
Continuous
 62
     8
370
    25
100
AcDbLine
 10
4.7047655914
 20
0.2587089612
 30
0.0
 11
4.732604441
 21
0.2426379353
 31
0.0
  0
LINE
  5
4E8
330
2EB
100
AcDbEntity
  8
0
  6
Continuous
 62
     8
370
    25
100
AcDbLine
 10
-38.4732902205
 20
28.3353030668
 30
0.0
 11
-38.4732902205
 21
26.3932357863
 31
0.0
  0
LINE
  5
4E9
330
2EB
100
AcDbEntity
  8
0
  6
Continuous
 62
     8
370
    25
100
AcDbLine
 10
-17.4271198828
 20
13.0351744907
 30
0.0
 11
-17.3992810331
 21
13.0191034648
 31
0.0
  0
ARC
  5
4EA
330
2EB
100
AcDbEntity
  8
0
  6
Continuous
 62
     7
370
    25
100
AcDbCircle
 10
4.6653955126
 20
-9.9091608717
 30
0.0
 40
0.0393700787401565
100
AcDbArc
 50
240.0026882664
 51
0.0
  0
ARC
  5
4EB
330
2EB
100
AcDbEntity
  8
0
  6
Continuous
 62
     7
370
    25
100
AcDbCircle
 10
-17.2207167061
 20
2.7254227775
 30
0.0
 40
0.039370078740163
100
AcDbArc
 50
180.0
 51
240.0026882663
  0
ARC
  5
4EC
330
2EB
100
AcDbEntity
  8
0
  6
Continuous
 62
     7
370
    25
100
AcDbCircle
 10
-17.4664899615
 20
2.8673046578
 30
0.0
 40
0.0393700787401593
100
AcDbArc
 50
240.0026882664
 51
360.0
  0
ARC
  5
4ED
330
2EB
100
AcDbEntity
  8
0
  6
Continuous
 62
     7
370
    25
100
AcDbCircle
 10
-39.3526021803
 20
15.501888307
 30
0.0
 40
0.0393700787401485
100
AcDbArc
 50
180.0
 51
240.0026882664
  0
ARC
  5
4EE
330
2EB
100
AcDbEntity
  8
0
  6
Continuous
 62
     7
370
    25
100
AcDbCircle
 10
-17.2763944054
 20
15.5976364258
 30
0.0
 40
0.0393700787401597
100
AcDbArc
 50
119.9973117336
 51
180.0
  0
ARC
  5
4EF
330
2EB
100
AcDbEntity
  8
0
  6
Continuous
 62
     7
370
    25
100
AcDbCircle
 10
-17.2763944054
 20
2.8030205545
 30
0.0
 40
0.0393700787401592
100
AcDbArc
 50
180.0
 51
270.0
  0
ARC
  5
4F0
330
2EB
100
AcDbEntity
  8
0
  6
Continuous
 62
     7
370
    25
100
AcDbCircle
 10
-4.2593439969
 20
22.5979468479
 30
0.0
 40
0.0393700787401506
100
AcDbArc
 50
360.0
 51
60.0026882664
  0
ARC
  5
4F1
330
2EB
100
AcDbEntity
  8
0
  6
Continuous
 62
     7
370
    25
100
AcDbCircle
 10
-4.7047655914
 20
22.8550832611
 30
0.0
 40
0.0393700787401801
100
AcDbArc
 50
60.0026882664
 51
119.9973117336
  0
ARC
  5
4F2
330
2EB
100
AcDbEntity
  8
0
  6
Continuous
 62
     7
370
    25
100
AcDbCircle
 10
-39.4082798796
 20
28.3741019553
 30
0.0
 40
0.0393700787401912
100
AcDbArc
 50
119.9973117337
 51
180.0
  0
ARC
  5
4F3
330
2EB
100
AcDbEntity
  8
0
  6
Continuous
 62
     7
370
    25
100
AcDbCircle
 10
-39.4082798796
 20
15.579486084
 30
0.0
 40
0.0393700787401627
100
AcDbArc
 50
180.0
 51
270.0
  0
ARC
  5
4F4
330
2EB
100
AcDbEntity
  8
0
  6
Continuous
 62
     7
370
    25
100
AcDbCircle
 10
-26.3912294711
 20
35.3744123774
 30
0.0
 40
0.0393700787401418
100
AcDbArc
 50
360.0
 51
60.0026882664
  0
ARC
  5
4F5
330
2EB
100
AcDbEntity
  8
0
  6
Continuous
 62
     7
370
    25
100
AcDbCircle
 10
-26.8366510655
 20
35.6315487906
 30
0.0
 40
0.0393700787401304
100
AcDbArc
 50
60.0026882663
 51
119.9973117337
  0
ARC
  5
4F6
330
2EB
100
AcDbEntity
  8
0
  6
Continuous
 62
     7
370
    25
100
AcDbCircle
 10
4.7998133694
 20
3.3675857743
 30
0.0
 40
0.039370078740161
100
AcDbArc
 50
119.9973117336
 51
180.0
  0
ARC
  5
4F7
330
2EB
100
AcDbEntity
  8
0
  6
Continuous
 62
     7
370
    25
100
AcDbCircle
 10
17.3714421835
 20
10.1107597832
 30
0.0
 40
0.0393700787401647
100
AcDbArc
 50
30.0038964362
 51
60.0026882663
  0
ARC
  5
4F8
330
2EB
100
AcDbEntity
  8
0
  6
Continuous
 62
     7
370
    25
100
AcDbCircle
 10
16.926020589
 20
10.3678961964
 30
0.0
 40
0.0393700787401658
100
AcDbArc
 50
60.0026882663
 51
119.9973117336
  0
ARC
  5
4F9
330
2EB
100
AcDbEntity
  8
0
  6
Continuous
 62
     7
370
    25
100
AcDbCircle
 10
-17.3320721047
 20
16.1440513038
 30
0.0
 40
0.0393700787401805
100
AcDbArc
 50
119.9973117337
 51
180.0
  0
ARC
  5
4FA
330
2EB
100
AcDbEntity
  8
0
  6
Continuous
 62
     7
370
    25
100
AcDbCircle
 10
-17.3320721047
 20
2.8351626062
 30
0.0
 40
0.0393700787401592
100
AcDbArc
 50
180.0
 51
294.7361038316
  0
ARC
  5
4FB
330
2EB
100
AcDbEntity
  8
0
  6
Continuous
 62
     7
370
    25
100
AcDbCircle
 10
-4.7604432907
 20
22.8872253127
 30
0.0
 40
0.0393700787401656
100
AcDbArc
 50
5.2692727043
 51
60.0026882663
  0
ARC
  5
4FC
330
2EB
100
AcDbEntity
  8
0
  6
Continuous
 62
     7
370
    25
100
AcDbCircle
 10
-5.2058648851
 20
23.1443617259
 30
0.0
 40
0.0393700787401647
100
AcDbArc
 50
60.0026882664
 51
119.9973117336
  0
ARC
  5
4FD
330
2EB
100
AcDbEntity
  8
0
  6
Continuous
 62
     7
370
    25
100
AcDbCircle
 10
-4.6490878921
 20
13.2431365346
 30
0.0
 40
0.0393700787401494
100
AcDbArc
 50
119.9973117336
 51
180.0
  0
ARC
  5
4FE
330
2EB
100
AcDbEntity
  8
0
  6
Continuous
 62
     7
370
    25
100
AcDbCircle
 10
-4.2036662976
 20
13.5002729478
 30
0.0
 40
0.0393700787401709
100
AcDbArc
 50
60.0026882664
 51
119.9973117336
  0
ARC
  5
4FF
330
2EB
100
AcDbEntity
  8
0
  6
Continuous
 62
     7
370
    25
100
AcDbCircle
 10
-26.7809733662
 20
26.0196020641
 30
0.0
 40
0.0393700787402054
100
AcDbArc
 50
119.9973117337
 51
179.9999999999
  0
ARC
  5
500
330
2EB
100
AcDbEntity
  8
0
  6
Continuous
 62
     7
370
    25
100
AcDbCircle
 10
-26.3355517718
 20
26.2767384773
 30
0.0
 40
0.0393700787401414
100
AcDbArc
 50
60.0026882663
 51
119.9973117337
  0
ARC
  5
501
330
2EB
100
AcDbEntity
  8
0
  6
Continuous
 62
     7
370
    25
100
AcDbCircle
 10
4.7604432907
 20
-9.3854738564
 30
0.0
 40
0.0393700787400846
100
AcDbArc
 50
240.0026882663
 51
270.0
  0
ARC
  5
502
330
2EB
100
AcDbEntity
  8
0
  6
Continuous
 62
     7
370
    25
100
AcDbCircle
 10
-17.3714421835
 20
3.3909916731
 30
0.0
 40
0.0393700787401314
100
AcDbArc
 50
240.0026882663
 51
270.0
  0
ARC
  5
503
330
2EB
100
AcDbEntity
  8
0
  6
Continuous
 62
     7
370
    25
100
AcDbCircle
 10
4.9274763886
 20
3.5055681698
 30
0.0
 40
0.0393700787401512
100
AcDbArc
 50
5.5347458071
 51
60.0026882664
  0
ARC
  5
504
330
2EB
100
AcDbEntity
  8
0
  6
Continuous
 62
     7
370
    25
100
AcDbCircle
 10
4.7604432907
 20
0.2587089612
 30
0.0
 40
0.0393700787401788
100
AcDbArc
 50
240.0026882664
 51
270.0
  0
ARC
  5
505
330
2EB
100
AcDbEntity
  8
0
  6
Continuous
 62
     7
370
    25
100
AcDbCircle
 10
-16.3135658967
 20
15.5749085631
 30
0.0
 40
0.0393700787401592
100
AcDbArc
 50
119.9973117336
 51
180.0
  0
ARC
  5
506
330
2EB
100
AcDbEntity
  8
0
  6
Continuous
 62
     7
370
    25
100
AcDbCircle
 10
-16.1465327987
 20
15.6713347181
 30
0.0
 40
0.0393700787401768
100
AcDbArc
 50
60.0026882664
 51
119.9973117336
  0
ARC
  5
507
330
2EB
100
AcDbEntity
  8
0
  6
Continuous
 62
     7
370
    25
100
AcDbCircle
 10
-17.2044090856
 20
16.2820336993
 30
0.0
 40
0.039370078740131
100
AcDbArc
 50
5.534745807
 51
60.0026882664
  0
ARC
  5
508
330
2EB
100
AcDbEntity
  8
0
  6
Continuous
 62
     7
370
    25
100
AcDbCircle
 10
-17.3714421835
 20
13.0351744907
 30
0.0
 40
0.0393700787401645
100
AcDbArc
 50
240.0026882664
 51
270.0
  0
ARC
  5
509
330
2EB
100
AcDbEntity
  8
0
  6
Continuous
 62
     7
370
    25
100
AcDbCircle
 10
-38.4454513708
 20
28.3513740926
 30
0.0
 40
0.0393700787402551
100
AcDbArc
 50
119.9973117337
 51
179.9999999999
  0
ARC
  5
50A
330
2EB
100
AcDbEntity
  8
0
  6
Continuous
 62
     7
370
    25
100
AcDbCircle
 10
-38.2784182729
 20
28.4478002476
 30
0.0
 40
0.0393700787401384
100
AcDbArc
 50
60.0026882663
 51
119.9973117337
  0
ARC
  5
50B
330
2EB
100
AcDbEntity
  8
0
  6
Continuous
 62
     7
370
    25
100
AcDbCircle
 10
-16.3844169513
 20
15.6317044379
 30
0.0
 40
0.0568071998465593
100
AcDbArc
 50
268.8559032542
 51
298.0402391154
  0
ARC
  5
50C
330
2EB
100
AcDbEntity
  8
0
  6
Continuous
 62
     7
370
    25
100
AcDbCircle
 10
-16.4181539457
 20
15.5788149727
 30
0.0
 40
0.0605041262823635
100
AcDbArc
 50
2.6054784857
 51
57.39452166
  0
ARC
  5
50D
330
2EB
100
AcDbEntity
  8
0
  6
Continuous
 62
     7
370
    25
100
AcDbCircle
 10
-4.2919467261
 20
22.5791253948
 30
0.0
 40
0.0605041262823701
100
AcDbArc
 50
2.6054784857
 51
57.39452166
  0
ARC
  5
50E
330
2EB
100
AcDbEntity
  8
0
  6
Continuous
 62
     7
370
    25
100
AcDbCircle
 10
-38.5163024254
 20
28.4081699675
 30
0.0
 40
0.0568071998464229
100
AcDbArc
 50
268.8559032541
 51
298.0402391154
  0
ARC
  5
50F
330
2EB
100
AcDbEntity
  8
0
  6
Continuous
 62
     7
370
    25
100
AcDbCircle
 10
-38.5500394198
 20
28.3552805022
 30
0.0
 40
0.060504126282345
100
AcDbArc
 50
2.6054784856
 51
57.39452166
  0
ARC
  5
510
330
2EB
100
AcDbEntity
  8
0
  6
Continuous
 62
     7
370
    25
100
AcDbCircle
 10
-26.4238322002
 20
35.3555909243
 30
0.0
 40
0.0605041262823741
100
AcDbArc
 50
2.6054784857
 51
57.39452166
  0
ARC
  5
511
330
2EB
100
AcDbEntity
  8
0
  6
Continuous
 62
     7
370
    25
100
AcDbCircle
 10
4.7965332404
 20
2.8492958444
 30
0.0
 40
0.0363128296282985
100
AcDbArc
 50
84.8174221345
 51
173.6486598634
  0
ARC
  5
512
330
2EB
100
AcDbEntity
  8
0
  6
Continuous
 62
     7
370
    25
100
AcDbCircle
 10
4.7965332404
 20
3.3635686708
 30
0.0
 40
0.036312829628304
100
AcDbArc
 50
84.8174221345
 51
173.6486598634
  0
ARC
  5
513
330
2EB
100
AcDbEntity
  8
0
  6
Continuous
 62
     7
370
    25
100
AcDbCircle
 10
-17.3353522337
 20
15.6257613739
 30
0.0
 40
0.0363128296283028
100
AcDbArc
 50
84.8174221345
 51
173.6486598634
  0
ARC
  5
514
330
2EB
100
AcDbEntity
  8
0
  6
Continuous
 62
     7
370
    25
100
AcDbCircle
 10
-17.3353522337
 20
16.1400342003
 30
0.0
 40
0.0363128296283028
100
AcDbArc
 50
84.8174221345
 51
173.6486598634
  0
ARC
  5
515
330
2EB
100
AcDbEntity
  8
0
  6
Continuous
 62
     7
370
    25
100
AcDbCircle
 10
-4.6164851629
 20
13.2243150815
 30
0.0
 40
0.0605041262823506
100
AcDbArc
 50
122.60547834
 51
177.3945215144
  0
ARC
  5
516
330
2EB
100
AcDbEntity
  8
0
  6
Continuous
 62
     7
370
    25
100
AcDbCircle
 10
-26.7483706371
 20
26.000780611
 30
0.0
 40
0.06050412628237
100
AcDbArc
 50
122.60547834
 51
177.3945215143
  0
ARC
  5
517
330
2EB
100
AcDbEntity
  8
0
  6
Continuous
 62
     7
370
    25
100
AcDbCircle
 10
4.7930460198
 20
-8.8899388925
 30
0.0
 40
0.0605041262823507
100
AcDbArc
 50
122.60547834
 51
177.3945215144
  0
ARC
  5
518
330
2EB
100
AcDbEntity
  8
0
  6
Continuous
 62
     7
370
    25
100
AcDbCircle
 10
-17.3388394543
 20
3.886526637
 30
0.0
 40
0.0605041262823706
100
AcDbArc
 50
122.60547834
 51
177.3945215143
  0
ARC
  5
519
330
2EB
100
AcDbEntity
  8
0
  6
Continuous
 62
     7
370
    25
100
AcDbCircle
 10
4.7930460198
 20
3.3903205618
 30
0.0
 40
0.0605041262823746
100
AcDbArc
 50
122.60547834
 51
177.3945215143
  0
ARC
  5
51A
330
2EB
100
AcDbEntity
  8
0
  6
Continuous
 62
     7
370
    25
100
AcDbCircle
 10
-16.2809631675
 20
15.55608711
 30
0.0
 40
0.0605041262823681
100
AcDbArc
 50
122.60547834
 51
177.3945215143
  0
ARC
  5
51B
330
2EB
100
AcDbEntity
  8
0
  6
Continuous
 62
     7
370
    25
100
AcDbCircle
 10
-17.3388394543
 20
16.1667860913
 30
0.0
 40
0.0605041262823853
100
AcDbArc
 50
122.60547834
 51
177.3945215143
  0
ARC
  5
51C
330
2EB
100
AcDbEntity
  8
0
  6
Continuous
 62
     7
370
    25
100
AcDbCircle
 10
-38.4128486417
 20
28.3325526396
 30
0.0
 40
0.0605041262824131
100
AcDbArc
 50
122.60547834
 51
177.3945215143
  0
ARC
  5
51D
330
2EB
100
AcDbEntity
  8
0
  6
Continuous
 62
     8
370
    25
100
AcDbCircle
 10
4.6567926602
 20
-9.9273863691
 30
0.0
 40
0.0193562738973095
100
AcDbArc
 50
173.6093872137
 51
235.078432393
  0
ARC
  5
51E
330
2EB
100
AcDbEntity
  8
0
  6
Continuous
 62
     8
370
    25
100
AcDbCircle
 10
-17.2293195585
 20
2.7071972801
 30
0.0
 40
0.0193562738973256
100
AcDbArc
 50
173.6093872137
 51
235.0784323929
  0
ARC
  5
51F
330
2EB
100
AcDbEntity
  8
0
  6
Continuous
 62
     8
370
    25
100
AcDbCircle
 10
-17.2408067271
 20
2.727084103
 30
0.0
 40
0.0193515019933967
100
AcDbArc
 50
184.9249021695
 51
246.3952387881
  0
ARC
  5
520
330
2EB
100
AcDbEntity
  8
0
  6
Continuous
 62
     8
370
    25
100
AcDbCircle
 10
-17.4750928139
 20
2.8490791604
 30
0.0
 40
0.0193562738972949
100
AcDbArc
 50
173.6093872136
 51
235.078432393
  0
ARC
  5
521
330
2EB
100
AcDbEntity
  8
0
  6
Continuous
 62
     8
370
    25
100
AcDbCircle
 10
-39.3612050327
 20
15.4836628096
 30
0.0
 40
0.0193562738973219
100
AcDbArc
 50
173.6093872137
 51
235.078432393
  0
ARC
  5
522
330
2EB
100
AcDbEntity
  8
0
  6
Continuous
 62
     8
370
    25
100
AcDbCircle
 10
-39.3726922013
 20
15.5035496325
 30
0.0
 40
0.0193515019933821
100
AcDbArc
 50
184.9249021695
 51
246.3952387881
  0
ARC
  5
523
330
2EB
100
AcDbEntity
  8
0
  6
Continuous
 62
     8
370
    25
100
AcDbCircle
 10
-17.2879266911
 20
15.6136860117
 30
0.0
 40
0.0198022533819614
100
AcDbArc
 50
54.3824225248
 51
114.3071190461
  0
ARC
  5
524
330
2EB
100
AcDbEntity
  8
0
  6
Continuous
 62
     8
370
    25
100
AcDbCircle
 10
-4.716297877
 20
22.871132847
 30
0.0
 40
0.0198022533819484
100
AcDbArc
 50
54.3824225248
 51
114.3071190461
  0
ARC
  5
525
330
2EB
100
AcDbEntity
  8
0
  6
Continuous
 62
     8
370
    25
100
AcDbCircle
 10
-4.2396769521
 20
22.5999116659
 30
0.0
 40
0.0198007589958127
100
AcDbArc
 50
294.3746582936
 51
354.3052007488
  0
ARC
  5
526
330
2EB
100
AcDbEntity
  8
0
  6
Continuous
 62
     8
370
    25
100
AcDbCircle
 10
-4.2478117113
 20
22.6139964338
 30
0.0
 40
0.0198022533819512
100
AcDbArc
 50
65.6928809539
 51
125.6175774752
  0
ARC
  5
527
330
2EB
100
AcDbEntity
  8
0
  6
Continuous
 62
     8
370
    25
100
AcDbCircle
 10
-4.6932333057
 20
22.871132847
 30
0.0
 40
0.0198022533819597
100
AcDbArc
 50
65.6928809539
 51
125.6175774752
  0
ARC
  5
528
330
2EB
100
AcDbEntity
  8
0
  6
Continuous
 62
     8
370
    25
100
AcDbCircle
 10
-39.4198121652
 20
28.3901515412
 30
0.0
 40
0.0198022533819533
100
AcDbArc
 50
54.3824225248
 51
114.3071190461
  0
ARC
  5
529
330
2EB
100
AcDbEntity
  8
0
  6
Continuous
 62
     8
370
    25
100
AcDbCircle
 10
-26.8481833511
 20
35.6475983765
 30
0.0
 40
0.0198022533819472
100
AcDbArc
 50
54.3824225248
 51
114.3071190461
  0
ARC
  5
52A
330
2EB
100
AcDbEntity
  8
0
  6
Continuous
 62
     8
370
    25
100
AcDbCircle
 10
-26.3715624263
 20
35.3763771954
 30
0.0
 40
0.0198007589958235
100
AcDbArc
 50
294.3746582936
 51
354.3052007488
  0
ARC
  5
52B
330
2EB
100
AcDbEntity
  8
0
  6
Continuous
 62
     8
370
    25
100
AcDbCircle
 10
-26.3796971854
 20
35.3904619633
 30
0.0
 40
0.0198022533819395
100
AcDbArc
 50
65.6928809539
 51
125.6175774753
  0
ARC
  5
52C
330
2EB
100
AcDbEntity
  8
0
  6
Continuous
 62
     8
370
    25
100
AcDbCircle
 10
-26.8251187799
 20
35.6475983765
 30
0.0
 40
0.0198022533819796
100
AcDbArc
 50
65.6928809539
 51
125.6175774752
  0
ARC
  5
52D
330
2EB
100
AcDbEntity
  8
0
  6
Continuous
 62
     8
370
    25
100
AcDbCircle
 10
4.7805539234
 20
2.855570788
 30
0.0
 40
0.020236980815727
100
AcDbArc
 50
186.4058275526
 51
244.9018361571
  0
ARC
  5
52E
330
2EB
100
AcDbEntity
  8
0
  6
Continuous
 62
     8
370
    25
100
AcDbCircle
 10
4.769754294
 20
2.8372707752
 30
0.0
 40
0.056795871232423
100
AcDbArc
 50
28.8567998287
 51
58.0453714773
  0
ARC
  5
52F
330
2EB
100
AcDbEntity
  8
0
  6
Continuous
 62
     8
370
    25
100
AcDbCircle
 10
17.3413831081
 20
10.0947176105
 30
0.0
 40
0.0567958712324999
100
AcDbArc
 50
28.8567998288
 51
58.0453714773
  0
ARC
  5
530
330
2EB
100
AcDbEntity
  8
0
  6
Continuous
 62
     8
370
    25
100
AcDbCircle
 10
4.7882810838
 20
3.3836353602
 30
0.0
 40
0.019802253381958
100
AcDbArc
 50
54.3824225248
 51
114.3071190461
  0
ARC
  5
531
330
2EB
100
AcDbEntity
  8
0
  6
Continuous
 62
     8
370
    25
100
AcDbCircle
 10
16.9144883034
 20
10.3839457823
 30
0.0
 40
0.0198022533819634
100
AcDbArc
 50
54.3824225248
 51
114.3071190461
  0
ARC
  5
532
330
2EB
100
AcDbEntity
  8
0
  6
Continuous
 62
     8
370
    25
100
AcDbCircle
 10
17.3829744691
 20
10.1268093691
 30
0.0
 40
0.0198022533819685
100
AcDbArc
 50
65.6928809539
 51
125.6175774752
  0
ARC
  5
533
330
2EB
100
AcDbEntity
  8
0
  6
Continuous
 62
     8
370
    25
100
AcDbCircle
 10
16.9375528747
 20
10.3839457823
 30
0.0
 40
0.0198022533819436
100
AcDbArc
 50
65.6928809539
 51
125.6175774752
  0
ARC
  5
534
330
2EB
100
AcDbEntity
  8
0
  6
Continuous
 62
     8
370
    25
100
AcDbCircle
 10
-17.3650275696
 20
15.6105565456
 30
0.0
 40
0.0610316162214359
100
AcDbArc
 50
12.8432761461
 51
57.3181546135
  0
ARC
  5
535
330
2EB
100
AcDbEntity
  8
0
  6
Continuous
 62
     8
370
    25
100
AcDbCircle
 10
-4.7933913279
 20
22.8680393734
 30
0.0
 40
0.0609973126904721
100
AcDbArc
 50
14.6347164038
 51
57.305771306
  0
ARC
  5
536
330
2EB
100
AcDbEntity
  8
0
  6
Continuous
 62
     8
370
    25
100
AcDbCircle
 10
-17.3436043904
 20
16.1601008897
 30
0.0
 40
0.0198022533819551
100
AcDbArc
 50
54.3824225248
 51
114.3071190461
  0
ARC
  5
537
330
2EB
100
AcDbEntity
  8
0
  6
Continuous
 62
     8
370
    25
100
AcDbCircle
 10
-5.2173971707
 20
23.1604113118
 30
0.0
 40
0.0198022533819513
100
AcDbArc
 50
54.3824225248
 51
114.3071190461
  0
ARC
  5
538
330
2EB
100
AcDbEntity
  8
0
  6
Continuous
 62
     8
370
    25
100
AcDbCircle
 10
-4.748911005
 20
22.9032748986
 30
0.0
 40
0.0198022533819573
100
AcDbArc
 50
65.6928809539
 51
125.6175774752
  0
ARC
  5
539
330
2EB
100
AcDbEntity
  8
0
  6
Continuous
 62
     8
370
    25
100
AcDbCircle
 10
-5.1943325995
 20
23.1604113118
 30
0.0
 40
0.0198022533819576
100
AcDbArc
 50
65.6928809539
 51
125.6175774752
  0
ARC
  5
53A
330
2EB
100
AcDbEntity
  8
0
  6
Continuous
 62
     8
370
    25
100
AcDbCircle
 10
-4.192134012
 20
13.5163225337
 30
0.0
 40
0.0198022533819628
100
AcDbArc
 50
65.6928809539
 51
125.6175774752
  0
ARC
  5
53B
330
2EB
100
AcDbEntity
  8
0
  6
Continuous
 62
     8
370
    25
100
AcDbCircle
 10
-4.6687549368
 20
13.2451013526
 30
0.0
 40
0.0198007589958184
100
AcDbArc
 50
185.6947992512
 51
245.6253417064
  0
ARC
  5
53C
330
2EB
100
AcDbEntity
  8
0
  6
Continuous
 62
     8
370
    25
100
AcDbCircle
 10
-4.6606201777
 20
13.2591861205
 30
0.0
 40
0.0198022533819596
100
AcDbArc
 50
54.3824225248
 51
114.3071190461
  0
ARC
  5
53D
330
2EB
100
AcDbEntity
  8
0
  6
Continuous
 62
     8
370
    25
100
AcDbCircle
 10
-4.2151985832
 20
13.5163225337
 30
0.0
 40
0.0198022533819564
100
AcDbArc
 50
54.3824225248
 51
114.3071190461
  0
ARC
  5
53E
330
2EB
100
AcDbEntity
  8
0
  6
Continuous
 62
     8
370
    25
100
AcDbCircle
 10
-26.3240194861
 20
26.2927880632
 30
0.0
 40
0.019802253381977
100
AcDbArc
 50
65.6928809539
 51
125.6175774752
  0
ARC
  5
53F
330
2EB
100
AcDbEntity
  8
0
  6
Continuous
 62
     8
370
    25
100
AcDbCircle
 10
-26.800640411
 20
26.0215668821
 30
0.0
 40
0.0198007589958278
100
AcDbArc
 50
185.6947992512
 51
245.6253417064
  0
ARC
  5
540
330
2EB
100
AcDbEntity
  8
0
  6
Continuous
 62
     8
370
    25
100
AcDbCircle
 10
-26.7925056518
 20
26.03565165
 30
0.0
 40
0.0198022533819451
100
AcDbArc
 50
54.3824225248
 51
114.3071190461
  0
ARC
  5
541
330
2EB
100
AcDbEntity
  8
0
  6
Continuous
 62
     8
370
    25
100
AcDbCircle
 10
-26.3470840574
 20
26.2927880632
 30
0.0
 40
0.0198022533819634
100
AcDbArc
 50
54.3824225248
 51
114.3071190461
  0
ARC
  5
542
330
2EB
100
AcDbEntity
  8
0
  6
Continuous
 62
     8
370
    25
100
AcDbCircle
 10
4.7593090254
 20
-8.8370494273
 30
0.0
 40
0.056807199846547
100
AcDbArc
 50
241.9597608846
 51
271.1440967458
  0
ARC
  5
543
330
2EB
100
AcDbEntity
  8
0
  6
Continuous
 62
     8
370
    25
100
AcDbCircle
 10
4.7593090254
 20
-9.3514058442
 30
0.0
 40
0.0568071998464937
100
AcDbArc
 50
241.9597608846
 51
271.1440967458
  0
ARC
  5
544
330
2EB
100
AcDbEntity
  8
0
  6
Continuous
 62
     8
370
    25
100
AcDbCircle
 10
4.7518958545
 20
-9.4036742813
 30
0.0
 40
0.0194085799146776
100
AcDbArc
 50
173.7011524699
 51
234.9866671367
  0
ARC
  5
545
330
2EB
100
AcDbEntity
  8
0
  6
Continuous
 62
     8
370
    25
100
AcDbCircle
 10
-17.3725764488
 20
3.9394161022
 30
0.0
 40
0.0568071998465623
100
AcDbArc
 50
241.9597608846
 51
271.1440967458
  0
ARC
  5
546
330
2EB
100
AcDbEntity
  8
0
  6
Continuous
 62
     8
370
    25
100
AcDbCircle
 10
-17.3725764488
 20
3.4250596853
 30
0.0
 40
0.0568071998465155
100
AcDbArc
 50
241.9597608846
 51
271.1440967458
  0
ARC
  5
547
330
2EB
100
AcDbEntity
  8
0
  6
Continuous
 62
     8
370
    25
100
AcDbCircle
 10
-17.3799896197
 20
3.3727912482
 30
0.0
 40
0.019408579915878
100
AcDbArc
 50
173.701152472
 51
234.9866671346
  0
ARC
  5
548
330
2EB
100
AcDbEntity
  8
0
  6
Continuous
 62
     8
370
    25
100
AcDbCircle
 10
4.7265674693
 20
3.3892827369
 30
0.0
 40
0.062066520266148
100
AcDbArc
 50
15.019743397
 51
56.9207443129
  0
ARC
  5
549
330
2EB
100
AcDbEntity
  8
0
  6
Continuous
 62
     8
370
    25
100
AcDbCircle
 10
4.7600483328
 20
3.4457828011
 30
0.0
 40
0.0594281274013441
100
AcDbArc
 50
242.4966996037
 51
275.102636346
  0
ARC
  5
54A
330
2EB
100
AcDbEntity
  8
0
  6
Continuous
 62
     8
370
    25
100
AcDbCircle
 10
4.7593090254
 20
0.2927769733
 30
0.0
 40
0.0568071998465347
100
AcDbArc
 50
241.9597608846
 51
271.1440967458
  0
ARC
  5
54B
330
2EB
100
AcDbEntity
  8
0
  6
Continuous
 62
     8
370
    25
100
AcDbCircle
 10
4.8945283514
 20
3.4863822305
 30
0.0
 40
0.0609973126904482
100
AcDbArc
 50
14.6347164038
 51
57.305771306
  0
ARC
  5
54C
330
2EB
100
AcDbEntity
  8
0
  6
Continuous
 62
     8
370
    25
100
AcDbCircle
 10
4.9390086742
 20
3.5216177558
 30
0.0
 40
0.0198022533819498
100
AcDbArc
 50
65.6928809539
 51
125.6175774752
  0
ARC
  5
54D
330
2EB
100
AcDbEntity
  8
0
  6
Continuous
 62
     8
370
    25
100
AcDbCircle
 10
-16.1350005131
 20
15.687384304
 30
0.0
 40
0.0198022533819591
100
AcDbArc
 50
65.6928809539
 51
125.6175774752
  0
ARC
  5
54E
330
2EB
100
AcDbEntity
  8
0
  6
Continuous
 62
     8
370
    25
100
AcDbCircle
 10
4.7513322188
 20
0.2402535248
 30
0.0
 40
0.0188789585204943
100
AcDbArc
 50
172.7441704386
 51
235.943649168
  0
ARC
  5
54F
330
2EB
100
AcDbEntity
  8
0
  6
Continuous
 62
     8
370
    25
100
AcDbCircle
 10
-16.3332329414
 20
15.5768733811
 30
0.0
 40
0.0198007589958128
100
AcDbArc
 50
185.6947992512
 51
245.6253417064
  0
ARC
  5
550
330
2EB
100
AcDbEntity
  8
0
  6
Continuous
 62
     8
370
    25
100
AcDbCircle
 10
-16.3250981823
 20
15.5909581491
 30
0.0
 40
0.0198022533819537
100
AcDbArc
 50
54.3824225248
 51
114.3071190461
  0
ARC
  5
551
330
2EB
100
AcDbEntity
  8
0
  6
Continuous
 62
     8
370
    25
100
AcDbCircle
 10
-16.1580650844
 20
15.687384304
 30
0.0
 40
0.0198022533819376
100
AcDbArc
 50
54.3824225248
 51
114.3071190461
  0
ARC
  5
552
330
2EB
100
AcDbEntity
  8
0
  6
Continuous
 62
     8
370
    25
100
AcDbCircle
 10
-17.4053180048
 20
16.1657482664
 30
0.0
 40
0.0620665202661793
100
AcDbArc
 50
15.019743397
 51
56.9207443128
  0
ARC
  5
553
330
2EB
100
AcDbEntity
  8
0
  6
Continuous
 62
     8
370
    25
100
AcDbCircle
 10
-17.3718371413
 20
16.2222483306
 30
0.0
 40
0.0594281274017263
100
AcDbArc
 50
242.4966996037
 51
275.1026363474
  0
ARC
  5
554
330
2EB
100
AcDbEntity
  8
0
  6
Continuous
 62
     8
370
    25
100
AcDbCircle
 10
-17.3725764488
 20
13.0692425028
 30
0.0
 40
0.0568071998465752
100
AcDbArc
 50
241.9597608846
 51
271.1440967458
  0
ARC
  5
555
330
2EB
100
AcDbEntity
  8
0
  6
Continuous
 62
     8
370
    25
100
AcDbCircle
 10
-17.2373571228
 20
16.26284776
 30
0.0
 40
0.060997312690439
100
AcDbArc
 50
14.6347164038
 51
57.305771306
  0
ARC
  5
556
330
2EB
100
AcDbEntity
  8
0
  6
Continuous
 62
     8
370
    25
100
AcDbCircle
 10
-17.1928767999
 20
16.2980832853
 30
0.0
 40
0.019802253381944
100
AcDbArc
 50
65.6928809539
 51
125.6175774752
  0
ARC
  5
557
330
2EB
100
AcDbEntity
  8
0
  6
Continuous
 62
     8
370
    25
100
AcDbCircle
 10
-38.2668859873
 20
28.4638498335
 30
0.0
 40
0.01980225338197
100
AcDbArc
 50
65.6928809539
 51
125.6175774752
  0
ARC
  5
558
330
2EB
100
AcDbEntity
  8
0
  6
Continuous
 62
     8
370
    25
100
AcDbCircle
 10
-17.3805532554
 20
13.0167190543
 30
0.0
 40
0.0188789585109766
100
AcDbArc
 50
172.7441704208
 51
235.9436491858
  0
ARC
  5
559
330
2EB
100
AcDbEntity
  8
0
  6
Continuous
 62
     8
370
    25
100
AcDbCircle
 10
-38.4651184156
 20
28.3533389106
 30
0.0
 40
0.0198007589958391
100
AcDbArc
 50
185.6947992512
 51
245.6253417064
  0
ARC
  5
55A
330
2EB
100
AcDbEntity
  8
0
  6
Continuous
 62
     8
370
    25
100
AcDbCircle
 10
-38.4569836564
 20
28.3674236786
 30
0.0
 40
0.0198022533819613
100
AcDbArc
 50
54.3824225248
 51
114.3071190461
  0
ARC
  5
55B
330
2EB
100
AcDbEntity
  8
0
  6
Continuous
 62
     8
370
    25
100
AcDbCircle
 10
-38.2899505585
 20
28.4638498335
 30
0.0
 40
0.0198022533819353
100
AcDbArc
 50
54.3824225248
 51
114.3071190461
  0
VIEWPORT
  5
562
330
2EB
100
AcDbEntity
  8
0
100
AcDbViewport
 10
0.0
 20
0.0
 30
0.0
 40
8.4
 41
6.4
 68
     1
 69
     1
 12
-15.6496062992
 22
7.874015748
 13
0.0
 23
0.0
 14
0.5
 24
0.5
 15
0.5
 25
0.5
 16
0.0
 26
0.0
 36
1.0
 17
0.0
 27
0.0
 37
0.0
 42
50.0
 43
0.0
 44
0.0
 45
60.8863892013
 50
0.0
 51
0.0
 72
   100
 90
   557152
  1

281
     0
 71
     1
 74
     0
110
0.0
120
0.0
130
0.0
111
1.0
121
0.0
131
0.0
112
0.0
122
1.0
132
0.0
 79
     0
146
0.0
  0
ENDBLK
  5
2EE
330
2EB
100
AcDbEntity
  8
0
100
AcDbBlockEnd
  0
ENDSEC
  0
SECTION
  2
ENTITIES
  0
LINE
  5
103
330
1F
100
AcDbEntity
  8
0
  6
Continuous
 62
     7
370
    25
100
AcDbLine
 10
-15.6102362205
 20
0.0
 30
0.0
 11
15.6102362205
 21
0.0
 31
0.0
  0
LINE
  5
104
330
1F
100
AcDbEntity
  8
0
  6
Continuous
 62
     7
370
    25
100
AcDbLine
 10
15.5151884424
 20
13.9831327904
 30
0.0
 11
-15.5151884424
 21
13.9831327904
 31
0.0
  0
LINE
  5
105
330
1F
100
AcDbEntity
  8
0
  6
Continuous
 62
     7
370
    25
100
AcDbLine
 10
-15.5151884424
 20
13.9831327904
 30
0.0
 11
-15.5151884424
 21
0.0393700787
 31
0.0
  0
LINE
  5
106
330
1F
100
AcDbEntity
  8
0
  6
Continuous
 62
     7
370
    25
100
AcDbLine
 10
15.5151884424
 20
0.0393700787
 30
0.0
 11
15.5151884424
 21
13.9831327904
 31
0.0
  0
LINE
  5
107
330
1F
100
AcDbEntity
  8
0
  6
Continuous
 62
     7
370
    25
100
AcDbLine
 10
-46.9094488189
 20
0.0
 30
0.0
 11
-15.688976378
 21
0.0
 31
0.0
  0
LINE
  5
108
330
1F
100
AcDbEntity
  8
0
  6
Continuous
 62
     7
370
    25
100
AcDbLine
 10
-15.784024156
 20
13.9831327904
 30
0.0
 11
-46.8144010409
 21
13.9831327904
 31
0.0
  0
LINE
  5
109
330
1F
100
AcDbEntity
  8
0
  6
Continuous
 62
     7
370
    25
100
AcDbLine
 10
-15.784024156
 20
0.0393700787
 30
0.0
 11
-15.784024156
 21
13.9831327904
 31
0.0
  0
LINE
  5
10A
330
1F
100
AcDbEntity
  8
0
  6
Continuous
 62
     7
370
    25
100
AcDbLine
 10
-46.8144010409
 20
13.9831327904
 30
0.0
 11
-46.8144010409
 21
0.0393700787
 31
0.0
  0
LINE
  5
10B
330
1F
100
AcDbEntity
  8
0
  6
Continuous
 62
     7
370
    25
100
AcDbLine
 10
-47.5787401575
 20
0.6299212598
 30
0.0
 11
-47.5787401575
 21
15.1181102362
 31
0.0
  0
LINE
  5
10C
330
1F
100
AcDbEntity
  8
0
  6
Continuous
 62
     7
370
    25
100
AcDbLine
 10
-47.5787401575
 20
15.1181102362
 30
0.0
 11
-54.1929133858
 21
15.1181102362
 31
0.0
  0
LINE
  5
10D
330
1F
100
AcDbEntity
  8
0
  6
Continuous
 62
     7
370
    25
100
AcDbLine
 10
-54.1929133858
 20
15.1181102362
 30
0.0
 11
-54.1929133858
 21
0.6299212598
 31
0.0
  0
LINE
  5
10E
330
1F
100
AcDbEntity
  8
0
  6
Continuous
 62
     7
370
    25
100
AcDbLine
 10
-54.1929133858
 20
0.6299212598
 30
0.0
 11
-47.5787401575
 21
0.6299212598
 31
0.0
  0
LINE
  5
10F
330
1F
100
AcDbEntity
  8
0
  6
Continuous
 62
     7
370
    25
100
AcDbLine
 10
-54.8228346457
 20
0.0
 30
0.0
 11
-46.9488188976
 21
0.0
 31
0.0
  0
LINE
  5
110
330
1F
100
AcDbEntity
  8
0
  6
Continuous
 62
     7
370
    25
100
AcDbLine
 10
-54.8228346457
 20
15.7480314961
 30
0.0
 11
-54.8228346457
 21
0.0
 31
0.0
  0
LINE
  5
111
330
1F
100
AcDbEntity
  8
0
  6
Continuous
 62
     7
370
    25
100
AcDbLine
 10
-46.9488188976
 20
15.7480314961
 30
0.0
 11
-54.8228346457
 21
15.7480314961
 31
0.0
  0
LINE
  5
112
330
1F
100
AcDbEntity
  8
0
  6
Continuous
 62
     7
370
    25
100
AcDbLine
 10
-46.9488188976
 20
0.0
 30
0.0
 11
-46.9488188976
 21
15.7480314961
 31
0.0
  0
LINE
  5
113
330
1F
100
AcDbEntity
  8
0
  6
Continuous
 62
     7
370
    25
100
AcDbLine
 10
-47.5787401575
 20
8.188976378
 30
0.0
 11
-54.1929133858
 21
8.188976378
 31
0.0
  0
LINE
  5
114
330
1F
100
AcDbEntity
  8
0
  6
Continuous
 62
     7
370
    25
100
AcDbLine
 10
-47.5787401575
 20
7.5590551181
 30
0.0
 11
-54.1929133858
 21
7.5590551181
 31
0.0
  0
LINE
  5
115
330
1F
100
AcDbEntity
  8
0
  6
Continuous
 62
     7
370
    25
100
AcDbLine
 10
15.6496062992
 20
0.0
 30
0.0
 11
23.5236220472
 21
0.0
 31
0.0
  0
LINE
  5
116
330
1F
100
AcDbEntity
  8
0
  6
Continuous
 62
     7
370
    25
100
AcDbLine
 10
15.6496062992
 20
15.7480314961
 30
0.0
 11
15.6496062992
 21
0.0
 31
0.0
  0
LINE
  5
117
330
1F
100
AcDbEntity
  8
0
  6
Continuous
 62
     7
370
    25
100
AcDbLine
 10
22.8937007874
 20
15.1181102362
 30
0.0
 11
16.2795275591
 21
15.1181102362
 31
0.0
  0
LINE
  5
118
330
1F
100
AcDbEntity
  8
0
  6
Continuous
 62
     7
370
    25
100
AcDbLine
 10
22.8937007874
 20
0.6299212598
 30
0.0
 11
22.8937007874
 21
15.1181102362
 31
0.0
  0
LINE
  5
119
330
1F
100
AcDbEntity
  8
0
  6
Continuous
 62
     7
370
    25
100
AcDbLine
 10
16.2795275591
 20
0.6299212598
 30
0.0
 11
22.8937007874
 21
0.6299212598
 31
0.0
  0
LINE
  5
11A
330
1F
100
AcDbEntity
  8
0
  6
Continuous
 62
     7
370
    25
100
AcDbLine
 10
16.2795275591
 20
15.1181102362
 30
0.0
 11
16.2795275591
 21
0.6299212598
 31
0.0
  0
LINE
  5
11B
330
1F
100
AcDbEntity
  8
0
  6
Continuous
 62
     7
370
    25
100
AcDbLine
 10
23.5236220472
 20
15.7480314961
 30
0.0
 11
15.6496062992
 21
15.7480314961
 31
0.0
  0
LINE
  5
11C
330
1F
100
AcDbEntity
  8
0
  6
Continuous
 62
     7
370
    25
100
AcDbLine
 10
23.5236220472
 20
0.0
 30
0.0
 11
23.5236220472
 21
15.7480314961
 31
0.0
  0
LINE
  5
11D
330
1F
100
AcDbEntity
  8
0
  6
Continuous
 62
     7
370
    25
100
AcDbLine
 10
22.8937007874
 20
7.5590551181
 30
0.0
 11
16.2795275591
 21
7.5590551181
 31
0.0
  0
LINE
  5
11E
330
1F
100
AcDbEntity
  8
0
  6
Continuous
 62
     7
370
    25
100
AcDbLine
 10
22.8937007874
 20
8.188976378
 30
0.0
 11
16.2795275591
 21
8.188976378
 31
0.0
  0
LINE
  5
11F
330
1F
100
AcDbEntity
  8
0
  6
Continuous
 62
     7
370
    25
100
AcDbLine
 10
15.4758183637
 20
13.9437627116
 30
0.0
 11
-15.4758183637
 21
13.9437627116
 31
0.0
  0
LINE
  5
120
330
1F
100
AcDbEntity
  8
0
  6
Continuous
 62
     7
370
    25
100
AcDbLine
 10
-15.4758183637
 20
13.9437627116
 30
0.0
 11
-15.5151884424
 21
13.9831327904
 31
0.0
  0
LINE
  5
121
330
1F
100
AcDbEntity
  8
0
  6
Continuous
 62
     7
370
    25
100
AcDbLine
 10
15.4758183637
 20
13.9437627116
 30
0.0
 11
15.5151884424
 21
13.9831327904
 31
0.0
  0
LINE
  5
122
330
1F
100
AcDbEntity
  8
0
  6
Continuous
 62
     7
370
    25
100
AcDbLine
 10
-15.4758183637
 20
13.9437627116
 30
0.0
 11
-15.4758183637
 21
0.0
 31
0.0
  0
LINE
  5
123
330
1F
100
AcDbEntity
  8
0
  6
Continuous
 62
     7
370
    25
100
AcDbLine
 10
15.4758183637
 20
0.0
 30
0.0
 11
15.4758183637
 21
13.9437627116
 31
0.0
  0
LINE
  5
124
330
1F
100
AcDbEntity
  8
0
  6
Continuous
 62
     7
370
    25
100
AcDbLine
 10
-15.8233942347
 20
13.9437627116
 30
0.0
 11
-46.7750309621
 21
13.9437627116
 31
0.0
  0
LINE
  5
125
330
1F
100
AcDbEntity
  8
0
  6
Continuous
 62
     7
370
    25
100
AcDbLine
 10
-46.7750309621
 20
13.9437627116
 30
0.0
 11
-46.8144010409
 21
13.9831327904
 31
0.0
  0
LINE
  5
126
330
1F
100
AcDbEntity
  8
0
  6
Continuous
 62
     7
370
    25
100
AcDbLine
 10
-15.8233942347
 20
13.9437627116
 30
0.0
 11
-15.784024156
 21
13.9831327904
 31
0.0
  0
LINE
  5
127
330
1F
100
AcDbEntity
  8
0
  6
Continuous
 62
     7
370
    25
100
AcDbLine
 10
-15.8233942347
 20
0.0
 30
0.0
 11
-15.8233942347
 21
13.9437627116
 31
0.0
  0
LINE
  5
128
330
1F
100
AcDbEntity
  8
0
  6
Continuous
 62
     7
370
    25
100
AcDbLine
 10
-46.7750309621
 20
13.9437627116
 30
0.0
 11
-46.7750309621
 21
0.0
 31
0.0
  0
LINE
  5
129
330
1F
100
AcDbEntity
  8
0
  6
Continuous
 62
     7
370
    25
100
AcDbLine
 10
-15.5823973708
 20
15.7086614173
 30
0.0
 11
-15.5823973708
 21
0.0393700787
 31
0.0
  0
LINE
  5
12A
330
1F
100
AcDbEntity
  8
0
  6
Continuous
 62
     7
370
    25
100
AcDbLine
 10
-15.6496062992
 20
0.0393700787
 30
0.0
 11
-15.6496062992
 21
15.7086614173
 31
0.0
  0
LINE
  5
12B
330
1F
100
AcDbEntity
  8
0
  6
Continuous
 62
     7
370
    25
100
AcDbLine
 10
-15.6102362205
 20
15.7480314961
 30
0.0
 11
-14.9803149606
 21
15.7480314961
 31
0.0
  0
LINE
  5
12C
330
1F
100
AcDbEntity
  8
0
  6
Continuous
 62
     7
370
    25
100
AcDbLine
 10
-14.9409448819
 20
15.7086614173
 30
0.0
 11
-14.9409448819
 21
13.9831327904
 31
0.0
  0
LINE
  5
12D
330
1F
100
AcDbEntity
  8
0
  6
Continuous
 62
     7
370
    25
100
AcDbLine
 10
-46.8816099692
 20
15.7086614173
 30
0.0
 11
-46.8816099692
 21
0.0393700787
 31
0.0
  0
LINE
  5
12E
330
1F
100
AcDbEntity
  8
0
  6
Continuous
 62
     7
370
    25
100
AcDbLine
 10
-46.9094488189
 20
15.7480314961
 30
0.0
 11
-46.2795275591
 21
15.7480314961
 31
0.0
  0
LINE
  5
12F
330
1F
100
AcDbEntity
  8
0
  6
Continuous
 62
     7
370
    25
100
AcDbLine
 10
-46.2401574803
 20
15.7086614173
 30
0.0
 11
-46.2401574803
 21
13.9831327904
 31
0.0
  0
LINE
  5
130
330
1F
100
AcDbEntity
  8
0
  6
Continuous
 62
     7
370
    25
100
AcDbLine
 10
-46.9488188976
 20
0.0393700787
 30
0.0
 11
15.6496062992
 21
0.0393700787
 31
0.0
  0
LINE
  5
131
330
1F
100
AcDbEntity
  8
0
  6
Continuous
 62
     7
370
    25
100
AcDbLine
 10
15.5823973708
 20
0.0393700787
 30
0.0
 11
15.5823973708
 21
15.7086614173
 31
0.0
  0
LINE
  5
132
330
1F
100
AcDbEntity
  8
0
  6
Continuous
 62
     7
370
    25
100
AcDbLine
 10
14.9803149606
 20
15.7480314961
 30
0.0
 11
15.6102362205
 21
15.7480314961
 31
0.0
  0
LINE
  5
133
330
1F
100
AcDbEntity
  8
0
  6
Continuous
 62
     7
370
    25
100
AcDbLine
 10
14.9409448819
 20
13.9831327904
 30
0.0
 11
14.9409448819
 21
15.7086614173
 31
0.0
  0
LINE
  5
134
330
1F
100
AcDbEntity
  8
0
  6
Continuous
 62
     7
370
    25
100
AcDbLine
 10
-15.7168152276
 20
0.0393700787
 30
0.0
 11
-15.7168152276
 21
15.7086614173
 31
0.0
  0
LINE
  5
135
330
1F
100
AcDbEntity
  8
0
  6
Continuous
 62
     7
370
    25
100
AcDbLine
 10
-16.3188976378
 20
15.7480314961
 30
0.0
 11
-15.688976378
 21
15.7480314961
 31
0.0
  0
LINE
  5
136
330
1F
100
AcDbEntity
  8
0
  6
Continuous
 62
     7
370
    25
100
AcDbLine
 10
-16.3582677165
 20
13.9831327904
 30
0.0
 11
-16.3582677165
 21
15.7086614173
 31
0.0
  0
LINE
  5
137
330
1F
100
AcDbEntity
  8
0
  6
Continuous
 62
     7
370
    25
100
AcDbLine
 10
-14.9015748031
 20
15.7480314961
 30
0.0
 11
14.9015748031
 21
15.7480314961
 31
0.0
  0
LINE
  5
138
330
1F
100
AcDbEntity
  8
0
  6
Continuous
 62
     7
370
    25
100
AcDbLine
 10
14.9015748031
 20
13.9831327904
 30
0.0
 11
14.9015748031
 21
15.7480314961
 31
0.0
  0
LINE
  5
139
330
1F
100
AcDbEntity
  8
0
  6
Continuous
 62
     7
370
    25
100
AcDbLine
 10
15.6496062992
 20
15.7086614173
 30
0.0
 11
-46.9488188976
 21
15.7086614173
 31
0.0
  0
LINE
  5
13A
330
1F
100
AcDbEntity
  8
0
  6
Continuous
 62
     7
370
    25
100
AcDbLine
 10
-14.9015748031
 20
15.7480314961
 30
0.0
 11
-14.9015748031
 21
13.9831327904
 31
0.0
  0
LINE
  5
13B
330
1F
100
AcDbEntity
  8
0
  6
Continuous
 62
     7
370
    25
100
AcDbLine
 10
-46.2007874016
 20
15.7480314961
 30
0.0
 11
-46.2007874016
 21
13.9831327904
 31
0.0
  0
LINE
  5
13C
330
1F
100
AcDbEntity
  8
0
  6
Continuous
 62
     7
370
    25
100
AcDbLine
 10
-16.3976377953
 20
13.9831327904
 30
0.0
 11
-16.3976377953
 21
15.7480314961
 31
0.0
  0
LINE
  5
13D
330
1F
100
AcDbEntity
  8
0
  6
Continuous
 62
     7
370
    25
100
AcDbLine
 10
-46.2007874016
 20
15.7480314961
 30
0.0
 11
-16.3976377953
 21
15.7480314961
 31
0.0
  0
LINE
  5
13E
330
1F
100
AcDbEntity
  8
0
  6
Continuous
 62
     8
370
    25
100
AcDbLine
 10
-14.952476111
 20
13.9831327904
 30
0.0
 11
-14.952476111
 21
15.7086614173
 31
0.0
  0
LINE
  5
13F
330
1F
100
AcDbEntity
  8
0
  6
Continuous
 62
     8
370
    25
100
AcDbLine
 10
-46.2516887094
 20
13.9831327904
 30
0.0
 11
-46.2516887094
 21
15.7086614173
 31
0.0
  0
LINE
  5
140
330
1F
100
AcDbEntity
  8
0
  6
Continuous
 62
     8
370
    25
100
AcDbLine
 10
14.952476111
 20
15.7086614173
 30
0.0
 11
14.952476111
 21
13.9831327904
 31
0.0
  0
LINE
  5
141
330
1F
100
AcDbEntity
  8
0
  6
Continuous
 62
     8
370
    25
100
AcDbLine
 10
-16.3467364874
 20
15.7086614173
 30
0.0
 11
-16.3467364874
 21
13.9831327904
 31
0.0
  0
ARC
  5
142
330
1F
100
AcDbEntity
  8
0
  6
Continuous
 62
     7
370
    25
100
AcDbCircle
 10
-15.4758183637
 20
0.0393700787
 30
0.0
 40
0.0393700787401592
100
AcDbArc
 50
180.0
 51
270.0
  0
ARC
  5
143
330
1F
100
AcDbEntity
  8
0
  6
Continuous
 62
     7
370
    25
100
AcDbCircle
 10
15.4758183637
 20
0.0393700787
 30
0.0
 40
0.0393700787401698
100
AcDbArc
 50
270.0
 51
360.0
  0
ARC
  5
144
330
1F
100
AcDbEntity
  8
0
  6
Continuous
 62
     7
370
    25
100
AcDbCircle
 10
-46.7750309621
 20
0.0393700787
 30
0.0
 40
0.0393700787401512
100
AcDbArc
 50
180.0
 51
270.0
  0
ARC
  5
145
330
1F
100
AcDbEntity
  8
0
  6
Continuous
 62
     7
370
    25
100
AcDbCircle
 10
-15.8233942347
 20
0.0393700787
 30
0.0
 40
0.0393700787401592
100
AcDbArc
 50
270.0
 51
0.0
  0
ARC
  5
146
330
1F
100
AcDbEntity
  8
0
  6
Continuous
 62
     7
370
    25
100
AcDbCircle
 10
-15.6102362205
 20
0.0393700787
 30
0.0
 40
0.039370078740161
100
AcDbArc
 50
180.0
 51
270.0
  0
ARC
  5
147
330
1F
100
AcDbEntity
  8
0
  6
Continuous
 62
     7
370
    25
100
AcDbCircle
 10
-15.6171959329
 20
0.0344488189
 30
0.0
 40
0.0351448249436156
100
AcDbArc
 50
281.421753659
 51
8.0494669755
  0
ARC
  5
148
330
1F
100
AcDbEntity
  8
0
  6
Continuous
 62
     7
370
    25
100
AcDbCircle
 10
-15.6102362205
 20
15.7086614173
 30
0.0
 40
0.0393700787401627
100
AcDbArc
 50
90.0
 51
180.0
  0
ARC
  5
149
330
1F
100
AcDbEntity
  8
0
  6
Continuous
 62
     7
370
    25
100
AcDbCircle
 10
-15.6171959329
 20
15.7135826772
 30
0.0
 40
0.0351448249436189
100
AcDbArc
 50
351.9505330245
 51
78.578246341
  0
ARC
  5
14A
330
1F
100
AcDbEntity
  8
0
  6
Continuous
 62
     7
370
    25
100
AcDbCircle
 10
-14.987274673
 20
15.7135826772
 30
0.0
 40
0.0351448249436189
100
AcDbArc
 50
351.9505330245
 51
78.578246341
  0
ARC
  5
14B
330
1F
100
AcDbEntity
  8
0
  6
Continuous
 62
     7
370
    25
100
AcDbCircle
 10
-14.9803149606
 20
15.7086614173
 30
0.0
 40
0.0393700787401574
100
AcDbArc
 50
0.0
 51
90.0
  0
ARC
  5
14C
330
1F
100
AcDbEntity
  8
0
  6
Continuous
 62
     7
370
    25
100
AcDbCircle
 10
-46.9094488189
 20
0.0393700787
 30
0.0
 40
0.0393700787401557
100
AcDbArc
 50
180.0
 51
270.0
  0
ARC
  5
14D
330
1F
100
AcDbEntity
  8
0
  6
Continuous
 62
     7
370
    25
100
AcDbCircle
 10
-46.9164085313
 20
0.0344488189
 30
0.0
 40
0.0351448249436389
100
AcDbArc
 50
281.421753659
 51
8.0494669755
  0
ARC
  5
14E
330
1F
100
AcDbEntity
  8
0
  6
Continuous
 62
     7
370
    25
100
AcDbCircle
 10
-46.9094488189
 20
15.7086614173
 30
0.0
 40
0.0393700787401627
100
AcDbArc
 50
90.0
 51
180.0
  0
ARC
  5
14F
330
1F
100
AcDbEntity
  8
0
  6
Continuous
 62
     7
370
    25
100
AcDbCircle
 10
-46.9164085313
 20
15.7135826772
 30
0.0
 40
0.0351448249436142
100
AcDbArc
 50
351.9505330245
 51
78.5782463411
  0
ARC
  5
150
330
1F
100
AcDbEntity
  8
0
  6
Continuous
 62
     7
370
    25
100
AcDbCircle
 10
-46.2864872715
 20
15.7135826772
 30
0.0
 40
0.0351448249436384
100
AcDbArc
 50
351.9505330245
 51
78.578246341
  0
ARC
  5
151
330
1F
100
AcDbEntity
  8
0
  6
Continuous
 62
     7
370
    25
100
AcDbCircle
 10
-46.2795275591
 20
15.7086614173
 30
0.0
 40
0.0393700787401698
100
AcDbArc
 50
0.0
 51
90.0
  0
ARC
  5
152
330
1F
100
AcDbEntity
  8
0
  6
Continuous
 62
     7
370
    25
100
AcDbCircle
 10
15.6171959329
 20
0.0344488189
 30
0.0
 40
0.0351448249436187
100
AcDbArc
 50
171.9505330245
 51
258.578246341
  0
ARC
  5
153
330
1F
100
AcDbEntity
  8
0
  6
Continuous
 62
     7
370
    25
100
AcDbCircle
 10
15.6102362205
 20
0.0393700787
 30
0.0
 40
0.0393700787401577
100
AcDbArc
 50
270.0
 51
0.0
  0
ARC
  5
154
330
1F
100
AcDbEntity
  8
0
  6
Continuous
 62
     7
370
    25
100
AcDbCircle
 10
15.6171959329
 20
15.7135826772
 30
0.0
 40
0.0351448249436217
100
AcDbArc
 50
101.421753659
 51
188.0494669755
  0
ARC
  5
155
330
1F
100
AcDbEntity
  8
0
  6
Continuous
 62
     7
370
    25
100
AcDbCircle
 10
15.6102362205
 20
15.7086614173
 30
0.0
 40
0.0393700787401574
100
AcDbArc
 50
0.0
 51
90.0
  0
ARC
  5
156
330
1F
100
AcDbEntity
  8
0
  6
Continuous
 62
     7
370
    25
100
AcDbCircle
 10
14.987274673
 20
15.7135826772
 30
0.0
 40
0.0351448249436185
100
AcDbArc
 50
101.421753659
 51
188.0494669755
  0
ARC
  5
157
330
1F
100
AcDbEntity
  8
0
  6
Continuous
 62
     7
370
    25
100
AcDbCircle
 10
14.9803149606
 20
15.7086614173
 30
0.0
 40
0.0393700787401592
100
AcDbArc
 50
90.0
 51
180.0
  0
ARC
  5
158
330
1F
100
AcDbEntity
  8
0
  6
Continuous
 62
     7
370
    25
100
AcDbCircle
 10
-15.6820166655
 20
0.0344488189
 30
0.0
 40
0.0351448249436123
100
AcDbArc
 50
171.9505330245
 51
258.578246341
  0
ARC
  5
159
330
1F
100
AcDbEntity
  8
0
  6
Continuous
 62
     7
370
    25
100
AcDbCircle
 10
-15.688976378
 20
0.0393700787
 30
0.0
 40
0.0393700787401592
100
AcDbArc
 50
270.0
 51
0.0
  0
ARC
  5
15A
330
1F
100
AcDbEntity
  8
0
  6
Continuous
 62
     7
370
    25
100
AcDbCircle
 10
-15.6820166655
 20
15.7135826772
 30
0.0
 40
0.0351448249436185
100
AcDbArc
 50
101.421753659
 51
188.0494669755
  0
ARC
  5
15B
330
1F
100
AcDbEntity
  8
0
  6
Continuous
 62
     7
370
    25
100
AcDbCircle
 10
-15.688976378
 20
15.7086614173
 30
0.0
 40
0.0393700787401574
100
AcDbArc
 50
0.0
 51
90.0
  0
ARC
  5
15C
330
1F
100
AcDbEntity
  8
0
  6
Continuous
 62
     7
370
    25
100
AcDbCircle
 10
-16.3119379254
 20
15.7135826772
 30
0.0
 40
0.0351448249436137
100
AcDbArc
 50
101.421753659
 51
188.0494669755
  0
ARC
  5
15D
330
1F
100
AcDbEntity
  8
0
  6
Continuous
 62
     7
370
    25
100
AcDbCircle
 10
-16.3188976378
 20
15.7086614173
 30
0.0
 40
0.0393700787401592
100
AcDbArc
 50
90.0
 51
180.0
  0
ARC
  5
15E
330
1F
100
AcDbEntity
  8
0
  6
Continuous
 62
     7
370
    25
100
AcDbCircle
 10
14.9015748031
 20
15.7086614173
 30
0.0
 40
0.0393700787401574
100
AcDbArc
 50
0.0
 51
90.0
  0
ARC
  5
15F
330
1F
100
AcDbEntity
  8
0
  6
Continuous
 62
     7
370
    25
100
AcDbCircle
 10
-14.9015748031
 20
15.7086614173
 30
0.0
 40
0.0393700787401592
100
AcDbArc
 50
90.0
 51
180.0
  0
ARC
  5
160
330
1F
100
AcDbEntity
  8
0
  6
Continuous
 62
     7
370
    25
100
AcDbCircle
 10
-46.2007874016
 20
15.7086614173
 30
0.0
 40
0.0393700787401698
100
AcDbArc
 50
90.0
 51
180.0
  0
ARC
  5
161
330
1F
100
AcDbEntity
  8
0
  6
Continuous
 62
     7
370
    25
100
AcDbCircle
 10
-16.3976377953
 20
15.7086614173
 30
0.0
 40
0.0393700787401539
100
AcDbArc
 50
360.0
 51
90.0
  0
LINE
  5
166
330
1B
100
AcDbEntity
 67
     1
  8
0
  6
Continuous
 62
     7
370
    25
100
AcDbLine
 10
8.9173228346
 20
15.7480314961
 30
0.0
 11
-8.9960629921
 21
15.7480314961
 31
0.0
  0
LINE
  5
167
330
1B
100
AcDbEntity
 67
     1
  8
0
  6
Continuous
 62
     7
370
    25
100
AcDbLine
 10
8.9173228346
 20
0.0
 30
0.0
 11
-8.9960629921
 21
0.0
 31
0.0
  0
LINE
  5
168
330
1B
100
AcDbEntity
 67
     1
  8
0
  6
Continuous
 62
     7
370
    25
100
AcDbLine
 10
-8.9960629921
 20
15.7480314961
 30
0.0
 11
-8.9960629921
 21
0.0
 31
0.0
  0
LINE
  5
169
330
1B
100
AcDbEntity
 67
     1
  8
0
  6
Continuous
 62
     7
370
    25
100
AcDbLine
 10
8.9173228346
 20
15.7480314961
 30
0.0
 11
8.9173228346
 21
0.0
 31
0.0
  0
VIEWPORT
  5
55C
330
1B
100
AcDbEntity
 67
     1
  8
0
100
AcDbViewport
 10
0.0
 20
0.0
 30
0.0
 40
8.4
 41
6.4
 68
     1
 69
     1
 12
-15.6496062992
 22
7.874015748
 13
0.0
 23
0.0
 14
0.5
 24
0.5
 15
0.5
 25
0.5
 16
0.0
 26
0.0
 36
1.0
 17
0.0
 27
0.0
 37
0.0
 42
50.0
 43
0.0
 44
0.0
 45
60.8863892013
 50
0.0
 51
0.0
 72
   100
 90
   557152
  1

281
     0
 71
     1
 74
     0
110
0.0
120
0.0
130
0.0
111
1.0
121
0.0
131
0.0
112
0.0
122
1.0
132
0.0
 79
     0
146
0.0
  0
ENDSEC
  0
SECTION
  2
OBJECTS
  0
DICTIONARY
  5
C
330
0
100
AcDbDictionary
281
     1
  3
ACAD_GROUP
350
D
  3
ACAD_LAYOUT
350
1A
  3
ACAD_MLINESTYLE
350
17
  3
ACAD_PLOTSETTINGS
350
19
  3
ACAD_PLOTSTYLENAME
350
E
  3
ACAD_SCALELIST
350
47
  0
DICTIONARY
  5
D
102
{ACAD_REACTORS
330
C
102
}
330
C
100
AcDbDictionary
281
     1
  0
DICTIONARY
  5
1A
102
{ACAD_REACTORS
330
C
102
}
330
C
100
AcDbDictionary
281
     1
  3
_Isometric
350
2EC
  3
_Left
350
1E
  3
_Right
350
26
  3
_Top
350
173
  3
Model
350
22
  0
DICTIONARY
  5
17
102
{ACAD_REACTORS
330
C
102
}
330
C
100
AcDbDictionary
281
     1
  3
Standard
350
18
  0
DICTIONARY
  5
19
102
{ACAD_REACTORS
330
C
102
}
330
C
100
AcDbDictionary
281
     1
  0
ACDBDICTIONARYWDFLT
  5
E
102
{ACAD_REACTORS
330
C
102
}
330
C
100
AcDbDictionary
281
     1
  3
Normal
350
F
100
AcDbDictionaryWithDefault
340
F
  0
DICTIONARY
  5
47
102
{ACAD_REACTORS
330
C
102
}
330
C
100
AcDbDictionary
281
     1
  3
A0
350
48
  3
A1
350
49
  3
A2
350
4A
  3
A3
350
4B
  3
A4
350
4C
  3
A5
350
4D
  3
A6
350
4E
  3
A7
350
4F
  3
A8
350
50
  3
A9
350
51
  3
B0
350
52
  3
B1
350
53
  3
B2
350
54
  3
B3
350
55
  3
B4
350
56
  3
B5
350
57
  3
B6
350
58
  3
B7
350
59
  3
B8
350
5A
  3
B9
350
5B
  3
C0
350
5C
  3
C1
350
5D
  3
C2
350
5E
  3
C3
350
5F
  3
C4
350
60
  3
C5
350
61
  3
C6
350
62
  3
C7
350
63
  3
C8
350
64
  3
C9
350
65
  3
D0
350
66
  3
D1
350
67
  3
D2
350
68
  0
LAYOUT
  5
2EC
102
{ACAD_REACTORS
330
1A
102
}
330
1A
100
AcDbPlotSettings
  1

  2
none_device
  4
Letter_(8.50_x_11.00_Inches)
  6

 40
6.35
 41
6.35
 42
6.35001
 43
6.35001
 44
215.9
 45
279.4
 46
0.0
 47
0.0
 48
0.0
 49
0.0
140
0.0
141
0.0
142
1.0
143
1.9685040339
 70
   688
 72
     0
 73
     1
 74
     1
  7

 75
     0
147
0.507999975
148
228.5
149
0.0
100
AcDbLayout
  1
_Isometric
 70
     1
 71
     4
 10
0.0
 20
0.0
 11
0.0
 21
0.0
 12
0.0
 22
0.0
 32
0.0
 14
0.0
 24
0.0
 34
0.0
 15
0.0
 25
0.0
 35
0.0
146
0.0
 13
0.0
 23
0.0
 33
0.0
 16
1.0
 26
0.0
 36
0.0
 17
0.0
 27
1.0
 37
0.0
 76
     0
330
2EB
331
562
  0
LAYOUT
  5
1E
102
{ACAD_REACTORS
330
1A
102
}
330
1A
100
AcDbPlotSettings
  1

  2
none_device
  4
Letter_(8.50_x_11.00_Inches)
  6

 40
6.35
 41
6.35
 42
6.35001
 43
6.35001
 44
215.9
 45
279.4
 46
0.0
 47
0.0
 48
0.0
 49
0.0
140
0.0
141
0.0
142
1.0
143
1.9685040339
 70
   688
 72
     0
 73
     1
 74
     1
  7

 75
     0
147
0.507999975
148
228.5
149
0.0
100
AcDbLayout
  1
_Left
 70
     1
 71
     1
 10
-9.4881897756
 20
-0.4921260085
 11
12.1653545971
 21
16.2401582795
 12
0.0
 22
0.0
 32
0.0
 14
-8.9960629921
 24
0.0
 34
0.0
 15
8.9173228346
 25
15.7480314961
 35
0.0
146
0.0
 13
0.0
 23
0.0
 33
0.0
 16
1.0
 26
0.0
 36
0.0
 17
0.0
 27
1.0
 37
0.0
 76
     0
330
1B
331
55C
  0
LAYOUT
  5
26
102
{ACAD_REACTORS
330
1A
102
}
330
1A
100
AcDbPlotSettings
  1

  2
none_device
  4
Letter_(8.50_x_11.00_Inches)
  6

 40
6.35
 41
6.35
 42
6.35001
 43
6.35001
 44
215.9
 45
279.4
 46
0.0
 47
0.0
 48
0.0
 49
0.0
140
0.0
141
0.0
142
1.0
143
1.9685040339
 70
   688
 72
     0
 73
     1
 74
     1
  7

 75
     0
147
0.507999975
148
228.5
149
0.0
100
AcDbLayout
  1
_Right
 70
     1
 71
     2
 10
0.0
 20
0.0
 11
0.0
 21
0.0
 12
0.0
 22
0.0
 32
0.0
 14
0.0
 24
0.0
 34
0.0
 15
0.0
 25
0.0
 35
0.0
146
0.0
 13
0.0
 23
0.0
 33
0.0
 16
1.0
 26
0.0
 36
0.0
 17
0.0
 27
1.0
 37
0.0
 76
     0
330
23
331
55E
  0
LAYOUT
  5
173
102
{ACAD_REACTORS
330
1A
102
}
330
1A
100
AcDbPlotSettings
  1

  2
none_device
  4
Letter_(8.50_x_11.00_Inches)
  6

 40
6.35
 41
6.35
 42
6.35001
 43
6.35001
 44
215.9
 45
279.4
 46
0.0
 47
0.0
 48
0.0
 49
0.0
140
0.0
141
0.0
142
1.0
143
1.9685040339
 70
   688
 72
     0
 73
     1
 74
     1
  7

 75
     0
147
0.507999975
148
228.5
149
0.0
100
AcDbLayout
  1
_Top
 70
     1
 71
     3
 10
0.0
 20
0.0
 11
0.0
 21
0.0
 12
0.0
 22
0.0
 32
0.0
 14
0.0
 24
0.0
 34
0.0
 15
0.0
 25
0.0
 35
0.0
146
0.0
 13
0.0
 23
0.0
 33
0.0
 16
1.0
 26
0.0
 36
0.0
 17
0.0
 27
1.0
 37
0.0
 76
     0
330
172
331
560
  0
LAYOUT
  5
22
102
{ACAD_REACTORS
330
1A
102
}
330
1A
100
AcDbPlotSettings
  1

  2
none_device
  4
ANSI_A_(11.00_x_8.50_Inches)
  6

 40
6.35
 41
19.05
 42
6.35000508
 43
19.05000254
 44
279.4
 45
215.9
 46
188.601698465
 47
61.1004007401
 48
0.0
 49
0.0
140
0.0
141
0.0
142
0.1389979899
143
1.0
 70
  1696
 72
     0
 73
     0
 74
     0
  7

 75
     0
147
0.5913241897
148
-39.4088153714
149
0.0
100
AcDbLayout
  1
Model
 70
     1
 71
     0
 10
0.0
 20
0.0
 11
12.0
 21
9.0
 12
0.0
 22
0.0
 32
0.0
 14
-54.8228346457
 24
0.0
 34
0.0
 15
23.5236220472
 25
15.7480314961
 35
0.0
146
0.0
 13
0.0
 23
0.0
 33
0.0
 16
1.0
 26
0.0
 36
0.0
 17
0.0
 27
1.0
 37
0.0
 76
     0
330
1F
331
29
  0
MLINESTYLE
  5
18
102
{ACAD_REACTORS
330
17
102
}
330
17
100
AcDbMlineStyle
  2
Standard
 70
     0
  3

 62
   256
 51
90.0
 52
90.0
 71
     2
 49
0.5
 62
   256
  6
BYLAYER
 49
-0.5
 62
   256
  6
BYLAYER
  0
ACDBPLACEHOLDER
  5
F
102
{ACAD_REACTORS
330
E
102
}
330
E
  0
SCALE
  5
48
102
{ACAD_REACTORS
330
47
102
}
330
47
100
AcDbScale
 70
     0
300
1:1
140
1.0
141
1.0
290
     1
  0
SCALE
  5
49
102
{ACAD_REACTORS
330
47
102
}
330
47
100
AcDbScale
 70
     0
300
1:2
140
1.0
141
2.0
290
     0
  0
SCALE
  5
4A
102
{ACAD_REACTORS
330
47
102
}
330
47
100
AcDbScale
 70
     0
300
1:4
140
1.0
141
4.0
290
     0
  0
SCALE
  5
4B
102
{ACAD_REACTORS
330
47
102
}
330
47
100
AcDbScale
 70
     0
300
1:5
140
1.0
141
5.0
290
     0
  0
SCALE
  5
4C
102
{ACAD_REACTORS
330
47
102
}
330
47
100
AcDbScale
 70
     0
300
1:8
140
1.0
141
8.0
290
     0
  0
SCALE
  5
4D
102
{ACAD_REACTORS
330
47
102
}
330
47
100
AcDbScale
 70
     0
300
1:10
140
1.0
141
10.0
290
     0
  0
SCALE
  5
4E
102
{ACAD_REACTORS
330
47
102
}
330
47
100
AcDbScale
 70
     0
300
1:16
140
1.0
141
16.0
290
     0
  0
SCALE
  5
4F
102
{ACAD_REACTORS
330
47
102
}
330
47
100
AcDbScale
 70
     0
300
1:20
140
1.0
141
20.0
290
     0
  0
SCALE
  5
50
102
{ACAD_REACTORS
330
47
102
}
330
47
100
AcDbScale
 70
     0
300
1:30
140
1.0
141
30.0
290
     0
  0
SCALE
  5
51
102
{ACAD_REACTORS
330
47
102
}
330
47
100
AcDbScale
 70
     0
300
1:40
140
1.0
141
40.0
290
     0
  0
SCALE
  5
52
102
{ACAD_REACTORS
330
47
102
}
330
47
100
AcDbScale
 70
     0
300
1:50
140
1.0
141
50.0
290
     0
  0
SCALE
  5
53
102
{ACAD_REACTORS
330
47
102
}
330
47
100
AcDbScale
 70
     0
300
1:100
140
1.0
141
100.0
290
     0
  0
SCALE
  5
54
102
{ACAD_REACTORS
330
47
102
}
330
47
100
AcDbScale
 70
     0
300
2:1
140
2.0
141
1.0
290
     0
  0
SCALE
  5
55
102
{ACAD_REACTORS
330
47
102
}
330
47
100
AcDbScale
 70
     0
300
4:1
140
4.0
141
1.0
290
     0
  0
SCALE
  5
56
102
{ACAD_REACTORS
330
47
102
}
330
47
100
AcDbScale
 70
     0
300
8:1
140
8.0
141
1.0
290
     0
  0
SCALE
  5
57
102
{ACAD_REACTORS
330
47
102
}
330
47
100
AcDbScale
 70
     0
300
10:1
140
10.0
141
1.0
290
     0
  0
SCALE
  5
58
102
{ACAD_REACTORS
330
47
102
}
330
47
100
AcDbScale
 70
     0
300
100:1
140
100.0
141
1.0
290
     0
  0
SCALE
  5
59
102
{ACAD_REACTORS
330
47
102
}
330
47
100
AcDbScale
 70
     0
300
1/128" = 1'-0"
140
0.0078125
141
12.0
290
     0
  0
SCALE
  5
5A
102
{ACAD_REACTORS
330
47
102
}
330
47
100
AcDbScale
 70
     0
300
1/64" = 1'-0"
140
0.015625
141
12.0
290
     0
  0
SCALE
  5
5B
102
{ACAD_REACTORS
330
47
102
}
330
47
100
AcDbScale
 70
     0
300
1/32" = 1'-0"
140
0.03125
141
12.0
290
     0
  0
SCALE
  5
5C
102
{ACAD_REACTORS
330
47
102
}
330
47
100
AcDbScale
 70
     0
300
1/16" = 1'-0"
140
0.0625
141
12.0
290
     0
  0
SCALE
  5
5D
102
{ACAD_REACTORS
330
47
102
}
330
47
100
AcDbScale
 70
     0
300
3/32" = 1'-0"
140
0.09375
141
12.0
290
     0
  0
SCALE
  5
5E
102
{ACAD_REACTORS
330
47
102
}
330
47
100
AcDbScale
 70
     0
300
1/8" = 1'-0"
140
0.125
141
12.0
290
     0
  0
SCALE
  5
5F
102
{ACAD_REACTORS
330
47
102
}
330
47
100
AcDbScale
 70
     0
300
3/16" = 1'-0"
140
0.1875
141
12.0
290
     0
  0
SCALE
  5
60
102
{ACAD_REACTORS
330
47
102
}
330
47
100
AcDbScale
 70
     0
300
1/4" = 1'-0"
140
0.25
141
12.0
290
     0
  0
SCALE
  5
61
102
{ACAD_REACTORS
330
47
102
}
330
47
100
AcDbScale
 70
     0
300
3/8" = 1'-0"
140
0.375
141
12.0
290
     0
  0
SCALE
  5
62
102
{ACAD_REACTORS
330
47
102
}
330
47
100
AcDbScale
 70
     0
300
1/2" = 1'-0"
140
0.5
141
12.0
290
     0
  0
SCALE
  5
63
102
{ACAD_REACTORS
330
47
102
}
330
47
100
AcDbScale
 70
     0
300
3/4" = 1'-0"
140
0.75
141
12.0
290
     0
  0
SCALE
  5
64
102
{ACAD_REACTORS
330
47
102
}
330
47
100
AcDbScale
 70
     0
300
1" = 1'-0"
140
1.0
141
12.0
290
     0
  0
SCALE
  5
65
102
{ACAD_REACTORS
330
47
102
}
330
47
100
AcDbScale
 70
     0
300
1-1/2" = 1'-0"
140
1.5
141
12.0
290
     0
  0
SCALE
  5
66
102
{ACAD_REACTORS
330
47
102
}
330
47
100
AcDbScale
 70
     0
300
3" = 1'-0"
140
3.0
141
12.0
290
     0
  0
SCALE
  5
67
102
{ACAD_REACTORS
330
47
102
}
330
47
100
AcDbScale
 70
     0
300
6" = 1'-0"
140
6.0
141
12.0
290
     0
  0
SCALE
  5
68
102
{ACAD_REACTORS
330
47
102
}
330
47
100
AcDbScale
 70
     0
300
1'-0" = 1'-0"
140
12.0
141
12.0
290
     0
  0
ENDSEC
  0
EOF
