  0
SECTION
  2
HEADER
  9
$ACADVER
  1
AC1015
  9
$ACADMAINTVER
 70
     6
  9
$DWGCODEPAGE
  3
ANSI_1252
  9
$INSBASE
 10
0.0
 20
0.0
 30
0.0
  9
$EXTMIN
 10
-54.8228346457
 20
0.0
 30
0.0
  9
$EXTMAX
 10
15.6496062992
 20
15.7480314961
 30
0.0
  9
$LIMMIN
 10
0.0
 20
0.0
  9
$LIMMAX
 10
12.0
 20
9.0
  9
$ORTHOMODE
 70
     0
  9
$REGENMODE
 70
     1
  9
$FILLMODE
 70
     1
  9
$QTEXTMODE
 70
     0
  9
$MIRRTEXT
 70
     1
  9
$LTSCALE
 40
1.0
  9
$ATTMODE
 70
     1
  9
$TEXTSIZE
 40
0.1377952756
  9
$TRACEWID
 40
0.05
  9
$TEXTSTYLE
  7
Standard
  9
$CLAYER
  8
0
  9
$CELTYPE
  6
ByLayer
  9
$CECOLOR
 62
   256
  9
$CELTSCALE
 40
1.0
  9
$DISPSILH
 70
     0
  9
$DIMSCALE
 40
1.0
  9
$DIMASZ
 40
0.13
  9
$DIMEXO
 40
0.0393700787
  9
$DIMDLI
 40
0.38
  9
$DIMRND
 40
0.0
  9
$DIMDLE
 40
0.0
  9
$DIMEXE
 40
0.0393700787
  9
$DIMTP
 40
0.0
  9
$DIMTM
 40
0.0
  9
$DIMTXT
 40
0.1377952756
  9
$DIMCEN
 40
0.09
  9
$DIMTSZ
 40
0.0
  9
$DIMTOL
 70
     0
  9
$DIMLIM
 70
     0
  9
$DIMTIH
 70
     1
  9
$DIMTOH
 70
     1
  9
$DIMSE1
 70
     0
  9
$DIMSE2
 70
     0
  9
$DIMTAD
 70
     1
  9
$DIMZIN
 70
     1
  9
$DIMBLK
  1

  9
$DIMASO
 70
     1
  9
$DIMSHO
 70
     1
  9
$DIMPOST
  1

  9
$DIMAPOST
  1

  9
$DIMALT
 70
     0
  9
$DIMALTD
 70
     2
  9
$DIMALTF
 40
25.4
  9
$DIMLFAC
 40
1.0
  9
$DIMTOFL
 70
     0
  9
$DIMTVP
 40
0.0
  9
$DIMTIX
 70
     0
  9
$DIMSOXD
 70
     0
  9
$DIMSAH
 70
     0
  9
$DIMBLK1
  1

  9
$DIMBLK2
  1

  9
$DIMSTYLE
  2
Standard
  9
$DIMCLRD
 70
     0
  9
$DIMCLRE
 70
     0
  9
$DIMCLRT
 70
     0
  9
$DIMTFAC
 40
1.0
  9
$DIMGAP
 40
0.06
  9
$DIMJUST
 70
     0
  9
$DIMSD1
 70
     0
  9
$DIMSD2
 70
     0
  9
$DIMTOLJ
 70
     1
  9
$DIMTZIN
 70
     1
  9
$DIMALTZ
 70
     0
  9
$DIMALTTZ
 70
     0
  9
$DIMUPT
 70
     0
  9
$DIMDEC
 70
     2
  9
$DIMTDEC
 70
     2
  9
$DIMALTU
 70
     2
  9
$DIMALTTD
 70
     2
  9
$DIMTXSTY
  7
Standard
  9
$DIMAUNIT
 70
     0
  9
$DIMADEC
 70
     2
  9
$DIMALTRND
 40
0.0
  9
$DIMAZIN
 70
     0
  9
$DIMDSEP
 70
    46
  9
$DIMATFIT
 70
     3
  9
$DIMFRAC
 70
     0
  9
$DIMLDRBLK
  1

  9
$DIMLUNIT
 70
     2
  9
$DIMLWD
 70
    -2
  9
$DIMLWE
 70
    -2
  9
$DIMTMOVE
 70
     0
  9
$LUNITS
 70
     2
  9
$LUPREC
 70
     2
  9
$SKETCHINC
 40
0.1
  9
$FILLETRAD
 40
0.5
  9
$AUNITS
 70
     0
  9
$AUPREC
 70
     2
  9
$MENU
  1
.
  9
$ELEVATION
 40
0.0
  9
$PELEVATION
 40
0.0
  9
$THICKNESS
 40
0.0
  9
$LIMCHECK
 70
     0
  9
$CHAMFERA
 40
0.0
  9
$CHAMFERB
 40
0.0
  9
$CHAMFERC
 40
0.0
  9
$CHAMFERD
 40
0.0
  9
$SKPOLY
 70
     0
  9
$TDCREATE
 40
2460405.628470336
  9
$TDUCREATE
 40
2460405.586803669
  9
$TDUPDATE
 40
2460405.628507315
  9
$TDUUPDATE
 40
2460405.586840648
  9
$TDINDWG
 40
0.0000000116
  9
$TDUSRTIMER
 40
0.0000000116
  9
$USRTIMER
 70
     1
  9
$ANGBASE
 50
0.0
  9
$ANGDIR
 70
     0
  9
$PDMODE
 70
     0
  9
$PDSIZE
 40
-1.0
  9
$PLINEWID
 40
0.0
  9
$SPLFRAME
 70
     0
  9
$SPLINETYPE
 70
     6
  9
$SPLINESEGS
 70
     8
  9
$HANDSEED
  5
58C
  9
$SURFTAB1
 70
     6
  9
$SURFTAB2
 70
     6
  9
$SURFTYPE
 70
     6
  9
$SURFU
 70
     6
  9
$SURFV
 70
     6
  9
$UCSBASE
  2

  9
$UCSNAME
  2

  9
$UCSORG
 10
0.0
 20
0.0
 30
0.0
  9
$UCSXDIR
 10
1.0
 20
0.0
 30
0.0
  9
$UCSYDIR
 10
0.0
 20
1.0
 30
0.0
  9
$UCSORTHOREF
  2

  9
$UCSORTHOVIEW
 70
     0
  9
$UCSORGTOP
 10
0.0
 20
0.0
 30
0.0
  9
$UCSORGBOTTOM
 10
0.0
 20
0.0
 30
0.0
  9
$UCSORGLEFT
 10
0.0
 20
0.0
 30
0.0
  9
$UCSORGRIGHT
 10
0.0
 20
0.0
 30
0.0
  9
$UCSORGFRONT
 10
0.0
 20
0.0
 30
0.0
  9
$UCSORGBACK
 10
0.0
 20
0.0
 30
0.0
  9
$PUCSBASE
  2

  9
$PUCSNAME
  2

  9
$PUCSORG
 10
0.0
 20
0.0
 30
0.0
  9
$PUCSXDIR
 10
1.0
 20
0.0
 30
0.0
  9
$PUCSYDIR
 10
0.0
 20
1.0
 30
0.0
  9
$PUCSORTHOREF
  2

  9
$PUCSORTHOVIEW
 70
     0
  9
$PUCSORGTOP
 10
0.0
 20
0.0
 30
0.0
  9
$PUCSORGBOTTOM
 10
0.0
 20
0.0
 30
0.0
  9
$PUCSORGLEFT
 10
0.0
 20
0.0
 30
0.0
  9
$PUCSORGRIGHT
 10
0.0
 20
0.0
 30
0.0
  9
$PUCSORGFRONT
 10
0.0
 20
0.0
 30
0.0
  9
$PUCSORGBACK
 10
0.0
 20
0.0
 30
0.0
  9
$USERI1
 70
     0
  9
$USERI2
 70
     0
  9
$USERI3
 70
     0
  9
$USERI4
 70
     0
  9
$USERI5
 70
     0
  9
$USERR1
 40
0.0
  9
$USERR2
 40
0.0
  9
$USERR3
 40
0.0
  9
$USERR4
 40
0.0
  9
$USERR5
 40
0.0
  9
$WORLDVIEW
 70
     1
  9
$SHADEDGE
 70
     3
  9
$SHADEDIF
 70
    70
  9
$TILEMODE
 70
     1
  9
$MAXACTVP
 70
    64
  9
$PINSBASE
 10
0.0
 20
0.0
 30
0.0
  9
$PLIMCHECK
 70
     0
  9
$PEXTMIN
 10
-8.9960629921
 20
0.0
 30
0.0
  9
$PEXTMAX
 10
8.9173228346
 20
15.7480314961
 30
0.0
  9
$PLIMMIN
 10
-9.4881897756
 20
-0.4921260085
  9
$PLIMMAX
 10
12.1653545971
 20
16.2401582795
  9
$UNITMODE
 70
     0
  9
$VISRETAIN
 70
     1
  9
$PLINEGEN
 70
     0
  9
$PSLTSCALE
 70
     1
  9
$TREEDEPTH
 70
  3020
  9
$CMLSTYLE
  2
Standard
  9
$CMLJUST
 70
     0
  9
$CMLSCALE
 40
1.0
  9
$PROXYGRAPHICS
 70
     1
  9
$MEASUREMENT
 70
     0
  9
$CELWEIGHT
370
    -1
  9
$ENDCAPS
280
     0
  9
$JOINSTYLE
280
     0
  9
$LWDISPLAY
290
     1
  9
$INSUNITS
 70
     1
  9
$HYPERLINKBASE
  1

  9
$STYLESHEET
  1

  9
$XEDIT
290
     1
  9
$CEPSNTYPE
380
     0
  9
$PSTYLEMODE
290
     1
  9
$FINGERPRINTGUID
  2
{1397d3d7-055f-4564-8654-faaba8b19eea}
  9
$VERSIONGUID
  2
{FAEB1C32-E019-11D5-929B-00C0DF256EC4}
  9
$EXTNAMES
290
     1
  9
$PSVPSCALE
 40
0.0
  9
$OLESTARTUP
290
     0
  0
ENDSEC
  0
SECTION
  2
CLASSES
  0
CLASS
  1
ACDBDICTIONARYWDFLT
  2
AcDbDictionaryWithDefault
  3
ObjectDBX Classes
 90
        0
280
     0
281
     0
  0
CLASS
  1
VISUALSTYLE
  2
AcDbVisualStyle
  3
ObjectDBX Classes
 90
     4095
280
     0
281
     0
  0
CLASS
  1
MATERIAL
  2
AcDbMaterial
  3
ObjectDBX Classes
 90
     1153
280
     0
281
     0
  0
CLASS
  1
SCALE
  2
AcDbScale
  3
ObjectDBX Classes
 90
     1153
280
     0
281
     0
  0
CLASS
  1
TABLESTYLE
  2
AcDbTableStyle
  3
ObjectDBX Classes
 90
     4095
280
     0
281
     0
  0
CLASS
  1
MLEADERSTYLE
  2
AcDbMLeaderStyle
  3
ACDB_MLEADERSTYLE_CLASS
 90
     4095
280
     0
281
     0
  0
CLASS
  1
SUN
  2
AcDbSun
  3
SCENEOE
 90
     1153
280
     0
281
     0
  0
CLASS
  1
ACDBPLACEHOLDER
  2
AcDbPlaceHolder
  3
ObjectDBX Classes
 90
        0
280
     0
281
     0
  0
CLASS
  1
LAYOUT
  2
AcDbLayout
  3
ObjectDBX Classes
 90
        0
280
     0
281
     0
  0
ENDSEC
  0
SECTION
  2
TABLES
  0
TABLE
  2
VPORT
  5
8
330
0
100
AcDbSymbolTable
 70
     1
  0
VPORT
  5
29
330
8
100
AcDbSymbolTableRecord
100
AcDbViewportTableRecord
  2
*Active
 70
     0
 10
0.0
 20
0.0
 11
1.0
 21
1.0
 12
-19.5866141732
 22
7.874015748
 13
0.0
 23
0.0
 14
0.5
 24
0.5
 15
0.5
 25
0.5
 16
0.0
 26
0.0
 36
1.0
 17
0.0
 27
0.0
 37
0.0
 40
16.062992126
 41
4.475
 42
50.0
 43
0.0
 44
0.0
 50
0.0
 51
0.0
 71
     0
 72
   100
 73
     1
 74
     3
 75
     0
 76
     0
 77
     0
 78
     0
281
     0
 65
     1
110
0.0
120
0.0
130
0.0
111
1.0
121
0.0
131
0.0
112
0.0
122
1.0
132
0.0
 79
     0
146
0.0
  0
ENDTAB
  0
TABLE
  2
LTYPE
  5
5
330
0
100
AcDbSymbolTable
 70
     6
  0
LTYPE
  5
14
330
5
100
AcDbSymbolTableRecord
100
AcDbLinetypeTableRecord
  2
ByBlock
 70
     0
  3

 72
    65
 73
     0
 40
0.0
  0
LTYPE
  5
15
330
5
100
AcDbSymbolTableRecord
100
AcDbLinetypeTableRecord
  2
ByLayer
 70
     0
  3

 72
    65
 73
     0
 40
0.0
  0
LTYPE
  5
16
330
5
100
AcDbSymbolTableRecord
100
AcDbLinetypeTableRecord
  2
Continuous
 70
     0
  3
Solid line
 72
    65
 73
     0
 40
0.0
  0
LTYPE
  5
6E
330
5
100
AcDbSymbolTableRecord
100
AcDbLinetypeTableRecord
  2
HIDDEN
 70
     0
  3
Hidden __ __ __ __ __ __ __ __ __ __ __ __ __ __
 72
    65
 73
     2
 40
0.075
 49
0.05
 74
     0
 49
-0.025
 74
     0
  0
LTYPE
  5
6F
330
5
100
AcDbSymbolTableRecord
100
AcDbLinetypeTableRecord
  2
PHANTOM
 70
     0
  3
Phantom ______  __  __  ______  __  __  ______
 72
    65
 73
     6
 40
0.5
 49
0.25
 74
     0
 49
-0.05
 74
     0
 49
0.05
 74
     0
 49
-0.05
 74
     0
 49
0.05
 74
     0
 49
-0.05
 74
     0
  0
LTYPE
  5
70
330
5
100
AcDbSymbolTableRecord
100
AcDbLinetypeTableRecord
  2
CENTER
 70
     0
  3
Center ____ _ ____ _ ____ _ ____ _ ____ _ ____
 72
    65
 73
     4
 40
0.4
 49
0.25
 74
     0
 49
-0.05
 74
     0
 49
0.05
 74
     0
 49
-0.05
 74
     0
  0
LTYPE
  5
71
330
5
100
AcDbSymbolTableRecord
100
AcDbLinetypeTableRecord
  2
CENTERX2
 70
     0
  3
Center (2x) ________  __  ________  __  _____
 72
    65
 73
     4
 40
0.8
 49
0.5
 74
     0
 49
-0.1
 74
     0
 49
0.1
 74
     0
 49
-0.1
 74
     0
  0
LTYPE
  5
72
330
5
100
AcDbSymbolTableRecord
100
AcDbLinetypeTableRecord
  2
DOT2
 70
     0
  3
Dot (.5x) ........................................
 72
    65
 73
     2
 40
0.025
 49
0.0
 74
     0
 49
-0.025
 74
     0
  0
ENDTAB
  0
TABLE
  2
LAYER
  5
2
330
0
100
AcDbSymbolTable
 70
     1
  0
LAYER
  5
10
330
2
100
AcDbSymbolTableRecord
100
AcDbLayerTableRecord
  2
0
 70
     0
 62
     7
  6
Continuous
370
    -3
390
F
  0
ENDTAB
  0
TABLE
  2
STYLE
  5
3
330
0
100
AcDbSymbolTable
 70
     1
  0
STYLE
  5
11
330
3
100
AcDbSymbolTableRecord
100
AcDbTextStyleTableRecord
  2
Standard
 70
     0
 40
0.0
 41
1.0
 50
0.0
 71
     0
 42
0.1377952756
  3
txt
  4

  0
ENDTAB
  0
TABLE
  2
VIEW
  5
6
330
0
100
AcDbSymbolTable
 70
     0
  0
ENDTAB
  0
TABLE
  2
UCS
  5
7
330
0
100
AcDbSymbolTable
 70
     0
  0
ENDTAB
  0
TABLE
  2
APPID
  5
9
330
0
100
AcDbSymbolTable
 70
     1
  0
APPID
  5
12
330
9
100
AcDbSymbolTableRecord
100
AcDbRegAppTableRecord
  2
ACAD
 70
     0
  0
ENDTAB
  0
TABLE
  2
DIMSTYLE
  5
A
330
0
100
AcDbSymbolTable
 70
     1
100
AcDbDimStyleTable
  0
DIMSTYLE
105
27
330
A
100
AcDbSymbolTableRecord
100
AcDbDimStyleTableRecord
  2
Standard
 70
     0
178
     0
340
11
  0
ENDTAB
  0
TABLE
  2
BLOCK_RECORD
  5
1
330
0
100
AcDbSymbolTable
 70
     3
  0
BLOCK_RECORD
  5
1F
330
1
100
AcDbSymbolTableRecord
100
AcDbBlockTableRecord
  2
*Model_Space
340
22
  0
BLOCK_RECORD
  5
1B
330
1
100
AcDbSymbolTableRecord
100
AcDbBlockTableRecord
  2
*Paper_Space
340
1E
  0
BLOCK_RECORD
  5
23
330
1
100
AcDbSymbolTableRecord
100
AcDbBlockTableRecord
  2
*Paper_Space0
340
26
  0
BLOCK_RECORD
  5
1AD
330
1
100
AcDbSymbolTableRecord
100
AcDbBlockTableRecord
  2
*Paper_Space1
340
1AE
  0
BLOCK_RECORD
  5
321
330
1
100
AcDbSymbolTableRecord
100
AcDbBlockTableRecord
  2
*Paper_Space2
340
322
  0
ENDTAB
  0
ENDSEC
  0
SECTION
  2
BLOCKS
  0
BLOCK
  5
20
330
1F
100
AcDbEntity
  8
0
100
AcDbBlockBegin
  2
*Model_Space
 70
     0
 10
0.0
 20
0.0
 30
0.0
  3
*Model_Space
  1

  0
ENDBLK
  5
21
330
1F
100
AcDbEntity
  8
0
100
AcDbBlockEnd
  0
BLOCK
  5
1C
330
1B
100
AcDbEntity
 67
     1
  8
0
100
AcDbBlockBegin
  2
*Paper_Space
 70
     0
 10
0.0
 20
0.0
 30
0.0
  3
*Paper_Space
  1

  0
ENDBLK
  5
1D
330
1B
100
AcDbEntity
 67
     1
  8
0
100
AcDbBlockEnd
  0
BLOCK
  5
24
330
23
100
AcDbEntity
  8
0
100
AcDbBlockBegin
  2
*Paper_Space0
 70
     0
 10
0.0
 20
0.0
 30
0.0
  3
*Paper_Space0
  1

  0
LINE
  5
19E
330
23
100
AcDbEntity
  8
0
  6
Continuous
 62
     7
370
    25
100
AcDbLine
 10
-8.8616451353
 20
15.7086614173
 30
0.0
 11
-8.8616451353
 21
0.0393700787
 31
0.0
  0
LINE
  5
19F
330
23
100
AcDbEntity
  8
0
  6
Continuous
 62
     7
370
    25
100
AcDbLine
 10
8.9960629921
 20
0.0
 30
0.0
 11
-8.9173228346
 21
0.0
 31
0.0
  0
LINE
  5
1A0
330
23
100
AcDbEntity
  8
0
  6
Continuous
 62
     7
370
    25
100
AcDbLine
 10
-8.9173228346
 20
15.7480314961
 30
0.0
 11
8.9960629921
 21
15.7480314961
 31
0.0
  0
LINE
  5
1A1
330
23
100
AcDbEntity
  8
0
  6
Continuous
 62
     7
370
    25
100
AcDbLine
 10
8.9960629921
 20
15.7480314961
 30
0.0
 11
8.9960629921
 21
0.0
 31
0.0
  0
LINE
  5
1A2
330
23
100
AcDbEntity
  8
0
  6
Continuous
 62
     7
370
    25
100
AcDbLine
 10
-8.9173228346
 20
0.0
 30
0.0
 11
-8.9173228346
 21
15.7480314961
 31
0.0
  0
LINE
  5
1A3
330
23
100
AcDbEntity
  8
0
  6
Continuous
 62
     7
370
    25
100
AcDbLine
 10
8.9960629921
 20
15.7086614173
 30
0.0
 11
-8.8616451353
 21
15.7086614173
 31
0.0
  0
LINE
  5
1A4
330
23
100
AcDbEntity
  8
0
  6
Continuous
 62
     7
370
    25
100
AcDbLine
 10
-8.8222750566
 20
15.7480314961
 30
0.0
 11
-8.8222750566
 21
0.0
 31
0.0
  0
LINE
  5
1A5
330
23
100
AcDbEntity
  8
0
  6
Continuous
 62
     7
370
    25
100
AcDbLine
 10
8.9566929134
 20
0.0
 30
0.0
 11
8.9566929134
 21
15.7480314961
 31
0.0
  0
LINE
  5
1A6
330
23
100
AcDbEntity
  8
0
  6
Continuous
 62
     8
370
    25
100
AcDbLine
 10
-8.9173228346
 20
0.0393700787
 30
0.0
 11
8.9960629921
 21
0.0393700787
 31
0.0
  0
ARC
  5
1A7
330
23
100
AcDbEntity
  8
0
  6
Continuous
 62
     7
370
    25
100
AcDbCircle
 10
-8.8222750566
 20
0.0393700787
 30
0.0
 40
0.0393700787401574
100
AcDbArc
 50
180.0
 51
270.0
  0
ARC
  5
1A8
330
23
100
AcDbEntity
  8
0
  6
Continuous
 62
     7
370
    25
100
AcDbCircle
 10
-8.8222750566
 20
15.7086614173
 30
0.0
 40
0.0393700787401539
100
AcDbArc
 50
90.0
 51
180.0
  0
ARC
  5
1A9
330
23
100
AcDbEntity
  8
0
  6
Continuous
 62
     7
370
    25
100
AcDbCircle
 10
-8.8779527559
 20
0.0393700787
 30
0.0
 40
0.0393700787401574
100
AcDbArc
 50
180.0
 51
315.0
  0
ARC
  5
1AA
330
23
100
AcDbEntity
  8
0
  6
Continuous
 62
     7
370
    25
100
AcDbCircle
 10
-8.8779527559
 20
13.9437627116
 30
0.0
 40
0.0393700787401574
100
AcDbArc
 50
65.5301994793
 51
180.0
  0
ARC
  5
1AB
330
23
100
AcDbEntity
  8
0
  6
Continuous
 62
     7
370
    25
100
AcDbCircle
 10
8.9566929134
 20
15.7086614173
 30
0.0
 40
0.0393700787401556
100
AcDbArc
 50
360.0
 51
90.0
  0
ARC
  5
1AC
330
23
100
AcDbEntity
  8
0
  6
Continuous
 62
     7
370
    25
100
AcDbCircle
 10
8.9566929134
 20
0.0393700787
 30
0.0
 40
0.0393700787401574
100
AcDbArc
 50
270.0
 51
0.0
  0
VIEWPORT
  5
586
330
23
100
AcDbEntity
  8
0
100
AcDbViewport
 10
0.0
 20
0.0
 30
0.0
 40
8.4
 41
6.4
 68
     1
 69
     1
 12
-19.5866141732
 22
7.874015748
 13
0.0
 23
0.0
 14
0.5
 24
0.5
 15
0.5
 25
0.5
 16
0.0
 26
0.0
 36
1.0
 17
0.0
 27
0.0
 37
0.0
 42
50.0
 43
0.0
 44
0.0
 45
54.7671541057
 50
0.0
 51
0.0
 72
   100
 90
   557152
  1

281
     0
 71
     1
 74
     0
110
0.0
120
0.0
130
0.0
111
1.0
121
0.0
131
0.0
112
0.0
122
1.0
132
0.0
 79
     0
146
0.0
  0
ENDBLK
  5
25
330
23
100
AcDbEntity
  8
0
100
AcDbBlockEnd
  0
BLOCK
  5
1AF
330
1AD
100
AcDbEntity
  8
0
100
AcDbBlockBegin
  2
*Paper_Space1
 70
     0
 10
0.0
 20
0.0
 30
0.0
  3
*Paper_Space1
  1

  0
LINE
  5
299
330
1AD
100
AcDbEntity
  8
0
  6
Continuous
 62
     7
370
    25
100
AcDbLine
 10
-15.6496062992
 20
-8.9173228346
 30
0.0
 11
-15.6496062992
 21
8.9960629921
 31
0.0
  0
LINE
  5
29A
330
1AD
100
AcDbEntity
  8
0
  6
Continuous
 62
     7
370
    25
100
AcDbLine
 10
-15.6496062992
 20
8.9960629921
 30
0.0
 11
-23.5236220472
 21
8.9960629921
 31
0.0
  0
LINE
  5
29B
330
1AD
100
AcDbEntity
  8
0
  6
Continuous
 62
     7
370
    25
100
AcDbLine
 10
-15.6496062992
 20
-8.9173228346
 30
0.0
 11
-23.5236220472
 21
-8.9173228346
 31
0.0
  0
LINE
  5
29C
330
1AD
100
AcDbEntity
  8
0
  6
Continuous
 62
     7
370
    25
100
AcDbLine
 10
-23.5236220472
 20
-8.9173228346
 30
0.0
 11
-23.5236220472
 21
8.9960629921
 31
0.0
  0
LINE
  5
29D
330
1AD
100
AcDbEntity
  8
0
  6
Continuous
 62
     7
370
    25
100
AcDbLine
 10
-14.7637795276
 20
7.5393700787
 30
0.0
 11
-14.7637795276
 21
-7.5
 31
0.0
  0
LINE
  5
29E
330
1AD
100
AcDbEntity
  8
0
  6
Continuous
 62
     7
370
    25
100
AcDbLine
 10
-14.0551181102
 20
-7.5
 30
0.0
 11
-14.0551181102
 21
7.5393700787
 31
0.0
  0
LINE
  5
29F
330
1AD
100
AcDbEntity
  8
0
  6
Continuous
 62
     7
370
    25
100
AcDbLine
 10
-53.937007874
 20
7.5393700787
 30
0.0
 11
-53.937007874
 21
-7.5
 31
0.0
  0
LINE
  5
2A0
330
1AD
100
AcDbEntity
  8
0
  6
Continuous
 62
     7
370
    25
100
AcDbLine
 10
-53.2283464567
 20
-7.5
 30
0.0
 11
-53.2283464567
 21
7.5393700787
 31
0.0
  0
LINE
  5
2A1
330
1AD
100
AcDbEntity
  8
0
  6
Continuous
 62
     7
370
    25
100
AcDbLine
 10
-24.4094488189
 20
7.5393700787
 30
0.0
 11
-53.937007874
 21
7.5393700787
 31
0.0
  0
LINE
  5
2A2
330
1AD
100
AcDbEntity
  8
0
  6
Continuous
 62
     7
370
    25
100
AcDbLine
 10
15.4758183637
 20
-8.9173228346
 30
0.0
 11
-15.4758183637
 21
-8.9173228346
 31
0.0
  0
LINE
  5
2A3
330
1AD
100
AcDbEntity
  8
0
  6
Continuous
 62
     7
370
    25
100
AcDbLine
 10
-15.5036572133
 20
-8.8501139063
 30
0.0
 11
15.5036572133
 21
-8.8501139063
 31
0.0
  0
LINE
  5
2A4
330
1AD
100
AcDbEntity
  8
0
  6
Continuous
 62
     7
370
    25
100
AcDbLine
 10
14.8622047244
 20
-8.2086614173
 30
0.0
 11
15.5036572133
 21
-8.8501139063
 31
0.0
  0
LINE
  5
2A5
330
1AD
100
AcDbEntity
  8
0
  6
Continuous
 62
     7
370
    25
100
AcDbLine
 10
-14.8622047244
 20
-8.2086614173
 30
0.0
 11
-15.5036572133
 21
-8.8501139063
 31
0.0
  0
LINE
  5
2A6
330
1AD
100
AcDbEntity
  8
0
  6
Continuous
 62
     7
370
    25
100
AcDbLine
 10
-23.6974099828
 20
-8.9173228346
 30
0.0
 11
-54.6490467101
 21
-8.9173228346
 31
0.0
  0
LINE
  5
2A7
330
1AD
100
AcDbEntity
  8
0
  6
Continuous
 62
     7
370
    25
100
AcDbLine
 10
-54.6768855598
 20
-8.8501139063
 30
0.0
 11
-23.6695711331
 21
-8.8501139063
 31
0.0
  0
LINE
  5
2A8
330
1AD
100
AcDbEntity
  8
0
  6
Continuous
 62
     7
370
    25
100
AcDbLine
 10
-24.311023622
 20
-8.2086614173
 30
0.0
 11
-23.6695711331
 21
-8.8501139063
 31
0.0
  0
LINE
  5
2A9
330
1AD
100
AcDbEntity
  8
0
  6
Continuous
 62
     7
370
    25
100
AcDbLine
 10
-54.0354330709
 20
-8.2086614173
 30
0.0
 11
-54.6768855598
 21
-8.8501139063
 31
0.0
  0
LINE
  5
2AA
330
1AD
100
AcDbEntity
  8
0
  6
Continuous
 62
     7
370
    25
100
AcDbLine
 10
-15.6102362205
 20
-8.8222750566
 30
0.0
 11
-14.9803149606
 21
-8.1923537968
 31
0.0
  0
LINE
  5
2AB
330
1AD
100
AcDbEntity
  8
0
  6
Continuous
 62
     7
370
    25
100
AcDbLine
 10
-14.9803149606
 20
-8.1923537968
 30
0.0
 11
-14.952476111
 21
-8.2201926464
 31
0.0
  0
LINE
  5
2AC
330
1AD
100
AcDbEntity
  8
0
  6
Continuous
 62
     7
370
    25
100
AcDbLine
 10
-14.952476111
 20
-8.2201926464
 30
0.0
 11
-15.5823973708
 21
-8.8501139063
 31
0.0
  0
LINE
  5
2AD
330
1AD
100
AcDbEntity
  8
0
  6
Continuous
 62
     7
370
    25
100
AcDbLine
 10
-15.5823973708
 20
-8.8501139063
 30
0.0
 11
-15.6102362205
 21
-8.8222750566
 31
0.0
  0
LINE
  5
2AE
330
1AD
100
AcDbEntity
  8
0
  6
Continuous
 62
     7
370
    25
100
AcDbLine
 10
-15.6102362205
 20
8.9960629921
 30
0.0
 11
-15.6102362205
 21
-8.8222750566
 31
0.0
  0
LINE
  5
2AF
330
1AD
100
AcDbEntity
  8
0
  6
Continuous
 62
     7
370
    25
100
AcDbLine
 10
-14.9803149606
 20
-8.1923537968
 30
0.0
 11
-14.9803149606
 21
8.9960629921
 31
0.0
  0
LINE
  5
2B0
330
1AD
100
AcDbEntity
  8
0
  6
Continuous
 62
     7
370
    25
100
AcDbLine
 10
-14.9409448819
 20
8.9566929134
 30
0.0
 11
-14.9409448819
 21
-8.1923537968
 31
0.0
  0
LINE
  5
2B1
330
1AD
100
AcDbEntity
  8
0
  6
Continuous
 62
     7
370
    25
100
AcDbLine
 10
-14.9803149606
 20
-8.1923537968
 30
0.0
 11
-14.9409448819
 21
-8.1923537968
 31
0.0
  0
LINE
  5
2B2
330
1AD
100
AcDbEntity
  8
0
  6
Continuous
 62
     7
370
    25
100
AcDbLine
 10
-15.6496062992
 20
-8.8222750566
 30
0.0
 11
-15.6102362205
 21
-8.8222750566
 31
0.0
  0
LINE
  5
2B3
330
1AD
100
AcDbEntity
  8
0
  6
Continuous
 62
     7
370
    25
100
AcDbLine
 10
-15.6102362205
 20
8.9960629921
 30
0.0
 11
-14.9803149606
 21
8.9960629921
 31
0.0
  0
LINE
  5
2B4
330
1AD
100
AcDbEntity
  8
0
  6
Continuous
 62
     7
370
    25
100
AcDbLine
 10
-54.1535433071
 20
-8.1923537968
 30
0.0
 11
-54.1257044574
 21
-8.2201926464
 31
0.0
  0
LINE
  5
2B5
330
1AD
100
AcDbEntity
  8
0
  6
Continuous
 62
     7
370
    25
100
AcDbLine
 10
-54.1535433071
 20
-8.1923537968
 30
0.0
 11
-54.1141732283
 21
-8.1923537968
 31
0.0
  0
LINE
  5
2B6
330
1AD
100
AcDbEntity
  8
0
  6
Continuous
 62
     7
370
    25
100
AcDbLine
 10
-54.7834645669
 20
-8.8222750566
 30
0.0
 11
-54.1535433071
 21
-8.1923537968
 31
0.0
  0
LINE
  5
2B7
330
1AD
100
AcDbEntity
  8
0
  6
Continuous
 62
     7
370
    25
100
AcDbLine
 10
-54.1257044574
 20
-8.2201926464
 30
0.0
 11
-54.7556257173
 21
-8.8501139063
 31
0.0
  0
LINE
  5
2B8
330
1AD
100
AcDbEntity
  8
0
  6
Continuous
 62
     7
370
    25
100
AcDbLine
 10
-54.7556257173
 20
-8.8501139063
 30
0.0
 11
-54.7834645669
 21
-8.8222750566
 31
0.0
  0
LINE
  5
2B9
330
1AD
100
AcDbEntity
  8
0
  6
Continuous
 62
     7
370
    25
100
AcDbLine
 10
-54.8228346457
 20
-8.8222750566
 30
0.0
 11
-54.7834645669
 21
-8.8222750566
 31
0.0
  0
LINE
  5
2BA
330
1AD
100
AcDbEntity
  8
0
  6
Continuous
 62
     7
370
    25
100
AcDbLine
 10
-54.8228346457
 20
-8.8222750566
 30
0.0
 11
-54.8228346457
 21
8.9566929134
 31
0.0
  0
LINE
  5
2BB
330
1AD
100
AcDbEntity
  8
0
  6
Continuous
 62
     7
370
    25
100
AcDbLine
 10
-54.7834645669
 20
8.9960629921
 30
0.0
 11
-54.7834645669
 21
-8.8222750566
 31
0.0
  0
LINE
  5
2BC
330
1AD
100
AcDbEntity
  8
0
  6
Continuous
 62
     7
370
    25
100
AcDbLine
 10
-54.1535433071
 20
-8.1923537968
 30
0.0
 11
-54.1535433071
 21
8.9960629921
 31
0.0
  0
LINE
  5
2BD
330
1AD
100
AcDbEntity
  8
0
  6
Continuous
 62
     7
370
    25
100
AcDbLine
 10
-54.1141732283
 20
8.9566929134
 30
0.0
 11
-54.1141732283
 21
-8.1923537968
 31
0.0
  0
LINE
  5
2BE
330
1AD
100
AcDbEntity
  8
0
  6
Continuous
 62
     7
370
    25
100
AcDbLine
 10
-54.7834645669
 20
8.9960629921
 30
0.0
 11
-54.1535433071
 21
8.9960629921
 31
0.0
  0
LINE
  5
2BF
330
1AD
100
AcDbEntity
  8
0
  6
Continuous
 62
     7
370
    25
100
AcDbLine
 10
14.9803149606
 20
-8.1923537968
 30
0.0
 11
14.9409448819
 21
-8.1923537968
 31
0.0
  0
LINE
  5
2C0
330
1AD
100
AcDbEntity
  8
0
  6
Continuous
 62
     7
370
    25
100
AcDbLine
 10
14.952476111
 20
-8.2201926464
 30
0.0
 11
14.9803149606
 21
-8.1923537968
 31
0.0
  0
LINE
  5
2C1
330
1AD
100
AcDbEntity
  8
0
  6
Continuous
 62
     7
370
    25
100
AcDbLine
 10
15.6102362205
 20
-8.8222750566
 30
0.0
 11
15.5823973708
 21
-8.8501139063
 31
0.0
  0
LINE
  5
2C2
330
1AD
100
AcDbEntity
  8
0
  6
Continuous
 62
     7
370
    25
100
AcDbLine
 10
15.6496062992
 20
-8.8222750566
 30
0.0
 11
15.6102362205
 21
-8.8222750566
 31
0.0
  0
LINE
  5
2C3
330
1AD
100
AcDbEntity
  8
0
  6
Continuous
 62
     7
370
    25
100
AcDbLine
 10
14.9803149606
 20
8.9960629921
 30
0.0
 11
14.9803149606
 21
-8.1923537968
 31
0.0
  0
LINE
  5
2C4
330
1AD
100
AcDbEntity
  8
0
  6
Continuous
 62
     7
370
    25
100
AcDbLine
 10
15.6496062992
 20
8.9566929134
 30
0.0
 11
15.6496062992
 21
-8.8222750566
 31
0.0
  0
LINE
  5
2C5
330
1AD
100
AcDbEntity
  8
0
  6
Continuous
 62
     7
370
    25
100
AcDbLine
 10
15.6102362205
 20
-8.8222750566
 30
0.0
 11
15.6102362205
 21
8.9960629921
 31
0.0
  0
LINE
  5
2C6
330
1AD
100
AcDbEntity
  8
0
  6
Continuous
 62
     7
370
    25
100
AcDbLine
 10
15.6496062992
 20
8.9566929134
 30
0.0
 11
-15.6496062992
 21
8.9566929134
 31
0.0
  0
LINE
  5
2C7
330
1AD
100
AcDbEntity
  8
0
  6
Continuous
 62
     7
370
    25
100
AcDbLine
 10
14.9803149606
 20
8.9960629921
 30
0.0
 11
15.6102362205
 21
8.9960629921
 31
0.0
  0
LINE
  5
2C8
330
1AD
100
AcDbEntity
  8
0
  6
Continuous
 62
     7
370
    25
100
AcDbLine
 10
15.5823973708
 20
-8.8501139063
 30
0.0
 11
14.952476111
 21
-8.2201926464
 31
0.0
  0
LINE
  5
2C9
330
1AD
100
AcDbEntity
  8
0
  6
Continuous
 62
     7
370
    25
100
AcDbLine
 10
14.9803149606
 20
-8.1923537968
 30
0.0
 11
15.6102362205
 21
-8.8222750566
 31
0.0
  0
LINE
  5
2CA
330
1AD
100
AcDbEntity
  8
0
  6
Continuous
 62
     7
370
    25
100
AcDbLine
 10
14.9409448819
 20
-8.1923537968
 30
0.0
 11
14.9409448819
 21
8.9566929134
 31
0.0
  0
LINE
  5
2CB
330
1AD
100
AcDbEntity
  8
0
  6
Continuous
 62
     7
370
    25
100
AcDbLine
 10
-23.5236220472
 20
-8.8222750566
 30
0.0
 11
-23.562992126
 21
-8.8222750566
 31
0.0
  0
LINE
  5
2CC
330
1AD
100
AcDbEntity
  8
0
  6
Continuous
 62
     7
370
    25
100
AcDbLine
 10
-23.562992126
 20
-8.8222750566
 30
0.0
 11
-23.562992126
 21
8.9960629921
 31
0.0
  0
LINE
  5
2CD
330
1AD
100
AcDbEntity
  8
0
  6
Continuous
 62
     7
370
    25
100
AcDbLine
 10
-23.5236220472
 20
8.9566929134
 30
0.0
 11
-54.8228346457
 21
8.9566929134
 31
0.0
  0
LINE
  5
2CE
330
1AD
100
AcDbEntity
  8
0
  6
Continuous
 62
     7
370
    25
100
AcDbLine
 10
-24.1929133858
 20
-8.1923537968
 30
0.0
 11
-24.2322834646
 21
-8.1923537968
 31
0.0
  0
LINE
  5
2CF
330
1AD
100
AcDbEntity
  8
0
  6
Continuous
 62
     7
370
    25
100
AcDbLine
 10
-24.2207522355
 20
-8.2201926464
 30
0.0
 11
-24.1929133858
 21
-8.1923537968
 31
0.0
  0
LINE
  5
2D0
330
1AD
100
AcDbEntity
  8
0
  6
Continuous
 62
     7
370
    25
100
AcDbLine
 10
-24.1929133858
 20
8.9960629921
 30
0.0
 11
-24.1929133858
 21
-8.1923537968
 31
0.0
  0
LINE
  5
2D1
330
1AD
100
AcDbEntity
  8
0
  6
Continuous
 62
     7
370
    25
100
AcDbLine
 10
-24.1929133858
 20
8.9960629921
 30
0.0
 11
-23.562992126
 21
8.9960629921
 31
0.0
  0
LINE
  5
2D2
330
1AD
100
AcDbEntity
  8
0
  6
Continuous
 62
     7
370
    25
100
AcDbLine
 10
-24.1929133858
 20
-8.1923537968
 30
0.0
 11
-23.562992126
 21
-8.8222750566
 31
0.0
  0
LINE
  5
2D3
330
1AD
100
AcDbEntity
  8
0
  6
Continuous
 62
     7
370
    25
100
AcDbLine
 10
-23.562992126
 20
-8.8222750566
 30
0.0
 11
-23.5908309756
 21
-8.8501139063
 31
0.0
  0
LINE
  5
2D4
330
1AD
100
AcDbEntity
  8
0
  6
Continuous
 62
     7
370
    25
100
AcDbLine
 10
-24.2322834646
 20
-8.1923537968
 30
0.0
 11
-24.2322834646
 21
8.9566929134
 31
0.0
  0
LINE
  5
2D5
330
1AD
100
AcDbEntity
  8
0
  6
Continuous
 62
     7
370
    25
100
AcDbLine
 10
-23.5908309756
 20
-8.8501139063
 30
0.0
 11
-24.2207522355
 21
-8.2201926464
 31
0.0
  0
LINE
  5
2D6
330
1AD
100
AcDbEntity
  8
0
  6
Continuous
 62
     7
370
    25
100
AcDbLine
 10
-14.9409448819
 20
8.3267716535
 30
0.0
 11
14.9409448819
 21
8.3267716535
 31
0.0
  0
LINE
  5
2D7
330
1AD
100
AcDbEntity
  8
0
  6
Continuous
 62
     7
370
    25
100
AcDbLine
 10
-14.9015748031
 20
8.9960629921
 30
0.0
 11
14.9015748031
 21
8.9960629921
 31
0.0
  0
LINE
  5
2D8
330
1AD
100
AcDbEntity
  8
0
  6
Continuous
 62
     7
370
    25
100
AcDbLine
 10
14.9015748031
 20
8.2874015748
 30
0.0
 11
-14.9015748031
 21
8.2874015748
 31
0.0
  0
LINE
  5
2D9
330
1AD
100
AcDbEntity
  8
0
  6
Continuous
 62
     7
370
    25
100
AcDbLine
 10
14.7637795276
 20
7.5393700787
 30
0.0
 11
-14.7637795276
 21
7.5393700787
 31
0.0
  0
LINE
  5
2DA
330
1AD
100
AcDbEntity
  8
0
  6
Continuous
 62
     7
370
    25
100
AcDbLine
 10
2.9527559055
 20
6.8307086614
 30
0.0
 11
2.9527559055
 21
7.5393700787
 31
0.0
  0
LINE
  5
2DB
330
1AD
100
AcDbEntity
  8
0
  6
Continuous
 62
     7
370
    25
100
AcDbLine
 10
-14.0551181102
 20
6.8307086614
 30
0.0
 11
14.0551181102
 21
6.8307086614
 31
0.0
  0
LINE
  5
2DC
330
1AD
100
AcDbEntity
  8
0
  6
Continuous
 62
     7
370
    25
100
AcDbLine
 10
-2.9527559055
 20
7.5393700787
 30
0.0
 11
-2.9527559055
 21
6.8307086614
 31
0.0
  0
LINE
  5
2DD
330
1AD
100
AcDbEntity
  8
0
  6
Continuous
 62
     7
370
    25
100
AcDbLine
 10
-54.1141732283
 20
8.3267716535
 30
0.0
 11
-24.2322834646
 21
8.3267716535
 31
0.0
  0
LINE
  5
2DE
330
1AD
100
AcDbEntity
  8
0
  6
Continuous
 62
     7
370
    25
100
AcDbLine
 10
-24.2716535433
 20
8.2874015748
 30
0.0
 11
-54.0748031496
 21
8.2874015748
 31
0.0
  0
LINE
  5
2DF
330
1AD
100
AcDbEntity
  8
0
  6
Continuous
 62
     7
370
    25
100
AcDbLine
 10
-54.0748031496
 20
8.9960629921
 30
0.0
 11
-24.2716535433
 21
8.9960629921
 31
0.0
  0
LINE
  5
2E0
330
1AD
100
AcDbEntity
  8
0
  6
Continuous
 62
     7
370
    25
100
AcDbLine
 10
-42.125984252
 20
7.5393700787
 30
0.0
 11
-42.125984252
 21
6.8307086614
 31
0.0
  0
LINE
  5
2E1
330
1AD
100
AcDbEntity
  8
0
  6
Continuous
 62
     7
370
    25
100
AcDbLine
 10
-53.2283464567
 20
6.8307086614
 30
0.0
 11
-25.1181102362
 21
6.8307086614
 31
0.0
  0
LINE
  5
2E2
330
1AD
100
AcDbEntity
  8
0
  6
Continuous
 62
     7
370
    25
100
AcDbLine
 10
-36.2204724409
 20
6.8307086614
 30
0.0
 11
-36.2204724409
 21
7.5393700787
 31
0.0
  0
LINE
  5
2E3
330
1AD
100
AcDbEntity
  8
0
  6
Continuous
 62
     7
370
    25
100
AcDbLine
 10
14.7637795276
 20
-7.5
 30
0.0
 11
14.7637795276
 21
7.5393700787
 31
0.0
  0
LINE
  5
2E4
330
1AD
100
AcDbEntity
  8
0
  6
Continuous
 62
     7
370
    25
100
AcDbLine
 10
14.0551181102
 20
7.5393700787
 30
0.0
 11
14.0551181102
 21
-7.5
 31
0.0
  0
LINE
  5
2E5
330
1AD
100
AcDbEntity
  8
0
  6
Continuous
 62
     7
370
    25
100
AcDbLine
 10
-24.4094488189
 20
-7.5
 30
0.0
 11
-24.4094488189
 21
7.5393700787
 31
0.0
  0
LINE
  5
2E6
330
1AD
100
AcDbEntity
  8
0
  6
Continuous
 62
     7
370
    25
100
AcDbLine
 10
-25.1181102362
 20
7.5393700787
 30
0.0
 11
-25.1181102362
 21
-7.5
 31
0.0
  0
LINE
  5
2E7
330
1AD
100
AcDbEntity
  8
0
  6
Continuous
 62
     7
370
    25
100
AcDbLine
 10
-14.9015748031
 20
8.9960629921
 30
0.0
 11
-14.9015748031
 21
-8.2086614173
 31
0.0
  0
LINE
  5
2E8
330
1AD
100
AcDbEntity
  8
0
  6
Continuous
 62
     7
370
    25
100
AcDbLine
 10
14.9409448819
 20
-7.9330708661
 30
0.0
 11
-14.9409448819
 21
-7.9330708661
 31
0.0
  0
LINE
  5
2E9
330
1AD
100
AcDbEntity
  8
0
  6
Continuous
 62
     7
370
    25
100
AcDbLine
 10
-14.9409448819
 20
-8.1692913386
 30
0.0
 11
14.9409448819
 21
-8.1692913386
 31
0.0
  0
LINE
  5
2EA
330
1AD
100
AcDbEntity
  8
0
  6
Continuous
 62
     7
370
    25
100
AcDbLine
 10
14.9015748031
 20
-8.2086614173
 30
0.0
 11
-14.9015748031
 21
-8.2086614173
 31
0.0
  0
LINE
  5
2EB
330
1AD
100
AcDbEntity
  8
0
  6
Continuous
 62
     7
370
    25
100
AcDbLine
 10
-14.9015748031
 20
-7.8937007874
 30
0.0
 11
14.9015748031
 21
-7.8937007874
 31
0.0
  0
LINE
  5
2EC
330
1AD
100
AcDbEntity
  8
0
  6
Continuous
 62
     7
370
    25
100
AcDbLine
 10
-14.9409448819
 20
-7.8543307087
 30
0.0
 11
14.9409448819
 21
-7.8543307087
 31
0.0
  0
LINE
  5
2ED
330
1AD
100
AcDbEntity
  8
0
  6
Continuous
 62
     7
370
    25
100
AcDbLine
 10
14.9015748031
 20
-8.2086614173
 30
0.0
 11
14.9015748031
 21
8.9960629921
 31
0.0
  0
LINE
  5
2EE
330
1AD
100
AcDbEntity
  8
0
  6
Continuous
 62
     7
370
    25
100
AcDbLine
 10
14.9409448819
 20
-7.5393700787
 30
0.0
 11
-14.9409448819
 21
-7.5393700787
 31
0.0
  0
LINE
  5
2EF
330
1AD
100
AcDbEntity
  8
0
  6
Continuous
 62
     7
370
    25
100
AcDbLine
 10
-14.9015748031
 20
-7.5
 30
0.0
 11
14.9015748031
 21
-7.5
 31
0.0
  0
LINE
  5
2F0
330
1AD
100
AcDbEntity
  8
0
  6
Continuous
 62
     7
370
    25
100
AcDbLine
 10
-24.2322834646
 20
-7.9330708661
 30
0.0
 11
-54.1141732283
 21
-7.9330708661
 31
0.0
  0
LINE
  5
2F1
330
1AD
100
AcDbEntity
  8
0
  6
Continuous
 62
     7
370
    25
100
AcDbLine
 10
-54.1141732283
 20
-8.1692913386
 30
0.0
 11
-24.2322834646
 21
-8.1692913386
 31
0.0
  0
LINE
  5
2F2
330
1AD
100
AcDbEntity
  8
0
  6
Continuous
 62
     7
370
    25
100
AcDbLine
 10
-24.2716535433
 20
-8.2086614173
 30
0.0
 11
-54.0748031496
 21
-8.2086614173
 31
0.0
  0
LINE
  5
2F3
330
1AD
100
AcDbEntity
  8
0
  6
Continuous
 62
     7
370
    25
100
AcDbLine
 10
-54.0748031496
 20
-7.8937007874
 30
0.0
 11
-24.2716535433
 21
-7.8937007874
 31
0.0
  0
LINE
  5
2F4
330
1AD
100
AcDbEntity
  8
0
  6
Continuous
 62
     7
370
    25
100
AcDbLine
 10
-54.1141732283
 20
-7.8543307087
 30
0.0
 11
-24.2322834646
 21
-7.8543307087
 31
0.0
  0
LINE
  5
2F5
330
1AD
100
AcDbEntity
  8
0
  6
Continuous
 62
     7
370
    25
100
AcDbLine
 10
-54.0748031496
 20
-7.5
 30
0.0
 11
-24.2716535433
 21
-7.5
 31
0.0
  0
LINE
  5
2F6
330
1AD
100
AcDbEntity
  8
0
  6
Continuous
 62
     7
370
    25
100
AcDbLine
 10
-24.2716535433
 20
-8.2086614173
 30
0.0
 11
-24.2716535433
 21
8.9960629921
 31
0.0
  0
LINE
  5
2F7
330
1AD
100
AcDbEntity
  8
0
  6
Continuous
 62
     7
370
    25
100
AcDbLine
 10
-24.2322834646
 20
-7.5393700787
 30
0.0
 11
-54.1141732283
 21
-7.5393700787
 31
0.0
  0
LINE
  5
2F8
330
1AD
100
AcDbEntity
  8
0
  6
Continuous
 62
     7
370
    25
100
AcDbLine
 10
-54.0748031496
 20
8.9960629921
 30
0.0
 11
-54.0748031496
 21
-8.2086614173
 31
0.0
  0
ARC
  5
2F9
330
1AD
100
AcDbEntity
  8
0
  6
Continuous
 62
     7
370
    25
100
AcDbCircle
 10
-15.4758183637
 20
-8.8779527559
 30
0.0
 40
0.0393700787401576
100
AcDbArc
 50
135.0
 51
270.0
  0
ARC
  5
2FA
330
1AD
100
AcDbEntity
  8
0
  6
Continuous
 62
     7
370
    25
100
AcDbCircle
 10
15.4758183637
 20
-8.8779527559
 30
0.0
 40
0.0393700787401592
100
AcDbArc
 50
270.0
 51
45.0
  0
ARC
  5
2FB
330
1AD
100
AcDbEntity
  8
0
  6
Continuous
 62
     7
370
    25
100
AcDbCircle
 10
-23.6974099828
 20
-8.8779527559
 30
0.0
 40
0.0393700787401592
100
AcDbArc
 50
270.0
 51
45.0
  0
ARC
  5
2FC
330
1AD
100
AcDbEntity
  8
0
  6
Continuous
 62
     7
370
    25
100
AcDbCircle
 10
-54.6490467101
 20
-8.8779527559
 30
0.0
 40
0.0393700787401627
100
AcDbArc
 50
135.0
 51
270.0
  0
ARC
  5
2FD
330
1AD
100
AcDbEntity
  8
0
  6
Continuous
 62
     7
370
    25
100
AcDbCircle
 10
-14.9803149606
 20
-8.1923537968
 30
0.0
 40
0.0393700787401463
100
AcDbArc
 50
315.0
 51
0.0
  0
ARC
  5
2FE
330
1AD
100
AcDbEntity
  8
0
  6
Continuous
 62
     7
370
    25
100
AcDbCircle
 10
-15.6102362205
 20
-8.8222750566
 30
0.0
 40
0.039370078740161
100
AcDbArc
 50
180.0
 51
315.0
  0
ARC
  5
2FF
330
1AD
100
AcDbEntity
  8
0
  6
Continuous
 62
     7
370
    25
100
AcDbCircle
 10
-15.6102362205
 20
8.9566929134
 30
0.0
 40
0.039370078740161
100
AcDbArc
 50
90.0
 51
180.0
  0
ARC
  5
300
330
1AD
100
AcDbEntity
  8
0
  6
Continuous
 62
     7
370
    25
100
AcDbCircle
 10
-14.9803149606
 20
8.9566929134
 30
0.0
 40
0.0393700787401574
100
AcDbArc
 50
0.0
 51
90.0
  0
ARC
  5
301
330
1AD
100
AcDbEntity
  8
0
  6
Continuous
 62
     7
370
    25
100
AcDbCircle
 10
-54.1535433071
 20
-8.1923537968
 30
0.0
 40
0.0393700787401651
100
AcDbArc
 50
315.0
 51
360.0
  0
ARC
  5
302
330
1AD
100
AcDbEntity
  8
0
  6
Continuous
 62
     7
370
    25
100
AcDbCircle
 10
-54.7834645669
 20
-8.8222750566
 30
0.0
 40
0.0393700787401639
100
AcDbArc
 50
180.0
 51
315.0
  0
ARC
  5
303
330
1AD
100
AcDbEntity
  8
0
  6
Continuous
 62
     7
370
    25
100
AcDbCircle
 10
-54.7834645669
 20
8.9566929134
 30
0.0
 40
0.0393700787401627
100
AcDbArc
 50
90.0
 51
180.0
  0
ARC
  5
304
330
1AD
100
AcDbEntity
  8
0
  6
Continuous
 62
     7
370
    25
100
AcDbCircle
 10
-54.1535433071
 20
8.9566929134
 30
0.0
 40
0.0393700787401485
100
AcDbArc
 50
360.0
 51
90.0
  0
ARC
  5
305
330
1AD
100
AcDbEntity
  8
0
  6
Continuous
 62
     7
370
    25
100
AcDbCircle
 10
14.9803149606
 20
-8.1923537968
 30
0.0
 40
0.0393700787401664
100
AcDbArc
 50
180.0
 51
225.0
  0
ARC
  5
306
330
1AD
100
AcDbEntity
  8
0
  6
Continuous
 62
     7
370
    25
100
AcDbCircle
 10
15.6102362205
 20
-8.8222750566
 30
0.0
 40
0.0393700787401576
100
AcDbArc
 50
225.0
 51
0.0
  0
ARC
  5
307
330
1AD
100
AcDbEntity
  8
0
  6
Continuous
 62
     7
370
    25
100
AcDbCircle
 10
14.9803149606
 20
8.9566929134
 30
0.0
 40
0.0393700787401574
100
AcDbArc
 50
90.0
 51
180.0
  0
ARC
  5
308
330
1AD
100
AcDbEntity
  8
0
  6
Continuous
 62
     7
370
    25
100
AcDbCircle
 10
15.6102362205
 20
8.9566929134
 30
0.0
 40
0.0393700787401574
100
AcDbArc
 50
360.0
 51
90.0
  0
ARC
  5
309
330
1AD
100
AcDbEntity
  8
0
  6
Continuous
 62
     7
370
    25
100
AcDbCircle
 10
-24.1929133858
 20
-8.1923537968
 30
0.0
 40
0.03937007874014
100
AcDbArc
 50
180.0
 51
225.0
  0
ARC
  5
30A
330
1AD
100
AcDbEntity
  8
0
  6
Continuous
 62
     7
370
    25
100
AcDbCircle
 10
-24.1929133858
 20
8.9566929134
 30
0.0
 40
0.0393700787401556
100
AcDbArc
 50
90.0
 51
180.0
  0
ARC
  5
30B
330
1AD
100
AcDbEntity
  8
0
  6
Continuous
 62
     7
370
    25
100
AcDbCircle
 10
-23.562992126
 20
-8.8222750566
 30
0.0
 40
0.0393700787401601
100
AcDbArc
 50
225.0
 51
0.0
  0
ARC
  5
30C
330
1AD
100
AcDbEntity
  8
0
  6
Continuous
 62
     7
370
    25
100
AcDbCircle
 10
-23.562992126
 20
8.9566929134
 30
0.0
 40
0.0393700787401556
100
AcDbArc
 50
360.0
 51
90.0
  0
ARC
  5
30D
330
1AD
100
AcDbEntity
  8
0
  6
Continuous
 62
     7
370
    25
100
AcDbCircle
 10
-14.9015748031
 20
8.3267716535
 30
0.0
 40
0.039370078740161
100
AcDbArc
 50
180.0
 51
270.0
  0
ARC
  5
30E
330
1AD
100
AcDbEntity
  8
0
  6
Continuous
 62
     7
370
    25
100
AcDbCircle
 10
14.9015748031
 20
8.9566929134
 30
0.0
 40
0.0393700787401574
100
AcDbArc
 50
360.0
 51
90.0
  0
ARC
  5
30F
330
1AD
100
AcDbEntity
  8
0
  6
Continuous
 62
     7
370
    25
100
AcDbCircle
 10
14.9015748031
 20
8.3267716535
 30
0.0
 40
0.0393700787401574
100
AcDbArc
 50
270.0
 51
0.0
  0
ARC
  5
310
330
1AD
100
AcDbEntity
  8
0
  6
Continuous
 62
     7
370
    25
100
AcDbCircle
 10
-14.9015748031
 20
8.9566929134
 30
0.0
 40
0.039370078740161
100
AcDbArc
 50
90.0
 51
180.0
  0
ARC
  5
311
330
1AD
100
AcDbEntity
  8
0
  6
Continuous
 62
     7
370
    25
100
AcDbCircle
 10
-24.2716535433
 20
8.3267716535
 30
0.0
 40
0.0393700787401592
100
AcDbArc
 50
270.0
 51
0.0
  0
ARC
  5
312
330
1AD
100
AcDbEntity
  8
0
  6
Continuous
 62
     7
370
    25
100
AcDbCircle
 10
-54.0748031496
 20
8.9566929134
 30
0.0
 40
0.0393700787401627
100
AcDbArc
 50
90.0
 51
180.0
  0
ARC
  5
313
330
1AD
100
AcDbEntity
  8
0
  6
Continuous
 62
     7
370
    25
100
AcDbCircle
 10
-24.2716535433
 20
8.9566929134
 30
0.0
 40
0.0393700787401556
100
AcDbArc
 50
360.0
 51
90.0
  0
ARC
  5
314
330
1AD
100
AcDbEntity
  8
0
  6
Continuous
 62
     7
370
    25
100
AcDbCircle
 10
-54.0748031496
 20
8.3267716535
 30
0.0
 40
0.0393700787401627
100
AcDbArc
 50
180.0
 51
270.0
  0
ARC
  5
315
330
1AD
100
AcDbEntity
  8
0
  6
Continuous
 62
     7
370
    25
100
AcDbCircle
 10
-14.9015748031
 20
-7.9330708661
 30
0.0
 40
0.039370078740161
100
AcDbArc
 50
90.0
 51
180.0
  0
ARC
  5
316
330
1AD
100
AcDbEntity
  8
0
  6
Continuous
 62
     7
370
    25
100
AcDbCircle
 10
14.9015748031
 20
-7.9330708661
 30
0.0
 40
0.0393700787401592
100
AcDbArc
 50
0.0
 51
90.0
  0
ARC
  5
317
330
1AD
100
AcDbEntity
  8
0
  6
Continuous
 62
     7
370
    25
100
AcDbCircle
 10
-14.9015748031
 20
-8.1692913386
 30
0.0
 40
0.039370078740161
100
AcDbArc
 50
180.0
 51
270.0
  0
ARC
  5
318
330
1AD
100
AcDbEntity
  8
0
  6
Continuous
 62
     7
370
    25
100
AcDbCircle
 10
14.9015748031
 20
-8.1692913386
 30
0.0
 40
0.0393700787401592
100
AcDbArc
 50
270.0
 51
360.0
  0
ARC
  5
319
330
1AD
100
AcDbEntity
  8
0
  6
Continuous
 62
     7
370
    25
100
AcDbCircle
 10
14.9015748031
 20
-7.5393700787
 30
0.0
 40
0.0393700787401592
100
AcDbArc
 50
0.0
 51
90.0
  0
ARC
  5
31A
330
1AD
100
AcDbEntity
  8
0
  6
Continuous
 62
     7
370
    25
100
AcDbCircle
 10
-14.9015748031
 20
-7.5393700787
 30
0.0
 40
0.039370078740161
100
AcDbArc
 50
90.0
 51
180.0
  0
ARC
  5
31B
330
1AD
100
AcDbEntity
  8
0
  6
Continuous
 62
     7
370
    25
100
AcDbCircle
 10
-54.0748031496
 20
-7.9330708661
 30
0.0
 40
0.0393700787401627
100
AcDbArc
 50
90.0
 51
180.0
  0
ARC
  5
31C
330
1AD
100
AcDbEntity
  8
0
  6
Continuous
 62
     7
370
    25
100
AcDbCircle
 10
-54.0748031496
 20
-8.1692913386
 30
0.0
 40
0.0393700787401627
100
AcDbArc
 50
180.0
 51
270.0
  0
ARC
  5
31D
330
1AD
100
AcDbEntity
  8
0
  6
Continuous
 62
     7
370
    25
100
AcDbCircle
 10
-24.2716535433
 20
-7.9330708661
 30
0.0
 40
0.0393700787401601
100
AcDbArc
 50
0.0
 51
90.0
  0
ARC
  5
31E
330
1AD
100
AcDbEntity
  8
0
  6
Continuous
 62
     7
370
    25
100
AcDbCircle
 10
-24.2716535433
 20
-8.1692913386
 30
0.0
 40
0.0393700787401592
100
AcDbArc
 50
270.0
 51
0.0
  0
ARC
  5
31F
330
1AD
100
AcDbEntity
  8
0
  6
Continuous
 62
     7
370
    25
100
AcDbCircle
 10
-54.0748031496
 20
-7.5393700787
 30
0.0
 40
0.0393700787401627
100
AcDbArc
 50
90.0
 51
180.0
  0
ARC
  5
320
330
1AD
100
AcDbEntity
  8
0
  6
Continuous
 62
     7
370
    25
100
AcDbCircle
 10
-24.2716535433
 20
-7.5393700787
 30
0.0
 40
0.0393700787401592
100
AcDbArc
 50
0.0
 51
90.0
  0
VIEWPORT
  5
588
330
1AD
100
AcDbEntity
  8
0
100
AcDbViewport
 10
0.0
 20
0.0
 30
0.0
 40
8.4
 41
6.4
 68
     1
 69
     1
 12
-19.5866141732
 22
7.874015748
 13
0.0
 23
0.0
 14
0.5
 24
0.5
 15
0.5
 25
0.5
 16
0.0
 26
0.0
 36
1.0
 17
0.0
 27
0.0
 37
0.0
 42
50.0
 43
0.0
 44
0.0
 45
54.7671541057
 50
0.0
 51
0.0
 72
   100
 90
   557152
  1

281
     0
 71
     1
 74
     0
110
0.0
120
0.0
130
0.0
111
1.0
121
0.0
131
0.0
112
0.0
122
1.0
132
0.0
 79
     0
146
0.0
  0
ENDBLK
  5
1B0
330
1AD
100
AcDbEntity
  8
0
100
AcDbBlockEnd
  0
BLOCK
  5
323
330
321
100
AcDbEntity
  8
0
100
AcDbBlockBegin
  2
*Paper_Space2
 70
     0
 10
0.0
 20
0.0
 30
0.0
  3
*Paper_Space2
  1

  0
LWPOLYLINE
  5
389
330
321
100
AcDbEntity
  8
0
  6
Continuous
 62
     7
370
    25
100
AcDbPolyline
 90
       14
 70
   128
 43
0.0
 10
-17.2485555558
 20
14.0628558009
 10
-17.2531176457
 20
14.0718106377
 10
-17.2566182749
 20
14.0809986021
 10
-17.2589427619
 20
14.0901186947
 10
-17.2600149563
 20
14.0988721397
 10
-17.2597997327
 20
14.1069721725
 10
-17.2583041418
 20
14.1141534346
 10
-17.2555771796
 20
14.1201806664
 10
-17.2517081817
 20
14.1248564148
 10
-17.2468238974
 20
14.1280275013
 10
-17.2410843366
 20
14.1295900406
 10
-17.2346775285
 20
14.1294928436
 10
-17.2278133612
 20
14.1277390944
 10
-17.2207167061
 20
14.1243862463
  0
LWPOLYLINE
  5
38B
330
321
100
AcDbEntity
  8
0
  6
Continuous
 62
     7
370
    25
100
AcDbPolyline
 90
       14
 70
   128
 43
0.0
 10
4.637556663
 20
1.4282721517
 10
4.6430307588
 20
1.4314332217
 10
4.6492375282
 20
1.4350172243
 10
4.6559736361
 20
1.4389067468
 10
4.6630184064
 20
1.4429743678
 10
4.6701410512
 20
1.4470868312
 10
4.6771082313
 20
1.4511094121
 10
4.6836917005
 20
1.4549103298
 10
4.6896757832
 20
1.4583650657
 10
4.6948644397
 20
1.4613604419
 10
4.6990876887
 20
1.4637983294
 10
4.7022071757
 20
1.4655988624
 10
4.7041207058
 20
1.4667030553
 10
4.7047655914
 20
1.4670747344
  0
LWPOLYLINE
  5
38D
330
321
100
AcDbEntity
  8
0
  6
Continuous
 62
     7
370
    25
100
AcDbPolyline
 90
        9
 70
   128
 43
0.0
 10
4.637556663
 20
-9.9252318975
 10
4.646836586
 20
-9.9292050571
 10
4.6577147913
 20
-9.9314520249
 10
4.6692544552
 20
-9.9317792935
 10
4.6804617895
 20
-9.9301586788
 10
4.6903716262
 20
-9.9267297471
 10
4.6981305367
 20
-9.9217877957
 10
4.703070329
 20
-9.915758422
 10
4.7047655914
 20
-9.9091608717
  0
LWPOLYLINE
  5
391
330
321
100
AcDbEntity
  8
0
  6
Continuous
 62
     7
370
    25
100
AcDbPolyline
 90
       14
 70
   128
 43
0.0
 10
-23.0620987418
 20
17.4189428459
 10
-23.0566246459
 20
17.4221039159
 10
-23.0504178766
 20
17.4256879184
 10
-23.0436817687
 20
17.4295774409
 10
-23.0366369983
 20
17.4336450619
 10
-23.0295143535
 20
17.4377575254
 10
-23.0225471735
 20
17.4417801062
 10
-23.0159637043
 20
17.445581024
 10
-23.0099796216
 20
17.4490357599
 10
-23.004790965
 20
17.4520311361
 10
-23.0005677161
 20
17.4544690235
 10
-22.997448229
 20
17.4562695566
 10
-22.9955346989
 20
17.4573737495
 10
-22.9948898134
 20
17.4577454286
  0
LWPOLYLINE
  5
393
330
321
100
AcDbEntity
  8
0
  6
Continuous
 62
     7
370
    25
100
AcDbPolyline
 90
        9
 70
   128
 43
0.0
 10
-23.0620987418
 20
6.0654387966
 10
-23.0528188188
 20
6.0614656371
 10
-23.0419406135
 20
6.0592186693
 10
-23.0304009496
 20
6.0588914007
 10
-23.0191936153
 20
6.0605120153
 10
-23.0092837786
 20
6.063940947
 10
-23.001524868
 20
6.0688828985
 10
-22.9965850758
 20
6.0749122722
 10
-22.9948898134
 20
6.0815098225
  0
LWPOLYLINE
  5
396
330
321
100
AcDbEntity
  8
0
  6
Continuous
 62
     7
370
    25
100
AcDbPolyline
 90
       14
 70
   128
 43
0.0
 10
-44.9482109605
 20
30.0535264951
 10
-44.9527730505
 20
30.0624813318
 10
-44.9562736796
 20
30.0716692962
 10
-44.9585981667
 20
30.0807893889
 10
-44.959670361
 20
30.0895428339
 10
-44.9594551374
 20
30.0976428667
 10
-44.9579595466
 20
30.1048241288
 10
-44.9552325843
 20
30.1108513606
 10
-44.9513635865
 20
30.115527109
 10
-44.9464793021
 20
30.1186981955
 10
-44.9407397414
 20
30.1202607348
 10
-44.9343329332
 20
30.1201635378
 10
-44.9274687659
 20
30.1184097886
 10
-44.9203721109
 20
30.1150569405
  0
LWPOLYLINE
  5
3B0
330
321
100
AcDbEntity
  8
0
  6
Continuous
 62
     7
370
    25
100
AcDbPolyline
 90
        9
 70
   128
 43
0.0
 10
4.8276522191
 20
2.8372419221
 10
4.8183722961
 20
2.8332687625
 10
4.8074940907
 20
2.8310217948
 10
4.7959544269
 20
2.8306945261
 10
4.7847470925
 20
2.8323151408
 10
4.7748372559
 20
2.8357440725
 10
4.7670783453
 20
2.840686024
 10
4.762138553
 20
2.8467153977
 10
4.7604432907
 20
2.8533129479
  0
LWPOLYLINE
  5
3B4
330
321
100
AcDbEntity
  8
0
  6
Continuous
 62
     7
370
    25
100
AcDbPolyline
 90
        9
 70
   128
 43
0.0
 10
4.8276522191
 20
-9.9573739492
 10
4.8183722961
 20
-9.9613471087
 10
4.8074940907
 20
-9.9635940765
 10
4.7959544269
 20
-9.9639213452
 10
4.7847470925
 20
-9.9623007305
 10
4.7748372559
 20
-9.9588717988
 10
4.7670783453
 20
-9.9539298473
 10
4.762138553
 20
-9.9479004736
 10
4.7604432907
 20
-9.9413029233
  0
LWPOLYLINE
  5
3D0
330
321
100
AcDbEntity
  8
0
  6
Continuous
 62
     7
370
    25
100
AcDbPolyline
 90
       33
 70
   128
 43
0.0
 10
2.7421266908
 20
7.9987435867
 10
2.7472127437
 20
7.8276214244
 10
2.7624461237
 20
7.6514607205
 10
2.7877526152
 20
7.4711197122
 10
2.8230089275
 20
7.2874770026
 10
2.8680432955
 20
7.1014272806
 10
2.9226363163
 20
6.9138769618
 10
2.9865220181
 20
6.7257397725
 10
3.0593891562
 20
6.5379322982
 10
3.1408827293
 20
6.3513695179
 10
3.2306057088
 20
6.1669603468
 10
3.3281209735
 20
5.9856032078
 10
3.4329534386
 20
5.8081816548
 10
3.5445923711
 20
5.6355600675
 10
3.6624938773
 20
5.4685794412
 10
3.7860835528
 20
5.3080532886
 10
3.9147592812
 20
5.154763677
 10
4.0478941673
 20
5.0094574179
 10
4.1848395913
 20
4.8728424289
 10
4.3249283688
 20
4.7455842844
 10
4.4674780015
 20
4.6283029734
 10
4.6117940018
 20
4.5215698786
 10
4.7571732767
 20
4.4259049929
 10
4.9029075529
 20
4.341774386
 10
5.0482868278
 20
4.2695879337
 10
5.1926028281
 20
4.2096973213
 10
5.3351524608
 20
4.1623943297
 10
5.4752412383
 20
4.1279094144
 10
5.6121866623
 20
4.1064105825
 10
5.7453215484
 20
4.0980025739
 10
5.8739972768
 20
4.1027263519
 10
5.9975869523
 20
4.1205589024
 10
6.043037085
 20
4.1307429684
  0
LWPOLYLINE
  5
3D1
330
321
100
AcDbEntity
  8
0
  6
Continuous
 62
     7
370
    25
100
AcDbPolyline
 90
       10
 70
   128
 43
0.0
 10
6.5292616164
 20
4.4114344157
 10
6.6006916734
 20
4.4935818703
 10
6.6735588115
 20
4.5972587377
 10
6.7374445133
 20
4.7116350658
 10
6.7920375341
 20
4.8361536244
 10
6.8370719021
 20
4.9702077718
 10
6.8723282144
 20
5.1131444096
 10
6.8976347059
 20
5.2642671648
 10
6.9128680859
 20
5.4228397826
 10
6.9179541388
 20
5.5880897132
  0
LWPOLYLINE
  5
3D3
330
321
100
AcDbEntity
  8
0
  6
Continuous
 62
     7
370
    25
100
AcDbPolyline
 90
       33
 70
   128
 43
0.0
 10
6.5354381207
 20
4.417912064
 10
6.4986862461
 20
4.4098373673
 10
6.3750965705
 20
4.3920048167
 10
6.2464208421
 20
4.3872810388
 10
6.113285956
 20
4.3956890473
 10
5.976340532
 20
4.4171878793
 10
5.8362517545
 20
4.4516727946
 10
5.6937021218
 20
4.4989757861
 10
5.5493861216
 20
4.5588663986
 10
5.4040068467
 20
4.6310528508
 10
5.2582725704
 20
4.7151834577
 10
5.1128932955
 20
4.8108483434
 10
4.9685772953
 20
4.9175814382
 10
4.8260276626
 20
5.0348627493
 10
4.6859388851
 20
5.1621208937
 10
4.5489934611
 20
5.2987358827
 10
4.415858575
 20
5.4440421418
 10
4.2871828466
 20
5.5973317534
 10
4.163593171
 20
5.757857906
 10
4.0456916649
 20
5.9248385324
 10
3.9340527324
 20
6.0974601196
 10
3.8292202672
 20
6.2748816726
 10
3.7317050026
 20
6.4562388116
 10
3.6419820231
 20
6.6406479827
 10
3.56048845
 20
6.827210763
 10
3.4876213119
 20
7.0150182374
 10
3.4237356101
 20
7.2031554267
 10
3.3691425893
 20
7.3907057454
 10
3.3241082213
 20
7.5767554674
 10
3.2888519089
 20
7.760398177
 10
3.2635454174
 20
7.9407391854
 10
3.2483120375
 20
8.1168998893
 10
3.2432259846
 20
8.2880220515
  0
LWPOLYLINE
  5
3DB
330
321
100
AcDbEntity
  8
0
  6
Continuous
 62
     7
370
    25
100
AcDbPolyline
 90
       33
 70
   128
 43
0.0
 10
-24.9575287139
 20
23.9894142808
 10
-24.952442661
 20
23.8182921186
 10
-24.9372092811
 20
23.6421314147
 10
-24.9119027896
 20
23.4617904063
 10
-24.8766464772
 20
23.2781476967
 10
-24.8316121092
 20
23.0920979748
 10
-24.7770190884
 20
22.904547656
 10
-24.7131333866
 20
22.7164104667
 10
-24.6402662485
 20
22.5286029923
 10
-24.5587726754
 20
22.342040212
 10
-24.4690496959
 20
22.1576310409
 10
-24.3715344313
 20
21.976273902
 10
-24.2667019661
 20
21.7988523489
 10
-24.1550630336
 20
21.6262307617
 10
-24.0371615275
 20
21.4592501354
 10
-23.9135718519
 20
21.2987239828
 10
-23.7848961235
 20
21.1454343711
 10
-23.6517612374
 20
21.0001281121
 10
-23.5148158134
 20
20.8635131231
 10
-23.3747270359
 20
20.7362549786
 10
-23.2321774032
 20
20.6189736676
 10
-23.087861403
 20
20.5122405728
 10
-22.9424821281
 20
20.416575687
 10
-22.7967478518
 20
20.3324450801
 10
-22.6513685769
 20
20.2602586279
 10
-22.5070525767
 20
20.2003680155
 10
-22.364502944
 20
20.1530650239
 10
-22.2244141665
 20
20.1185801086
 10
-22.0874687425
 20
20.0970812766
 10
-21.9543338564
 20
20.0886732681
 10
-21.825658128
 20
20.093397046
 10
-21.7020684524
 20
20.1112295966
 10
-21.6566183198
 20
20.1214136626
  0
LWPOLYLINE
  5
3DC
330
321
100
AcDbEntity
  8
0
  6
Continuous
 62
     7
370
    25
100
AcDbPolyline
 90
       10
 70
   128
 43
0.0
 10
-21.1703937883
 20
20.4021051099
 10
-21.0989637314
 20
20.4842525644
 10
-21.0260965933
 20
20.5879294319
 10
-20.9622108915
 20
20.7023057599
 10
-20.9076178707
 20
20.8268243186
 10
-20.8625835027
 20
20.960878466
 10
-20.8273271903
 20
21.1038151038
 10
-20.8020206988
 20
21.254937859
 10
-20.7867873189
 20
21.4135104768
 10
-20.781701266
 20
21.5787604073
  0
LWPOLYLINE
  5
3E1
330
321
100
AcDbEntity
  8
0
  6
Continuous
 62
     7
370
    25
100
AcDbPolyline
 90
       33
 70
   128
 43
0.0
 10
-21.1642172841
 20
20.4085827582
 10
-21.2009691587
 20
20.4005080614
 10
-21.3245588342
 20
20.3826755108
 10
-21.4532345626
 20
20.3779517329
 10
-21.5863694487
 20
20.3863597414
 10
-21.7233148727
 20
20.4078585734
 10
-21.8634036502
 20
20.4423434887
 10
-22.0059532829
 20
20.4896464803
 10
-22.1502692832
 20
20.5495370927
 10
-22.2956485581
 20
20.621723545
 10
-22.4413828343
 20
20.7058541519
 10
-22.5867621092
 20
20.8015190376
 10
-22.7310781095
 20
20.9082521324
 10
-22.8736277421
 20
21.0255334434
 10
-23.0137165197
 20
21.1527915879
 10
-23.1506619437
 20
21.2894065769
 10
-23.2837968298
 20
21.434712836
 10
-23.4124725582
 20
21.5880024476
 10
-23.5360622337
 20
21.7485286002
 10
-23.6539637399
 20
21.9155092265
 10
-23.7656026723
 20
22.0881308137
 10
-23.8704351375
 20
22.2655523668
 10
-23.9679504022
 20
22.4469095058
 10
-24.0576733817
 20
22.6313186769
 10
-24.1391669548
 20
22.8178814572
 10
-24.2120340929
 20
23.0056889315
 10
-24.2759197947
 20
23.1938261208
 10
-24.3305128155
 20
23.3813764396
 10
-24.3755471835
 20
23.5674261616
 10
-24.4108034958
 20
23.7510688711
 10
-24.4361099873
 20
23.9314098795
 10
-24.4513433673
 20
24.1075705834
 10
-24.4564294202
 20
24.2786927456
  0
LWPOLYLINE
  5
407
330
321
100
AcDbEntity
  8
0
  6
Continuous
 62
     8
370
    25
100
AcDbPolyline
 90
        7
 70
   128
 43
0.0
 10
-17.2763944054
 20
15.5749085631
 10
-17.287822936
 20
15.5758872173
 10
-17.2982672493
 20
15.5787388986
 10
-17.3068278879
 20
15.5832180224
 10
-17.3127676154
 20
15.5889388493
 10
-17.3155749065
 20
15.5954087057
 10
-17.3157644842
 20
15.5976364258
  0
LWPOLYLINE
  5
40A
330
321
100
AcDbEntity
  8
0
  6
Continuous
 62
     8
370
    25
100
AcDbPolyline
 90
        7
 70
   128
 43
0.0
 10
-17.2763944054
 20
2.7802926918
 10
-17.287822936
 20
2.781271346
 10
-17.2982672493
 20
2.7841230273
 10
-17.3068278879
 20
2.7886021511
 10
-17.3127676154
 20
2.794322978
 10
-17.3155749065
 20
2.8007928344
 10
-17.3157644842
 20
2.8030205545
  0
LWPOLYLINE
  5
415
330
321
100
AcDbEntity
  8
0
  6
Continuous
 62
     8
370
    25
100
AcDbPolyline
 90
        7
 70
   128
 43
0.0
 10
-44.9760498102
 20
31.5655792573
 10
-44.9874783408
 20
31.5665579114
 10
-44.997922654
 20
31.5694095928
 10
-45.0064832926
 20
31.5738887165
 10
-45.0124230201
 20
31.5796095435
 10
-45.0152303112
 20
31.5860793999
 10
-45.0154198889
 20
31.58830712
  0
LWPOLYLINE
  5
419
330
321
100
AcDbEntity
  8
0
  6
Continuous
 62
     8
370
    25
100
AcDbPolyline
 90
        7
 70
   128
 43
0.0
 10
-44.9760498102
 20
18.770963386
 10
-44.9874783408
 20
18.7719420401
 10
-44.997922654
 20
18.7747937215
 10
-45.0064832926
 20
18.7792728452
 10
-45.0124230201
 20
18.7849936722
 10
-45.0152303112
 20
18.7914635286
 10
-45.0154198889
 20
18.7936912487
  0
LINE
  5
463
330
321
100
AcDbEntity
  8
0
  6
Continuous
 62
     7
370
    25
100
AcDbLine
 10
-17.2404001457
 20
2.6913263656
 30
0.0
 11
4.645712073
 21
-9.9432572836
 31
0.0
  0
LINE
  5
464
330
321
100
AcDbEntity
  8
0
  6
Continuous
 62
     7
370
    25
100
AcDbLine
 10
-17.2600867849
 20
14.1016583836
 30
0.0
 11
-17.2600867849
 21
2.7254227775
 31
0.0
  0
LINE
  5
465
330
321
100
AcDbEntity
  8
0
  6
Continuous
 62
     7
370
    25
100
AcDbLine
 10
-44.9400555505
 20
18.6819970598
 30
0.0
 11
-23.0539433317
 21
6.0474134106
 31
0.0
  0
LINE
  5
466
330
321
100
AcDbEntity
  8
0
  6
Continuous
 62
     7
370
    25
100
AcDbLine
 10
-44.9597421896
 20
30.0923290778
 30
0.0
 11
-44.9597421896
 21
18.7160934717
 31
0.0
  0
LINE
  5
467
330
321
100
AcDbEntity
  8
0
  6
Continuous
 62
     7
370
    25
100
AcDbLine
 10
-17.3157644842
 20
15.5976364258
 30
0.0
 11
-17.3157644842
 21
2.8030205545
 31
0.0
  0
LINE
  5
468
330
321
100
AcDbEntity
  8
0
  6
Continuous
 62
     7
370
    25
100
AcDbLine
 10
-4.724449031
 20
22.889179673
 30
0.0
 11
-17.2960778451
 21
15.6317328377
 31
0.0
  0
LINE
  5
469
330
321
100
AcDbEntity
  8
0
  6
Continuous
 62
     7
370
    25
100
AcDbLine
 10
-17.2763944054
 20
2.7636504758
 30
0.0
 11
-17.2600867849
 21
2.7636504758
 31
0.0
  0
LINE
  5
46A
330
321
100
AcDbEntity
  8
0
  6
Continuous
 62
     7
370
    25
100
AcDbLine
 10
-4.2199739182
 20
13.536106795
 30
0.0
 11
-4.2199739182
 21
22.5979468479
 31
0.0
  0
LINE
  5
46B
330
321
100
AcDbEntity
  8
0
  6
Continuous
 62
     7
370
    25
100
AcDbLine
 10
-4.2396605573
 20
22.6320432598
 30
0.0
 11
-4.6850821517
 21
22.889179673
 31
0.0
  0
LINE
  5
46C
330
321
100
AcDbEntity
  8
0
  6
Continuous
 62
     7
370
    25
100
AcDbLine
 10
-45.0154198889
 20
31.58830712
 30
0.0
 11
-45.0154198889
 21
18.7936912487
 31
0.0
  0
LINE
  5
46D
330
321
100
AcDbEntity
  8
0
  6
Continuous
 62
     7
370
    25
100
AcDbLine
 10
-32.4241044357
 20
38.8798503671
 30
0.0
 11
-44.9957332498
 21
31.6224035319
 31
0.0
  0
LINE
  5
46E
330
321
100
AcDbEntity
  8
0
  6
Continuous
 62
     7
370
    25
100
AcDbLine
 10
-44.9760498102
 20
18.7543211699
 30
0.0
 11
-44.9597421896
 21
18.7543211699
 31
0.0
  0
LINE
  5
46F
330
321
100
AcDbEntity
  8
0
  6
Continuous
 62
     7
370
    25
100
AcDbLine
 10
-31.9196293229
 20
29.5267774892
 30
0.0
 11
-31.9196293229
 21
38.5886175421
 31
0.0
  0
LINE
  5
470
330
321
100
AcDbEntity
  8
0
  6
Continuous
 62
     7
370
    25
100
AcDbLine
 10
-31.939315962
 20
38.622713954
 30
0.0
 11
-32.3847375565
 21
38.8798503671
 31
0.0
  0
LINE
  5
471
330
321
100
AcDbEntity
  8
0
  6
Continuous
 62
     7
370
    25
100
AcDbLine
 10
16.9063371494
 20
10.4019926083
 30
0.0
 11
4.7801299298
 21
3.4016821862
 31
0.0
  0
LINE
  5
472
330
321
100
AcDbEntity
  8
0
  6
Continuous
 62
     7
370
    25
100
AcDbLine
 10
4.819496809
 20
-9.9753993352
 30
0.0
 11
17.3911256231
 21
-2.7179525
 31
0.0
  0
LINE
  5
473
330
321
100
AcDbEntity
  8
0
  6
Continuous
 62
     7
370
    25
100
AcDbLine
 10
17.4108122622
 20
-2.6838560881
 30
0.0
 11
17.4108122622
 21
10.1107597832
 31
0.0
  0
LINE
  5
474
330
321
100
AcDbEntity
  8
0
  6
Continuous
 62
     7
370
    25
100
AcDbLine
 10
17.3911256231
 20
10.1448561951
 30
0.0
 11
16.9457040287
 21
10.4019926083
 31
0.0
  0
LINE
  5
475
330
321
100
AcDbEntity
  8
0
  6
Continuous
 62
     7
370
    25
100
AcDbLine
 10
-10.7933182553
 20
26.3926633024
 30
0.0
 11
-22.919525475
 21
19.3923528804
 31
0.0
  0
LINE
  5
476
330
321
100
AcDbEntity
  8
0
  6
Continuous
 62
     7
370
    25
100
AcDbLine
 10
-10.3085297816
 20
26.1355268893
 30
0.0
 11
-10.7539513761
 21
26.3926633024
 31
0.0
  0
LINE
  5
477
330
321
100
AcDbEntity
  8
0
  6
Continuous
 62
     7
370
    25
100
AcDbLine
 10
9.0741889471
 20
5.8805896919
 30
0.0
 11
-4.183982858
 21
13.5343693597
 31
0.0
  0
LINE
  5
478
330
321
100
AcDbEntity
  8
0
  6
Continuous
 62
     7
370
    25
100
AcDbLine
 10
-4.6884579708
 20
13.2431365346
 30
0.0
 11
-4.6884579708
 21
13.1562112196
 31
0.0
  0
LINE
  5
479
330
321
100
AcDbEntity
  8
0
  6
Continuous
 62
     7
370
    25
100
AcDbLine
 10
-4.2233497372
 20
13.5343693597
 30
0.0
 11
-4.6687713317
 21
13.2772329465
 31
0.0
  0
LINE
  5
47A
330
321
100
AcDbEntity
  8
0
  6
Continuous
 62
     7
370
    25
100
AcDbLine
 10
-18.6254664576
 20
21.871260386
 30
0.0
 11
-31.8836382627
 21
29.5250400538
 31
0.0
  0
LINE
  5
47B
330
321
100
AcDbEntity
  8
0
  6
Continuous
 62
     7
370
    25
100
AcDbLine
 10
-32.3881133755
 20
29.2338072287
 30
0.0
 11
-32.3881133755
 21
29.1468819138
 31
0.0
  0
LINE
  5
47C
330
321
100
AcDbEntity
  8
0
  6
Continuous
 62
     7
370
    25
100
AcDbLine
 10
-31.923005142
 20
29.5250400538
 30
0.0
 11
-32.3684267364
 21
29.2679036407
 31
0.0
  0
LINE
  5
47D
330
321
100
AcDbEntity
  8
0
  6
Continuous
 62
     7
370
    25
100
AcDbLine
 10
4.7047655914
 20
-9.3987912245
 30
0.0
 11
4.740759851
 21
-9.4195702683
 31
0.0
  0
LINE
  5
47E
330
321
100
AcDbEntity
  8
0
  6
Continuous
 62
     7
370
    25
100
AcDbLine
 10
-22.9948898134
 20
6.5918794697
 30
0.0
 11
-22.9588955537
 21
6.5711004259
 31
0.0
  0
LINE
  5
47F
330
321
100
AcDbEntity
  8
0
  6
Continuous
 62
     7
370
    25
100
AcDbLine
 10
4.9471598282
 20
3.5396645817
 30
0.0
 11
-16.1268493591
 21
15.70543113
 31
0.0
  0
LINE
  5
480
330
321
100
AcDbEntity
  8
0
  6
Continuous
 62
     7
370
    25
100
AcDbLine
 10
4.7047655914
 20
0.2453915931
 30
0.0
 11
4.740759851
 21
0.2246125493
 31
0.0
  0
LINE
  5
481
330
321
100
AcDbEntity
  8
0
  6
Continuous
 62
     7
370
    25
100
AcDbLine
 10
-16.3529359754
 20
15.5749085631
 30
0.0
 11
-16.3529359754
 21
13.6234270937
 31
0.0
  0
LINE
  5
482
330
321
100
AcDbEntity
  8
0
  6
Continuous
 62
     7
370
    25
100
AcDbLine
 10
-16.1662162384
 20
15.70543113
 30
0.0
 11
-16.3332493363
 21
15.609004975
 31
0.0
  0
LINE
  5
483
330
321
100
AcDbEntity
  8
0
  6
Continuous
 62
     7
370
    25
100
AcDbLine
 10
-22.7524955765
 20
19.5303352759
 30
0.0
 11
-43.8265047639
 21
31.6961018241
 31
0.0
  0
LINE
  5
484
330
321
100
AcDbEntity
  8
0
  6
Continuous
 62
     7
370
    25
100
AcDbLine
 10
-22.9948898134
 20
16.2360622872
 30
0.0
 11
-22.9588955537
 21
16.2152832434
 31
0.0
  0
LINE
  5
485
330
321
100
AcDbEntity
  8
0
  6
Continuous
 62
     7
370
    25
100
AcDbLine
 10
-44.0525913802
 20
31.5655792573
 30
0.0
 11
-44.0525913802
 21
29.6140977879
 31
0.0
  0
LINE
  5
486
330
321
100
AcDbEntity
  8
0
  6
Continuous
 62
     7
370
    25
100
AcDbLine
 10
-43.8658716431
 20
31.6961018241
 30
0.0
 11
-44.032904741
 21
31.5996756692
 31
0.0
  0
LINE
  5
487
330
321
100
AcDbEntity
  8
0
  6
Continuous
 62
     7
370
    25
100
AcDbLine
 10
-17.3714421835
 20
2.7481454158
 30
0.0
 11
-17.310488555
 21
2.7833331965
 31
0.0
  0
LINE
  5
488
330
321
100
AcDbEntity
  8
0
  6
Continuous
 62
     7
370
    25
100
AcDbLine
 10
-17.3714421835
 20
2.7481454158
 30
0.0
 11
-17.3714421835
 21
15.6070558392
 31
0.0
  0
LINE
  5
489
330
321
100
AcDbEntity
  8
0
  6
Continuous
 62
     7
370
    25
100
AcDbLine
 10
-17.3714421835
 20
15.6070558392
 30
0.0
 11
-4.7047655914
 21
22.9193725888
 31
0.0
  0
LINE
  5
48A
330
321
100
AcDbEntity
  8
0
  6
Continuous
 62
     7
370
    25
100
AcDbLine
 10
-4.7047655914
 20
22.8944533398
 30
0.0
 11
-4.7047655914
 21
22.9193725888
 31
0.0
  0
LINE
  5
48B
330
321
100
AcDbEntity
  8
0
  6
Continuous
 62
     7
370
    25
100
AcDbLine
 10
-17.8168637779
 20
3.5196382459
 30
0.0
 11
-17.8168637779
 21
15.3498358354
 31
0.0
  0
LINE
  5
48C
330
321
100
AcDbEntity
  8
0
  6
Continuous
 62
     7
370
    25
100
AcDbLine
 10
-17.8168637779
 20
15.3498358354
 30
0.0
 11
-22.4937905196
 21
18.0497681737
 31
0.0
  0
LINE
  5
48D
330
321
100
AcDbEntity
  8
0
  6
Continuous
 62
     7
370
    25
100
AcDbLine
 10
-22.4937905196
 20
18.0497681737
 30
0.0
 11
-22.4937905196
 21
6.2195705842
 31
0.0
  0
LINE
  5
48E
330
321
100
AcDbEntity
  8
0
  6
Continuous
 62
     7
370
    25
100
AcDbLine
 10
-22.4937905196
 20
6.2195705842
 30
0.0
 11
-17.8168637779
 21
3.5196382459
 31
0.0
  0
LINE
  5
48F
330
321
100
AcDbEntity
  8
0
  6
Continuous
 62
     7
370
    25
100
AcDbLine
 10
-22.9392121141
 20
5.9623505804
 30
0.0
 11
-17.3714421835
 21
2.7481454158
 31
0.0
  0
LINE
  5
490
330
321
100
AcDbEntity
  8
0
  6
Continuous
 62
     7
370
    25
100
AcDbLine
 10
-22.9392121141
 20
19.3582564684
 30
0.0
 11
-22.9392121141
 21
5.9623505804
 31
0.0
  0
LINE
  5
491
330
321
100
AcDbEntity
  8
0
  6
Continuous
 62
     7
370
    25
100
AcDbLine
 10
-17.3714421835
 20
15.6070558392
 30
0.0
 11
-22.9392121141
 21
18.8212610038
 31
0.0
  0
LINE
  5
492
330
321
100
AcDbEntity
  8
0
  6
Continuous
 62
     7
370
    25
100
AcDbLine
 10
-22.9392121141
 20
18.8212610038
 30
0.0
 11
-10.272535522
 21
26.1335777534
 31
0.0
  0
LINE
  5
493
330
321
100
AcDbEntity
  8
0
  6
Continuous
 62
     7
370
    25
100
AcDbLine
 10
-4.7047655914
 20
22.9193725888
 30
0.0
 11
-10.272535522
 21
26.1335777534
 31
0.0
  0
LINE
  5
494
330
321
100
AcDbEntity
  8
0
  6
Continuous
 62
     7
370
    25
100
AcDbLine
 10
-22.4937905196
 20
6.2195705842
 30
0.0
 11
-17.8168637779
 21
8.9195029225
 31
0.0
  0
LINE
  5
495
330
321
100
AcDbEntity
  8
0
  6
Continuous
 62
     7
370
    25
100
AcDbLine
 10
-17.8168637779
 20
9.6919152491
 30
0.0
 11
-22.4937905196
 21
12.3918475874
 31
0.0
  0
LINE
  5
496
330
321
100
AcDbEntity
  8
0
  6
Continuous
 62
     7
370
    25
100
AcDbLine
 10
-17.8168637779
 20
9.1775588322
 30
0.0
 11
-22.4937905196
 21
11.8774911705
 31
0.0
  0
LINE
  5
497
330
321
100
AcDbEntity
  8
0
  6
Continuous
 62
     7
370
    25
100
AcDbLine
 10
-17.8168637779
 20
15.0917799257
 30
0.0
 11
-22.4937905196
 21
12.3918475874
 31
0.0
  0
LINE
  5
498
330
321
100
AcDbEntity
  8
0
  6
Continuous
 62
     7
370
    25
100
AcDbLine
 10
-5.1084289113
 20
13.398655283
 30
0.0
 11
-8.6196961696
 21
11.3716438409
 31
0.0
  0
LINE
  5
499
330
321
100
AcDbEntity
  8
0
  6
Continuous
 62
     7
370
    25
100
AcDbLine
 10
-4.6073296176
 20
13.1093768182
 30
0.0
 11
-5.1084289113
 21
13.398655283
 31
0.0
  0
LINE
  5
49A
330
321
100
AcDbEntity
  8
0
  6
Continuous
 62
     7
370
    25
100
AcDbLine
 10
-8.1185968759
 20
11.0823653761
 30
0.0
 11
-4.6073296176
 21
13.1093768182
 31
0.0
  0
LINE
  5
49B
330
321
100
AcDbEntity
  8
0
  6
Continuous
 62
     7
370
    25
100
AcDbLine
 10
-4.6073296176
 20
12.8200513336
 30
0.0
 11
-4.6073296176
 21
13.1093768182
 31
0.0
  0
LINE
  5
49C
330
321
100
AcDbEntity
  8
0
  6
Continuous
 62
     7
370
    25
100
AcDbLine
 10
-35.8182522806
 20
27.0730360703
 30
0.0
 11
-32.3069850223
 21
29.1000475123
 31
0.0
  0
LINE
  5
49D
330
321
100
AcDbEntity
  8
0
  6
Continuous
 62
     7
370
    25
100
AcDbLine
 10
-32.3069850223
 20
28.8107220278
 30
0.0
 11
-32.3069850223
 21
29.1000475123
 31
0.0
  0
LINE
  5
49E
330
321
100
AcDbEntity
  8
0
  6
Continuous
 62
     7
370
    25
100
AcDbLine
 10
-32.8080843161
 20
29.3893259772
 30
0.0
 11
-36.3193515744
 21
27.3623145351
 31
0.0
  0
LINE
  5
49F
330
321
100
AcDbEntity
  8
0
  6
Continuous
 62
     7
370
    25
100
AcDbLine
 10
-32.3069850223
 20
29.1000475123
 30
0.0
 11
-32.8080843161
 21
29.3893259772
 31
0.0
  0
LINE
  5
4A0
330
321
100
AcDbEntity
  8
0
  6
Continuous
 62
     7
370
    25
100
AcDbLine
 10
-5.640536535
 20
9.6518115915
 30
0.0
 11
-5.1084289113
 21
9.9589907841
 31
0.0
  0
LINE
  5
4A1
330
321
100
AcDbEntity
  8
0
  6
Continuous
 62
     7
370
    25
100
AcDbLine
 10
-33.3401919397
 20
25.6424822857
 30
0.0
 11
-32.8080843161
 21
25.9496614783
 31
0.0
  0
LINE
  5
4A2
330
321
100
AcDbEntity
  8
0
  6
Continuous
 62
     7
370
    25
100
AcDbLine
 10
4.637556663
 20
1.4282721517
 30
0.0
 11
-17.2485555558
 21
14.0628558009
 31
0.0
  0
LINE
  5
4A3
330
321
100
AcDbEntity
  8
0
  6
Continuous
 62
     7
370
    25
100
AcDbLine
 10
-17.2207167061
 20
14.1243862463
 30
0.0
 11
4.7047655914
 21
1.4670747344
 31
0.0
  0
LINE
  5
4A4
330
321
100
AcDbEntity
  8
0
  6
Continuous
 62
     7
370
    25
100
AcDbLine
 10
4.7047655914
 20
1.4670747344
 30
0.0
 11
4.7047655914
 21
-9.9091608717
 31
0.0
  0
LINE
  5
4A5
330
321
100
AcDbEntity
  8
0
  6
Continuous
 62
     7
370
    25
100
AcDbLine
 10
4.637556663
 20
-9.9252318975
 30
0.0
 11
4.637556663
 21
1.4282721517
 31
0.0
  0
LINE
  5
4A6
330
321
100
AcDbEntity
  8
0
  6
Continuous
 62
     7
370
    25
100
AcDbLine
 10
-17.2485555558
 20
2.7093517517
 30
0.0
 11
4.637556663
 21
-9.9252318975
 31
0.0
  0
LINE
  5
4A7
330
321
100
AcDbEntity
  8
0
  6
Continuous
 62
     7
370
    25
100
AcDbLine
 10
-17.2485555558
 20
14.0628558009
 30
0.0
 11
-17.2485555558
 21
2.7093517517
 31
0.0
  0
LINE
  5
4A8
330
321
100
AcDbEntity
  8
0
  6
Continuous
 62
     7
370
    25
100
AcDbLine
 10
-22.9948898134
 20
17.4577454286
 30
0.0
 11
-22.9948898134
 21
6.0815098225
 31
0.0
  0
LINE
  5
4A9
330
321
100
AcDbEntity
  8
0
  6
Continuous
 62
     7
370
    25
100
AcDbLine
 10
-23.0620987418
 20
6.0654387966
 30
0.0
 11
-23.0620987418
 21
17.4189428459
 31
0.0
  0
LINE
  5
4AA
330
321
100
AcDbEntity
  8
0
  6
Continuous
 62
     7
370
    25
100
AcDbLine
 10
-23.0620987418
 20
17.4189428459
 30
0.0
 11
-44.9482109605
 21
30.0535264951
 31
0.0
  0
LINE
  5
4AB
330
321
100
AcDbEntity
  8
0
  6
Continuous
 62
     7
370
    25
100
AcDbLine
 10
-44.9203721109
 20
30.1150569405
 30
0.0
 11
-22.9948898134
 21
17.4577454286
 31
0.0
  0
LINE
  5
4AC
330
321
100
AcDbEntity
  8
0
  6
Continuous
 62
     7
370
    25
100
AcDbLine
 10
-44.9482109605
 20
18.7000224459
 30
0.0
 11
-23.0620987418
 21
6.0654387966
 31
0.0
  0
LINE
  5
4AD
330
321
100
AcDbEntity
  8
0
  6
Continuous
 62
     7
370
    25
100
AcDbLine
 10
-44.9482109605
 20
30.0535264951
 30
0.0
 11
-44.9482109605
 21
18.7000224459
 31
0.0
  0
LINE
  5
4AE
330
321
100
AcDbEntity
  8
0
  6
Continuous
 62
     7
370
    25
100
AcDbLine
 10
-17.2763944054
 20
15.6297837019
 30
0.0
 11
-16.3855512165
 21
15.6297837019
 31
0.0
  0
LINE
  5
4AF
330
321
100
AcDbEntity
  8
0
  6
Continuous
 62
     7
370
    25
100
AcDbLine
 10
-16.3855512165
 20
13.6422554716
 30
0.0
 11
-16.3855512165
 21
15.6297837019
 31
0.0
  0
LINE
  5
4B0
330
321
100
AcDbEntity
  8
0
  6
Continuous
 62
     7
370
    25
100
AcDbLine
 10
-16.3855512165
 20
15.5749085631
 30
0.0
 11
-17.2763944054
 21
15.5749085631
 31
0.0
  0
LINE
  5
4B1
330
321
100
AcDbEntity
  8
0
  6
Continuous
 62
     7
370
    25
100
AcDbLine
 10
-17.2763944054
 20
15.6297837019
 30
0.0
 11
-17.2763944054
 21
2.7636504758
 31
0.0
  0
LINE
  5
4B2
330
321
100
AcDbEntity
  8
0
  6
Continuous
 62
     7
370
    25
100
AcDbLine
 10
-4.7047655914
 20
22.8872305371
 30
0.0
 11
-17.2763944054
 21
15.6297837019
 31
0.0
  0
LINE
  5
4B3
330
321
100
AcDbEntity
  8
0
  6
Continuous
 62
     7
370
    25
100
AcDbLine
 10
-4.2593439969
 20
22.630094124
 30
0.0
 11
-4.7047655914
 21
22.8872305371
 31
0.0
  0
LINE
  5
4B4
330
321
100
AcDbEntity
  8
0
  6
Continuous
 62
     7
370
    25
100
AcDbLine
 10
-16.3855512165
 20
15.6297837019
 30
0.0
 11
-4.2593439969
 21
22.630094124
 31
0.0
  0
LINE
  5
4B5
330
321
100
AcDbEntity
  8
0
  6
Continuous
 62
     7
370
    25
100
AcDbLine
 10
-44.9760498102
 20
31.620454396
 30
0.0
 11
-44.0852066213
 21
31.620454396
 31
0.0
  0
LINE
  5
4B6
330
321
100
AcDbEntity
  8
0
  6
Continuous
 62
     7
370
    25
100
AcDbLine
 10
-44.0852066213
 20
29.6329261658
 30
0.0
 11
-44.0852066213
 21
31.620454396
 31
0.0
  0
LINE
  5
4B7
330
321
100
AcDbEntity
  8
0
  6
Continuous
 62
     7
370
    25
100
AcDbLine
 10
-44.0852066213
 20
31.5655792573
 30
0.0
 11
-44.9760498102
 21
31.5655792573
 31
0.0
  0
LINE
  5
4B8
330
321
100
AcDbEntity
  8
0
  6
Continuous
 62
     7
370
    25
100
AcDbLine
 10
-44.9760498102
 20
31.620454396
 30
0.0
 11
-44.9760498102
 21
18.7543211699
 31
0.0
  0
LINE
  5
4B9
330
321
100
AcDbEntity
  8
0
  6
Continuous
 62
     7
370
    25
100
AcDbLine
 10
-32.4044209961
 20
38.8779012313
 30
0.0
 11
-44.9760498102
 21
31.620454396
 31
0.0
  0
LINE
  5
4BA
330
321
100
AcDbEntity
  8
0
  6
Continuous
 62
     7
370
    25
100
AcDbLine
 10
-31.9589994017
 20
38.6207648181
 30
0.0
 11
-32.4044209961
 21
38.8779012313
 31
0.0
  0
LINE
  5
4BB
330
321
100
AcDbEntity
  8
0
  6
Continuous
 62
     7
370
    25
100
AcDbLine
 10
-44.0852066213
 20
31.620454396
 30
0.0
 11
-31.9589994017
 21
38.6207648181
 31
0.0
  0
LINE
  5
4BC
330
321
100
AcDbEntity
  8
0
  6
Continuous
 62
     7
370
    25
100
AcDbLine
 10
4.8276522191
 20
2.8372419221
 30
0.0
 11
4.8276522191
 21
-9.9573739492
 31
0.0
  0
LINE
  5
4BD
330
321
100
AcDbEntity
  8
0
  6
Continuous
 62
     7
370
    25
100
AcDbLine
 10
4.7604432907
 20
-9.9413029233
 30
0.0
 11
4.7604432907
 21
3.3675857743
 31
0.0
  0
LINE
  5
4BE
330
321
100
AcDbEntity
  8
0
  6
Continuous
 62
     7
370
    25
100
AcDbLine
 10
17.3992810331
 20
10.0946887574
 30
0.0
 11
4.8276522191
 21
2.8372419221
 31
0.0
  0
LINE
  5
4BF
330
321
100
AcDbEntity
  8
0
  6
Continuous
 62
     7
370
    25
100
AcDbLine
 10
4.7998133694
 20
2.885460224
 30
0.0
 11
17.3714421835
 21
10.1429070593
 31
0.0
  0
LINE
  5
4C0
330
321
100
AcDbEntity
  8
0
  6
Continuous
 62
     7
370
    25
100
AcDbLine
 10
4.7998133694
 20
3.3997330503
 30
0.0
 11
4.7998133694
 21
2.885460224
 31
0.0
  0
LINE
  5
4C1
330
321
100
AcDbEntity
  8
0
  6
Continuous
 62
     7
370
    25
100
AcDbLine
 10
17.3992810331
 20
-2.6999271139
 30
0.0
 11
17.3992810331
 21
10.0946887574
 31
0.0
  0
LINE
  5
4C2
330
321
100
AcDbEntity
  8
0
  6
Continuous
 62
     7
370
    25
100
AcDbLine
 10
4.8276522191
 20
-9.9573739492
 30
0.0
 11
17.3992810331
 21
-2.6999271139
 31
0.0
  0
LINE
  5
4C3
330
321
100
AcDbEntity
  8
0
  6
Continuous
 62
     7
370
    25
100
AcDbLine
 10
16.926020589
 20
10.4000434724
 30
0.0
 11
4.7998133694
 21
3.3997330503
 31
0.0
  0
LINE
  5
4C4
330
321
100
AcDbEntity
  8
0
  6
Continuous
 62
     7
370
    25
100
AcDbLine
 10
17.3714421835
 20
10.1429070593
 30
0.0
 11
16.926020589
 21
10.4000434724
 31
0.0
  0
LINE
  5
4C5
330
321
100
AcDbEntity
  8
0
  6
Continuous
 62
     7
370
    25
100
AcDbLine
 10
-22.8998420353
 20
18.8761309182
 30
0.0
 11
-10.3282132213
 21
26.1335777534
 31
0.0
  0
LINE
  5
4C6
330
321
100
AcDbEntity
  8
0
  6
Continuous
 62
     7
370
    25
100
AcDbLine
 10
-22.8998420353
 20
19.3904037445
 30
0.0
 11
-22.8998420353
 21
18.8761309182
 31
0.0
  0
LINE
  5
4C7
330
321
100
AcDbEntity
  8
0
  6
Continuous
 62
     7
370
    25
100
AcDbLine
 10
-10.7736348157
 20
26.3907141666
 30
0.0
 11
-22.8998420353
 21
19.3904037445
 31
0.0
  0
LINE
  5
4C8
330
321
100
AcDbEntity
  8
0
  6
Continuous
 62
     7
370
    25
100
AcDbLine
 10
-10.3282132213
 20
26.1335777534
 30
0.0
 11
-10.7736348157
 21
26.3907141666
 31
0.0
  0
LINE
  5
4C9
330
321
100
AcDbEntity
  8
0
  6
Continuous
 62
     7
370
    25
100
AcDbLine
 10
-4.2036662976
 20
13.5324202238
 30
0.0
 11
-4.6490878921
 21
13.2752838106
 31
0.0
  0
LINE
  5
4CA
330
321
100
AcDbEntity
  8
0
  6
Continuous
 62
     7
370
    25
100
AcDbLine
 10
8.2438309746
 20
5.4012342377
 30
0.0
 11
7.4190534325
 21
5.877368178
 31
0.0
  0
LINE
  5
4CB
330
321
100
AcDbEntity
  8
0
  6
Continuous
 62
     7
370
    25
100
AcDbLine
 10
6.9179541388
 20
5.5880897132
 30
0.0
 11
7.7427316809
 21
5.1119557729
 31
0.0
  0
LINE
  5
4CC
330
321
100
AcDbEntity
  8
0
  6
Continuous
 62
     7
370
    25
100
AcDbLine
 10
6.9179541388
 20
5.5880897132
 30
0.0
 11
7.4190534325
 21
5.877368178
 31
0.0
  0
LINE
  5
4CD
330
321
100
AcDbEntity
  8
0
  6
Continuous
 62
     7
370
    25
100
AcDbLine
 10
-5.1084289113
 20
9.9589907841
 30
0.0
 11
5.5152617115
 21
3.8260647306
 31
0.0
  0
LINE
  5
4CE
330
321
100
AcDbEntity
  8
0
  6
Continuous
 62
     7
370
    25
100
AcDbLine
 10
-5.1084289113
 20
12.5307728688
 30
0.0
 11
-5.1084289113
 21
9.9589907841
 31
0.0
  0
LINE
  5
4CF
330
321
100
AcDbEntity
  8
0
  6
Continuous
 62
     7
370
    25
100
AcDbLine
 10
-5.1084289113
 20
12.5307728688
 30
0.0
 11
2.7421266908
 21
7.9987435867
 31
0.0
  0
LINE
  5
4D0
330
321
100
AcDbEntity
  8
0
  6
Continuous
 62
     7
370
    25
100
AcDbLine
 10
3.2432259846
 20
8.2880220515
 30
0.0
 11
2.7421266908
 21
7.9987435867
 31
0.0
  0
LINE
  5
4D1
330
321
100
AcDbEntity
  8
0
  6
Continuous
 62
     7
370
    25
100
AcDbLine
 10
-4.6073296176
 20
12.8200513336
 30
0.0
 11
-5.1084289113
 21
12.5307728688
 31
0.0
  0
LINE
  5
4D2
330
321
100
AcDbEntity
  8
0
  6
Continuous
 62
     7
370
    25
100
AcDbLine
 10
3.2432259846
 20
8.2880220515
 30
0.0
 11
-4.6073296176
 21
12.8200513336
 31
0.0
  0
LINE
  5
4D3
330
321
100
AcDbEntity
  8
0
  6
Continuous
 62
     7
370
    25
100
AcDbLine
 10
-31.9033217024
 20
29.523090918
 30
0.0
 11
-32.3487432968
 21
29.2659545048
 31
0.0
  0
LINE
  5
4D4
330
321
100
AcDbEntity
  8
0
  6
Continuous
 62
     7
370
    25
100
AcDbLine
 10
-32.8080843161
 20
25.9496614783
 30
0.0
 11
-22.1843936932
 21
19.8167354247
 31
0.0
  0
LINE
  5
4D5
330
321
100
AcDbEntity
  8
0
  6
Continuous
 62
     7
370
    25
100
AcDbLine
 10
-32.8080843161
 20
28.521443563
 30
0.0
 11
-32.8080843161
 21
25.9496614783
 31
0.0
  0
LINE
  5
4D6
330
321
100
AcDbEntity
  8
0
  6
Continuous
 62
     7
370
    25
100
AcDbLine
 10
-32.8080843161
 20
28.521443563
 30
0.0
 11
-24.9575287139
 21
23.9894142808
 31
0.0
  0
LINE
  5
4D7
330
321
100
AcDbEntity
  8
0
  6
Continuous
 62
     7
370
    25
100
AcDbLine
 10
-20.781701266
 20
21.5787604073
 30
0.0
 11
-19.9569237239
 21
21.1026264671
 31
0.0
  0
LINE
  5
4D8
330
321
100
AcDbEntity
  8
0
  6
Continuous
 62
     7
370
    25
100
AcDbLine
 10
-19.4558244301
 20
21.3919049319
 30
0.0
 11
-20.2806019722
 21
21.8680388722
 31
0.0
  0
LINE
  5
4D9
330
321
100
AcDbEntity
  8
0
  6
Continuous
 62
     7
370
    25
100
AcDbLine
 10
-20.781701266
 20
21.5787604073
 30
0.0
 11
-20.2806019722
 21
21.8680388722
 31
0.0
  0
LINE
  5
4DA
330
321
100
AcDbEntity
  8
0
  6
Continuous
 62
     7
370
    25
100
AcDbLine
 10
-24.4564294202
 20
24.2786927456
 30
0.0
 11
-24.9575287139
 21
23.9894142808
 31
0.0
  0
LINE
  5
4DB
330
321
100
AcDbEntity
  8
0
  6
Continuous
 62
     7
370
    25
100
AcDbLine
 10
-32.3069850223
 20
28.8107220278
 30
0.0
 11
-32.8080843161
 21
28.521443563
 31
0.0
  0
LINE
  5
4DC
330
321
100
AcDbEntity
  8
0
  6
Continuous
 62
     7
370
    25
100
AcDbLine
 10
-24.4564294202
 20
24.2786927456
 30
0.0
 11
-32.3069850223
 21
28.8107220278
 31
0.0
  0
LINE
  5
4DD
330
321
100
AcDbEntity
  8
0
  6
Continuous
 62
     7
370
    25
100
AcDbLine
 10
4.732604441
 20
-9.4015448822
 30
0.0
 11
4.732604441
 21
-8.8871884653
 31
0.0
  0
LINE
  5
4DE
330
321
100
AcDbEntity
  8
0
  6
Continuous
 62
     7
370
    25
100
AcDbLine
 10
4.7047655914
 20
-5.0428468492
 30
0.0
 11
4.7604432907
 21
-5.0107047976
 31
0.0
  0
LINE
  5
4DF
330
321
100
AcDbEntity
  8
0
  6
Continuous
 62
     7
370
    25
100
AcDbLine
 10
4.7604432907
 20
-4.4321478679
 30
0.0
 11
4.7047655914
 21
-4.4642899196
 31
0.0
  0
LINE
  5
4E0
330
321
100
AcDbEntity
  8
0
  6
Continuous
 62
     7
370
    25
100
AcDbLine
 10
4.7047655914
 20
-8.4183108354
 30
0.0
 11
4.7604432907
 21
-8.3861687837
 31
0.0
  0
LINE
  5
4E1
330
321
100
AcDbEntity
  8
0
  6
Continuous
 62
     7
370
    25
100
AcDbLine
 10
-22.9670509637
 20
6.589125812
 30
0.0
 11
-22.9670509637
 21
7.1034822289
 31
0.0
  0
LINE
  5
4E2
330
321
100
AcDbEntity
  8
0
  6
Continuous
 62
     7
370
    25
100
AcDbLine
 10
-22.9948898134
 20
10.9478238449
 30
0.0
 11
-22.9392121141
 21
10.9799658966
 31
0.0
  0
LINE
  5
4E3
330
321
100
AcDbEntity
  8
0
  6
Continuous
 62
     7
370
    25
100
AcDbLine
 10
-22.9392121141
 20
11.5585228262
 30
0.0
 11
-22.9948898134
 21
11.5263807746
 31
0.0
  0
LINE
  5
4E4
330
321
100
AcDbEntity
  8
0
  6
Continuous
 62
     7
370
    25
100
AcDbLine
 10
-22.9948898134
 20
7.5723598588
 30
0.0
 11
-22.9392121141
 21
7.6045019104
 31
0.0
  0
LINE
  5
4E5
330
321
100
AcDbEntity
  8
0
  6
Continuous
 62
     7
370
    25
100
AcDbLine
 10
4.732604441
 20
0.2426379353
 30
0.0
 11
4.732604441
 21
3.3930709891
 31
0.0
  0
LINE
  5
4E6
330
321
100
AcDbEntity
  8
0
  6
Continuous
 62
     7
370
    25
100
AcDbLine
 10
4.7604432907
 20
3.441289291
 30
0.0
 11
4.9274763886
 21
3.5377154459
 31
0.0
  0
LINE
  5
4E7
330
321
100
AcDbEntity
  8
0
  6
Continuous
 62
     7
370
    25
100
AcDbLine
 10
-16.3135658967
 20
15.6070558392
 30
0.0
 11
4.7604432907
 21
3.441289291
 31
0.0
  0
LINE
  5
4E8
330
321
100
AcDbEntity
  8
0
  6
Continuous
 62
     7
370
    25
100
AcDbLine
 10
4.732604441
 20
3.3930709891
 30
0.0
 11
-16.3414047463
 21
15.5588375373
 31
0.0
  0
LINE
  5
4E9
330
321
100
AcDbEntity
  8
0
  6
Continuous
 62
     7
370
    25
100
AcDbLine
 10
-16.1465327987
 20
15.7034819941
 30
0.0
 11
-16.3135658967
 21
15.6070558392
 31
0.0
  0
LINE
  5
4EA
330
321
100
AcDbEntity
  8
0
  6
Continuous
 62
     7
370
    25
100
AcDbLine
 10
4.9274763886
 20
3.5377154459
 30
0.0
 11
-16.1465327987
 21
15.7034819941
 31
0.0
  0
LINE
  5
4EB
330
321
100
AcDbEntity
  8
0
  6
Continuous
 62
     7
370
    25
100
AcDbLine
 10
-22.9670509637
 20
16.2333086295
 30
0.0
 11
-22.9670509637
 21
19.3837416832
 31
0.0
  0
LINE
  5
4EC
330
321
100
AcDbEntity
  8
0
  6
Continuous
 62
     7
370
    25
100
AcDbLine
 10
-22.9392121141
 20
19.4319599851
 30
0.0
 11
-22.7721790162
 21
19.5283861401
 31
0.0
  0
LINE
  5
4ED
330
321
100
AcDbEntity
  8
0
  6
Continuous
 62
     7
370
    25
100
AcDbLine
 10
-44.0132213014
 20
31.5977265333
 30
0.0
 11
-22.9392121141
 21
19.4319599851
 31
0.0
  0
LINE
  5
4EE
330
321
100
AcDbEntity
  8
0
  6
Continuous
 62
     7
370
    25
100
AcDbLine
 10
-22.9670509637
 20
19.3837416832
 30
0.0
 11
-44.0410601511
 21
31.5495082315
 31
0.0
  0
LINE
  5
4EF
330
321
100
AcDbEntity
  8
0
  6
Continuous
 62
     7
370
    25
100
AcDbLine
 10
-43.8461882035
 20
31.6941526883
 30
0.0
 11
-44.0132213014
 21
31.5977265333
 31
0.0
  0
LINE
  5
4F0
330
321
100
AcDbEntity
  8
0
  6
Continuous
 62
     7
370
    25
100
AcDbLine
 10
-22.7721790162
 20
19.5283861401
 30
0.0
 11
-43.8461882035
 21
31.6941526883
 31
0.0
  0
LINE
  5
4F1
330
321
100
AcDbEntity
  8
0
  6
Continuous
 62
     8
370
    25
100
AcDbLine
 10
-17.2763944054
 20
2.7802926918
 30
0.0
 11
-17.2600867849
 21
2.7802926918
 31
0.0
  0
LINE
  5
4F2
330
321
100
AcDbEntity
  8
0
  6
Continuous
 62
     8
370
    25
100
AcDbLine
 10
-4.2315051473
 20
22.5818758221
 30
0.0
 11
-16.136338198
 21
15.7093619874
 31
0.0
  0
LINE
  5
4F3
330
321
100
AcDbEntity
  8
0
  6
Continuous
 62
     8
370
    25
100
AcDbLine
 10
-16.3515948224
 20
15.5850969832
 30
0.0
 11
-16.3577123669
 21
15.5815654
 31
0.0
  0
LINE
  5
4F4
330
321
100
AcDbEntity
  8
0
  6
Continuous
 62
     8
370
    25
100
AcDbLine
 10
-16.3577123669
 20
15.5815654
 30
0.0
 11
-16.3577123669
 21
13.6261844458
 31
0.0
  0
LINE
  5
4F5
330
321
100
AcDbEntity
  8
0
  6
Continuous
 62
     8
370
    25
100
AcDbLine
 10
-4.2315051473
 20
13.5296613417
 30
0.0
 11
-4.2315051473
 21
22.5818758221
 31
0.0
  0
LINE
  5
4F6
330
321
100
AcDbEntity
  8
0
  6
Continuous
 62
     8
370
    25
100
AcDbLine
 10
-44.9760498102
 20
18.770963386
 30
0.0
 11
-44.9597421896
 21
18.770963386
 31
0.0
  0
LINE
  5
4F7
330
321
100
AcDbEntity
  8
0
  6
Continuous
 62
     8
370
    25
100
AcDbLine
 10
-31.931160552
 20
38.5725465162
 30
0.0
 11
-43.8359936028
 21
31.7000326816
 31
0.0
  0
LINE
  5
4F8
330
321
100
AcDbEntity
  8
0
  6
Continuous
 62
     8
370
    25
100
AcDbLine
 10
-44.0512502272
 20
31.5757676774
 30
0.0
 11
-44.0573677716
 21
31.5722360941
 31
0.0
  0
LINE
  5
4F9
330
321
100
AcDbEntity
  8
0
  6
Continuous
 62
     8
370
    25
100
AcDbLine
 10
-44.0573677716
 20
31.5722360941
 30
0.0
 11
-44.0573677716
 21
29.61685514
 31
0.0
  0
LINE
  5
4FA
330
321
100
AcDbEntity
  8
0
  6
Continuous
 62
     8
370
    25
100
AcDbLine
 10
-31.931160552
 20
29.5203320358
 30
0.0
 11
-31.931160552
 21
38.5725465162
 31
0.0
  0
LINE
  5
4FB
330
321
100
AcDbEntity
  8
0
  6
Continuous
 62
     8
370
    25
100
AcDbLine
 10
8.5615552245
 20
5.584652543
 30
0.0
 11
-4.6769267417
 21
13.2270655088
 31
0.0
  0
LINE
  5
4FC
330
321
100
AcDbEntity
  8
0
  6
Continuous
 62
     8
370
    25
100
AcDbLine
 10
-4.6490878921
 20
13.2752838106
 30
0.0
 11
8.6172374488
 21
5.6167972069
 31
0.0
  0
LINE
  5
4FD
330
321
100
AcDbEntity
  8
0
  6
Continuous
 62
     8
370
    25
100
AcDbLine
 10
-4.6769267417
 20
13.2270655088
 30
0.0
 11
-4.6769267417
 21
13.1495543827
 31
0.0
  0
LINE
  5
4FE
330
321
100
AcDbEntity
  8
0
  6
Continuous
 62
     8
370
    25
100
AcDbLine
 10
9.0626590432
 20
5.87393362
 30
0.0
 11
-4.2036662976
 21
13.5324202238
 31
0.0
  0
LINE
  5
4FF
330
321
100
AcDbEntity
  8
0
  6
Continuous
 62
     8
370
    25
100
AcDbLine
 10
-19.1381001802
 20
21.5753232372
 30
0.0
 11
-32.3765821465
 21
29.2177362029
 31
0.0
  0
LINE
  5
500
330
321
100
AcDbEntity
  8
0
  6
Continuous
 62
     8
370
    25
100
AcDbLine
 10
-32.3487432968
 20
29.2659545048
 30
0.0
 11
-19.082417956
 21
21.607467901
 31
0.0
  0
LINE
  5
501
330
321
100
AcDbEntity
  8
0
  6
Continuous
 62
     8
370
    25
100
AcDbLine
 10
-32.3765821465
 20
29.2177362029
 30
0.0
 11
-32.3765821465
 21
29.1402250769
 31
0.0
  0
LINE
  5
502
330
321
100
AcDbEntity
  8
0
  6
Continuous
 62
     8
370
    25
100
AcDbLine
 10
-18.6369963615
 20
21.8646043142
 30
0.0
 11
-31.9033217024
 21
29.523090918
 31
0.0
  0
LINE
  5
503
330
321
100
AcDbEntity
  8
0
  6
Continuous
 62
     8
370
    25
100
AcDbLine
 10
4.732604441
 20
-8.8871884653
 30
0.0
 11
4.7047655914
 21
-8.8711174394
 31
0.0
  0
LINE
  5
504
330
321
100
AcDbEntity
  8
0
  6
Continuous
 62
     8
370
    25
100
AcDbLine
 10
4.7047655914
 20
-8.8068281117
 30
0.0
 11
4.7604432907
 21
-8.8389701634
 31
0.0
  0
LINE
  5
505
330
321
100
AcDbEntity
  8
0
  6
Continuous
 62
     8
370
    25
100
AcDbLine
 10
4.7047655914
 20
-9.3854738564
 30
0.0
 11
4.732604441
 21
-9.4015448822
 31
0.0
  0
LINE
  5
506
330
321
100
AcDbEntity
  8
0
  6
Continuous
 62
     8
370
    25
100
AcDbLine
 10
-22.9670509637
 20
7.1034822289
 30
0.0
 11
-22.9948898134
 21
7.1195532547
 31
0.0
  0
LINE
  5
507
330
321
100
AcDbEntity
  8
0
  6
Continuous
 62
     8
370
    25
100
AcDbLine
 10
-22.9948898134
 20
7.1838425824
 30
0.0
 11
-22.9392121141
 21
7.1517005308
 31
0.0
  0
LINE
  5
508
330
321
100
AcDbEntity
  8
0
  6
Continuous
 62
     8
370
    25
100
AcDbLine
 10
-22.9948898134
 20
6.6051968378
 30
0.0
 11
-22.9670509637
 21
6.589125812
 31
0.0
  0
LINE
  5
509
330
321
100
AcDbEntity
  8
0
  6
Continuous
 62
     8
370
    25
100
AcDbLine
 10
-16.3414047463
 20
15.5588375373
 30
0.0
 11
-16.3414047463
 21
13.6167702568
 31
0.0
  0
LINE
  5
50A
330
321
100
AcDbEntity
  8
0
  6
Continuous
 62
     8
370
    25
100
AcDbLine
 10
4.7047655914
 20
0.2587089612
 30
0.0
 11
4.732604441
 21
0.2426379353
 31
0.0
  0
LINE
  5
50B
330
321
100
AcDbEntity
  8
0
  6
Continuous
 62
     8
370
    25
100
AcDbLine
 10
-44.0410601511
 20
31.5495082315
 30
0.0
 11
-44.0410601511
 21
29.607440951
 31
0.0
  0
LINE
  5
50C
330
321
100
AcDbEntity
  8
0
  6
Continuous
 62
     8
370
    25
100
AcDbLine
 10
-22.9948898134
 20
16.2493796553
 30
0.0
 11
-22.9670509637
 21
16.2333086295
 31
0.0
  0
ARC
  5
50D
330
321
100
AcDbEntity
  8
0
  6
Continuous
 62
     7
370
    25
100
AcDbCircle
 10
4.6653955126
 20
-9.9091608717
 30
0.0
 40
0.0393700787401556
100
AcDbArc
 50
240.0026882663
 51
0.0
  0
ARC
  5
50E
330
321
100
AcDbEntity
  8
0
  6
Continuous
 62
     7
370
    25
100
AcDbCircle
 10
-17.2207167061
 20
2.7254227775
 30
0.0
 40
0.0393700787401593
100
AcDbArc
 50
180.0
 51
240.0026882664
  0
ARC
  5
50F
330
321
100
AcDbEntity
  8
0
  6
Continuous
 62
     7
370
    25
100
AcDbCircle
 10
-23.0342598921
 20
6.0815098225
 30
0.0
 40
0.0393700787401604
100
AcDbArc
 50
240.0026882664
 51
360.0
  0
ARC
  5
510
330
321
100
AcDbEntity
  8
0
  6
Continuous
 62
     7
370
    25
100
AcDbCircle
 10
-44.9203721109
 20
18.7160934717
 30
0.0
 40
0.0393700787401414
100
AcDbArc
 50
180.0
 51
240.0026882664
  0
ARC
  5
511
330
321
100
AcDbEntity
  8
0
  6
Continuous
 62
     7
370
    25
100
AcDbCircle
 10
-17.2763944054
 20
15.5976364258
 30
0.0
 40
0.0393700787401597
100
AcDbArc
 50
119.9973117336
 51
180.0
  0
ARC
  5
512
330
321
100
AcDbEntity
  8
0
  6
Continuous
 62
     7
370
    25
100
AcDbCircle
 10
-17.2763944054
 20
2.8030205545
 30
0.0
 40
0.0393700787401592
100
AcDbArc
 50
180.0
 51
270.0
  0
ARC
  5
513
330
321
100
AcDbEntity
  8
0
  6
Continuous
 62
     7
370
    25
100
AcDbCircle
 10
-4.2593439969
 20
22.5979468479
 30
0.0
 40
0.0393700787401506
100
AcDbArc
 50
360.0
 51
60.0026882664
  0
ARC
  5
514
330
321
100
AcDbEntity
  8
0
  6
Continuous
 62
     7
370
    25
100
AcDbCircle
 10
-4.7047655914
 20
22.8550832611
 30
0.0
 40
0.0393700787401801
100
AcDbArc
 50
60.0026882664
 51
119.9973117336
  0
ARC
  5
515
330
321
100
AcDbEntity
  8
0
  6
Continuous
 62
     7
370
    25
100
AcDbCircle
 10
-44.9760498102
 20
31.58830712
 30
0.0
 40
0.0393700787401627
100
AcDbArc
 50
119.9973117336
 51
180.0
  0
ARC
  5
516
330
321
100
AcDbEntity
  8
0
  6
Continuous
 62
     7
370
    25
100
AcDbCircle
 10
-44.9760498102
 20
18.7936912487
 30
0.0
 40
0.0393700787401592
100
AcDbArc
 50
180.0
 51
270.0
  0
ARC
  5
517
330
321
100
AcDbEntity
  8
0
  6
Continuous
 62
     7
370
    25
100
AcDbCircle
 10
-31.9589994017
 20
38.5886175421
 30
0.0
 40
0.0393700787401023
100
AcDbArc
 50
360.0
 51
60.0026882664
  0
ARC
  5
518
330
321
100
AcDbEntity
  8
0
  6
Continuous
 62
     7
370
    25
100
AcDbCircle
 10
-32.4044209961
 20
38.8457539552
 30
0.0
 40
0.0393700787401507
100
AcDbArc
 50
60.0026882663
 51
119.9973117337
  0
ARC
  5
519
330
321
100
AcDbEntity
  8
0
  6
Continuous
 62
     7
370
    25
100
AcDbCircle
 10
4.7998133694
 20
3.3675857743
 30
0.0
 40
0.0393700787401576
100
AcDbArc
 50
119.9973117336
 51
180.0
  0
ARC
  5
51A
330
321
100
AcDbEntity
  8
0
  6
Continuous
 62
     7
370
    25
100
AcDbCircle
 10
4.7998133694
 20
-9.9413029233
 30
0.0
 40
0.0393700787401565
100
AcDbArc
 50
180.0
 51
299.9973117337
  0
ARC
  5
51B
330
321
100
AcDbEntity
  8
0
  6
Continuous
 62
     7
370
    25
100
AcDbCircle
 10
17.3714421835
 20
10.1107597832
 30
0.0
 40
0.0393700787401632
100
AcDbArc
 50
0.0
 51
60.0026882663
  0
ARC
  5
51C
330
321
100
AcDbEntity
  8
0
  6
Continuous
 62
     7
370
    25
100
AcDbCircle
 10
16.926020589
 20
10.3678961964
 30
0.0
 40
0.0393700787401658
100
AcDbArc
 50
60.0026882663
 51
119.9973117336
  0
ARC
  5
51D
330
321
100
AcDbEntity
  8
0
  6
Continuous
 62
     7
370
    25
100
AcDbCircle
 10
17.3714421835
 20
-2.6838560881
 30
0.0
 40
0.0393700787401343
100
AcDbArc
 50
299.9973117336
 51
0.0
  0
ARC
  5
51E
330
321
100
AcDbEntity
  8
0
  6
Continuous
 62
     7
370
    25
100
AcDbCircle
 10
-22.8998420353
 20
19.3582564684
 30
0.0
 40
0.0393700787401533
100
AcDbArc
 50
119.9973117336
 51
180.0
  0
ARC
  5
51F
330
321
100
AcDbEntity
  8
0
  6
Continuous
 62
     7
370
    25
100
AcDbCircle
 10
-10.3282132213
 20
26.1014304774
 30
0.0
 40
0.0393700787402428
100
AcDbArc
 50
30.0038964362
 51
60.0026882663
  0
ARC
  5
520
330
321
100
AcDbEntity
  8
0
  6
Continuous
 62
     7
370
    25
100
AcDbCircle
 10
-10.7736348157
 20
26.3585668905
 30
0.0
 40
0.0393700787402052
100
AcDbArc
 50
60.0026882664
 51
119.9973117336
  0
ARC
  5
521
330
321
100
AcDbEntity
  8
0
  6
Continuous
 62
     7
370
    25
100
AcDbCircle
 10
-4.6490878921
 20
13.2431365346
 30
0.0
 40
0.0393700787401494
100
AcDbArc
 50
119.9973117336
 51
180.0
  0
ARC
  5
522
330
321
100
AcDbEntity
  8
0
  6
Continuous
 62
     7
370
    25
100
AcDbCircle
 10
-4.2036662976
 20
13.5002729478
 30
0.0
 40
0.0393700787401709
100
AcDbArc
 50
60.0026882664
 51
119.9973117336
  0
ARC
  5
523
330
321
100
AcDbEntity
  8
0
  6
Continuous
 62
     7
370
    25
100
AcDbCircle
 10
-32.3487432968
 20
29.2338072287
 30
0.0
 40
0.0393700787401556
100
AcDbArc
 50
119.9973117336
 51
180.0
  0
ARC
  5
524
330
321
100
AcDbEntity
  8
0
  6
Continuous
 62
     7
370
    25
100
AcDbCircle
 10
-31.9033217024
 20
29.4909436419
 30
0.0
 40
0.0393700787401371
100
AcDbArc
 50
60.0026882664
 51
119.9973117337
  0
ARC
  5
525
330
321
100
AcDbEntity
  8
0
  6
Continuous
 62
     7
370
    25
100
AcDbCircle
 10
4.7604432907
 20
-9.3854738564
 30
0.0
 40
0.039370078740248
100
AcDbArc
 50
240.0026882664
 51
270.0
  0
ARC
  5
526
330
321
100
AcDbEntity
  8
0
  6
Continuous
 62
     7
370
    25
100
AcDbCircle
 10
-22.9392121141
 20
6.6051968378
 30
0.0
 40
0.0393700787401911
100
AcDbArc
 50
240.0026882664
 51
270.0
  0
ARC
  5
527
330
321
100
AcDbEntity
  8
0
  6
Continuous
 62
     7
370
    25
100
AcDbCircle
 10
4.9274763886
 20
3.5055681698
 30
0.0
 40
0.0393700787401532
100
AcDbArc
 50
5.5347458071
 51
60.0026882664
  0
ARC
  5
528
330
321
100
AcDbEntity
  8
0
  6
Continuous
 62
     7
370
    25
100
AcDbCircle
 10
4.7604432907
 20
0.2587089612
 30
0.0
 40
0.0393700787401531
100
AcDbArc
 50
240.0026882664
 51
270.0
  0
ARC
  5
529
330
321
100
AcDbEntity
  8
0
  6
Continuous
 62
     7
370
    25
100
AcDbCircle
 10
-16.3135658967
 20
15.5749085631
 30
0.0
 40
0.0393700787401592
100
AcDbArc
 50
119.9973117336
 51
180.0
  0
ARC
  5
52A
330
321
100
AcDbEntity
  8
0
  6
Continuous
 62
     7
370
    25
100
AcDbCircle
 10
-16.1465327987
 20
15.6713347181
 30
0.0
 40
0.0393700787401768
100
AcDbArc
 50
60.0026882664
 51
119.9973117336
  0
ARC
  5
52B
330
321
100
AcDbEntity
  8
0
  6
Continuous
 62
     7
370
    25
100
AcDbCircle
 10
-22.7721790162
 20
19.496238864
 30
0.0
 40
0.0393700787401571
100
AcDbArc
 50
5.5347458071
 51
60.0026882663
  0
ARC
  5
52C
330
321
100
AcDbEntity
  8
0
  6
Continuous
 62
     7
370
    25
100
AcDbCircle
 10
-22.9392121141
 20
16.2493796553
 30
0.0
 40
0.0393700787402219
100
AcDbArc
 50
240.0026882664
 51
270.0
  0
ARC
  5
52D
330
321
100
AcDbEntity
  8
0
  6
Continuous
 62
     7
370
    25
100
AcDbCircle
 10
-44.0132213014
 20
31.5655792573
 30
0.0
 40
0.0393700787401556
100
AcDbArc
 50
119.9973117336
 51
180.0
  0
ARC
  5
52E
330
321
100
AcDbEntity
  8
0
  6
Continuous
 62
     7
370
    25
100
AcDbCircle
 10
-43.8461882035
 20
31.6620054122
 30
0.0
 40
0.0393700787401102
100
AcDbArc
 50
60.0026882663
 51
119.9973117337
  0
ARC
  5
52F
330
321
100
AcDbEntity
  8
0
  6
Continuous
 62
     7
370
    25
100
AcDbCircle
 10
-16.3844169513
 20
15.6317044379
 30
0.0
 40
0.0568071998465593
100
AcDbArc
 50
268.8559032542
 51
298.0402391154
  0
ARC
  5
530
330
321
100
AcDbEntity
  8
0
  6
Continuous
 62
     7
370
    25
100
AcDbCircle
 10
-16.4181539457
 20
15.5788149727
 30
0.0
 40
0.0605041262823635
100
AcDbArc
 50
2.6054784857
 51
57.39452166
  0
ARC
  5
531
330
321
100
AcDbEntity
  8
0
  6
Continuous
 62
     7
370
    25
100
AcDbCircle
 10
-4.2919467261
 20
22.5791253948
 30
0.0
 40
0.0605041262823701
100
AcDbArc
 50
2.6054784857
 51
57.39452166
  0
ARC
  5
532
330
321
100
AcDbEntity
  8
0
  6
Continuous
 62
     7
370
    25
100
AcDbCircle
 10
-44.084072356
 20
31.6223751321
 30
0.0
 40
0.0568071998464979
100
AcDbArc
 50
268.8559032542
 51
298.0402391154
  0
ARC
  5
533
330
321
100
AcDbEntity
  8
0
  6
Continuous
 62
     7
370
    25
100
AcDbCircle
 10
-44.1178093504
 20
31.5694856669
 30
0.0
 40
0.0605041262823602
100
AcDbArc
 50
2.6054784857
 51
57.39452166
  0
ARC
  5
534
330
321
100
AcDbEntity
  8
0
  6
Continuous
 62
     7
370
    25
100
AcDbCircle
 10
-31.9916021308
 20
38.569796089
 30
0.0
 40
0.060504126282349
100
AcDbArc
 50
2.6054784856
 51
57.39452166
  0
ARC
  5
535
330
321
100
AcDbEntity
  8
0
  6
Continuous
 62
     7
370
    25
100
AcDbCircle
 10
4.7965332404
 20
2.8492958444
 30
0.0
 40
0.0363128296282985
100
AcDbArc
 50
84.8174221345
 51
173.6486598634
  0
ARC
  5
536
330
321
100
AcDbEntity
  8
0
  6
Continuous
 62
     7
370
    25
100
AcDbCircle
 10
4.7672106403
 20
2.8344914949
 30
0.0
 40
0.0605041262823575
100
AcDbArc
 50
2.6054784856
 51
57.39452166
  0
ARC
  5
537
330
321
100
AcDbEntity
  8
0
  6
Continuous
 62
     7
370
    25
100
AcDbCircle
 10
17.3388394543
 20
10.0919383301
 30
0.0
 40
0.0605041262824048
100
AcDbArc
 50
2.6054784857
 51
57.39452166
  0
ARC
  5
538
330
321
100
AcDbEntity
  8
0
  6
Continuous
 62
     7
370
    25
100
AcDbCircle
 10
4.7965332404
 20
3.3635686708
 30
0.0
 40
0.0363128296283019
100
AcDbArc
 50
84.8174221345
 51
173.6486598634
  0
ARC
  5
539
330
321
100
AcDbEntity
  8
0
  6
Continuous
 62
     7
370
    25
100
AcDbCircle
 10
-22.9031221643
 20
18.8399665386
 30
0.0
 40
0.0363128296282996
100
AcDbArc
 50
84.8174221345
 51
173.6486598634
  0
ARC
  5
53A
330
321
100
AcDbEntity
  8
0
  6
Continuous
 62
     7
370
    25
100
AcDbCircle
 10
-22.9031221643
 20
19.3542393649
 30
0.0
 40
0.0363128296283028
100
AcDbArc
 50
84.8174221345
 51
173.6486598634
  0
ARC
  5
53B
330
321
100
AcDbEntity
  8
0
  6
Continuous
 62
     7
370
    25
100
AcDbCircle
 10
-4.6164851629
 20
13.2243150815
 30
0.0
 40
0.0605041262823506
100
AcDbArc
 50
122.60547834
 51
177.3945215144
  0
ARC
  5
53C
330
321
100
AcDbEntity
  8
0
  6
Continuous
 62
     7
370
    25
100
AcDbCircle
 10
-32.3161405677
 20
29.2149857757
 30
0.0
 40
0.0605041262823742
100
AcDbArc
 50
122.60547834
 51
177.3945215143
  0
ARC
  5
53D
330
321
100
AcDbEntity
  8
0
  6
Continuous
 62
     7
370
    25
100
AcDbCircle
 10
4.7930460198
 20
-8.8899388925
 30
0.0
 40
0.0605041262823652
100
AcDbArc
 50
122.60547834
 51
177.3945215143
  0
ARC
  5
53E
330
321
100
AcDbEntity
  8
0
  6
Continuous
 62
     7
370
    25
100
AcDbCircle
 10
-22.9066093849
 20
7.1007318016
 30
0.0
 40
0.0605041262823777
100
AcDbArc
 50
122.60547834
 51
177.3945215143
  0
ARC
  5
53F
330
321
100
AcDbEntity
  8
0
  6
Continuous
 62
     7
370
    25
100
AcDbCircle
 10
4.7930460198
 20
3.3903205618
 30
0.0
 40
0.0605041262823746
100
AcDbArc
 50
122.60547834
 51
177.3945215143
  0
ARC
  5
540
330
321
100
AcDbEntity
  8
0
  6
Continuous
 62
     7
370
    25
100
AcDbCircle
 10
-16.2809631675
 20
15.55608711
 30
0.0
 40
0.0605041262823681
100
AcDbArc
 50
122.60547834
 51
177.3945215143
  0
ARC
  5
541
330
321
100
AcDbEntity
  8
0
  6
Continuous
 62
     7
370
    25
100
AcDbCircle
 10
-22.9066093849
 20
19.380991256
 30
0.0
 40
0.0605041262823781
100
AcDbArc
 50
122.60547834
 51
177.3945215143
  0
ARC
  5
542
330
321
100
AcDbEntity
  8
0
  6
Continuous
 62
     7
370
    25
100
AcDbCircle
 10
-43.9806185723
 20
31.5467578042
 30
0.0
 40
0.0605041262823166
100
AcDbArc
 50
122.60547834
 51
177.3945215144
  0
ARC
  5
543
330
321
100
AcDbEntity
  8
0
  6
Continuous
 62
     8
370
    25
100
AcDbCircle
 10
4.6567926602
 20
-9.9273863691
 30
0.0
 40
0.0193562738972931
100
AcDbArc
 50
173.6093872136
 51
235.078432393
  0
ARC
  5
544
330
321
100
AcDbEntity
  8
0
  6
Continuous
 62
     8
370
    25
100
AcDbCircle
 10
-17.2293195585
 20
2.7071972801
 30
0.0
 40
0.0193562738973122
100
AcDbArc
 50
173.6093872137
 51
235.078432393
  0
ARC
  5
545
330
321
100
AcDbEntity
  8
0
  6
Continuous
 62
     8
370
    25
100
AcDbCircle
 10
-17.2408067271
 20
2.727084103
 30
0.0
 40
0.0193515019933969
100
AcDbArc
 50
184.9249021695
 51
246.3952387881
  0
ARC
  5
546
330
321
100
AcDbEntity
  8
0
  6
Continuous
 62
     8
370
    25
100
AcDbCircle
 10
-23.0428627445
 20
6.063284325
 30
0.0
 40
0.0193562738972991
100
AcDbArc
 50
173.6093872136
 51
235.078432393
  0
ARC
  5
547
330
321
100
AcDbEntity
  8
0
  6
Continuous
 62
     8
370
    25
100
AcDbCircle
 10
-44.9289749633
 20
18.6978679742
 30
0.0
 40
0.0193562738973156
100
AcDbArc
 50
173.6093872137
 51
235.078432393
  0
ARC
  5
548
330
321
100
AcDbEntity
  8
0
  6
Continuous
 62
     8
370
    25
100
AcDbCircle
 10
-44.9404621319
 20
18.7177547972
 30
0.0
 40
0.0193515019933892
100
AcDbArc
 50
184.9249021695
 51
246.3952387881
  0
ARC
  5
549
330
321
100
AcDbEntity
  8
0
  6
Continuous
 62
     8
370
    25
100
AcDbCircle
 10
-17.2879266911
 20
15.6136860117
 30
0.0
 40
0.0198022533819614
100
AcDbArc
 50
54.3824225248
 51
114.3071190461
  0
ARC
  5
54A
330
321
100
AcDbEntity
  8
0
  6
Continuous
 62
     8
370
    25
100
AcDbCircle
 10
-4.716297877
 20
22.871132847
 30
0.0
 40
0.0198022533819484
100
AcDbArc
 50
54.3824225248
 51
114.3071190461
  0
ARC
  5
54B
330
321
100
AcDbEntity
  8
0
  6
Continuous
 62
     8
370
    25
100
AcDbCircle
 10
-4.2396769521
 20
22.5999116659
 30
0.0
 40
0.0198007589958127
100
AcDbArc
 50
294.3746582936
 51
354.3052007488
  0
ARC
  5
54C
330
321
100
AcDbEntity
  8
0
  6
Continuous
 62
     8
370
    25
100
AcDbCircle
 10
-4.2478117113
 20
22.6139964338
 30
0.0
 40
0.0198022533819512
100
AcDbArc
 50
65.6928809539
 51
125.6175774752
  0
ARC
  5
54D
330
321
100
AcDbEntity
  8
0
  6
Continuous
 62
     8
370
    25
100
AcDbCircle
 10
-4.6932333057
 20
22.871132847
 30
0.0
 40
0.0198022533819597
100
AcDbArc
 50
65.6928809539
 51
125.6175774752
  0
ARC
  5
54E
330
321
100
AcDbEntity
  8
0
  6
Continuous
 62
     8
370
    25
100
AcDbCircle
 10
-44.9875820958
 20
31.6043567059
 30
0.0
 40
0.0198022533819052
100
AcDbArc
 50
54.3824225247
 51
114.3071190462
  0
ARC
  5
54F
330
321
100
AcDbEntity
  8
0
  6
Continuous
 62
     8
370
    25
100
AcDbCircle
 10
-32.4159532817
 20
38.8618035412
 30
0.0
 40
0.0198022533819527
100
AcDbArc
 50
54.3824225248
 51
114.3071190461
  0
ARC
  5
550
330
321
100
AcDbEntity
  8
0
  6
Continuous
 62
     8
370
    25
100
AcDbCircle
 10
-31.9393323569
 20
38.59058236
 30
0.0
 40
0.0198007589957988
100
AcDbArc
 50
294.3746582935
 51
354.3052007488
  0
ARC
  5
551
330
321
100
AcDbEntity
  8
0
  6
Continuous
 62
     8
370
    25
100
AcDbCircle
 10
-31.947467116
 20
38.604667128
 30
0.0
 40
0.0198022533819192
100
AcDbArc
 50
65.6928809538
 51
125.6175774752
  0
ARC
  5
552
330
321
100
AcDbEntity
  8
0
  6
Continuous
 62
     8
370
    25
100
AcDbCircle
 10
-32.3928887105
 20
38.8618035412
 30
0.0
 40
0.01980225338197
100
AcDbArc
 50
65.6928809539
 51
125.6175774752
  0
ARC
  5
553
330
321
100
AcDbEntity
  8
0
  6
Continuous
 62
     8
370
    25
100
AcDbCircle
 10
4.7882810838
 20
3.3836353602
 30
0.0
 40
0.0198022533819555
100
AcDbArc
 50
54.3824225248
 51
114.3071190461
  0
ARC
  5
554
330
321
100
AcDbEntity
  8
0
  6
Continuous
 62
     8
370
    25
100
AcDbCircle
 10
16.9144883034
 20
10.3839457823
 30
0.0
 40
0.0198022533819634
100
AcDbArc
 50
54.3824225248
 51
114.3071190461
  0
ARC
  5
555
330
321
100
AcDbEntity
  8
0
  6
Continuous
 62
     8
370
    25
100
AcDbCircle
 10
4.8083608056
 20
-9.9595033483
 30
0.0
 40
0.0194085799176214
100
AcDbArc
 50
305.0133328684
 51
6.2988475249
  0
ARC
  5
556
330
321
100
AcDbEntity
  8
0
  6
Continuous
 62
     8
370
    25
100
AcDbCircle
 10
17.3799896197
 20
-2.702056513
 30
0.0
 40
0.0194085799141692
100
AcDbArc
 50
305.0133328624
 51
6.298847531
  0
ARC
  5
557
330
321
100
AcDbEntity
  8
0
  6
Continuous
 62
     8
370
    25
100
AcDbCircle
 10
17.3829744691
 20
10.1268093691
 30
0.0
 40
0.0198022533819685
100
AcDbArc
 50
65.6928809539
 51
125.6175774752
  0
ARC
  5
558
330
321
100
AcDbEntity
  8
0
  6
Continuous
 62
     8
370
    25
100
AcDbCircle
 10
17.3911092283
 20
10.1127246012
 30
0.0
 40
0.0198007589958203
100
AcDbArc
 50
294.3746582936
 51
354.3052007488
  0
ARC
  5
559
330
321
100
AcDbEntity
  8
0
  6
Continuous
 62
     8
370
    25
100
AcDbCircle
 10
17.3911092283
 20
-2.6818912701
 30
0.0
 40
0.019800758995822
100
AcDbArc
 50
294.3746582936
 51
354.3052007488
  0
ARC
  5
55A
330
321
100
AcDbEntity
  8
0
  6
Continuous
 62
     8
370
    25
100
AcDbCircle
 10
16.9375528747
 20
10.3839457823
 30
0.0
 40
0.0198022533819436
100
AcDbArc
 50
65.6928809539
 51
125.6175774752
  0
ARC
  5
55B
330
321
100
AcDbEntity
  8
0
  6
Continuous
 62
     8
370
    25
100
AcDbCircle
 10
-22.9191014813
 20
18.8462414822
 30
0.0
 40
0.0202369808157247
100
AcDbArc
 50
186.4058275526
 51
244.9018361571
  0
ARC
  5
55C
330
321
100
AcDbEntity
  8
0
  6
Continuous
 62
     8
370
    25
100
AcDbCircle
 10
-22.9299011107
 20
18.8279414694
 30
0.0
 40
0.0567958712324122
100
AcDbArc
 50
28.8567998287
 51
58.0453714773
  0
ARC
  5
55D
330
321
100
AcDbEntity
  8
0
  6
Continuous
 62
     8
370
    25
100
AcDbCircle
 10
-10.3582722967
 20
26.0853883046
 30
0.0
 40
0.0567958712324216
100
AcDbArc
 50
28.8567998287
 51
58.0453714773
  0
ARC
  5
55E
330
321
100
AcDbEntity
  8
0
  6
Continuous
 62
     8
370
    25
100
AcDbCircle
 10
-22.911374321
 20
19.3743060544
 30
0.0
 40
0.0198022533819692
100
AcDbArc
 50
54.3824225248
 51
114.3071190461
  0
ARC
  5
55F
330
321
100
AcDbEntity
  8
0
  6
Continuous
 62
     8
370
    25
100
AcDbCircle
 10
-10.7851671013
 20
26.3746164765
 30
0.0
 40
0.0198022533819547
100
AcDbArc
 50
54.3824225248
 51
114.3071190461
  0
ARC
  5
560
330
321
100
AcDbEntity
  8
0
  6
Continuous
 62
     8
370
    25
100
AcDbCircle
 10
-10.3166809356
 20
26.1174800633
 30
0.0
 40
0.0198022533819763
100
AcDbArc
 50
65.6928809539
 51
125.6175774752
  0
ARC
  5
561
330
321
100
AcDbEntity
  8
0
  6
Continuous
 62
     8
370
    25
100
AcDbCircle
 10
-10.7621025301
 20
26.3746164765
 30
0.0
 40
0.0198022533819752
100
AcDbArc
 50
65.6928809539
 51
125.6175774752
  0
ARC
  5
562
330
321
100
AcDbEntity
  8
0
  6
Continuous
 62
     8
370
    25
100
AcDbCircle
 10
-4.192134012
 20
13.5163225337
 30
0.0
 40
0.0198022533819628
100
AcDbArc
 50
65.6928809539
 51
125.6175774752
  0
ARC
  5
563
330
321
100
AcDbEntity
  8
0
  6
Continuous
 62
     8
370
    25
100
AcDbCircle
 10
-4.6687549368
 20
13.2451013526
 30
0.0
 40
0.0198007589958184
100
AcDbArc
 50
185.6947992512
 51
245.6253417064
  0
ARC
  5
564
330
321
100
AcDbEntity
  8
0
  6
Continuous
 62
     8
370
    25
100
AcDbCircle
 10
-4.6606201777
 20
13.2591861205
 30
0.0
 40
0.0198022533819596
100
AcDbArc
 50
54.3824225248
 51
114.3071190461
  0
ARC
  5
565
330
321
100
AcDbEntity
  8
0
  6
Continuous
 62
     8
370
    25
100
AcDbCircle
 10
-4.2151985832
 20
13.5163225337
 30
0.0
 40
0.0198022533819564
100
AcDbArc
 50
54.3824225248
 51
114.3071190461
  0
ARC
  5
566
330
321
100
AcDbEntity
  8
0
  6
Continuous
 62
     8
370
    25
100
AcDbCircle
 10
-31.8917894167
 20
29.5069932279
 30
0.0
 40
0.0198022533819915
100
AcDbArc
 50
65.692880954
 51
125.6175774752
  0
ARC
  5
567
330
321
100
AcDbEntity
  8
0
  6
Continuous
 62
     8
370
    25
100
AcDbCircle
 10
-32.3684103416
 20
29.2357720467
 30
0.0
 40
0.0198007589957938
100
AcDbArc
 50
185.6947992512
 51
245.6253417064
  0
ARC
  5
568
330
321
100
AcDbEntity
  8
0
  6
Continuous
 62
     8
370
    25
100
AcDbCircle
 10
-32.3602755824
 20
29.2498568147
 30
0.0
 40
0.0198022533819225
100
AcDbArc
 50
54.3824225248
 51
114.3071190461
  0
ARC
  5
569
330
321
100
AcDbEntity
  8
0
  6
Continuous
 62
     8
370
    25
100
AcDbCircle
 10
-31.914853988
 20
29.5069932279
 30
0.0
 40
0.019802253381971
100
AcDbArc
 50
54.3824225248
 51
114.3071190461
  0
ARC
  5
56A
330
321
100
AcDbEntity
  8
0
  6
Continuous
 62
     8
370
    25
100
AcDbCircle
 10
4.7593090254
 20
-8.8370494273
 30
0.0
 40
0.0568071998465522
100
AcDbArc
 50
241.9597608846
 51
271.1440967458
  0
ARC
  5
56B
330
321
100
AcDbEntity
  8
0
  6
Continuous
 62
     8
370
    25
100
AcDbCircle
 10
4.7593090254
 20
-9.3514058442
 30
0.0
 40
0.0568071998465557
100
AcDbArc
 50
241.9597608846
 51
271.1440967458
  0
ARC
  5
56C
330
321
100
AcDbEntity
  8
0
  6
Continuous
 62
     8
370
    25
100
AcDbCircle
 10
4.7518958545
 20
-9.4036742813
 30
0.0
 40
0.0194085799216378
100
AcDbArc
 50
173.7011524821
 51
234.9866671245
  0
ARC
  5
56D
330
321
100
AcDbEntity
  8
0
  6
Continuous
 62
     8
370
    25
100
AcDbCircle
 10
-22.9403463794
 20
7.1536212669
 30
0.0
 40
0.0568071998465567
100
AcDbArc
 50
241.9597608846
 51
271.1440967458
  0
ARC
  5
56E
330
321
100
AcDbEntity
  8
0
  6
Continuous
 62
     8
370
    25
100
AcDbCircle
 10
-22.9403463794
 20
6.6392648499
 30
0.0
 40
0.0568071998465451
100
AcDbArc
 50
241.9597608846
 51
271.1440967458
  0
ARC
  5
56F
330
321
100
AcDbEntity
  8
0
  6
Continuous
 62
     8
370
    25
100
AcDbCircle
 10
-22.9477595503
 20
6.5869964128
 30
0.0
 40
0.0194085799176354
100
AcDbArc
 50
173.7011524751
 51
234.9866671315
  0
ARC
  5
570
330
321
100
AcDbEntity
  8
0
  6
Continuous
 62
     8
370
    25
100
AcDbCircle
 10
4.7265674693
 20
3.3892827369
 30
0.0
 40
0.0620665202661433
100
AcDbArc
 50
15.019743397
 51
56.9207443129
  0
ARC
  5
571
330
321
100
AcDbEntity
  8
0
  6
Continuous
 62
     8
370
    25
100
AcDbCircle
 10
4.7600483328
 20
3.4457828011
 30
0.0
 40
0.0594281274013555
100
AcDbArc
 50
242.4966996037
 51
275.102636346
  0
ARC
  5
572
330
321
100
AcDbEntity
  8
0
  6
Continuous
 62
     8
370
    25
100
AcDbCircle
 10
4.7593090254
 20
0.2927769733
 30
0.0
 40
0.0568071998465654
100
AcDbArc
 50
241.9597608846
 51
271.1440967458
  0
ARC
  5
573
330
321
100
AcDbEntity
  8
0
  6
Continuous
 62
     8
370
    25
100
AcDbCircle
 10
4.8945283514
 20
3.4863822305
 30
0.0
 40
0.060997312690452
100
AcDbArc
 50
14.6347164038
 51
57.305771306
  0
ARC
  5
574
330
321
100
AcDbEntity
  8
0
  6
Continuous
 62
     8
370
    25
100
AcDbCircle
 10
4.9390086742
 20
3.5216177558
 30
0.0
 40
0.0198022533819515
100
AcDbArc
 50
65.6928809539
 51
125.6175774752
  0
ARC
  5
575
330
321
100
AcDbEntity
  8
0
  6
Continuous
 62
     8
370
    25
100
AcDbCircle
 10
-16.1350005131
 20
15.687384304
 30
0.0
 40
0.0198022533819591
100
AcDbArc
 50
65.6928809539
 51
125.6175774752
  0
ARC
  5
576
330
321
100
AcDbEntity
  8
0
  6
Continuous
 62
     8
370
    25
100
AcDbCircle
 10
4.7513322188
 20
0.2402535248
 30
0.0
 40
0.0188789585204933
100
AcDbArc
 50
172.7441704386
 51
235.943649168
  0
ARC
  5
577
330
321
100
AcDbEntity
  8
0
  6
Continuous
 62
     8
370
    25
100
AcDbCircle
 10
-16.3332329414
 20
15.5768733811
 30
0.0
 40
0.0198007589958128
100
AcDbArc
 50
185.6947992512
 51
245.6253417064
  0
ARC
  5
578
330
321
100
AcDbEntity
  8
0
  6
Continuous
 62
     8
370
    25
100
AcDbCircle
 10
-16.3250981823
 20
15.5909581491
 30
0.0
 40
0.0198022533819537
100
AcDbArc
 50
54.3824225248
 51
114.3071190461
  0
ARC
  5
579
330
321
100
AcDbEntity
  8
0
  6
Continuous
 62
     8
370
    25
100
AcDbCircle
 10
-16.1580650844
 20
15.687384304
 30
0.0
 40
0.0198022533819376
100
AcDbArc
 50
54.3824225248
 51
114.3071190461
  0
ARC
  5
57A
330
321
100
AcDbEntity
  8
0
  6
Continuous
 62
     8
370
    25
100
AcDbCircle
 10
-22.9730879354
 20
19.379953431
 30
0.0
 40
0.0620665202661604
100
AcDbArc
 50
15.019743397
 51
56.9207443129
  0
ARC
  5
57B
330
321
100
AcDbEntity
  8
0
  6
Continuous
 62
     8
370
    25
100
AcDbCircle
 10
-22.9396070719
 20
19.4364534953
 30
0.0
 40
0.0594281274013304
100
AcDbArc
 50
242.4966996037
 51
275.1026363459
  0
ARC
  5
57C
330
321
100
AcDbEntity
  8
0
  6
Continuous
 62
     8
370
    25
100
AcDbCircle
 10
-22.9403463794
 20
16.2834476675
 30
0.0
 40
0.0568071998465612
100
AcDbArc
 50
241.9597608846
 51
271.1440967458
  0
ARC
  5
57D
330
321
100
AcDbEntity
  8
0
  6
Continuous
 62
     8
370
    25
100
AcDbCircle
 10
-22.8051270534
 20
19.4770529247
 30
0.0
 40
0.0609973126904694
100
AcDbArc
 50
14.6347164038
 51
57.305771306
  0
ARC
  5
57E
330
321
100
AcDbEntity
  8
0
  6
Continuous
 62
     8
370
    25
100
AcDbCircle
 10
-22.7606467305
 20
19.5122884499
 30
0.0
 40
0.0198022533819712
100
AcDbArc
 50
65.6928809539
 51
125.6175774752
  0
ARC
  5
57F
330
321
100
AcDbEntity
  8
0
  6
Continuous
 62
     8
370
    25
100
AcDbCircle
 10
-43.8346559179
 20
31.6780549982
 30
0.0
 40
0.0198022533819698
100
AcDbArc
 50
65.6928809539
 51
125.6175774752
  0
ARC
  5
580
330
321
100
AcDbEntity
  8
0
  6
Continuous
 62
     8
370
    25
100
AcDbCircle
 10
-22.948323186
 20
16.2309242189
 30
0.0
 40
0.0188789585099211
100
AcDbArc
 50
172.7441704188
 51
235.9436491878
  0
ARC
  5
581
330
321
100
AcDbEntity
  8
0
  6
Continuous
 62
     8
370
    25
100
AcDbCircle
 10
-44.0328883462
 20
31.5675440753
 30
0.0
 40
0.019800758995809
100
AcDbArc
 50
185.6947992512
 51
245.6253417064
  0
ARC
  5
582
330
321
100
AcDbEntity
  8
0
  6
Continuous
 62
     8
370
    25
100
AcDbCircle
 10
-44.024753587
 20
31.5816288432
 30
0.0
 40
0.0198022533819353
100
AcDbArc
 50
54.3824225248
 51
114.3071190461
  0
ARC
  5
583
330
321
100
AcDbEntity
  8
0
  6
Continuous
 62
     8
370
    25
100
AcDbCircle
 10
-43.8577204891
 20
31.6780549982
 30
0.0
 40
0.019802253381989
100
AcDbArc
 50
54.3824225249
 51
114.3071190461
  0
VIEWPORT
  5
58A
330
321
100
AcDbEntity
  8
0
100
AcDbViewport
 10
0.0
 20
0.0
 30
0.0
 40
8.4
 41
6.4
 68
     1
 69
     1
 12
-19.5866141732
 22
7.874015748
 13
0.0
 23
0.0
 14
0.5
 24
0.5
 15
0.5
 25
0.5
 16
0.0
 26
0.0
 36
1.0
 17
0.0
 27
0.0
 37
0.0
 42
50.0
 43
0.0
 44
0.0
 45
54.7671541057
 50
0.0
 51
0.0
 72
   100
 90
   557152
  1

281
     0
 71
     1
 74
     0
110
0.0
120
0.0
130
0.0
111
1.0
121
0.0
131
0.0
112
0.0
122
1.0
132
0.0
 79
     0
146
0.0
  0
ENDBLK
  5
324
330
321
100
AcDbEntity
  8
0
100
AcDbBlockEnd
  0
ENDSEC
  0
SECTION
  2
ENTITIES
  0
LINE
  5
F7
330
1F
100
AcDbEntity
  8
0
  6
Continuous
 62
     7
370
    25
100
AcDbLine
 10
-15.6102362205
 20
0.0
 30
0.0
 11
15.6102362205
 21
0.0
 31
0.0
  0
LINE
  5
F8
330
1F
100
AcDbEntity
  8
0
  6
Continuous
 62
     7
370
    25
100
AcDbLine
 10
15.5151884424
 20
0.0393700787
 30
0.0
 11
15.5151884424
 21
13.9831327904
 31
0.0
  0
LINE
  5
F9
330
1F
100
AcDbEntity
  8
0
  6
Continuous
 62
     7
370
    25
100
AcDbLine
 10
-15.5151884424
 20
13.9831327904
 30
0.0
 11
-15.5151884424
 21
0.0393700787
 31
0.0
  0
LINE
  5
FA
330
1F
100
AcDbEntity
  8
0
  6
Continuous
 62
     7
370
    25
100
AcDbLine
 10
15.5151884424
 20
13.9831327904
 30
0.0
 11
-15.5151884424
 21
13.9831327904
 31
0.0
  0
LINE
  5
FB
330
1F
100
AcDbEntity
  8
0
  6
Continuous
 62
     7
370
    25
100
AcDbLine
 10
-54.7834645669
 20
0.0
 30
0.0
 11
-23.562992126
 21
0.0
 31
0.0
  0
LINE
  5
FC
330
1F
100
AcDbEntity
  8
0
  6
Continuous
 62
     7
370
    25
100
AcDbLine
 10
-23.658039904
 20
13.9831327904
 30
0.0
 11
-54.6884167889
 21
13.9831327904
 31
0.0
  0
LINE
  5
FD
330
1F
100
AcDbEntity
  8
0
  6
Continuous
 62
     7
370
    25
100
AcDbLine
 10
-23.658039904
 20
0.0393700787
 30
0.0
 11
-23.658039904
 21
13.9831327904
 31
0.0
  0
LINE
  5
FE
330
1F
100
AcDbEntity
  8
0
  6
Continuous
 62
     7
370
    25
100
AcDbLine
 10
-54.6884167889
 20
13.9831327904
 30
0.0
 11
-54.6884167889
 21
0.0393700787
 31
0.0
  0
LINE
  5
FF
330
1F
100
AcDbEntity
  8
0
  6
Continuous
 62
     7
370
    25
100
AcDbLine
 10
-16.2795275591
 20
0.6299212598
 30
0.0
 11
-16.2795275591
 21
15.1181102362
 31
0.0
  0
LINE
  5
100
330
1F
100
AcDbEntity
  8
0
  6
Continuous
 62
     7
370
    25
100
AcDbLine
 10
-16.2795275591
 20
15.1181102362
 30
0.0
 11
-22.8937007874
 21
15.1181102362
 31
0.0
  0
LINE
  5
101
330
1F
100
AcDbEntity
  8
0
  6
Continuous
 62
     7
370
    25
100
AcDbLine
 10
-22.8937007874
 20
15.1181102362
 30
0.0
 11
-22.8937007874
 21
0.6299212598
 31
0.0
  0
LINE
  5
102
330
1F
100
AcDbEntity
  8
0
  6
Continuous
 62
     7
370
    25
100
AcDbLine
 10
-22.8937007874
 20
0.6299212598
 30
0.0
 11
-16.2795275591
 21
0.6299212598
 31
0.0
  0
LINE
  5
103
330
1F
100
AcDbEntity
  8
0
  6
Continuous
 62
     7
370
    25
100
AcDbLine
 10
-23.5236220472
 20
0.0
 30
0.0
 11
-15.6496062992
 21
0.0
 31
0.0
  0
LINE
  5
104
330
1F
100
AcDbEntity
  8
0
  6
Continuous
 62
     7
370
    25
100
AcDbLine
 10
-23.5236220472
 20
15.7480314961
 30
0.0
 11
-23.5236220472
 21
0.0
 31
0.0
  0
LINE
  5
105
330
1F
100
AcDbEntity
  8
0
  6
Continuous
 62
     7
370
    25
100
AcDbLine
 10
-15.6496062992
 20
15.7480314961
 30
0.0
 11
-23.5236220472
 21
15.7480314961
 31
0.0
  0
LINE
  5
106
330
1F
100
AcDbEntity
  8
0
  6
Continuous
 62
     7
370
    25
100
AcDbLine
 10
-15.6496062992
 20
0.0
 30
0.0
 11
-15.6496062992
 21
15.7480314961
 31
0.0
  0
LINE
  5
107
330
1F
100
AcDbEntity
  8
0
  6
Continuous
 62
     7
370
    25
100
AcDbLine
 10
-16.2795275591
 20
8.188976378
 30
0.0
 11
-22.8937007874
 21
8.188976378
 31
0.0
  0
LINE
  5
108
330
1F
100
AcDbEntity
  8
0
  6
Continuous
 62
     7
370
    25
100
AcDbLine
 10
-16.2795275591
 20
7.5590551181
 30
0.0
 11
-22.8937007874
 21
7.5590551181
 31
0.0
  0
LINE
  5
109
330
1F
100
AcDbEntity
  8
0
  6
Continuous
 62
     7
370
    25
100
AcDbLine
 10
15.4758183637
 20
13.9437627116
 30
0.0
 11
15.5151884424
 21
13.9831327904
 31
0.0
  0
LINE
  5
10A
330
1F
100
AcDbEntity
  8
0
  6
Continuous
 62
     7
370
    25
100
AcDbLine
 10
15.4758183637
 20
0.0
 30
0.0
 11
15.4758183637
 21
13.9437627116
 31
0.0
  0
LINE
  5
10B
330
1F
100
AcDbEntity
  8
0
  6
Continuous
 62
     7
370
    25
100
AcDbLine
 10
-15.4758183637
 20
13.9437627116
 30
0.0
 11
-15.5151884424
 21
13.9831327904
 31
0.0
  0
LINE
  5
10C
330
1F
100
AcDbEntity
  8
0
  6
Continuous
 62
     7
370
    25
100
AcDbLine
 10
-15.4758183637
 20
13.9437627116
 30
0.0
 11
-15.4758183637
 21
0.0
 31
0.0
  0
LINE
  5
10D
330
1F
100
AcDbEntity
  8
0
  6
Continuous
 62
     7
370
    25
100
AcDbLine
 10
15.4758183637
 20
13.9437627116
 30
0.0
 11
-15.4758183637
 21
13.9437627116
 31
0.0
  0
LINE
  5
10E
330
1F
100
AcDbEntity
  8
0
  6
Continuous
 62
     7
370
    25
100
AcDbLine
 10
-23.6974099828
 20
13.9437627116
 30
0.0
 11
-54.6490467101
 21
13.9437627116
 31
0.0
  0
LINE
  5
10F
330
1F
100
AcDbEntity
  8
0
  6
Continuous
 62
     7
370
    25
100
AcDbLine
 10
-23.6974099828
 20
0.0
 30
0.0
 11
-23.6974099828
 21
13.9437627116
 31
0.0
  0
LINE
  5
110
330
1F
100
AcDbEntity
  8
0
  6
Continuous
 62
     7
370
    25
100
AcDbLine
 10
-54.6490467101
 20
13.9437627116
 30
0.0
 11
-54.6490467101
 21
0.0
 31
0.0
  0
LINE
  5
111
330
1F
100
AcDbEntity
  8
0
  6
Continuous
 62
     7
370
    25
100
AcDbLine
 10
-54.6490467101
 20
13.9437627116
 30
0.0
 11
-54.6884167889
 21
13.9831327904
 31
0.0
  0
LINE
  5
112
330
1F
100
AcDbEntity
  8
0
  6
Continuous
 62
     7
370
    25
100
AcDbLine
 10
-23.6974099828
 20
13.9437627116
 30
0.0
 11
-23.658039904
 21
13.9831327904
 31
0.0
  0
LINE
  5
113
330
1F
100
AcDbEntity
  8
0
  6
Continuous
 62
     7
370
    25
100
AcDbLine
 10
-15.5823973708
 20
15.7086614173
 30
0.0
 11
-15.5823973708
 21
0.0393700787
 31
0.0
  0
LINE
  5
114
330
1F
100
AcDbEntity
  8
0
  6
Continuous
 62
     7
370
    25
100
AcDbLine
 10
-15.6102362205
 20
15.7480314961
 30
0.0
 11
-14.9803149606
 21
15.7480314961
 31
0.0
  0
LINE
  5
115
330
1F
100
AcDbEntity
  8
0
  6
Continuous
 62
     7
370
    25
100
AcDbLine
 10
-14.9409448819
 20
15.7086614173
 30
0.0
 11
-14.9409448819
 21
13.9831327904
 31
0.0
  0
LINE
  5
116
330
1F
100
AcDbEntity
  8
0
  6
Continuous
 62
     7
370
    25
100
AcDbLine
 10
-54.7556257173
 20
15.7086614173
 30
0.0
 11
-54.7556257173
 21
0.0393700787
 31
0.0
  0
LINE
  5
117
330
1F
100
AcDbEntity
  8
0
  6
Continuous
 62
     7
370
    25
100
AcDbLine
 10
-54.8228346457
 20
0.0393700787
 30
0.0
 11
-54.8228346457
 21
15.7086614173
 31
0.0
  0
LINE
  5
118
330
1F
100
AcDbEntity
  8
0
  6
Continuous
 62
     7
370
    25
100
AcDbLine
 10
-54.7834645669
 20
15.7480314961
 30
0.0
 11
-54.1535433071
 21
15.7480314961
 31
0.0
  0
LINE
  5
119
330
1F
100
AcDbEntity
  8
0
  6
Continuous
 62
     7
370
    25
100
AcDbLine
 10
-54.1141732283
 20
15.7086614173
 30
0.0
 11
-54.1141732283
 21
13.9831327904
 31
0.0
  0
LINE
  5
11A
330
1F
100
AcDbEntity
  8
0
  6
Continuous
 62
     7
370
    25
100
AcDbLine
 10
-15.6496062992
 20
0.0393700787
 30
0.0
 11
15.6496062992
 21
0.0393700787
 31
0.0
  0
LINE
  5
11B
330
1F
100
AcDbEntity
  8
0
  6
Continuous
 62
     7
370
    25
100
AcDbLine
 10
15.6496062992
 20
15.7086614173
 30
0.0
 11
15.6496062992
 21
0.0393700787
 31
0.0
  0
LINE
  5
11C
330
1F
100
AcDbEntity
  8
0
  6
Continuous
 62
     7
370
    25
100
AcDbLine
 10
15.5823973708
 20
0.0393700787
 30
0.0
 11
15.5823973708
 21
15.7086614173
 31
0.0
  0
LINE
  5
11D
330
1F
100
AcDbEntity
  8
0
  6
Continuous
 62
     7
370
    25
100
AcDbLine
 10
15.6496062992
 20
15.7086614173
 30
0.0
 11
-15.6496062992
 21
15.7086614173
 31
0.0
  0
LINE
  5
11E
330
1F
100
AcDbEntity
  8
0
  6
Continuous
 62
     7
370
    25
100
AcDbLine
 10
14.9803149606
 20
15.7480314961
 30
0.0
 11
15.6102362205
 21
15.7480314961
 31
0.0
  0
LINE
  5
11F
330
1F
100
AcDbEntity
  8
0
  6
Continuous
 62
     7
370
    25
100
AcDbLine
 10
14.9409448819
 20
13.9831327904
 30
0.0
 11
14.9409448819
 21
15.7086614173
 31
0.0
  0
LINE
  5
120
330
1F
100
AcDbEntity
  8
0
  6
Continuous
 62
     7
370
    25
100
AcDbLine
 10
-54.8228346457
 20
0.0393700787
 30
0.0
 11
-23.5236220472
 21
0.0393700787
 31
0.0
  0
LINE
  5
121
330
1F
100
AcDbEntity
  8
0
  6
Continuous
 62
     7
370
    25
100
AcDbLine
 10
-23.5908309756
 20
0.0393700787
 30
0.0
 11
-23.5908309756
 21
15.7086614173
 31
0.0
  0
LINE
  5
122
330
1F
100
AcDbEntity
  8
0
  6
Continuous
 62
     7
370
    25
100
AcDbLine
 10
-23.5236220472
 20
15.7086614173
 30
0.0
 11
-54.8228346457
 21
15.7086614173
 31
0.0
  0
LINE
  5
123
330
1F
100
AcDbEntity
  8
0
  6
Continuous
 62
     7
370
    25
100
AcDbLine
 10
-24.1929133858
 20
15.7480314961
 30
0.0
 11
-23.562992126
 21
15.7480314961
 31
0.0
  0
LINE
  5
124
330
1F
100
AcDbEntity
  8
0
  6
Continuous
 62
     7
370
    25
100
AcDbLine
 10
-24.2322834646
 20
13.9831327904
 30
0.0
 11
-24.2322834646
 21
15.7086614173
 31
0.0
  0
LINE
  5
125
330
1F
100
AcDbEntity
  8
0
  6
Continuous
 62
     7
370
    25
100
AcDbLine
 10
-14.9015748031
 20
15.7480314961
 30
0.0
 11
-14.9015748031
 21
13.9831327904
 31
0.0
  0
LINE
  5
126
330
1F
100
AcDbEntity
  8
0
  6
Continuous
 62
     7
370
    25
100
AcDbLine
 10
14.9015748031
 20
13.9831327904
 30
0.0
 11
14.9015748031
 21
15.7480314961
 31
0.0
  0
LINE
  5
127
330
1F
100
AcDbEntity
  8
0
  6
Continuous
 62
     7
370
    25
100
AcDbLine
 10
-14.9015748031
 20
15.7480314961
 30
0.0
 11
14.9015748031
 21
15.7480314961
 31
0.0
  0
LINE
  5
128
330
1F
100
AcDbEntity
  8
0
  6
Continuous
 62
     7
370
    25
100
AcDbLine
 10
-54.0748031496
 20
15.7480314961
 30
0.0
 11
-54.0748031496
 21
13.9831327904
 31
0.0
  0
LINE
  5
129
330
1F
100
AcDbEntity
  8
0
  6
Continuous
 62
     7
370
    25
100
AcDbLine
 10
-54.0748031496
 20
15.7480314961
 30
0.0
 11
-24.2716535433
 21
15.7480314961
 31
0.0
  0
LINE
  5
12A
330
1F
100
AcDbEntity
  8
0
  6
Continuous
 62
     7
370
    25
100
AcDbLine
 10
-24.2716535433
 20
13.9831327904
 30
0.0
 11
-24.2716535433
 21
15.7480314961
 31
0.0
  0
LINE
  5
12B
330
1F
100
AcDbEntity
  8
0
  6
Continuous
 62
     8
370
    25
100
AcDbLine
 10
-14.952476111
 20
13.9831327904
 30
0.0
 11
-14.952476111
 21
15.7086614173
 31
0.0
  0
LINE
  5
12C
330
1F
100
AcDbEntity
  8
0
  6
Continuous
 62
     8
370
    25
100
AcDbLine
 10
-54.1257044574
 20
13.9831327904
 30
0.0
 11
-54.1257044574
 21
15.7086614173
 31
0.0
  0
LINE
  5
12D
330
1F
100
AcDbEntity
  8
0
  6
Continuous
 62
     8
370
    25
100
AcDbLine
 10
14.952476111
 20
15.7086614173
 30
0.0
 11
14.952476111
 21
13.9831327904
 31
0.0
  0
LINE
  5
12E
330
1F
100
AcDbEntity
  8
0
  6
Continuous
 62
     8
370
    25
100
AcDbLine
 10
-24.2207522355
 20
15.7086614173
 30
0.0
 11
-24.2207522355
 21
13.9831327904
 31
0.0
  0
ARC
  5
12F
330
1F
100
AcDbEntity
  8
0
  6
Continuous
 62
     7
370
    25
100
AcDbCircle
 10
15.4758183637
 20
0.0393700787
 30
0.0
 40
0.0393700787401503
100
AcDbArc
 50
270.0
 51
0.0
  0
ARC
  5
130
330
1F
100
AcDbEntity
  8
0
  6
Continuous
 62
     7
370
    25
100
AcDbCircle
 10
-15.4758183637
 20
0.0393700787
 30
0.0
 40
0.0393700787401592
100
AcDbArc
 50
180.0
 51
270.0
  0
ARC
  5
131
330
1F
100
AcDbEntity
  8
0
  6
Continuous
 62
     7
370
    25
100
AcDbCircle
 10
-23.6974099828
 20
0.0393700787
 30
0.0
 40
0.0393700787401592
100
AcDbArc
 50
270.0
 51
0.0
  0
ARC
  5
132
330
1F
100
AcDbEntity
  8
0
  6
Continuous
 62
     7
370
    25
100
AcDbCircle
 10
-54.6490467101
 20
0.0393700787
 30
0.0
 40
0.0393700787401627
100
AcDbArc
 50
180.0
 51
270.0
  0
ARC
  5
133
330
1F
100
AcDbEntity
  8
0
  6
Continuous
 62
     7
370
    25
100
AcDbCircle
 10
-15.6102362205
 20
0.0393700787
 30
0.0
 40
0.039370078740161
100
AcDbArc
 50
180.0
 51
270.0
  0
ARC
  5
134
330
1F
100
AcDbEntity
  8
0
  6
Continuous
 62
     7
370
    25
100
AcDbCircle
 10
-15.6171959329
 20
0.0344488189
 30
0.0
 40
0.0351448249436156
100
AcDbArc
 50
281.421753659
 51
8.0494669755
  0
ARC
  5
135
330
1F
100
AcDbEntity
  8
0
  6
Continuous
 62
     7
370
    25
100
AcDbCircle
 10
-15.6102362205
 20
15.7086614173
 30
0.0
 40
0.0393700787401627
100
AcDbArc
 50
90.0
 51
180.0
  0
ARC
  5
136
330
1F
100
AcDbEntity
  8
0
  6
Continuous
 62
     7
370
    25
100
AcDbCircle
 10
-15.6171959329
 20
15.7135826772
 30
0.0
 40
0.0351448249436189
100
AcDbArc
 50
351.9505330245
 51
78.578246341
  0
ARC
  5
137
330
1F
100
AcDbEntity
  8
0
  6
Continuous
 62
     7
370
    25
100
AcDbCircle
 10
-14.987274673
 20
15.7135826772
 30
0.0
 40
0.0351448249436189
100
AcDbArc
 50
351.9505330245
 51
78.578246341
  0
ARC
  5
138
330
1F
100
AcDbEntity
  8
0
  6
Continuous
 62
     7
370
    25
100
AcDbCircle
 10
-14.9803149606
 20
15.7086614173
 30
0.0
 40
0.0393700787401574
100
AcDbArc
 50
0.0
 51
90.0
  0
ARC
  5
139
330
1F
100
AcDbEntity
  8
0
  6
Continuous
 62
     7
370
    25
100
AcDbCircle
 10
-54.7834645669
 20
0.0393700787
 30
0.0
 40
0.0393700787401705
100
AcDbArc
 50
180.0
 51
270.0
  0
ARC
  5
13A
330
1F
100
AcDbEntity
  8
0
  6
Continuous
 62
     7
370
    25
100
AcDbCircle
 10
-54.7904242793
 20
0.0344488189
 30
0.0
 40
0.0351448249436145
100
AcDbArc
 50
281.421753659
 51
8.0494669755
  0
ARC
  5
13B
330
1F
100
AcDbEntity
  8
0
  6
Continuous
 62
     7
370
    25
100
AcDbCircle
 10
-54.7834645669
 20
15.7086614173
 30
0.0
 40
0.0393700787401627
100
AcDbArc
 50
90.0
 51
180.0
  0
ARC
  5
13C
330
1F
100
AcDbEntity
  8
0
  6
Continuous
 62
     7
370
    25
100
AcDbCircle
 10
-54.7904242793
 20
15.7135826772
 30
0.0
 40
0.0351448249436266
100
AcDbArc
 50
351.9505330245
 51
78.578246341
  0
ARC
  5
13D
330
1F
100
AcDbEntity
  8
0
  6
Continuous
 62
     7
370
    25
100
AcDbCircle
 10
-54.1605030195
 20
15.7135826772
 30
0.0
 40
0.0351448249436017
100
AcDbArc
 50
351.9505330244
 51
78.5782463411
  0
ARC
  5
13E
330
1F
100
AcDbEntity
  8
0
  6
Continuous
 62
     7
370
    25
100
AcDbCircle
 10
-54.1535433071
 20
15.7086614173
 30
0.0
 40
0.0393700787401485
100
AcDbArc
 50
360.0
 51
90.0
  0
ARC
  5
13F
330
1F
100
AcDbEntity
  8
0
  6
Continuous
 62
     7
370
    25
100
AcDbCircle
 10
15.6171959329
 20
0.0344488189
 30
0.0
 40
0.0351448249436092
100
AcDbArc
 50
171.9505330245
 51
258.578246341
  0
ARC
  5
140
330
1F
100
AcDbEntity
  8
0
  6
Continuous
 62
     7
370
    25
100
AcDbCircle
 10
15.6102362205
 20
0.0393700787
 30
0.0
 40
0.0393700787401574
100
AcDbArc
 50
270.0
 51
0.0
  0
ARC
  5
141
330
1F
100
AcDbEntity
  8
0
  6
Continuous
 62
     7
370
    25
100
AcDbCircle
 10
15.6171959329
 20
15.7135826772
 30
0.0
 40
0.0351448249436095
100
AcDbArc
 50
101.421753659
 51
188.0494669755
  0
ARC
  5
142
330
1F
100
AcDbEntity
  8
0
  6
Continuous
 62
     7
370
    25
100
AcDbCircle
 10
15.6102362205
 20
15.7086614173
 30
0.0
 40
0.0393700787401574
100
AcDbArc
 50
0.0
 51
90.0
  0
ARC
  5
143
330
1F
100
AcDbEntity
  8
0
  6
Continuous
 62
     7
370
    25
100
AcDbCircle
 10
14.987274673
 20
15.7135826772
 30
0.0
 40
0.0351448249436095
100
AcDbArc
 50
101.421753659
 51
188.0494669755
  0
ARC
  5
144
330
1F
100
AcDbEntity
  8
0
  6
Continuous
 62
     7
370
    25
100
AcDbCircle
 10
14.9803149606
 20
15.7086614173
 30
0.0
 40
0.0393700787401574
100
AcDbArc
 50
90.0
 51
180.0
  0
ARC
  5
145
330
1F
100
AcDbEntity
  8
0
  6
Continuous
 62
     7
370
    25
100
AcDbCircle
 10
-23.5560324136
 20
0.0344488189
 30
0.0
 40
0.0351448249436202
100
AcDbArc
 50
171.9505330245
 51
258.578246341
  0
ARC
  5
146
330
1F
100
AcDbEntity
  8
0
  6
Continuous
 62
     7
370
    25
100
AcDbCircle
 10
-23.562992126
 20
0.0393700787
 30
0.0
 40
0.0393700787401556
100
AcDbArc
 50
270.0
 51
0.0
  0
ARC
  5
147
330
1F
100
AcDbEntity
  8
0
  6
Continuous
 62
     7
370
    25
100
AcDbCircle
 10
-23.5560324136
 20
15.7135826772
 30
0.0
 40
0.0351448249436203
100
AcDbArc
 50
101.421753659
 51
188.0494669755
  0
ARC
  5
148
330
1F
100
AcDbEntity
  8
0
  6
Continuous
 62
     7
370
    25
100
AcDbCircle
 10
-23.562992126
 20
15.7086614173
 30
0.0
 40
0.0393700787401503
100
AcDbArc
 50
360.0
 51
90.0
  0
ARC
  5
149
330
1F
100
AcDbEntity
  8
0
  6
Continuous
 62
     7
370
    25
100
AcDbCircle
 10
-24.1859536734
 20
15.7135826772
 30
0.0
 40
0.0351448249436088
100
AcDbArc
 50
101.421753659
 51
188.0494669755
  0
ARC
  5
14A
330
1F
100
AcDbEntity
  8
0
  6
Continuous
 62
     7
370
    25
100
AcDbCircle
 10
-24.1929133858
 20
15.7086614173
 30
0.0
 40
0.0393700787401556
100
AcDbArc
 50
90.0
 51
180.0
  0
ARC
  5
14B
330
1F
100
AcDbEntity
  8
0
  6
Continuous
 62
     7
370
    25
100
AcDbCircle
 10
-14.9015748031
 20
15.7086614173
 30
0.0
 40
0.0393700787401592
100
AcDbArc
 50
90.0
 51
180.0
  0
ARC
  5
14C
330
1F
100
AcDbEntity
  8
0
  6
Continuous
 62
     7
370
    25
100
AcDbCircle
 10
14.9015748031
 20
15.7086614173
 30
0.0
 40
0.0393700787401574
100
AcDbArc
 50
360.0
 51
90.0
  0
ARC
  5
14D
330
1F
100
AcDbEntity
  8
0
  6
Continuous
 62
     7
370
    25
100
AcDbCircle
 10
-54.0748031496
 20
15.7086614173
 30
0.0
 40
0.0393700787401627
100
AcDbArc
 50
90.0
 51
180.0
  0
ARC
  5
14E
330
1F
100
AcDbEntity
  8
0
  6
Continuous
 62
     7
370
    25
100
AcDbCircle
 10
-24.2716535433
 20
15.7086614173
 30
0.0
 40
0.0393700787401539
100
AcDbArc
 50
360.0
 51
90.0
  0
LINE
  5
16F
330
1B
100
AcDbEntity
 67
     1
  8
0
  6
Continuous
 62
     7
370
    25
100
AcDbLine
 10
8.8616451353
 20
0.0393700787
 30
0.0
 11
8.8616451353
 21
15.7086614173
 31
0.0
  0
LINE
  5
170
330
1B
100
AcDbEntity
 67
     1
  8
0
  6
Continuous
 62
     7
370
    25
100
AcDbLine
 10
-8.9960629921
 20
15.7480314961
 30
0.0
 11
8.9173228346
 21
15.7480314961
 31
0.0
  0
LINE
  5
171
330
1B
100
AcDbEntity
 67
     1
  8
0
  6
Continuous
 62
     7
370
    25
100
AcDbLine
 10
8.9173228346
 20
15.7480314961
 30
0.0
 11
8.9173228346
 21
0.0
 31
0.0
  0
LINE
  5
172
330
1B
100
AcDbEntity
 67
     1
  8
0
  6
Continuous
 62
     7
370
    25
100
AcDbLine
 10
-8.9960629921
 20
0.0
 30
0.0
 11
-8.9960629921
 21
15.7480314961
 31
0.0
  0
LINE
  5
173
330
1B
100
AcDbEntity
 67
     1
  8
0
  6
Continuous
 62
     7
370
    25
100
AcDbLine
 10
8.9173228346
 20
0.0
 30
0.0
 11
-8.9960629921
 21
0.0
 31
0.0
  0
LINE
  5
174
330
1B
100
AcDbEntity
 67
     1
  8
0
  6
Continuous
 62
     7
370
    25
100
AcDbLine
 10
8.8616451353
 20
15.7086614173
 30
0.0
 11
-8.9960629921
 21
15.7086614173
 31
0.0
  0
LINE
  5
175
330
1B
100
AcDbEntity
 67
     1
  8
0
  6
Continuous
 62
     7
370
    25
100
AcDbLine
 10
-8.9566929134
 20
15.7480314961
 30
0.0
 11
-8.9566929134
 21
0.0
 31
0.0
  0
LINE
  5
176
330
1B
100
AcDbEntity
 67
     1
  8
0
  6
Continuous
 62
     7
370
    25
100
AcDbLine
 10
8.8222750566
 20
0.0
 30
0.0
 11
8.8222750566
 21
15.7480314961
 31
0.0
  0
LINE
  5
177
330
1B
100
AcDbEntity
 67
     1
  8
0
  6
Continuous
 62
     8
370
    25
100
AcDbLine
 10
-8.9960629921
 20
0.0393700787
 30
0.0
 11
8.9173228346
 21
0.0393700787
 31
0.0
  0
ARC
  5
178
330
1B
100
AcDbEntity
 67
     1
  8
0
  6
Continuous
 62
     7
370
    25
100
AcDbCircle
 10
8.8222750566
 20
15.7086614173
 30
0.0
 40
0.0393700787401592
100
AcDbArc
 50
0.0
 51
90.0
  0
ARC
  5
179
330
1B
100
AcDbEntity
 67
     1
  8
0
  6
Continuous
 62
     7
370
    25
100
AcDbCircle
 10
8.8222750566
 20
0.0393700787
 30
0.0
 40
0.0393700787401574
100
AcDbArc
 50
270.0
 51
0.0
  0
ARC
  5
17A
330
1B
100
AcDbEntity
 67
     1
  8
0
  6
Continuous
 62
     7
370
    25
100
AcDbCircle
 10
8.8779527559
 20
0.0393700787
 30
0.0
 40
0.0393700787401578
100
AcDbArc
 50
225.0
 51
0.0
  0
ARC
  5
17B
330
1B
100
AcDbEntity
 67
     1
  8
0
  6
Continuous
 62
     7
370
    25
100
AcDbCircle
 10
8.8779527559
 20
13.9437627116
 30
0.0
 40
0.0393700787401558
100
AcDbArc
 50
360.0
 51
114.4698005207
  0
ARC
  5
17C
330
1B
100
AcDbEntity
 67
     1
  8
0
  6
Continuous
 62
     7
370
    25
100
AcDbCircle
 10
-8.9566929134
 20
0.0393700787
 30
0.0
 40
0.039370078740161
100
AcDbArc
 50
180.0
 51
270.0
  0
ARC
  5
17D
330
1B
100
AcDbEntity
 67
     1
  8
0
  6
Continuous
 62
     7
370
    25
100
AcDbCircle
 10
-8.9566929134
 20
15.7086614173
 30
0.0
 40
0.039370078740161
100
AcDbArc
 50
90.0
 51
180.0
  0
VIEWPORT
  5
584
330
1B
100
AcDbEntity
 67
     1
  8
0
100
AcDbViewport
 10
0.0
 20
0.0
 30
0.0
 40
8.4
 41
6.4
 68
     1
 69
     1
 12
-19.5866141732
 22
7.874015748
 13
0.0
 23
0.0
 14
0.5
 24
0.5
 15
0.5
 25
0.5
 16
0.0
 26
0.0
 36
1.0
 17
0.0
 27
0.0
 37
0.0
 42
50.0
 43
0.0
 44
0.0
 45
54.7671541057
 50
0.0
 51
0.0
 72
   100
 90
   557152
  1

281
     0
 71
     1
 74
     0
110
0.0
120
0.0
130
0.0
111
1.0
121
0.0
131
0.0
112
0.0
122
1.0
132
0.0
 79
     0
146
0.0
  0
ENDSEC
  0
SECTION
  2
OBJECTS
  0
DICTIONARY
  5
C
330
0
100
AcDbDictionary
281
     1
  3
ACAD_GROUP
350
D
  3
ACAD_LAYOUT
350
1A
  3
ACAD_MLINESTYLE
350
17
  3
ACAD_PLOTSETTINGS
350
19
  3
ACAD_PLOTSTYLENAME
350
E
  3
ACAD_SCALELIST
350
47
  0
DICTIONARY
  5
D
102
{ACAD_REACTORS
330
C
102
}
330
C
100
AcDbDictionary
281
     1
  0
DICTIONARY
  5
1A
102
{ACAD_REACTORS
330
C
102
}
330
C
100
AcDbDictionary
281
     1
  3
_Isometric
350
322
  3
_Left
350
1E
  3
_Right
350
26
  3
_Top
350
1AE
  3
Model
350
22
  0
DICTIONARY
  5
17
102
{ACAD_REACTORS
330
C
102
}
330
C
100
AcDbDictionary
281
     1
  3
Standard
350
18
  0
DICTIONARY
  5
19
102
{ACAD_REACTORS
330
C
102
}
330
C
100
AcDbDictionary
281
     1
  0
ACDBDICTIONARYWDFLT
  5
E
102
{ACAD_REACTORS
330
C
102
}
330
C
100
AcDbDictionary
281
     1
  3
Normal
350
F
100
AcDbDictionaryWithDefault
340
F
  0
DICTIONARY
  5
47
102
{ACAD_REACTORS
330
C
102
}
330
C
100
AcDbDictionary
281
     1
  3
A0
350
48
  3
A1
350
49
  3
A2
350
4A
  3
A3
350
4B
  3
A4
350
4C
  3
A5
350
4D
  3
A6
350
4E
  3
A7
350
4F
  3
A8
350
50
  3
A9
350
51
  3
B0
350
52
  3
B1
350
53
  3
B2
350
54
  3
B3
350
55
  3
B4
350
56
  3
B5
350
57
  3
B6
350
58
  3
B7
350
59
  3
B8
350
5A
  3
B9
350
5B
  3
C0
350
5C
  3
C1
350
5D
  3
C2
350
5E
  3
C3
350
5F
  3
C4
350
60
  3
C5
350
61
  3
C6
350
62
  3
C7
350
63
  3
C8
350
64
  3
C9
350
65
  3
D0
350
66
  3
D1
350
67
  3
D2
350
68
  0
LAYOUT
  5
322
102
{ACAD_REACTORS
330
1A
102
}
330
1A
100
AcDbPlotSettings
  1

  2
none_device
  4
Letter_(8.50_x_11.00_Inches)
  6

 40
6.35
 41
6.35
 42
6.35001
 43
6.35001
 44
215.9
 45
279.4
 46
0.0
 47
0.0
 48
0.0
 49
0.0
140
0.0
141
0.0
142
1.0
143
1.9685040339
 70
   688
 72
     0
 73
     1
 74
     1
  7

 75
     0
147
0.507999975
148
228.5
149
0.0
100
AcDbLayout
  1
_Isometric
 70
     1
 71
     4
 10
0.0
 20
0.0
 11
0.0
 21
0.0
 12
0.0
 22
0.0
 32
0.0
 14
0.0
 24
0.0
 34
0.0
 15
0.0
 25
0.0
 35
0.0
146
0.0
 13
0.0
 23
0.0
 33
0.0
 16
1.0
 26
0.0
 36
0.0
 17
0.0
 27
1.0
 37
0.0
 76
     0
330
321
331
58A
  0
LAYOUT
  5
1E
102
{ACAD_REACTORS
330
1A
102
}
330
1A
100
AcDbPlotSettings
  1

  2
none_device
  4
Letter_(8.50_x_11.00_Inches)
  6

 40
6.35
 41
6.35
 42
6.35001
 43
6.35001
 44
215.9
 45
279.4
 46
0.0
 47
0.0
 48
0.0
 49
0.0
140
0.0
141
0.0
142
1.0
143
1.9685040339
 70
   688
 72
     0
 73
     1
 74
     1
  7

 75
     0
147
0.507999975
148
228.5
149
0.0
100
AcDbLayout
  1
_Left
 70
     1
 71
     1
 10
-9.4881897756
 20
-0.4921260085
 11
12.1653545971
 21
16.2401582795
 12
0.0
 22
0.0
 32
0.0
 14
-8.9960629921
 24
0.0
 34
0.0
 15
8.9173228346
 25
15.7480314961
 35
0.0
146
0.0
 13
0.0
 23
0.0
 33
0.0
 16
1.0
 26
0.0
 36
0.0
 17
0.0
 27
1.0
 37
0.0
 76
     0
330
1B
331
584
  0
LAYOUT
  5
26
102
{ACAD_REACTORS
330
1A
102
}
330
1A
100
AcDbPlotSettings
  1

  2
none_device
  4
Letter_(8.50_x_11.00_Inches)
  6

 40
6.35
 41
6.35
 42
6.35001
 43
6.35001
 44
215.9
 45
279.4
 46
0.0
 47
0.0
 48
0.0
 49
0.0
140
0.0
141
0.0
142
1.0
143
1.9685040339
 70
   688
 72
     0
 73
     1
 74
     1
  7

 75
     0
147
0.507999975
148
228.5
149
0.0
100
AcDbLayout
  1
_Right
 70
     1
 71
     2
 10
0.0
 20
0.0
 11
0.0
 21
0.0
 12
0.0
 22
0.0
 32
0.0
 14
0.0
 24
0.0
 34
0.0
 15
0.0
 25
0.0
 35
0.0
146
0.0
 13
0.0
 23
0.0
 33
0.0
 16
1.0
 26
0.0
 36
0.0
 17
0.0
 27
1.0
 37
0.0
 76
     0
330
23
331
586
  0
LAYOUT
  5
1AE
102
{ACAD_REACTORS
330
1A
102
}
330
1A
100
AcDbPlotSettings
  1

  2
none_device
  4
Letter_(8.50_x_11.00_Inches)
  6

 40
6.35
 41
6.35
 42
6.35001
 43
6.35001
 44
215.9
 45
279.4
 46
0.0
 47
0.0
 48
0.0
 49
0.0
140
0.0
141
0.0
142
1.0
143
1.9685040339
 70
   688
 72
     0
 73
     1
 74
     1
  7

 75
     0
147
0.507999975
148
228.5
149
0.0
100
AcDbLayout
  1
_Top
 70
     1
 71
     3
 10
0.0
 20
0.0
 11
0.0
 21
0.0
 12
0.0
 22
0.0
 32
0.0
 14
0.0
 24
0.0
 34
0.0
 15
0.0
 25
0.0
 35
0.0
146
0.0
 13
0.0
 23
0.0
 33
0.0
 16
1.0
 26
0.0
 36
0.0
 17
0.0
 27
1.0
 37
0.0
 76
     0
330
1AD
331
588
  0
LAYOUT
  5
22
102
{ACAD_REACTORS
330
1A
102
}
330
1A
100
AcDbPlotSettings
  1

  2
none_device
  4
ANSI_A_(11.00_x_8.50_Inches)
  6

 40
6.35
 41
19.05
 42
6.35000508
 43
19.05000254
 44
279.4
 45
215.9
 46
210.227922041
 47
57.994300406
 48
0.0
 49
0.0
140
0.0
141
0.0
142
0.1545284916
143
1.0
 70
  1696
 72
     0
 73
     0
 74
     0
  7

 75
     0
147
0.5913241897
148
-39.4088153714
149
0.0
100
AcDbLayout
  1
Model
 70
     1
 71
     0
 10
0.0
 20
0.0
 11
12.0
 21
9.0
 12
0.0
 22
0.0
 32
0.0
 14
-54.8228346457
 24
0.0
 34
0.0
 15
15.6496062992
 25
15.7480314961
 35
0.0
146
0.0
 13
0.0
 23
0.0
 33
0.0
 16
1.0
 26
0.0
 36
0.0
 17
0.0
 27
1.0
 37
0.0
 76
     0
330
1F
331
29
  0
MLINESTYLE
  5
18
102
{ACAD_REACTORS
330
17
102
}
330
17
100
AcDbMlineStyle
  2
Standard
 70
     0
  3

 62
   256
 51
90.0
 52
90.0
 71
     2
 49
0.5
 62
   256
  6
BYLAYER
 49
-0.5
 62
   256
  6
BYLAYER
  0
ACDBPLACEHOLDER
  5
F
102
{ACAD_REACTORS
330
E
102
}
330
E
  0
SCALE
  5
48
102
{ACAD_REACTORS
330
47
102
}
330
47
100
AcDbScale
 70
     0
300
1:1
140
1.0
141
1.0
290
     1
  0
SCALE
  5
49
102
{ACAD_REACTORS
330
47
102
}
330
47
100
AcDbScale
 70
     0
300
1:2
140
1.0
141
2.0
290
     0
  0
SCALE
  5
4A
102
{ACAD_REACTORS
330
47
102
}
330
47
100
AcDbScale
 70
     0
300
1:4
140
1.0
141
4.0
290
     0
  0
SCALE
  5
4B
102
{ACAD_REACTORS
330
47
102
}
330
47
100
AcDbScale
 70
     0
300
1:5
140
1.0
141
5.0
290
     0
  0
SCALE
  5
4C
102
{ACAD_REACTORS
330
47
102
}
330
47
100
AcDbScale
 70
     0
300
1:8
140
1.0
141
8.0
290
     0
  0
SCALE
  5
4D
102
{ACAD_REACTORS
330
47
102
}
330
47
100
AcDbScale
 70
     0
300
1:10
140
1.0
141
10.0
290
     0
  0
SCALE
  5
4E
102
{ACAD_REACTORS
330
47
102
}
330
47
100
AcDbScale
 70
     0
300
1:16
140
1.0
141
16.0
290
     0
  0
SCALE
  5
4F
102
{ACAD_REACTORS
330
47
102
}
330
47
100
AcDbScale
 70
     0
300
1:20
140
1.0
141
20.0
290
     0
  0
SCALE
  5
50
102
{ACAD_REACTORS
330
47
102
}
330
47
100
AcDbScale
 70
     0
300
1:30
140
1.0
141
30.0
290
     0
  0
SCALE
  5
51
102
{ACAD_REACTORS
330
47
102
}
330
47
100
AcDbScale
 70
     0
300
1:40
140
1.0
141
40.0
290
     0
  0
SCALE
  5
52
102
{ACAD_REACTORS
330
47
102
}
330
47
100
AcDbScale
 70
     0
300
1:50
140
1.0
141
50.0
290
     0
  0
SCALE
  5
53
102
{ACAD_REACTORS
330
47
102
}
330
47
100
AcDbScale
 70
     0
300
1:100
140
1.0
141
100.0
290
     0
  0
SCALE
  5
54
102
{ACAD_REACTORS
330
47
102
}
330
47
100
AcDbScale
 70
     0
300
2:1
140
2.0
141
1.0
290
     0
  0
SCALE
  5
55
102
{ACAD_REACTORS
330
47
102
}
330
47
100
AcDbScale
 70
     0
300
4:1
140
4.0
141
1.0
290
     0
  0
SCALE
  5
56
102
{ACAD_REACTORS
330
47
102
}
330
47
100
AcDbScale
 70
     0
300
8:1
140
8.0
141
1.0
290
     0
  0
SCALE
  5
57
102
{ACAD_REACTORS
330
47
102
}
330
47
100
AcDbScale
 70
     0
300
10:1
140
10.0
141
1.0
290
     0
  0
SCALE
  5
58
102
{ACAD_REACTORS
330
47
102
}
330
47
100
AcDbScale
 70
     0
300
100:1
140
100.0
141
1.0
290
     0
  0
SCALE
  5
59
102
{ACAD_REACTORS
330
47
102
}
330
47
100
AcDbScale
 70
     0
300
1/128" = 1'-0"
140
0.0078125
141
12.0
290
     0
  0
SCALE
  5
5A
102
{ACAD_REACTORS
330
47
102
}
330
47
100
AcDbScale
 70
     0
300
1/64" = 1'-0"
140
0.015625
141
12.0
290
     0
  0
SCALE
  5
5B
102
{ACAD_REACTORS
330
47
102
}
330
47
100
AcDbScale
 70
     0
300
1/32" = 1'-0"
140
0.03125
141
12.0
290
     0
  0
SCALE
  5
5C
102
{ACAD_REACTORS
330
47
102
}
330
47
100
AcDbScale
 70
     0
300
1/16" = 1'-0"
140
0.0625
141
12.0
290
     0
  0
SCALE
  5
5D
102
{ACAD_REACTORS
330
47
102
}
330
47
100
AcDbScale
 70
     0
300
3/32" = 1'-0"
140
0.09375
141
12.0
290
     0
  0
SCALE
  5
5E
102
{ACAD_REACTORS
330
47
102
}
330
47
100
AcDbScale
 70
     0
300
1/8" = 1'-0"
140
0.125
141
12.0
290
     0
  0
SCALE
  5
5F
102
{ACAD_REACTORS
330
47
102
}
330
47
100
AcDbScale
 70
     0
300
3/16" = 1'-0"
140
0.1875
141
12.0
290
     0
  0
SCALE
  5
60
102
{ACAD_REACTORS
330
47
102
}
330
47
100
AcDbScale
 70
     0
300
1/4" = 1'-0"
140
0.25
141
12.0
290
     0
  0
SCALE
  5
61
102
{ACAD_REACTORS
330
47
102
}
330
47
100
AcDbScale
 70
     0
300
3/8" = 1'-0"
140
0.375
141
12.0
290
     0
  0
SCALE
  5
62
102
{ACAD_REACTORS
330
47
102
}
330
47
100
AcDbScale
 70
     0
300
1/2" = 1'-0"
140
0.5
141
12.0
290
     0
  0
SCALE
  5
63
102
{ACAD_REACTORS
330
47
102
}
330
47
100
AcDbScale
 70
     0
300
3/4" = 1'-0"
140
0.75
141
12.0
290
     0
  0
SCALE
  5
64
102
{ACAD_REACTORS
330
47
102
}
330
47
100
AcDbScale
 70
     0
300
1" = 1'-0"
140
1.0
141
12.0
290
     0
  0
SCALE
  5
65
102
{ACAD_REACTORS
330
47
102
}
330
47
100
AcDbScale
 70
     0
300
1-1/2" = 1'-0"
140
1.5
141
12.0
290
     0
  0
SCALE
  5
66
102
{ACAD_REACTORS
330
47
102
}
330
47
100
AcDbScale
 70
     0
300
3" = 1'-0"
140
3.0
141
12.0
290
     0
  0
SCALE
  5
67
102
{ACAD_REACTORS
330
47
102
}
330
47
100
AcDbScale
 70
     0
300
6" = 1'-0"
140
6.0
141
12.0
290
     0
  0
SCALE
  5
68
102
{ACAD_REACTORS
330
47
102
}
330
47
100
AcDbScale
 70
     0
300
1'-0" = 1'-0"
140
12.0
141
12.0
290
     0
  0
ENDSEC
  0
EOF
