  0
SECTION
  2
HEADER
  9
$ACADVER
  1
AC1015
  9
$ACADMAINTVER
 70
     6
  9
$DWGCODEPAGE
  3
ANSI_1252
  9
$INSBASE
 10
0.0
 20
0.0
 30
0.0
  9
$EXTMIN
 10
-46.9488188976
 20
0.0
 30
0.0
  9
$EXTMAX
 10
15.6496062992
 20
20.8661417323
 30
0.0
  9
$LIMMIN
 10
0.0
 20
0.0
  9
$LIMMAX
 10
12.0
 20
9.0
  9
$ORTHOMODE
 70
     0
  9
$REGENMODE
 70
     1
  9
$FILLMODE
 70
     1
  9
$QTEXTMODE
 70
     0
  9
$MIRRTEXT
 70
     1
  9
$LTSCALE
 40
1.0
  9
$ATTMODE
 70
     1
  9
$TEXTSIZE
 40
0.1377952756
  9
$TRACEWID
 40
0.05
  9
$TEXTSTYLE
  7
Standard
  9
$CLAYER
  8
0
  9
$CELTYPE
  6
ByLayer
  9
$CECOLOR
 62
   256
  9
$CELTSCALE
 40
1.0
  9
$DISPSILH
 70
     0
  9
$DIMSCALE
 40
1.0
  9
$DIMASZ
 40
0.13
  9
$DIMEXO
 40
0.0393700787
  9
$DIMDLI
 40
0.38
  9
$DIMRND
 40
0.0
  9
$DIMDLE
 40
0.0
  9
$DIMEXE
 40
0.0393700787
  9
$DIMTP
 40
0.0
  9
$DIMTM
 40
0.0
  9
$DIMTXT
 40
0.1377952756
  9
$DIMCEN
 40
0.09
  9
$DIMTSZ
 40
0.0
  9
$DIMTOL
 70
     0
  9
$DIMLIM
 70
     0
  9
$DIMTIH
 70
     1
  9
$DIMTOH
 70
     1
  9
$DIMSE1
 70
     0
  9
$DIMSE2
 70
     0
  9
$DIMTAD
 70
     1
  9
$DIMZIN
 70
     1
  9
$DIMBLK
  1

  9
$DIMASO
 70
     1
  9
$DIMSHO
 70
     1
  9
$DIMPOST
  1

  9
$DIMAPOST
  1

  9
$DIMALT
 70
     0
  9
$DIMALTD
 70
     2
  9
$DIMALTF
 40
25.4
  9
$DIMLFAC
 40
1.0
  9
$DIMTOFL
 70
     0
  9
$DIMTVP
 40
0.0
  9
$DIMTIX
 70
     0
  9
$DIMSOXD
 70
     0
  9
$DIMSAH
 70
     0
  9
$DIMBLK1
  1

  9
$DIMBLK2
  1

  9
$DIMSTYLE
  2
Standard
  9
$DIMCLRD
 70
     0
  9
$DIMCLRE
 70
     0
  9
$DIMCLRT
 70
     0
  9
$DIMTFAC
 40
1.0
  9
$DIMGAP
 40
0.06
  9
$DIMJUST
 70
     0
  9
$DIMSD1
 70
     0
  9
$DIMSD2
 70
     0
  9
$DIMTOLJ
 70
     1
  9
$DIMTZIN
 70
     1
  9
$DIMALTZ
 70
     0
  9
$DIMALTTZ
 70
     0
  9
$DIMUPT
 70
     0
  9
$DIMDEC
 70
     2
  9
$DIMTDEC
 70
     2
  9
$DIMALTU
 70
     2
  9
$DIMALTTD
 70
     2
  9
$DIMTXSTY
  7
Standard
  9
$DIMAUNIT
 70
     0
  9
$DIMADEC
 70
     2
  9
$DIMALTRND
 40
0.0
  9
$DIMAZIN
 70
     0
  9
$DIMDSEP
 70
    46
  9
$DIMATFIT
 70
     3
  9
$DIMFRAC
 70
     0
  9
$DIMLDRBLK
  1

  9
$DIMLUNIT
 70
     2
  9
$DIMLWD
 70
    -2
  9
$DIMLWE
 70
    -2
  9
$DIMTMOVE
 70
     0
  9
$LUNITS
 70
     2
  9
$LUPREC
 70
     2
  9
$SKETCHINC
 40
0.1
  9
$FILLETRAD
 40
0.5
  9
$AUNITS
 70
     0
  9
$AUPREC
 70
     2
  9
$MENU
  1
.
  9
$ELEVATION
 40
0.0
  9
$PELEVATION
 40
0.0
  9
$THICKNESS
 40
0.0
  9
$LIMCHECK
 70
     0
  9
$CHAMFERA
 40
0.0
  9
$CHAMFERB
 40
0.0
  9
$CHAMFERC
 40
0.0
  9
$CHAMFERD
 40
0.0
  9
$SKPOLY
 70
     0
  9
$TDCREATE
 40
2460409.544029387
  9
$TDUCREATE
 40
2460409.50236272
  9
$TDUPDATE
 40
2460409.544062743
  9
$TDUUPDATE
 40
2460409.502396076
  9
$TDINDWG
 40
0.0000000116
  9
$TDUSRTIMER
 40
0.0000000116
  9
$USRTIMER
 70
     1
  9
$ANGBASE
 50
0.0
  9
$ANGDIR
 70
     0
  9
$PDMODE
 70
     0
  9
$PDSIZE
 40
-1.0
  9
$PLINEWID
 40
0.0
  9
$SPLFRAME
 70
     0
  9
$SPLINETYPE
 70
     6
  9
$SPLINESEGS
 70
     8
  9
$HANDSEED
  5
8E9
  9
$SURFTAB1
 70
     6
  9
$SURFTAB2
 70
     6
  9
$SURFTYPE
 70
     6
  9
$SURFU
 70
     6
  9
$SURFV
 70
     6
  9
$UCSBASE
  2

  9
$UCSNAME
  2

  9
$UCSORG
 10
0.0
 20
0.0
 30
0.0
  9
$UCSXDIR
 10
1.0
 20
0.0
 30
0.0
  9
$UCSYDIR
 10
0.0
 20
1.0
 30
0.0
  9
$UCSORTHOREF
  2

  9
$UCSORTHOVIEW
 70
     0
  9
$UCSORGTOP
 10
0.0
 20
0.0
 30
0.0
  9
$UCSORGBOTTOM
 10
0.0
 20
0.0
 30
0.0
  9
$UCSORGLEFT
 10
0.0
 20
0.0
 30
0.0
  9
$UCSORGRIGHT
 10
0.0
 20
0.0
 30
0.0
  9
$UCSORGFRONT
 10
0.0
 20
0.0
 30
0.0
  9
$UCSORGBACK
 10
0.0
 20
0.0
 30
0.0
  9
$PUCSBASE
  2

  9
$PUCSNAME
  2

  9
$PUCSORG
 10
0.0
 20
0.0
 30
0.0
  9
$PUCSXDIR
 10
1.0
 20
0.0
 30
0.0
  9
$PUCSYDIR
 10
0.0
 20
1.0
 30
0.0
  9
$PUCSORTHOREF
  2

  9
$PUCSORTHOVIEW
 70
     0
  9
$PUCSORGTOP
 10
0.0
 20
0.0
 30
0.0
  9
$PUCSORGBOTTOM
 10
0.0
 20
0.0
 30
0.0
  9
$PUCSORGLEFT
 10
0.0
 20
0.0
 30
0.0
  9
$PUCSORGRIGHT
 10
0.0
 20
0.0
 30
0.0
  9
$PUCSORGFRONT
 10
0.0
 20
0.0
 30
0.0
  9
$PUCSORGBACK
 10
0.0
 20
0.0
 30
0.0
  9
$USERI1
 70
     0
  9
$USERI2
 70
     0
  9
$USERI3
 70
     0
  9
$USERI4
 70
     0
  9
$USERI5
 70
     0
  9
$USERR1
 40
0.0
  9
$USERR2
 40
0.0
  9
$USERR3
 40
0.0
  9
$USERR4
 40
0.0
  9
$USERR5
 40
0.0
  9
$WORLDVIEW
 70
     1
  9
$SHADEDGE
 70
     3
  9
$SHADEDIF
 70
    70
  9
$TILEMODE
 70
     1
  9
$MAXACTVP
 70
    64
  9
$PINSBASE
 10
0.0
 20
0.0
 30
0.0
  9
$PLIMCHECK
 70
     0
  9
$PEXTMIN
 10
-15.6496062992
 20
0.0
 30
0.0
  9
$PEXTMAX
 10
46.9488188976
 20
20.8661417323
 30
0.0
  9
$PLIMMIN
 10
-17.1400473974
 20
-1.490438751
  9
$PLIMMAX
 10
48.4392576487
 20
49.1844787846
  9
$UNITMODE
 70
     0
  9
$VISRETAIN
 70
     1
  9
$PLINEGEN
 70
     0
  9
$PSLTSCALE
 70
     1
  9
$TREEDEPTH
 70
  3020
  9
$CMLSTYLE
  2
Standard
  9
$CMLJUST
 70
     0
  9
$CMLSCALE
 40
1.0
  9
$PROXYGRAPHICS
 70
     1
  9
$MEASUREMENT
 70
     0
  9
$CELWEIGHT
370
    -1
  9
$ENDCAPS
280
     0
  9
$JOINSTYLE
280
     0
  9
$LWDISPLAY
290
     1
  9
$INSUNITS
 70
     1
  9
$HYPERLINKBASE
  1

  9
$STYLESHEET
  1

  9
$XEDIT
290
     1
  9
$CEPSNTYPE
380
     0
  9
$PSTYLEMODE
290
     1
  9
$FINGERPRINTGUID
  2
{0ab5aac1-20fb-451d-87df-2ea67add3c7d}
  9
$VERSIONGUID
  2
{FAEB1C32-E019-11D5-929B-00C0DF256EC4}
  9
$EXTNAMES
290
     1
  9
$PSVPSCALE
 40
0.0
  9
$OLESTARTUP
290
     0
  0
ENDSEC
  0
SECTION
  2
CLASSES
  0
CLASS
  1
ACDBDICTIONARYWDFLT
  2
AcDbDictionaryWithDefault
  3
ObjectDBX Classes
 90
        0
280
     0
281
     0
  0
CLASS
  1
VISUALSTYLE
  2
AcDbVisualStyle
  3
ObjectDBX Classes
 90
     4095
280
     0
281
     0
  0
CLASS
  1
MATERIAL
  2
AcDbMaterial
  3
ObjectDBX Classes
 90
     1153
280
     0
281
     0
  0
CLASS
  1
SCALE
  2
AcDbScale
  3
ObjectDBX Classes
 90
     1153
280
     0
281
     0
  0
CLASS
  1
TABLESTYLE
  2
AcDbTableStyle
  3
ObjectDBX Classes
 90
     4095
280
     0
281
     0
  0
CLASS
  1
MLEADERSTYLE
  2
AcDbMLeaderStyle
  3
ACDB_MLEADERSTYLE_CLASS
 90
     4095
280
     0
281
     0
  0
CLASS
  1
SUN
  2
AcDbSun
  3
SCENEOE
 90
     1153
280
     0
281
     0
  0
CLASS
  1
ACDBPLACEHOLDER
  2
AcDbPlaceHolder
  3
ObjectDBX Classes
 90
        0
280
     0
281
     0
  0
CLASS
  1
LAYOUT
  2
AcDbLayout
  3
ObjectDBX Classes
 90
        0
280
     0
281
     0
  0
ENDSEC
  0
SECTION
  2
TABLES
  0
TABLE
  2
VPORT
  5
8
330
0
100
AcDbSymbolTable
 70
     1
  0
VPORT
  5
29
330
8
100
AcDbSymbolTableRecord
100
AcDbViewportTableRecord
  2
*Active
 70
     0
 10
0.0
 20
0.0
 11
1.0
 21
1.0
 12
-15.6496062992
 22
10.4330708661
 13
0.0
 23
0.0
 14
0.5
 24
0.5
 15
0.5
 25
0.5
 16
0.0
 26
0.0
 36
1.0
 17
0.0
 27
0.0
 37
0.0
 40
21.2834645669
 41
3.0
 42
50.0
 43
0.0
 44
0.0
 50
0.0
 51
0.0
 71
     0
 72
   100
 73
     1
 74
     3
 75
     0
 76
     0
 77
     0
 78
     0
281
     0
 65
     1
110
0.0
120
0.0
130
0.0
111
1.0
121
0.0
131
0.0
112
0.0
122
1.0
132
0.0
 79
     0
146
0.0
  0
ENDTAB
  0
TABLE
  2
LTYPE
  5
5
330
0
100
AcDbSymbolTable
 70
     6
  0
LTYPE
  5
14
330
5
100
AcDbSymbolTableRecord
100
AcDbLinetypeTableRecord
  2
ByBlock
 70
     0
  3

 72
    65
 73
     0
 40
0.0
  0
LTYPE
  5
15
330
5
100
AcDbSymbolTableRecord
100
AcDbLinetypeTableRecord
  2
ByLayer
 70
     0
  3

 72
    65
 73
     0
 40
0.0
  0
LTYPE
  5
16
330
5
100
AcDbSymbolTableRecord
100
AcDbLinetypeTableRecord
  2
Continuous
 70
     0
  3
Solid line
 72
    65
 73
     0
 40
0.0
  0
LTYPE
  5
6E
330
5
100
AcDbSymbolTableRecord
100
AcDbLinetypeTableRecord
  2
HIDDEN
 70
     0
  3
Hidden __ __ __ __ __ __ __ __ __ __ __ __ __ __
 72
    65
 73
     2
 40
0.075
 49
0.05
 74
     0
 49
-0.025
 74
     0
  0
LTYPE
  5
6F
330
5
100
AcDbSymbolTableRecord
100
AcDbLinetypeTableRecord
  2
PHANTOM
 70
     0
  3
Phantom ______  __  __  ______  __  __  ______
 72
    65
 73
     6
 40
0.5
 49
0.25
 74
     0
 49
-0.05
 74
     0
 49
0.05
 74
     0
 49
-0.05
 74
     0
 49
0.05
 74
     0
 49
-0.05
 74
     0
  0
LTYPE
  5
70
330
5
100
AcDbSymbolTableRecord
100
AcDbLinetypeTableRecord
  2
CENTER
 70
     0
  3
Center ____ _ ____ _ ____ _ ____ _ ____ _ ____
 72
    65
 73
     4
 40
0.4
 49
0.25
 74
     0
 49
-0.05
 74
     0
 49
0.05
 74
     0
 49
-0.05
 74
     0
  0
LTYPE
  5
71
330
5
100
AcDbSymbolTableRecord
100
AcDbLinetypeTableRecord
  2
CENTERX2
 70
     0
  3
Center (2x) ________  __  ________  __  _____
 72
    65
 73
     4
 40
0.8
 49
0.5
 74
     0
 49
-0.1
 74
     0
 49
0.1
 74
     0
 49
-0.1
 74
     0
  0
LTYPE
  5
72
330
5
100
AcDbSymbolTableRecord
100
AcDbLinetypeTableRecord
  2
DOT2
 70
     0
  3
Dot (.5x) ........................................
 72
    65
 73
     2
 40
0.025
 49
0.0
 74
     0
 49
-0.025
 74
     0
  0
ENDTAB
  0
TABLE
  2
LAYER
  5
2
330
0
100
AcDbSymbolTable
 70
     1
  0
LAYER
  5
10
330
2
100
AcDbSymbolTableRecord
100
AcDbLayerTableRecord
  2
0
 70
     0
 62
     7
  6
Continuous
370
    -3
390
F
  0
ENDTAB
  0
TABLE
  2
STYLE
  5
3
330
0
100
AcDbSymbolTable
 70
     1
  0
STYLE
  5
11
330
3
100
AcDbSymbolTableRecord
100
AcDbTextStyleTableRecord
  2
Standard
 70
     0
 40
0.0
 41
1.0
 50
0.0
 71
     0
 42
0.1377952756
  3
txt
  4

  0
ENDTAB
  0
TABLE
  2
VIEW
  5
6
330
0
100
AcDbSymbolTable
 70
     0
  0
ENDTAB
  0
TABLE
  2
UCS
  5
7
330
0
100
AcDbSymbolTable
 70
     0
  0
ENDTAB
  0
TABLE
  2
APPID
  5
9
330
0
100
AcDbSymbolTable
 70
     1
  0
APPID
  5
12
330
9
100
AcDbSymbolTableRecord
100
AcDbRegAppTableRecord
  2
ACAD
 70
     0
  0
ENDTAB
  0
TABLE
  2
DIMSTYLE
  5
A
330
0
100
AcDbSymbolTable
 70
     1
100
AcDbDimStyleTable
  0
DIMSTYLE
105
27
330
A
100
AcDbSymbolTableRecord
100
AcDbDimStyleTableRecord
  2
Standard
 70
     0
178
     0
340
11
  0
ENDTAB
  0
TABLE
  2
BLOCK_RECORD
  5
1
330
0
100
AcDbSymbolTable
 70
     3
  0
BLOCK_RECORD
  5
1F
330
1
100
AcDbSymbolTableRecord
100
AcDbBlockTableRecord
  2
*Model_Space
340
22
  0
BLOCK_RECORD
  5
1B
330
1
100
AcDbSymbolTableRecord
100
AcDbBlockTableRecord
  2
*Paper_Space
340
1E
  0
BLOCK_RECORD
  5
23
330
1
100
AcDbSymbolTableRecord
100
AcDbBlockTableRecord
  2
*Paper_Space0
340
26
  0
BLOCK_RECORD
  5
3FE
330
1
100
AcDbSymbolTableRecord
100
AcDbBlockTableRecord
  2
*Paper_Space1
340
3FF
  0
BLOCK_RECORD
  5
5D7
330
1
100
AcDbSymbolTableRecord
100
AcDbBlockTableRecord
  2
*Paper_Space2
340
5D8
  0
ENDTAB
  0
ENDSEC
  0
SECTION
  2
BLOCKS
  0
BLOCK
  5
20
330
1F
100
AcDbEntity
  8
0
100
AcDbBlockBegin
  2
*Model_Space
 70
     0
 10
0.0
 20
0.0
 30
0.0
  3
*Model_Space
  1

  0
ENDBLK
  5
21
330
1F
100
AcDbEntity
  8
0
100
AcDbBlockEnd
  0
BLOCK
  5
1C
330
1B
100
AcDbEntity
 67
     1
  8
0
100
AcDbBlockBegin
  2
*Paper_Space
 70
     0
 10
0.0
 20
0.0
 30
0.0
  3
*Paper_Space
  1

  0
ENDBLK
  5
1D
330
1B
100
AcDbEntity
 67
     1
  8
0
100
AcDbBlockEnd
  0
BLOCK
  5
24
330
23
100
AcDbEntity
  8
0
100
AcDbBlockBegin
  2
*Paper_Space0
 70
     0
 10
0.0
 20
0.0
 30
0.0
  3
*Paper_Space0
  1

  0
LINE
  5
3EB
330
23
100
AcDbEntity
  8
0
  6
Continuous
 62
     7
370
    25
100
AcDbLine
 10
-8.8616451353
 20
20.8267716535
 30
0.0
 11
-8.8616451353
 21
0.0393700787
 31
0.0
  0
LINE
  5
3EC
330
23
100
AcDbEntity
  8
0
  6
Continuous
 62
     7
370
    25
100
AcDbLine
 10
-8.9173228346
 20
10.5511811024
 30
0.0
 11
-8.9173228346
 21
19.1406131053
 31
0.0
  0
LINE
  5
3ED
330
23
100
AcDbEntity
  8
0
  6
Continuous
 62
     7
370
    25
100
AcDbLine
 10
8.9960629921
 20
20.8267716535
 30
0.0
 11
-8.8616451353
 21
20.8267716535
 31
0.0
  0
LINE
  5
3EE
330
23
100
AcDbEntity
  8
0
  6
Continuous
 62
     7
370
    25
100
AcDbLine
 10
8.9566929134
 20
0.0
 30
0.0
 11
8.9566929134
 21
20.8661417323
 31
0.0
  0
LINE
  5
3EF
330
23
100
AcDbEntity
  8
0
  6
Continuous
 62
     7
370
    25
100
AcDbLine
 10
-8.9173228346
 20
0.0393700787
 30
0.0
 11
8.9960629921
 21
0.0393700787
 31
0.0
  0
LINE
  5
3F0
330
23
100
AcDbEntity
  8
0
  6
Continuous
 62
     7
370
    25
100
AcDbLine
 10
8.9960629921
 20
20.8267716535
 30
0.0
 11
8.9960629921
 21
0.0393700787
 31
0.0
  0
LINE
  5
3F1
330
23
100
AcDbEntity
  8
0
  6
Continuous
 62
     7
370
    25
100
AcDbLine
 10
8.9566929134
 20
0.0
 30
0.0
 11
-8.8222750566
 21
0.0
 31
0.0
  0
LINE
  5
3F2
330
23
100
AcDbEntity
  8
0
  6
Continuous
 62
     7
370
    25
100
AcDbLine
 10
-8.8222750566
 20
20.8661417323
 30
0.0
 11
-8.8222750566
 21
0.0
 31
0.0
  0
LINE
  5
3F3
330
23
100
AcDbEntity
  8
0
  6
Continuous
 62
     7
370
    25
100
AcDbLine
 10
-8.8222750566
 20
20.8661417323
 30
0.0
 11
8.9566929134
 21
20.8661417323
 31
0.0
  0
LINE
  5
3F4
330
23
100
AcDbEntity
  8
0
  6
Continuous
 62
     7
370
    25
100
AcDbLine
 10
-8.9173228346
 20
0.0393700787
 30
0.0
 11
-8.9173228346
 21
8.6288020817
 31
0.0
  0
LINE
  5
3F5
330
23
100
AcDbEntity
  8
0
  6
Continuous
 62
     8
370
    25
100
AcDbLine
 10
-8.9173228346
 20
10.5511811024
 30
0.0
 11
-8.8616451353
 21
10.5511811024
 31
0.0
  0
ARC
  5
3F6
330
23
100
AcDbEntity
  8
0
  6
Continuous
 62
     7
370
    25
100
AcDbCircle
 10
-8.8222750566
 20
20.8267716535
 30
0.0
 40
0.0393700787401539
100
AcDbArc
 50
90.0
 51
180.0
  0
ARC
  5
3F7
330
23
100
AcDbEntity
  8
0
  6
Continuous
 62
     7
370
    25
100
AcDbCircle
 10
-8.8222750566
 20
0.0393700787
 30
0.0
 40
0.0393700787401574
100
AcDbArc
 50
180.0
 51
270.0
  0
ARC
  5
3F8
330
23
100
AcDbEntity
  8
0
  6
Continuous
 62
     7
370
    25
100
AcDbCircle
 10
-8.8779527559
 20
10.5511811024
 30
0.0
 40
0.0393700787401539
100
AcDbArc
 50
180.0
 51
294.4698005207
  0
ARC
  5
3F9
330
23
100
AcDbEntity
  8
0
  6
Continuous
 62
     7
370
    25
100
AcDbCircle
 10
-8.8779527559
 20
19.1406131053
 30
0.0
 40
0.0393700787401539
100
AcDbArc
 50
65.5301994793
 51
180.0
  0
ARC
  5
3FA
330
23
100
AcDbEntity
  8
0
  6
Continuous
 62
     7
370
    25
100
AcDbCircle
 10
8.9566929134
 20
20.8267716535
 30
0.0
 40
0.0393700787401592
100
AcDbArc
 50
0.0
 51
90.0
  0
ARC
  5
3FB
330
23
100
AcDbEntity
  8
0
  6
Continuous
 62
     7
370
    25
100
AcDbCircle
 10
8.9566929134
 20
0.0393700787
 30
0.0
 40
0.0393700787401574
100
AcDbArc
 50
270.0
 51
0.0
  0
ARC
  5
3FC
330
23
100
AcDbEntity
  8
0
  6
Continuous
 62
     7
370
    25
100
AcDbCircle
 10
-8.8779527559
 20
0.0393700787
 30
0.0
 40
0.0393700787401578
100
AcDbArc
 50
180.0
 51
315.0
  0
ARC
  5
3FD
330
23
100
AcDbEntity
  8
0
  6
Continuous
 62
     7
370
    25
100
AcDbCircle
 10
-8.8779527559
 20
8.6288020817
 30
0.0
 40
0.039370078740158
100
AcDbArc
 50
65.5301994793
 51
180.0
  0
VIEWPORT
  5
8E3
330
23
100
AcDbEntity
  8
0
100
AcDbViewport
 10
0.0
 20
0.0
 30
0.0
 40
8.4
 41
6.4
 68
     1
 69
     1
 12
-15.6496062992
 22
10.4330708661
 13
0.0
 23
0.0
 14
0.5
 24
0.5
 15
0.5
 25
0.5
 16
0.0
 26
0.0
 36
1.0
 17
0.0
 27
0.0
 37
0.0
 42
50.0
 43
0.0
 44
0.0
 45
48.6479190101
 50
0.0
 51
0.0
 72
   100
 90
   557152
  1

281
     0
 71
     1
 74
     0
110
0.0
120
0.0
130
0.0
111
1.0
121
0.0
131
0.0
112
0.0
122
1.0
132
0.0
 79
     0
146
0.0
  0
ENDBLK
  5
25
330
23
100
AcDbEntity
  8
0
100
AcDbBlockEnd
  0
BLOCK
  5
400
330
3FE
100
AcDbEntity
  8
0
100
AcDbBlockBegin
  2
*Paper_Space1
 70
     0
 10
0.0
 20
0.0
 30
0.0
  3
*Paper_Space1
  1

  0
LINE
  5
524
330
3FE
100
AcDbEntity
  8
0
  6
Continuous
 62
     7
370
    25
100
AcDbLine
 10
15.4758183637
 20
-8.9173228346
 30
0.0
 11
-15.4758183637
 21
-8.9173228346
 31
0.0
  0
LINE
  5
525
330
3FE
100
AcDbEntity
  8
0
  6
Continuous
 62
     7
370
    25
100
AcDbLine
 10
-15.5036572133
 20
-8.8501139063
 30
0.0
 11
15.5036572133
 21
-8.8501139063
 31
0.0
  0
LINE
  5
526
330
3FE
100
AcDbEntity
  8
0
  6
Continuous
 62
     7
370
    25
100
AcDbLine
 10
14.8622047244
 20
-8.2086614173
 30
0.0
 11
15.5036572133
 21
-8.8501139063
 31
0.0
  0
LINE
  5
527
330
3FE
100
AcDbEntity
  8
0
  6
Continuous
 62
     7
370
    25
100
AcDbLine
 10
-14.8622047244
 20
-8.2086614173
 30
0.0
 11
-15.5036572133
 21
-8.8501139063
 31
0.0
  0
LINE
  5
528
330
3FE
100
AcDbEntity
  8
0
  6
Continuous
 62
     7
370
    25
100
AcDbLine
 10
-14.7637795276
 20
7.5393700787
 30
0.0
 11
-14.7637795276
 21
-7.5
 31
0.0
  0
LINE
  5
529
330
3FE
100
AcDbEntity
  8
0
  6
Continuous
 62
     7
370
    25
100
AcDbLine
 10
-3.1496062992
 20
7.5393700787
 30
0.0
 11
-14.7637795276
 21
7.5393700787
 31
0.0
  0
LINE
  5
52A
330
3FE
100
AcDbEntity
  8
0
  6
Continuous
 62
     7
370
    25
100
AcDbLine
 10
-14.0551181102
 20
-7.5
 30
0.0
 11
-14.0551181102
 21
7.5393700787
 31
0.0
  0
LINE
  5
52B
330
3FE
100
AcDbEntity
  8
0
  6
Continuous
 62
     7
370
    25
100
AcDbLine
 10
14.0551181102
 20
7.5393700787
 30
0.0
 11
14.0551181102
 21
-7.5
 31
0.0
  0
LINE
  5
52C
330
3FE
100
AcDbEntity
  8
0
  6
Continuous
 62
     7
370
    25
100
AcDbLine
 10
14.7637795276
 20
-7.5
 30
0.0
 11
14.7637795276
 21
7.5393700787
 31
0.0
  0
LINE
  5
52D
330
3FE
100
AcDbEntity
  8
0
  6
Continuous
 62
     7
370
    25
100
AcDbLine
 10
14.7637795276
 20
7.5393700787
 30
0.0
 11
3.1496062992
 21
7.5393700787
 31
0.0
  0
LINE
  5
52E
330
3FE
100
AcDbEntity
  8
0
  6
Continuous
 62
     7
370
    25
100
AcDbLine
 10
3.1496062992
 20
6.8307086614
 30
0.0
 11
14.0551181102
 21
6.8307086614
 31
0.0
  0
LINE
  5
52F
330
3FE
100
AcDbEntity
  8
0
  6
Continuous
 62
     7
370
    25
100
AcDbLine
 10
3.1496062992
 20
6.8307086614
 30
0.0
 11
3.1496062992
 21
7.5393700787
 31
0.0
  0
LINE
  5
530
330
3FE
100
AcDbEntity
  8
0
  6
Continuous
 62
     7
370
    25
100
AcDbLine
 10
-3.1496062992
 20
7.5393700787
 30
0.0
 11
-3.1496062992
 21
6.8307086614
 31
0.0
  0
LINE
  5
531
330
3FE
100
AcDbEntity
  8
0
  6
Continuous
 62
     7
370
    25
100
AcDbLine
 10
-14.0551181102
 20
6.8307086614
 30
0.0
 11
-3.1496062992
 21
6.8307086614
 31
0.0
  0
LINE
  5
532
330
3FE
100
AcDbEntity
  8
0
  6
Continuous
 62
     7
370
    25
100
AcDbLine
 10
3.0708661417
 20
7.6181102362
 30
0.0
 11
3.8582677165
 21
7.6181102362
 31
0.0
  0
LINE
  5
533
330
3FE
100
AcDbEntity
  8
0
  6
Continuous
 62
     7
370
    25
100
AcDbLine
 10
3.8582677165
 20
7.5393700787
 30
0.0
 11
3.8582677165
 21
7.6181102362
 31
0.0
  0
LINE
  5
534
330
3FE
100
AcDbEntity
  8
0
  6
Continuous
 62
     7
370
    25
100
AcDbLine
 10
3.937007874
 20
6.8307086614
 30
0.0
 11
3.937007874
 21
6.7519685039
 31
0.0
  0
LINE
  5
535
330
3FE
100
AcDbEntity
  8
0
  6
Continuous
 62
     7
370
    25
100
AcDbLine
 10
3.1496062992
 20
6.7519685039
 30
0.0
 11
3.937007874
 21
6.7519685039
 31
0.0
  0
LINE
  5
536
330
3FE
100
AcDbEntity
  8
0
  6
Continuous
 62
     7
370
    25
100
AcDbLine
 10
3.1496062992
 20
6.7519685039
 30
0.0
 11
3.1496062992
 21
-0.7283464567
 31
0.0
  0
LINE
  5
537
330
3FE
100
AcDbEntity
  8
0
  6
Continuous
 62
     7
370
    25
100
AcDbLine
 10
-3.1496062992
 20
-0.7283464567
 30
0.0
 11
-3.1496062992
 21
6.7519685039
 31
0.0
  0
LINE
  5
538
330
3FE
100
AcDbEntity
  8
0
  6
Continuous
 62
     7
370
    25
100
AcDbLine
 10
-3.937007874
 20
6.8307086614
 30
0.0
 11
-3.937007874
 21
6.7519685039
 31
0.0
  0
LINE
  5
539
330
3FE
100
AcDbEntity
  8
0
  6
Continuous
 62
     7
370
    25
100
AcDbLine
 10
-3.0708661417
 20
7.6181102362
 30
0.0
 11
-3.8582677165
 21
7.6181102362
 31
0.0
  0
LINE
  5
53A
330
3FE
100
AcDbEntity
  8
0
  6
Continuous
 62
     7
370
    25
100
AcDbLine
 10
-3.0708661417
 20
-0.7283464567
 30
0.0
 11
-3.0708661417
 21
7.6181102362
 31
0.0
  0
LINE
  5
53B
330
3FE
100
AcDbEntity
  8
0
  6
Continuous
 62
     7
370
    25
100
AcDbLine
 10
3.0708661417
 20
7.6181102362
 30
0.0
 11
3.0708661417
 21
-0.7283464567
 31
0.0
  0
LINE
  5
53C
330
3FE
100
AcDbEntity
  8
0
  6
Continuous
 62
     7
370
    25
100
AcDbLine
 10
-3.8582677165
 20
7.5393700787
 30
0.0
 11
-3.8582677165
 21
7.6181102362
 31
0.0
  0
LINE
  5
53D
330
3FE
100
AcDbEntity
  8
0
  6
Continuous
 62
     7
370
    25
100
AcDbLine
 10
0.3937007874
 20
-3.4842519685
 30
0.0
 11
-0.3937007874
 21
-3.4842519685
 31
0.0
  0
LINE
  5
53E
330
3FE
100
AcDbEntity
  8
0
  6
Continuous
 62
     7
370
    25
100
AcDbLine
 10
-3.1496062992
 20
6.7519685039
 30
0.0
 11
-3.937007874
 21
6.7519685039
 31
0.0
  0
LINE
  5
53F
330
3FE
100
AcDbEntity
  8
0
  6
Continuous
 62
     7
370
    25
100
AcDbLine
 10
0.3937007874
 20
-3.405511811
 30
0.0
 11
-0.3937007874
 21
-3.405511811
 31
0.0
  0
LINE
  5
540
330
3FE
100
AcDbEntity
  8
0
  6
Continuous
 62
     7
370
    25
100
AcDbLine
 10
-46.9094488189
 20
8.9960629921
 30
0.0
 11
-46.9094488189
 21
-8.8222750566
 31
0.0
  0
LINE
  5
541
330
3FE
100
AcDbEntity
  8
0
  6
Continuous
 62
     7
370
    25
100
AcDbLine
 10
-46.2795275591
 20
-8.1923537968
 30
0.0
 11
-46.2795275591
 21
8.9960629921
 31
0.0
  0
LINE
  5
542
330
3FE
100
AcDbEntity
  8
0
  6
Continuous
 62
     7
370
    25
100
AcDbLine
 10
-46.9094488189
 20
-8.8222750566
 30
0.0
 11
-46.2795275591
 21
-8.1923537968
 31
0.0
  0
LINE
  5
543
330
3FE
100
AcDbEntity
  8
0
  6
Continuous
 62
     7
370
    25
100
AcDbLine
 10
-46.2795275591
 20
-8.1923537968
 30
0.0
 11
-46.2516887094
 21
-8.2201926464
 31
0.0
  0
LINE
  5
544
330
3FE
100
AcDbEntity
  8
0
  6
Continuous
 62
     7
370
    25
100
AcDbLine
 10
-46.2516887094
 20
-8.2201926464
 30
0.0
 11
-46.8816099692
 21
-8.8501139063
 31
0.0
  0
LINE
  5
545
330
3FE
100
AcDbEntity
  8
0
  6
Continuous
 62
     7
370
    25
100
AcDbLine
 10
-46.8816099692
 20
-8.8501139063
 30
0.0
 11
-46.9094488189
 21
-8.8222750566
 31
0.0
  0
LINE
  5
546
330
3FE
100
AcDbEntity
  8
0
  6
Continuous
 62
     7
370
    25
100
AcDbLine
 10
-46.9488188976
 20
-8.8222750566
 30
0.0
 11
-46.9094488189
 21
-8.8222750566
 31
0.0
  0
LINE
  5
547
330
3FE
100
AcDbEntity
  8
0
  6
Continuous
 62
     7
370
    25
100
AcDbLine
 10
-46.2795275591
 20
-8.1923537968
 30
0.0
 11
-46.2401574803
 21
-8.1923537968
 31
0.0
  0
LINE
  5
548
330
3FE
100
AcDbEntity
  8
0
  6
Continuous
 62
     7
370
    25
100
AcDbLine
 10
-46.9488188976
 20
-8.8222750566
 30
0.0
 11
-46.9488188976
 21
8.9566929134
 31
0.0
  0
LINE
  5
549
330
3FE
100
AcDbEntity
  8
0
  6
Continuous
 62
     7
370
    25
100
AcDbLine
 10
-46.2401574803
 20
8.9566929134
 30
0.0
 11
-46.2401574803
 21
-8.1923537968
 31
0.0
  0
LINE
  5
54A
330
3FE
100
AcDbEntity
  8
0
  6
Continuous
 62
     7
370
    25
100
AcDbLine
 10
-46.9094488189
 20
8.9960629921
 30
0.0
 11
-46.2795275591
 21
8.9960629921
 31
0.0
  0
LINE
  5
54B
330
3FE
100
AcDbEntity
  8
0
  6
Continuous
 62
     7
370
    25
100
AcDbLine
 10
-16.3188976378
 20
8.9960629921
 30
0.0
 11
-16.3188976378
 21
-8.1923537968
 31
0.0
  0
LINE
  5
54C
330
3FE
100
AcDbEntity
  8
0
  6
Continuous
 62
     7
370
    25
100
AcDbLine
 10
-16.3188976378
 20
8.9960629921
 30
0.0
 11
-15.688976378
 21
8.9960629921
 31
0.0
  0
LINE
  5
54D
330
3FE
100
AcDbEntity
  8
0
  6
Continuous
 62
     7
370
    25
100
AcDbLine
 10
-15.688976378
 20
-8.8222750566
 30
0.0
 11
-15.688976378
 21
8.9960629921
 31
0.0
  0
LINE
  5
54E
330
3FE
100
AcDbEntity
  8
0
  6
Continuous
 62
     7
370
    25
100
AcDbLine
 10
-15.6496062992
 20
-8.8222750566
 30
0.0
 11
-15.6496062992
 21
8.9566929134
 31
0.0
  0
LINE
  5
54F
330
3FE
100
AcDbEntity
  8
0
  6
Continuous
 62
     7
370
    25
100
AcDbLine
 10
-15.688976378
 20
-8.8222750566
 30
0.0
 11
-15.6102362205
 21
-8.8222750566
 31
0.0
  0
LINE
  5
550
330
3FE
100
AcDbEntity
  8
0
  6
Continuous
 62
     7
370
    25
100
AcDbLine
 10
-16.3188976378
 20
-8.1923537968
 30
0.0
 11
-16.3582677165
 21
-8.1923537968
 31
0.0
  0
LINE
  5
551
330
3FE
100
AcDbEntity
  8
0
  6
Continuous
 62
     7
370
    25
100
AcDbLine
 10
-16.3582677165
 20
-8.1923537968
 30
0.0
 11
-16.3582677165
 21
8.9566929134
 31
0.0
  0
LINE
  5
552
330
3FE
100
AcDbEntity
  8
0
  6
Continuous
 62
     7
370
    25
100
AcDbLine
 10
-15.7168152276
 20
-8.8501139063
 30
0.0
 11
-16.3467364874
 21
-8.2201926464
 31
0.0
  0
LINE
  5
553
330
3FE
100
AcDbEntity
  8
0
  6
Continuous
 62
     7
370
    25
100
AcDbLine
 10
-16.3467364874
 20
-8.2201926464
 30
0.0
 11
-16.3188976378
 21
-8.1923537968
 31
0.0
  0
LINE
  5
554
330
3FE
100
AcDbEntity
  8
0
  6
Continuous
 62
     7
370
    25
100
AcDbLine
 10
-16.3188976378
 20
-8.1923537968
 30
0.0
 11
-15.688976378
 21
-8.8222750566
 31
0.0
  0
LINE
  5
555
330
3FE
100
AcDbEntity
  8
0
  6
Continuous
 62
     7
370
    25
100
AcDbLine
 10
-15.688976378
 20
-8.8222750566
 30
0.0
 11
-15.7168152276
 21
-8.8501139063
 31
0.0
  0
LINE
  5
556
330
3FE
100
AcDbEntity
  8
0
  6
Continuous
 62
     7
370
    25
100
AcDbLine
 10
-46.2401574803
 20
8.3267716535
 30
0.0
 11
-16.3582677165
 21
8.3267716535
 31
0.0
  0
LINE
  5
557
330
3FE
100
AcDbEntity
  8
0
  6
Continuous
 62
     7
370
    25
100
AcDbLine
 10
-46.2007874016
 20
8.9960629921
 30
0.0
 11
-16.3976377953
 21
8.9960629921
 31
0.0
  0
LINE
  5
558
330
3FE
100
AcDbEntity
  8
0
  6
Continuous
 62
     7
370
    25
100
AcDbLine
 10
-16.3976377953
 20
8.2874015748
 30
0.0
 11
-46.2007874016
 21
8.2874015748
 31
0.0
  0
LINE
  5
559
330
3FE
100
AcDbEntity
  8
0
  6
Continuous
 62
     7
370
    25
100
AcDbLine
 10
-46.2007874016
 20
8.9960629921
 30
0.0
 11
-46.2007874016
 21
-8.2086614173
 31
0.0
  0
LINE
  5
55A
330
3FE
100
AcDbEntity
  8
0
  6
Continuous
 62
     7
370
    25
100
AcDbLine
 10
-46.2401574803
 20
-8.1692913386
 30
0.0
 11
-16.3582677165
 21
-8.1692913386
 31
0.0
  0
LINE
  5
55B
330
3FE
100
AcDbEntity
  8
0
  6
Continuous
 62
     7
370
    25
100
AcDbLine
 10
-16.3582677165
 20
-7.9330708661
 30
0.0
 11
-46.2401574803
 21
-7.9330708661
 31
0.0
  0
LINE
  5
55C
330
3FE
100
AcDbEntity
  8
0
  6
Continuous
 62
     7
370
    25
100
AcDbLine
 10
-46.2007874016
 20
-7.8937007874
 30
0.0
 11
-16.3976377953
 21
-7.8937007874
 31
0.0
  0
LINE
  5
55D
330
3FE
100
AcDbEntity
  8
0
  6
Continuous
 62
     7
370
    25
100
AcDbLine
 10
-16.3976377953
 20
-8.2086614173
 30
0.0
 11
-16.3976377953
 21
8.9960629921
 31
0.0
  0
LINE
  5
55E
330
3FE
100
AcDbEntity
  8
0
  6
Continuous
 62
     7
370
    25
100
AcDbLine
 10
-16.3976377953
 20
-8.2086614173
 30
0.0
 11
-46.2007874016
 21
-8.2086614173
 31
0.0
  0
LINE
  5
55F
330
3FE
100
AcDbEntity
  8
0
  6
Continuous
 62
     7
370
    25
100
AcDbLine
 10
-46.2401574803
 20
-7.8543307087
 30
0.0
 11
-16.3582677165
 21
-7.8543307087
 31
0.0
  0
LINE
  5
560
330
3FE
100
AcDbEntity
  8
0
  6
Continuous
 62
     7
370
    25
100
AcDbLine
 10
-16.3582677165
 20
-7.5393700787
 30
0.0
 11
-46.2401574803
 21
-7.5393700787
 31
0.0
  0
LINE
  5
561
330
3FE
100
AcDbEntity
  8
0
  6
Continuous
 62
     7
370
    25
100
AcDbLine
 10
-46.2007874016
 20
-7.5
 30
0.0
 11
-16.3976377953
 21
-7.5
 31
0.0
  0
LINE
  5
562
330
3FE
100
AcDbEntity
  8
0
  6
Continuous
 62
     7
370
    25
100
AcDbLine
 10
-15.6102362205
 20
8.9960629921
 30
0.0
 11
-15.6102362205
 21
-8.8222750566
 31
0.0
  0
LINE
  5
563
330
3FE
100
AcDbEntity
  8
0
  6
Continuous
 62
     7
370
    25
100
AcDbLine
 10
-14.9803149606
 20
-8.1923537968
 30
0.0
 11
-14.9803149606
 21
8.9960629921
 31
0.0
  0
LINE
  5
564
330
3FE
100
AcDbEntity
  8
0
  6
Continuous
 62
     7
370
    25
100
AcDbLine
 10
-14.9803149606
 20
-8.1923537968
 30
0.0
 11
-14.952476111
 21
-8.2201926464
 31
0.0
  0
LINE
  5
565
330
3FE
100
AcDbEntity
  8
0
  6
Continuous
 62
     7
370
    25
100
AcDbLine
 10
-14.9803149606
 20
-8.1923537968
 30
0.0
 11
-14.9409448819
 21
-8.1923537968
 31
0.0
  0
LINE
  5
566
330
3FE
100
AcDbEntity
  8
0
  6
Continuous
 62
     7
370
    25
100
AcDbLine
 10
-15.5823973708
 20
-8.8501139063
 30
0.0
 11
-15.6102362205
 21
-8.8222750566
 31
0.0
  0
LINE
  5
567
330
3FE
100
AcDbEntity
  8
0
  6
Continuous
 62
     7
370
    25
100
AcDbLine
 10
-15.6102362205
 20
-8.8222750566
 30
0.0
 11
-14.9803149606
 21
-8.1923537968
 31
0.0
  0
LINE
  5
568
330
3FE
100
AcDbEntity
  8
0
  6
Continuous
 62
     7
370
    25
100
AcDbLine
 10
-14.952476111
 20
-8.2201926464
 30
0.0
 11
-15.5823973708
 21
-8.8501139063
 31
0.0
  0
LINE
  5
569
330
3FE
100
AcDbEntity
  8
0
  6
Continuous
 62
     7
370
    25
100
AcDbLine
 10
-14.9409448819
 20
8.9566929134
 30
0.0
 11
-14.9409448819
 21
-8.1923537968
 31
0.0
  0
LINE
  5
56A
330
3FE
100
AcDbEntity
  8
0
  6
Continuous
 62
     7
370
    25
100
AcDbLine
 10
-15.6102362205
 20
8.9960629921
 30
0.0
 11
-14.9803149606
 21
8.9960629921
 31
0.0
  0
LINE
  5
56B
330
3FE
100
AcDbEntity
  8
0
  6
Continuous
 62
     7
370
    25
100
AcDbLine
 10
15.5823973708
 20
-8.8501139063
 30
0.0
 11
14.952476111
 21
-8.2201926464
 31
0.0
  0
LINE
  5
56C
330
3FE
100
AcDbEntity
  8
0
  6
Continuous
 62
     7
370
    25
100
AcDbLine
 10
14.952476111
 20
-8.2201926464
 30
0.0
 11
14.9803149606
 21
-8.1923537968
 31
0.0
  0
LINE
  5
56D
330
3FE
100
AcDbEntity
  8
0
  6
Continuous
 62
     7
370
    25
100
AcDbLine
 10
14.9803149606
 20
-8.1923537968
 30
0.0
 11
15.6102362205
 21
-8.8222750566
 31
0.0
  0
LINE
  5
56E
330
3FE
100
AcDbEntity
  8
0
  6
Continuous
 62
     7
370
    25
100
AcDbLine
 10
15.6102362205
 20
-8.8222750566
 30
0.0
 11
15.5823973708
 21
-8.8501139063
 31
0.0
  0
LINE
  5
56F
330
3FE
100
AcDbEntity
  8
0
  6
Continuous
 62
     7
370
    25
100
AcDbLine
 10
15.6496062992
 20
-8.8222750566
 30
0.0
 11
15.6102362205
 21
-8.8222750566
 31
0.0
  0
LINE
  5
570
330
3FE
100
AcDbEntity
  8
0
  6
Continuous
 62
     7
370
    25
100
AcDbLine
 10
14.9803149606
 20
-8.1923537968
 30
0.0
 11
14.9409448819
 21
-8.1923537968
 31
0.0
  0
LINE
  5
571
330
3FE
100
AcDbEntity
  8
0
  6
Continuous
 62
     7
370
    25
100
AcDbLine
 10
15.6496062992
 20
8.9566929134
 30
0.0
 11
15.6496062992
 21
-8.8222750566
 31
0.0
  0
LINE
  5
572
330
3FE
100
AcDbEntity
  8
0
  6
Continuous
 62
     7
370
    25
100
AcDbLine
 10
15.6102362205
 20
-8.8222750566
 30
0.0
 11
15.6102362205
 21
8.9960629921
 31
0.0
  0
LINE
  5
573
330
3FE
100
AcDbEntity
  8
0
  6
Continuous
 62
     7
370
    25
100
AcDbLine
 10
14.9803149606
 20
8.9960629921
 30
0.0
 11
14.9803149606
 21
-8.1923537968
 31
0.0
  0
LINE
  5
574
330
3FE
100
AcDbEntity
  8
0
  6
Continuous
 62
     7
370
    25
100
AcDbLine
 10
14.9409448819
 20
-8.1923537968
 30
0.0
 11
14.9409448819
 21
8.9566929134
 31
0.0
  0
LINE
  5
575
330
3FE
100
AcDbEntity
  8
0
  6
Continuous
 62
     7
370
    25
100
AcDbLine
 10
15.6496062992
 20
8.9566929134
 30
0.0
 11
-46.9488188976
 21
8.9566929134
 31
0.0
  0
LINE
  5
576
330
3FE
100
AcDbEntity
  8
0
  6
Continuous
 62
     7
370
    25
100
AcDbLine
 10
14.9803149606
 20
8.9960629921
 30
0.0
 11
15.6102362205
 21
8.9960629921
 31
0.0
  0
LINE
  5
577
330
3FE
100
AcDbEntity
  8
0
  6
Continuous
 62
     7
370
    25
100
AcDbLine
 10
14.9015748031
 20
8.2874015748
 30
0.0
 11
-14.9015748031
 21
8.2874015748
 31
0.0
  0
LINE
  5
578
330
3FE
100
AcDbEntity
  8
0
  6
Continuous
 62
     7
370
    25
100
AcDbLine
 10
-14.9409448819
 20
8.3267716535
 30
0.0
 11
14.9409448819
 21
8.3267716535
 31
0.0
  0
LINE
  5
579
330
3FE
100
AcDbEntity
  8
0
  6
Continuous
 62
     7
370
    25
100
AcDbLine
 10
-14.9015748031
 20
8.9960629921
 30
0.0
 11
14.9015748031
 21
8.9960629921
 31
0.0
  0
LINE
  5
57A
330
3FE
100
AcDbEntity
  8
0
  6
Continuous
 62
     7
370
    25
100
AcDbLine
 10
-14.9409448819
 20
-8.1692913386
 30
0.0
 11
14.9409448819
 21
-8.1692913386
 31
0.0
  0
LINE
  5
57B
330
3FE
100
AcDbEntity
  8
0
  6
Continuous
 62
     7
370
    25
100
AcDbLine
 10
14.9409448819
 20
-7.9330708661
 30
0.0
 11
-14.9409448819
 21
-7.9330708661
 31
0.0
  0
LINE
  5
57C
330
3FE
100
AcDbEntity
  8
0
  6
Continuous
 62
     7
370
    25
100
AcDbLine
 10
-14.9015748031
 20
-7.8937007874
 30
0.0
 11
14.9015748031
 21
-7.8937007874
 31
0.0
  0
LINE
  5
57D
330
3FE
100
AcDbEntity
  8
0
  6
Continuous
 62
     7
370
    25
100
AcDbLine
 10
14.9015748031
 20
-8.2086614173
 30
0.0
 11
-14.9015748031
 21
-8.2086614173
 31
0.0
  0
LINE
  5
57E
330
3FE
100
AcDbEntity
  8
0
  6
Continuous
 62
     7
370
    25
100
AcDbLine
 10
-14.9409448819
 20
-7.8543307087
 30
0.0
 11
14.9409448819
 21
-7.8543307087
 31
0.0
  0
LINE
  5
57F
330
3FE
100
AcDbEntity
  8
0
  6
Continuous
 62
     7
370
    25
100
AcDbLine
 10
14.9015748031
 20
-8.2086614173
 30
0.0
 11
14.9015748031
 21
8.9960629921
 31
0.0
  0
LINE
  5
580
330
3FE
100
AcDbEntity
  8
0
  6
Continuous
 62
     7
370
    25
100
AcDbLine
 10
14.9409448819
 20
-7.5393700787
 30
0.0
 11
-14.9409448819
 21
-7.5393700787
 31
0.0
  0
LINE
  5
581
330
3FE
100
AcDbEntity
  8
0
  6
Continuous
 62
     7
370
    25
100
AcDbLine
 10
-14.9015748031
 20
8.9960629921
 30
0.0
 11
-14.9015748031
 21
-8.2086614173
 31
0.0
  0
LINE
  5
582
330
3FE
100
AcDbEntity
  8
0
  6
Continuous
 62
     7
370
    25
100
AcDbLine
 10
-14.9015748031
 20
-7.5
 30
0.0
 11
14.9015748031
 21
-7.5
 31
0.0
  0
LINE
  5
583
330
3FE
100
AcDbEntity
  8
0
  6
Continuous
 62
     7
370
    25
100
AcDbLine
 10
2.9527559055
 20
6.8307086614
 30
0.0
 11
2.9527559055
 21
7.5393700787
 31
0.0
  0
LINE
  5
584
330
3FE
100
AcDbEntity
  8
0
  6
Continuous
 62
     7
370
    25
100
AcDbLine
 10
-2.9527559055
 20
7.5393700787
 30
0.0
 11
-2.9527559055
 21
6.8307086614
 31
0.0
  0
LINE
  5
585
330
3FE
100
AcDbEntity
  8
0
  6
Continuous
 62
     7
370
    25
100
AcDbLine
 10
-3.0708661417
 20
6.8307086614
 30
0.0
 11
3.0708661417
 21
6.8307086614
 31
0.0
  0
LINE
  5
586
330
3FE
100
AcDbEntity
  8
0
  6
Continuous
 62
     7
370
    25
100
AcDbLine
 10
3.0708661417
 20
7.5393700787
 30
0.0
 11
-3.0708661417
 21
7.5393700787
 31
0.0
  0
LINE
  5
587
330
3FE
100
AcDbEntity
  8
0
  6
Continuous
 62
     7
370
    25
100
AcDbLine
 10
-15.8233942347
 20
-8.9173228346
 30
0.0
 11
-46.7750309621
 21
-8.9173228346
 31
0.0
  0
LINE
  5
588
330
3FE
100
AcDbEntity
  8
0
  6
Continuous
 62
     7
370
    25
100
AcDbLine
 10
-46.8028698118
 20
-8.8501139063
 30
0.0
 11
-15.7955553851
 21
-8.8501139063
 31
0.0
  0
LINE
  5
589
330
3FE
100
AcDbEntity
  8
0
  6
Continuous
 62
     7
370
    25
100
AcDbLine
 10
-16.437007874
 20
-8.2086614173
 30
0.0
 11
-15.7955553851
 21
-8.8501139063
 31
0.0
  0
LINE
  5
58A
330
3FE
100
AcDbEntity
  8
0
  6
Continuous
 62
     7
370
    25
100
AcDbLine
 10
-46.1614173228
 20
-8.2086614173
 30
0.0
 11
-46.8028698118
 21
-8.8501139063
 31
0.0
  0
LINE
  5
58B
330
3FE
100
AcDbEntity
  8
0
  6
Continuous
 62
     7
370
    25
100
AcDbLine
 10
-46.062992126
 20
7.5393700787
 30
0.0
 11
-46.062992126
 21
-7.5
 31
0.0
  0
LINE
  5
58C
330
3FE
100
AcDbEntity
  8
0
  6
Continuous
 62
     7
370
    25
100
AcDbLine
 10
-34.4488188976
 20
7.5393700787
 30
0.0
 11
-46.062992126
 21
7.5393700787
 31
0.0
  0
LINE
  5
58D
330
3FE
100
AcDbEntity
  8
0
  6
Continuous
 62
     7
370
    25
100
AcDbLine
 10
-45.3543307087
 20
-7.5
 30
0.0
 11
-45.3543307087
 21
7.5393700787
 31
0.0
  0
LINE
  5
58E
330
3FE
100
AcDbEntity
  8
0
  6
Continuous
 62
     7
370
    25
100
AcDbLine
 10
-16.5354330709
 20
7.5393700787
 30
0.0
 11
-28.1496062992
 21
7.5393700787
 31
0.0
  0
LINE
  5
58F
330
3FE
100
AcDbEntity
  8
0
  6
Continuous
 62
     7
370
    25
100
AcDbLine
 10
-16.5354330709
 20
-7.5
 30
0.0
 11
-16.5354330709
 21
7.5393700787
 31
0.0
  0
LINE
  5
590
330
3FE
100
AcDbEntity
  8
0
  6
Continuous
 62
     7
370
    25
100
AcDbLine
 10
-17.2440944882
 20
7.5393700787
 30
0.0
 11
-17.2440944882
 21
-7.5
 31
0.0
  0
LINE
  5
591
330
3FE
100
AcDbEntity
  8
0
  6
Continuous
 62
     7
370
    25
100
AcDbLine
 10
-28.1496062992
 20
6.8307086614
 30
0.0
 11
-17.2440944882
 21
6.8307086614
 31
0.0
  0
LINE
  5
592
330
3FE
100
AcDbEntity
  8
0
  6
Continuous
 62
     7
370
    25
100
AcDbLine
 10
-28.1496062992
 20
6.8307086614
 30
0.0
 11
-28.1496062992
 21
7.5393700787
 31
0.0
  0
LINE
  5
593
330
3FE
100
AcDbEntity
  8
0
  6
Continuous
 62
     7
370
    25
100
AcDbLine
 10
-45.3543307087
 20
6.8307086614
 30
0.0
 11
-34.4488188976
 21
6.8307086614
 31
0.0
  0
LINE
  5
594
330
3FE
100
AcDbEntity
  8
0
  6
Continuous
 62
     7
370
    25
100
AcDbLine
 10
-34.4488188976
 20
7.5393700787
 30
0.0
 11
-34.4488188976
 21
6.8307086614
 31
0.0
  0
LINE
  5
595
330
3FE
100
AcDbEntity
  8
0
  6
Continuous
 62
     7
370
    25
100
AcDbLine
 10
-34.4488188976
 20
6.7519685039
 30
0.0
 11
-35.2362204724
 21
6.7519685039
 31
0.0
  0
LINE
  5
596
330
3FE
100
AcDbEntity
  8
0
  6
Continuous
 62
     7
370
    25
100
AcDbLine
 10
-30.905511811
 20
-3.405511811
 30
0.0
 11
-31.6929133858
 21
-3.405511811
 31
0.0
  0
LINE
  5
597
330
3FE
100
AcDbEntity
  8
0
  6
Continuous
 62
     7
370
    25
100
AcDbLine
 10
-27.3622047244
 20
6.8307086614
 30
0.0
 11
-27.3622047244
 21
6.7519685039
 31
0.0
  0
LINE
  5
598
330
3FE
100
AcDbEntity
  8
0
  6
Continuous
 62
     7
370
    25
100
AcDbLine
 10
-28.1496062992
 20
6.7519685039
 30
0.0
 11
-27.3622047244
 21
6.7519685039
 31
0.0
  0
LINE
  5
599
330
3FE
100
AcDbEntity
  8
0
  6
Continuous
 62
     7
370
    25
100
AcDbLine
 10
-34.4488188976
 20
-0.7283464567
 30
0.0
 11
-34.4488188976
 21
6.7519685039
 31
0.0
  0
LINE
  5
59A
330
3FE
100
AcDbEntity
  8
0
  6
Continuous
 62
     7
370
    25
100
AcDbLine
 10
-34.3700787402
 20
7.6181102362
 30
0.0
 11
-35.157480315
 21
7.6181102362
 31
0.0
  0
LINE
  5
59B
330
3FE
100
AcDbEntity
  8
0
  6
Continuous
 62
     7
370
    25
100
AcDbLine
 10
-34.3700787402
 20
-0.7283464567
 30
0.0
 11
-34.3700787402
 21
7.6181102362
 31
0.0
  0
LINE
  5
59C
330
3FE
100
AcDbEntity
  8
0
  6
Continuous
 62
     7
370
    25
100
AcDbLine
 10
-27.4409448819
 20
7.5393700787
 30
0.0
 11
-27.4409448819
 21
7.6181102362
 31
0.0
  0
LINE
  5
59D
330
3FE
100
AcDbEntity
  8
0
  6
Continuous
 62
     7
370
    25
100
AcDbLine
 10
-35.157480315
 20
7.5393700787
 30
0.0
 11
-35.157480315
 21
7.6181102362
 31
0.0
  0
LINE
  5
59E
330
3FE
100
AcDbEntity
  8
0
  6
Continuous
 62
     7
370
    25
100
AcDbLine
 10
-28.2283464567
 20
7.6181102362
 30
0.0
 11
-28.2283464567
 21
-0.7283464567
 31
0.0
  0
LINE
  5
59F
330
3FE
100
AcDbEntity
  8
0
  6
Continuous
 62
     7
370
    25
100
AcDbLine
 10
-28.2283464567
 20
7.6181102362
 30
0.0
 11
-27.4409448819
 21
7.6181102362
 31
0.0
  0
LINE
  5
5A0
330
3FE
100
AcDbEntity
  8
0
  6
Continuous
 62
     7
370
    25
100
AcDbLine
 10
-28.1496062992
 20
6.7519685039
 30
0.0
 11
-28.1496062992
 21
-0.7283464567
 31
0.0
  0
LINE
  5
5A1
330
3FE
100
AcDbEntity
  8
0
  6
Continuous
 62
     7
370
    25
100
AcDbLine
 10
-30.905511811
 20
-3.4842519685
 30
0.0
 11
-31.6929133858
 21
-3.4842519685
 31
0.0
  0
LINE
  5
5A2
330
3FE
100
AcDbEntity
  8
0
  6
Continuous
 62
     7
370
    25
100
AcDbLine
 10
-35.2362204724
 20
6.8307086614
 30
0.0
 11
-35.2362204724
 21
6.7519685039
 31
0.0
  0
LINE
  5
5A3
330
3FE
100
AcDbEntity
  8
0
  6
Continuous
 62
     7
370
    25
100
AcDbLine
 10
-28.2283464567
 20
7.5393700787
 30
0.0
 11
-34.3700787402
 21
7.5393700787
 31
0.0
  0
LINE
  5
5A4
330
3FE
100
AcDbEntity
  8
0
  6
Continuous
 62
     7
370
    25
100
AcDbLine
 10
-34.3700787402
 20
6.8307086614
 30
0.0
 11
-28.2283464567
 21
6.8307086614
 31
0.0
  0
LINE
  5
5A5
330
3FE
100
AcDbEntity
  8
0
  6
Continuous
 62
     7
370
    25
100
AcDbLine
 10
-28.3464566929
 20
6.8307086614
 30
0.0
 11
-28.3464566929
 21
7.5393700787
 31
0.0
  0
LINE
  5
5A6
330
3FE
100
AcDbEntity
  8
0
  6
Continuous
 62
     7
370
    25
100
AcDbLine
 10
-34.2519685039
 20
7.5393700787
 30
0.0
 11
-34.2519685039
 21
6.8307086614
 31
0.0
  0
ARC
  5
5A7
330
3FE
100
AcDbEntity
  8
0
  6
Continuous
 62
     7
370
    25
100
AcDbCircle
 10
-15.4758183637
 20
-8.8779527559
 30
0.0
 40
0.0393700787401563
100
AcDbArc
 50
135.0
 51
270.0
  0
ARC
  5
5A8
330
3FE
100
AcDbEntity
  8
0
  6
Continuous
 62
     7
370
    25
100
AcDbCircle
 10
15.4758183637
 20
-8.8779527559
 30
0.0
 40
0.0393700787401601
100
AcDbArc
 50
270.0
 51
45.0
  0
ARC
  5
5A9
330
3FE
100
AcDbEntity
  8
0
  6
Continuous
 62
     7
370
    25
100
AcDbCircle
 10
0.3937007874
 20
-0.7283464567
 30
0.0
 40
2.677165354330711
100
AcDbArc
 50
270.0
 51
0.0
  0
ARC
  5
5AA
330
3FE
100
AcDbEntity
  8
0
  6
Continuous
 62
     7
370
    25
100
AcDbCircle
 10
0.3937007874
 20
-0.7283464567
 30
0.0
 40
2.755905511811022
100
AcDbArc
 50
270.0
 51
0.0
  0
ARC
  5
5AB
330
3FE
100
AcDbEntity
  8
0
  6
Continuous
 62
     7
370
    25
100
AcDbCircle
 10
-0.3937007874
 20
-0.7283464567
 30
0.0
 40
2.755905511811026
100
AcDbArc
 50
180.0
 51
270.0
  0
ARC
  5
5AC
330
3FE
100
AcDbEntity
  8
0
  6
Continuous
 62
     7
370
    25
100
AcDbCircle
 10
-0.3937007874
 20
-0.7283464567
 30
0.0
 40
2.677165354330711
100
AcDbArc
 50
180.0
 51
270.0
  0
ARC
  5
5AD
330
3FE
100
AcDbEntity
  8
0
  6
Continuous
 62
     7
370
    25
100
AcDbCircle
 10
-46.9094488189
 20
-8.8222750566
 30
0.0
 40
0.0393700787401627
100
AcDbArc
 50
180.0
 51
315.0
  0
ARC
  5
5AE
330
3FE
100
AcDbEntity
  8
0
  6
Continuous
 62
     7
370
    25
100
AcDbCircle
 10
-46.2795275591
 20
-8.1923537968
 30
0.0
 40
0.0393700787402054
100
AcDbArc
 50
315.0
 51
360.0
  0
ARC
  5
5AF
330
3FE
100
AcDbEntity
  8
0
  6
Continuous
 62
     7
370
    25
100
AcDbCircle
 10
-46.9094488189
 20
8.9566929134
 30
0.0
 40
0.0393700787401485
100
AcDbArc
 50
90.0
 51
180.0
  0
ARC
  5
5B0
330
3FE
100
AcDbEntity
  8
0
  6
Continuous
 62
     7
370
    25
100
AcDbCircle
 10
-46.2795275591
 20
8.9566929134
 30
0.0
 40
0.0393700787401485
100
AcDbArc
 50
360.0
 51
90.0
  0
ARC
  5
5B1
330
3FE
100
AcDbEntity
  8
0
  6
Continuous
 62
     7
370
    25
100
AcDbCircle
 10
-15.688976378
 20
8.9566929134
 30
0.0
 40
0.0393700787401592
100
AcDbArc
 50
0.0
 51
90.0
  0
ARC
  5
5B2
330
3FE
100
AcDbEntity
  8
0
  6
Continuous
 62
     7
370
    25
100
AcDbCircle
 10
-16.3188976378
 20
-8.1923537968
 30
0.0
 40
0.0393700787401701
100
AcDbArc
 50
180.0
 51
225.0
  0
ARC
  5
5B3
330
3FE
100
AcDbEntity
  8
0
  6
Continuous
 62
     7
370
    25
100
AcDbCircle
 10
-16.3188976378
 20
8.9566929134
 30
0.0
 40
0.0393700787401574
100
AcDbArc
 50
90.0
 51
180.0
  0
ARC
  5
5B4
330
3FE
100
AcDbEntity
  8
0
  6
Continuous
 62
     7
370
    25
100
AcDbCircle
 10
-15.688976378
 20
-8.8222750566
 30
0.0
 40
0.0393700787401592
100
AcDbArc
 50
225.0
 51
360.0
  0
ARC
  5
5B5
330
3FE
100
AcDbEntity
  8
0
  6
Continuous
 62
     7
370
    25
100
AcDbCircle
 10
-16.3976377953
 20
8.9566929134
 30
0.0
 40
0.039370078740161
100
AcDbArc
 50
0.0
 51
90.0
  0
ARC
  5
5B6
330
3FE
100
AcDbEntity
  8
0
  6
Continuous
 62
     7
370
    25
100
AcDbCircle
 10
-16.3976377953
 20
8.3267716535
 30
0.0
 40
0.039370078740161
100
AcDbArc
 50
270.0
 51
360.0
  0
ARC
  5
5B7
330
3FE
100
AcDbEntity
  8
0
  6
Continuous
 62
     7
370
    25
100
AcDbCircle
 10
-46.2007874016
 20
8.3267716535
 30
0.0
 40
0.0393700787401698
100
AcDbArc
 50
180.0
 51
270.0
  0
ARC
  5
5B8
330
3FE
100
AcDbEntity
  8
0
  6
Continuous
 62
     7
370
    25
100
AcDbCircle
 10
-46.2007874016
 20
8.9566929134
 30
0.0
 40
0.0393700787401556
100
AcDbArc
 50
90.0
 51
180.0
  0
ARC
  5
5B9
330
3FE
100
AcDbEntity
  8
0
  6
Continuous
 62
     7
370
    25
100
AcDbCircle
 10
-46.2007874016
 20
-8.1692913386
 30
0.0
 40
0.0393700787401556
100
AcDbArc
 50
180.0
 51
270.0
  0
ARC
  5
5BA
330
3FE
100
AcDbEntity
  8
0
  6
Continuous
 62
     7
370
    25
100
AcDbCircle
 10
-46.2007874016
 20
-7.9330708661
 30
0.0
 40
0.0393700787401698
100
AcDbArc
 50
90.0
 51
180.0
  0
ARC
  5
5BB
330
3FE
100
AcDbEntity
  8
0
  6
Continuous
 62
     7
370
    25
100
AcDbCircle
 10
-16.3976377953
 20
-8.1692913386
 30
0.0
 40
0.0393700787401663
100
AcDbArc
 50
270.0
 51
360.0
  0
ARC
  5
5BC
330
3FE
100
AcDbEntity
  8
0
  6
Continuous
 62
     7
370
    25
100
AcDbCircle
 10
-16.3976377953
 20
-7.9330708661
 30
0.0
 40
0.039370078740161
100
AcDbArc
 50
0.0
 51
90.0
  0
ARC
  5
5BD
330
3FE
100
AcDbEntity
  8
0
  6
Continuous
 62
     7
370
    25
100
AcDbCircle
 10
-46.2007874016
 20
-7.5393700787
 30
0.0
 40
0.0393700787401707
100
AcDbArc
 50
90.0
 51
180.0
  0
ARC
  5
5BE
330
3FE
100
AcDbEntity
  8
0
  6
Continuous
 62
     7
370
    25
100
AcDbCircle
 10
-16.3976377953
 20
-7.5393700787
 30
0.0
 40
0.0393700787401627
100
AcDbArc
 50
0.0
 51
90.0
  0
ARC
  5
5BF
330
3FE
100
AcDbEntity
  8
0
  6
Continuous
 62
     7
370
    25
100
AcDbCircle
 10
-14.9803149606
 20
8.9566929134
 30
0.0
 40
0.0393700787401592
100
AcDbArc
 50
0.0
 51
90.0
  0
ARC
  5
5C0
330
3FE
100
AcDbEntity
  8
0
  6
Continuous
 62
     7
370
    25
100
AcDbCircle
 10
-14.9803149606
 20
-8.1923537968
 30
0.0
 40
0.0393700787401663
100
AcDbArc
 50
315.0
 51
360.0
  0
ARC
  5
5C1
330
3FE
100
AcDbEntity
  8
0
  6
Continuous
 62
     7
370
    25
100
AcDbCircle
 10
-15.6102362205
 20
-8.8222750566
 30
0.0
 40
0.039370078740161
100
AcDbArc
 50
180.0
 51
315.0
  0
ARC
  5
5C2
330
3FE
100
AcDbEntity
  8
0
  6
Continuous
 62
     7
370
    25
100
AcDbCircle
 10
-15.6102362205
 20
8.9566929134
 30
0.0
 40
0.0393700787401574
100
AcDbArc
 50
90.0
 51
180.0
  0
ARC
  5
5C3
330
3FE
100
AcDbEntity
  8
0
  6
Continuous
 62
     7
370
    25
100
AcDbCircle
 10
15.6102362205
 20
-8.8222750566
 30
0.0
 40
0.0393700787401576
100
AcDbArc
 50
225.0
 51
0.0
  0
ARC
  5
5C4
330
3FE
100
AcDbEntity
  8
0
  6
Continuous
 62
     7
370
    25
100
AcDbCircle
 10
14.9803149606
 20
-8.1923537968
 30
0.0
 40
0.0393700787401664
100
AcDbArc
 50
180.0
 51
225.0
  0
ARC
  5
5C5
330
3FE
100
AcDbEntity
  8
0
  6
Continuous
 62
     7
370
    25
100
AcDbCircle
 10
14.9803149606
 20
8.9566929134
 30
0.0
 40
0.0393700787401574
100
AcDbArc
 50
90.0
 51
180.0
  0
ARC
  5
5C6
330
3FE
100
AcDbEntity
  8
0
  6
Continuous
 62
     7
370
    25
100
AcDbCircle
 10
15.6102362205
 20
8.9566929134
 30
0.0
 40
0.0393700787401574
100
AcDbArc
 50
360.0
 51
90.0
  0
ARC
  5
5C7
330
3FE
100
AcDbEntity
  8
0
  6
Continuous
 62
     7
370
    25
100
AcDbCircle
 10
14.9015748031
 20
8.9566929134
 30
0.0
 40
0.0393700787401574
100
AcDbArc
 50
360.0
 51
90.0
  0
ARC
  5
5C8
330
3FE
100
AcDbEntity
  8
0
  6
Continuous
 62
     7
370
    25
100
AcDbCircle
 10
14.9015748031
 20
8.3267716535
 30
0.0
 40
0.0393700787401574
100
AcDbArc
 50
270.0
 51
0.0
  0
ARC
  5
5C9
330
3FE
100
AcDbEntity
  8
0
  6
Continuous
 62
     7
370
    25
100
AcDbCircle
 10
-14.9015748031
 20
8.9566929134
 30
0.0
 40
0.039370078740161
100
AcDbArc
 50
90.0
 51
180.0
  0
ARC
  5
5CA
330
3FE
100
AcDbEntity
  8
0
  6
Continuous
 62
     7
370
    25
100
AcDbCircle
 10
-14.9015748031
 20
8.3267716535
 30
0.0
 40
0.039370078740161
100
AcDbArc
 50
180.0
 51
270.0
  0
ARC
  5
5CB
330
3FE
100
AcDbEntity
  8
0
  6
Continuous
 62
     7
370
    25
100
AcDbCircle
 10
14.9015748031
 20
-8.1692913386
 30
0.0
 40
0.0393700787401592
100
AcDbArc
 50
270.0
 51
360.0
  0
ARC
  5
5CC
330
3FE
100
AcDbEntity
  8
0
  6
Continuous
 62
     7
370
    25
100
AcDbCircle
 10
-14.9015748031
 20
-7.9330708661
 30
0.0
 40
0.039370078740161
100
AcDbArc
 50
90.0
 51
180.0
  0
ARC
  5
5CD
330
3FE
100
AcDbEntity
  8
0
  6
Continuous
 62
     7
370
    25
100
AcDbCircle
 10
-14.9015748031
 20
-8.1692913386
 30
0.0
 40
0.039370078740161
100
AcDbArc
 50
180.0
 51
270.0
  0
ARC
  5
5CE
330
3FE
100
AcDbEntity
  8
0
  6
Continuous
 62
     7
370
    25
100
AcDbCircle
 10
14.9015748031
 20
-7.9330708661
 30
0.0
 40
0.0393700787401592
100
AcDbArc
 50
0.0
 51
90.0
  0
ARC
  5
5CF
330
3FE
100
AcDbEntity
  8
0
  6
Continuous
 62
     7
370
    25
100
AcDbCircle
 10
14.9015748031
 20
-7.5393700787
 30
0.0
 40
0.0393700787401592
100
AcDbArc
 50
0.0
 51
90.0
  0
ARC
  5
5D0
330
3FE
100
AcDbEntity
  8
0
  6
Continuous
 62
     7
370
    25
100
AcDbCircle
 10
-14.9015748031
 20
-7.5393700787
 30
0.0
 40
0.039370078740161
100
AcDbArc
 50
90.0
 51
180.0
  0
ARC
  5
5D1
330
3FE
100
AcDbEntity
  8
0
  6
Continuous
 62
     7
370
    25
100
AcDbCircle
 10
-46.7750309621
 20
-8.8779527559
 30
0.0
 40
0.0393700787401601
100
AcDbArc
 50
135.0
 51
270.0
  0
ARC
  5
5D2
330
3FE
100
AcDbEntity
  8
0
  6
Continuous
 62
     7
370
    25
100
AcDbCircle
 10
-15.8233942347
 20
-8.8779527559
 30
0.0
 40
0.0393700787401576
100
AcDbArc
 50
270.0
 51
45.0
  0
ARC
  5
5D3
330
3FE
100
AcDbEntity
  8
0
  6
Continuous
 62
     7
370
    25
100
AcDbCircle
 10
-31.6929133858
 20
-0.7283464567
 30
0.0
 40
2.677165354330707
100
AcDbArc
 50
180.0
 51
270.0
  0
ARC
  5
5D4
330
3FE
100
AcDbEntity
  8
0
  6
Continuous
 62
     7
370
    25
100
AcDbCircle
 10
-30.905511811
 20
-0.7283464567
 30
0.0
 40
2.755905511811024
100
AcDbArc
 50
270.0
 51
0.0
  0
ARC
  5
5D5
330
3FE
100
AcDbEntity
  8
0
  6
Continuous
 62
     7
370
    25
100
AcDbCircle
 10
-31.6929133858
 20
-0.7283464567
 30
0.0
 40
2.755905511811033
100
AcDbArc
 50
180.0
 51
270.0
  0
ARC
  5
5D6
330
3FE
100
AcDbEntity
  8
0
  6
Continuous
 62
     7
370
    25
100
AcDbCircle
 10
-30.905511811
 20
-0.7283464567
 30
0.0
 40
2.677165354330717
100
AcDbArc
 50
270.0
 51
0.0
  0
VIEWPORT
  5
8E5
330
3FE
100
AcDbEntity
  8
0
100
AcDbViewport
 10
0.0
 20
0.0
 30
0.0
 40
8.4
 41
6.4
 68
     1
 69
     1
 12
-15.6496062992
 22
10.4330708661
 13
0.0
 23
0.0
 14
0.5
 24
0.5
 15
0.5
 25
0.5
 16
0.0
 26
0.0
 36
1.0
 17
0.0
 27
0.0
 37
0.0
 42
50.0
 43
0.0
 44
0.0
 45
48.6479190101
 50
0.0
 51
0.0
 72
   100
 90
   557152
  1

281
     0
 71
     1
 74
     0
110
0.0
120
0.0
130
0.0
111
1.0
121
0.0
131
0.0
112
0.0
122
1.0
132
0.0
 79
     0
146
0.0
  0
ENDBLK
  5
401
330
3FE
100
AcDbEntity
  8
0
100
AcDbBlockEnd
  0
BLOCK
  5
5D9
330
5D7
100
AcDbEntity
  8
0
100
AcDbBlockBegin
  2
*Paper_Space2
 70
     0
 10
0.0
 20
0.0
 30
0.0
  3
*Paper_Space2
  1

  0
LWPOLYLINE
  5
62B
330
5D7
100
AcDbEntity
  8
0
  6
Continuous
 62
     7
370
    25
100
AcDbPolyline
 90
       14
 70
   128
 43
0.0
 10
-17.2485555558
 20
18.3062962406
 10
-17.2531176457
 20
18.3152510774
 10
-17.2566182749
 20
18.3244390418
 10
-17.2589427619
 20
18.3335591344
 10
-17.2600149563
 20
18.3423125794
 10
-17.2597997327
 20
18.3504126122
 10
-17.2583041418
 20
18.3575938743
 10
-17.2555771796
 20
18.3636211062
 10
-17.2517081817
 20
18.3682968545
 10
-17.2468238974
 20
18.3714679411
 10
-17.2410843366
 20
18.3730304804
 10
-17.2346775285
 20
18.3729332833
 10
-17.2278133612
 20
18.3711795342
 10
-17.2207167061
 20
18.367826686
  0
LWPOLYLINE
  5
62D
330
5D7
100
AcDbEntity
  8
0
  6
Continuous
 62
     7
370
    25
100
AcDbPolyline
 90
       14
 70
   128
 43
0.0
 10
4.637556663
 20
5.6717125914
 10
4.6430307588
 20
5.6748736614
 10
4.6492375282
 20
5.678457664
 10
4.6559736361
 20
5.6823471865
 10
4.6630184064
 20
5.6864148075
 10
4.6701410512
 20
5.6905272709
 10
4.6771082313
 20
5.6945498518
 10
4.6836917005
 20
5.6983507696
 10
4.6896757832
 20
5.7018055054
 10
4.6948644397
 20
5.7048008816
 10
4.6990876887
 20
5.7072387691
 10
4.7022071757
 20
5.7090393022
 10
4.7041207058
 20
5.710143495
 10
4.7047655914
 20
5.7105151742
  0
LWPOLYLINE
  5
62F
330
5D7
100
AcDbEntity
  8
0
  6
Continuous
 62
     7
370
    25
100
AcDbPolyline
 90
        9
 70
   128
 43
0.0
 10
4.637556663
 20
-1.3419091899
 10
4.646836586
 20
-1.3458823495
 10
4.6577147913
 20
-1.3481293172
 10
4.6692544552
 20
-1.3484565859
 10
4.6804617895
 20
-1.3468359712
 10
4.6903716262
 20
-1.3434070395
 10
4.6981305367
 20
-1.338465088
 10
4.703070329
 20
-1.3324357144
 10
4.7047655914
 20
-1.3258381641
  0
LWPOLYLINE
  5
646
330
5D7
100
AcDbEntity
  8
0
  6
Continuous
 62
     7
370
    25
100
AcDbPolyline
 90
       11
 70
   128
 43
0.0
 10
-0.0258935319
 20
10.5896930657
 10
0.0631171943
 20
10.594615225
 10
0.2610858916
 20
10.6118409015
 10
0.4562711585
 20
10.6375589325
 10
0.6475814399
 20
10.6716254924
 10
0.8339468509
 20
10.7138500671
 10
1.0143251607
 20
10.7639965197
 10
1.1877076206
 20
10.8217844109
 10
1.3531246055
 20
10.8868905673
 10
1.5096510365
 20
10.958950889
 10
1.6564115544
 20
11.0375623852
  0
LWPOLYLINE
  5
650
330
5D7
100
AcDbEntity
  8
0
  6
Continuous
 62
     7
370
    25
100
AcDbPolyline
 90
       11
 70
   128
 43
0.0
 10
1.7120892537
 20
11.0054203336
 10
1.5681040841
 20
10.928032063
 10
1.4149224022
 20
10.8567707437
 10
1.2533247867
 20
10.7919995071
 10
1.084134702
 20
10.7340484126
 10
0.908214302
 20
10.6832127656
 10
0.7264600367
 20
10.639751613
 10
0.5397980842
 20
10.6038864229
 10
0.349179631
 20
10.575799956
 10
0.1555760252
 20
10.5556353346
 10
0.0465646584
 20
10.5478638428
  0
LWPOLYLINE
  5
651
330
5D7
100
AcDbEntity
  8
0
  6
Continuous
 62
     7
370
    25
100
AcDbPolyline
 90
       11
 70
   128
 43
0.0
 10
-3.5347236598
 20
12.6152975823
 10
-3.5212615825
 20
12.6782285048
 10
-3.4863316489
 20
12.7899934875
 10
-3.4376791896
 20
12.9000351782
 10
-3.3755521265
 20
13.0077928297
 10
-3.3002670448
 20
13.1127173337
 10
-3.2122075801
 20
13.2142740189
 10
-3.1118224631
 20
13.3119453758
 10
-2.9996232334
 20
13.4052336935
 10
-2.8761816326
 20
13.4936635962
 10
-2.7421266908
 20
13.5767844653
  0
LWPOLYLINE
  5
65B
330
5D7
100
AcDbEntity
  8
0
  6
Continuous
 62
     7
370
    25
100
AcDbPolyline
 90
       11
 70
   128
 43
0.0
 10
-2.6864489915
 20
13.5446424137
 10
-2.8226228519
 20
13.4599193701
 10
-2.9474485153
 20
13.3695585849
 10
-3.060227906
 20
13.2740653921
 10
-3.1603303158
 20
13.1739738285
 10
-3.2471959316
 20
13.0698436468
 10
-3.3203389655
 20
12.962257185
 10
-3.3793503721
 20
12.8518161104
 10
-3.4239001356
 20
12.7391380542
 10
-3.4537391156
 20
12.6248531579
 10
-3.4622654695
 20
12.5734683594
  0
LWPOLYLINE
  5
68F
330
5D7
100
AcDbEntity
  8
0
  6
Continuous
 62
     7
370
    25
100
AcDbPolyline
 90
        9
 70
   128
 43
0.0
 10
4.8276522191
 20
7.0163878097
 10
4.8183722961
 20
7.0124146502
 10
4.8074940907
 20
7.0101676824
 10
4.7959544269
 20
7.0098404137
 10
4.7847470925
 20
7.0114610284
 10
4.7748372559
 20
7.0148899601
 10
4.7670783453
 20
7.0198319116
 10
4.762138553
 20
7.0258612853
 10
4.7604432907
 20
7.0324588355
  0
LWPOLYLINE
  5
693
330
5D7
100
AcDbEntity
  8
0
  6
Continuous
 62
     7
370
    25
100
AcDbPolyline
 90
        9
 70
   128
 43
0.0
 10
4.8276522191
 20
-9.9573739492
 10
4.8183722961
 20
-9.9613471087
 10
4.8074940907
 20
-9.9635940765
 10
4.7959544269
 20
-9.9639213452
 10
4.7847470925
 20
-9.9623007305
 10
4.7748372559
 20
-9.9588717988
 10
4.7670783453
 20
-9.9539298473
 10
4.762138553
 20
-9.9479004736
 10
4.7604432907
 20
-9.9413029233
  0
LWPOLYLINE
  5
6AC
330
5D7
100
AcDbEntity
  8
0
  6
Continuous
 62
     7
370
    25
100
AcDbPolyline
 90
       14
 70
   128
 43
0.0
 10
-17.2485555558
 20
9.722973533
 10
-17.2531176457
 20
9.7319283698
 10
-17.2566182749
 20
9.7411163342
 10
-17.2589427619
 20
9.7502364268
 10
-17.2600149563
 20
9.7589898718
 10
-17.2597997327
 20
9.7670899046
 10
-17.2583041418
 20
9.7742711667
 10
-17.2555771796
 20
9.7802983985
 10
-17.2517081817
 20
9.7849741469
 10
-17.2468238974
 20
9.7881452334
 10
-17.2410843366
 20
9.7897077727
 10
-17.2346775285
 20
9.7896105757
 10
-17.2278133612
 20
9.7878568266
 10
-17.2207167061
 20
9.7845039784
  0
LWPOLYLINE
  5
6AE
330
5D7
100
AcDbEntity
  8
0
  6
Continuous
 62
     7
370
    25
100
AcDbPolyline
 90
       14
 70
   128
 43
0.0
 10
4.637556663
 20
-2.9116101162
 10
4.6430307588
 20
-2.9084490462
 10
4.6492375282
 20
-2.9048650436
 10
4.6559736361
 20
-2.9009755211
 10
4.6630184064
 20
-2.8969079001
 10
4.6701410512
 20
-2.8927954367
 10
4.6771082313
 20
-2.8887728558
 10
4.6836917005
 20
-2.8849719381
 10
4.6896757832
 20
-2.8815172022
 10
4.6948644397
 20
-2.878521826
 10
4.6990876887
 20
-2.8760839385
 10
4.7022071757
 20
-2.8742834055
 10
4.7041207058
 20
-2.8731792126
 10
4.7047655914
 20
-2.8728075335
  0
LWPOLYLINE
  5
6B0
330
5D7
100
AcDbEntity
  8
0
  6
Continuous
 62
     7
370
    25
100
AcDbPolyline
 90
        9
 70
   128
 43
0.0
 10
4.637556663
 20
-9.9252318975
 10
4.646836586
 20
-9.9292050571
 10
4.6577147913
 20
-9.9314520249
 10
4.6692544552
 20
-9.9317792935
 10
4.6804617895
 20
-9.9301586788
 10
4.6903716262
 20
-9.9267297471
 10
4.6981305367
 20
-9.9217877957
 10
4.703070329
 20
-9.915758422
 10
4.7047655914
 20
-9.9091608717
  0
LWPOLYLINE
  5
6B8
330
5D7
100
AcDbEntity
  8
0
  6
Continuous
 62
     7
370
    25
100
AcDbPolyline
 90
       14
 70
   128
 43
0.0
 10
-39.3804410299
 20
31.0827617702
 10
-39.3850031199
 20
31.0917166069
 10
-39.388503749
 20
31.1009045713
 10
-39.3908282361
 20
31.1100246639
 10
-39.3919004304
 20
31.1187781089
 10
-39.3916852068
 20
31.1268781418
 10
-39.390189616
 20
31.1340594038
 10
-39.3874626537
 20
31.1400866357
 10
-39.3835936559
 20
31.144762384
 10
-39.3787093715
 20
31.1479334706
 10
-39.3729698108
 20
31.1494960099
 10
-39.3665630026
 20
31.1493988128
 10
-39.3596988353
 20
31.1476450637
 10
-39.3526021803
 20
31.1442922156
  0
LWPOLYLINE
  5
6BA
330
5D7
100
AcDbEntity
  8
0
  6
Continuous
 62
     7
370
    25
100
AcDbPolyline
 90
       14
 70
   128
 43
0.0
 10
-17.4943288112
 20
18.4481781209
 10
-17.4888547153
 20
18.4513391909
 10
-17.482647946
 20
18.4549231935
 10
-17.4759118381
 20
18.458812716
 10
-17.4688670677
 20
18.462880337
 10
-17.4617444229
 20
18.4669928005
 10
-17.4547772429
 20
18.4710153813
 10
-17.4481937737
 20
18.4748162991
 10
-17.442209691
 20
18.4782710349
 10
-17.4370210344
 20
18.4812664111
 10
-17.4327977855
 20
18.4837042986
 10
-17.4296782984
 20
18.4855048317
 10
-17.4277647683
 20
18.4866090245
 10
-17.4271198828
 20
18.4869807037
  0
LWPOLYLINE
  5
6BC
330
5D7
100
AcDbEntity
  8
0
  6
Continuous
 62
     7
370
    25
100
AcDbPolyline
 90
        9
 70
   128
 43
0.0
 10
-17.4943288112
 20
11.4345563396
 10
-17.4850488882
 20
11.43058318
 10
-17.4741706829
 20
11.4283362123
 10
-17.462631019
 20
11.4280089436
 10
-17.4514236847
 20
11.4296295583
 10
-17.441513848
 20
11.43305849
 10
-17.4337549374
 20
11.4380004415
 10
-17.4288151452
 20
11.4440298151
 10
-17.4271198828
 20
11.4506273654
  0
LWPOLYLINE
  5
6D3
330
5D7
100
AcDbEntity
  8
0
  6
Continuous
 62
     7
370
    25
100
AcDbPolyline
 90
       11
 70
   128
 43
0.0
 10
-22.1577790061
 20
23.3661585952
 10
-22.0687682799
 20
23.3710807545
 10
-21.8707995825
 20
23.388306431
 10
-21.6756143156
 20
23.4140244621
 10
-21.4843040343
 20
23.4480910219
 10
-21.2979386232
 20
23.4903155966
 10
-21.1175603134
 20
23.5404620492
 10
-20.9441778536
 20
23.5982499404
 10
-20.7787608687
 20
23.6633560968
 10
-20.6222344377
 20
23.7354164185
 10
-20.4754739198
 20
23.8140279148
  0
LWPOLYLINE
  5
6DD
330
5D7
100
AcDbEntity
  8
0
  6
Continuous
 62
     7
370
    25
100
AcDbPolyline
 90
       11
 70
   128
 43
0.0
 10
-20.4197962205
 20
23.7818858631
 10
-20.56378139
 20
23.7044975925
 10
-20.716963072
 20
23.6332362732
 10
-20.8785606875
 20
23.5684650366
 10
-21.0477507722
 20
23.5105139421
 10
-21.2236711722
 20
23.4596782951
 10
-21.4054254375
 20
23.4162171426
 10
-21.5920873899
 20
23.3803519524
 10
-21.7827058431
 20
23.3522654855
 10
-21.976309449
 20
23.3321008641
 10
-22.0853208158
 20
23.3243293723
  0
LWPOLYLINE
  5
6DE
330
5D7
100
AcDbEntity
  8
0
  6
Continuous
 62
     7
370
    25
100
AcDbPolyline
 90
       11
 70
   128
 43
0.0
 10
-25.6666091339
 20
25.3917631118
 10
-25.6531470566
 20
25.4546940343
 10
-25.618217123
 20
25.566459017
 10
-25.5695646638
 20
25.6765007077
 10
-25.5074376007
 20
25.7842583592
 10
-25.432152519
 20
25.8891828632
 10
-25.3440930542
 20
25.9907395484
 10
-25.2437079372
 20
26.0884109053
 10
-25.1315087076
 20
26.181699223
 10
-25.0080671068
 20
26.2701291257
 10
-24.874012165
 20
26.3532499948
  0
LWPOLYLINE
  5
6E8
330
5D7
100
AcDbEntity
  8
0
  6
Continuous
 62
     7
370
    25
100
AcDbPolyline
 90
       11
 70
   128
 43
0.0
 10
-24.8183344657
 20
26.3211079432
 10
-24.954508326
 20
26.2363848996
 10
-25.0793339894
 20
26.1460241144
 10
-25.1921133801
 20
26.0505309216
 10
-25.29221579
 20
25.950439358
 10
-25.3790814058
 20
25.8463091763
 10
-25.4522244397
 20
25.7387227145
 10
-25.5112358463
 20
25.6282816399
 10
-25.5557856097
 20
25.5156035837
 10
-25.5856245898
 20
25.4013186874
 10
-25.5941509436
 20
25.3499338889
  0
LWPOLYLINE
  5
6F3
330
5D7
100
AcDbEntity
  8
0
  6
Continuous
 62
     7
370
    25
100
AcDbPolyline
 90
       14
 70
   128
 43
0.0
 10
-39.3804410299
 20
22.4994390625
 10
-39.3850031199
 20
22.5083938993
 10
-39.388503749
 20
22.5175818637
 10
-39.3908282361
 20
22.5267019563
 10
-39.3919004304
 20
22.5354554013
 10
-39.3916852068
 20
22.5435554341
 10
-39.390189616
 20
22.5507366962
 10
-39.3874626537
 20
22.5567639281
 10
-39.3835936559
 20
22.5614396764
 10
-39.3787093715
 20
22.564610763
 10
-39.3729698108
 20
22.5661733022
 10
-39.3665630026
 20
22.5660761052
 10
-39.3596988353
 20
22.5643223561
 10
-39.3526021803
 20
22.5609695079
  0
LWPOLYLINE
  5
6F5
330
5D7
100
AcDbEntity
  8
0
  6
Continuous
 62
     7
370
    25
100
AcDbPolyline
 90
       14
 70
   128
 43
0.0
 10
-17.4943288112
 20
9.8648554133
 10
-17.4888547153
 20
9.8680164833
 10
-17.482647946
 20
9.8716004859
 10
-17.4759118381
 20
9.8754900084
 10
-17.4688670677
 20
9.8795576294
 10
-17.4617444229
 20
9.8836700928
 10
-17.4547772429
 20
9.8876926737
 10
-17.4481937737
 20
9.8914935914
 10
-17.442209691
 20
9.8949483273
 10
-17.4370210344
 20
9.8979437035
 10
-17.4327977855
 20
9.900381591
 10
-17.4296782984
 20
9.9021821241
 10
-17.4277647683
 20
9.9032863169
 10
-17.4271198828
 20
9.903657996
  0
LWPOLYLINE
  5
6F7
330
5D7
100
AcDbEntity
  8
0
  6
Continuous
 62
     7
370
    25
100
AcDbPolyline
 90
        9
 70
   128
 43
0.0
 10
-17.4943288112
 20
2.851233632
 10
-17.4850488882
 20
2.8472604724
 10
-17.4741706829
 20
2.8450135046
 10
-17.462631019
 20
2.844686236
 10
-17.4514236847
 20
2.8463068507
 10
-17.441513848
 20
2.8497357824
 10
-17.4337549374
 20
2.8546777338
 10
-17.4288151452
 20
2.8607071075
 10
-17.4271198828
 20
2.8673046578
  0
LWPOLYLINE
  5
707
330
5D7
100
AcDbEntity
  8
0
  6
Continuous
 62
     8
370
    25
100
AcDbPolyline
 90
        7
 70
   128
 43
0.0
 10
-39.4082798796
 20
32.5305199802
 10
-39.4197084102
 20
32.5314986344
 10
-39.4301527234
 20
32.5343503157
 10
-39.438713362
 20
32.5388294395
 10
-39.4446530895
 20
32.5445502664
 10
-39.4474603806
 20
32.5510201228
 10
-39.4476499583
 20
32.5532478429
  0
LWPOLYLINE
  5
70A
330
5D7
100
AcDbEntity
  8
0
  6
Continuous
 62
     8
370
    25
100
AcDbPolyline
 90
        7
 70
   128
 43
0.0
 10
-39.4082798796
 20
15.5567582213
 10
-39.4197084102
 20
15.5577368755
 10
-39.4301527234
 20
15.5605885569
 10
-39.438713362
 20
15.5650676806
 10
-39.4446530895
 20
15.5707885075
 10
-39.4474603806
 20
15.5772583639
 10
-39.4476499583
 20
15.579486084
  0
LWPOLYLINE
  5
713
330
5D7
100
AcDbEntity
  8
0
  6
Continuous
 62
     8
370
    25
100
AcDbPolyline
 90
        8
 70
   128
 43
0.0
 10
-17.3138972096
 20
19.7887632474
 10
-17.3243913834
 20
19.7866332119
 10
-17.3359310473
 20
19.7863059432
 10
-17.3471383816
 20
19.7879265579
 10
-17.3570482183
 20
19.7913554896
 10
-17.3648071288
 20
19.7962974411
 10
-17.3697469211
 20
19.8023268148
 10
-17.3714421835
 20
19.8089243651
  0
LWPOLYLINE
  5
715
330
5D7
100
AcDbEntity
  8
0
  6
Continuous
 62
     8
370
    25
100
AcDbPolyline
 90
        8
 70
   128
 43
0.0
 10
-17.3157644842
 20
2.8144761665
 10
-17.3243913834
 20
2.812871453
 10
-17.3359310473
 20
2.8125441844
 10
-17.3471383816
 20
2.814164799
 10
-17.3570482183
 20
2.8175937307
 10
-17.3648071288
 20
2.8225356822
 10
-17.3697469211
 20
2.8285650559
 10
-17.3714421835
 20
2.8351626062
  0
LWPOLYLINE
  5
73B
330
5D7
100
AcDbEntity
  8
0
  6
Continuous
 62
     8
370
    25
100
AcDbPolyline
 90
        7
 70
   128
 43
0.0
 10
-17.2763944054
 20
19.7540544507
 10
-17.287822936
 20
19.7550331049
 10
-17.2982672493
 20
19.7578847862
 10
-17.3068278879
 20
19.76236391
 10
-17.3127676154
 20
19.7680847369
 10
-17.3155749065
 20
19.7745545933
 10
-17.3157644842
 20
19.7767823134
  0
LWPOLYLINE
  5
73E
330
5D7
100
AcDbEntity
  8
0
  6
Continuous
 62
     8
370
    25
100
AcDbPolyline
 90
        7
 70
   128
 43
0.0
 10
-17.2763944054
 20
2.7802926918
 10
-17.287822936
 20
2.781271346
 10
-17.2982672493
 20
2.7841230273
 10
-17.3068278879
 20
2.7886021511
 10
-17.3127676154
 20
2.794322978
 10
-17.3155749065
 20
2.8007928344
 10
-17.3157644842
 20
2.8030205545
  0
LINE
  5
776
330
5D7
100
AcDbEntity
  8
0
  6
Continuous
 62
     7
370
    25
100
AcDbLine
 10
-17.2404001457
 20
11.2746490732
 30
0.0
 11
4.645712073
 21
-1.359934576
 31
0.0
  0
LINE
  5
777
330
5D7
100
AcDbEntity
  8
0
  6
Continuous
 62
     7
370
    25
100
AcDbLine
 10
-17.2600867849
 20
18.3450988234
 30
0.0
 11
-17.2600867849
 21
11.3087454851
 31
0.0
  0
LINE
  5
778
330
5D7
100
AcDbEntity
  8
0
  6
Continuous
 62
     7
370
    25
100
AcDbLine
 10
-39.4476499583
 20
32.5532478429
 30
0.0
 11
-39.4476499583
 21
15.579486084
 31
0.0
  0
LINE
  5
779
330
5D7
100
AcDbEntity
  8
0
  6
Continuous
 62
     7
370
    25
100
AcDbLine
 10
-26.8563345051
 20
39.8447910901
 30
0.0
 11
-39.4279633192
 21
32.5873442548
 31
0.0
  0
LINE
  5
77A
330
5D7
100
AcDbEntity
  8
0
  6
Continuous
 62
     7
370
    25
100
AcDbLine
 10
-26.3518593923
 20
33.9562238853
 30
0.0
 11
-26.3518593923
 21
39.553558265
 31
0.0
  0
LINE
  5
77B
330
5D7
100
AcDbEntity
  8
0
  6
Continuous
 62
     7
370
    25
100
AcDbLine
 10
-26.3715460314
 20
39.5876546769
 30
0.0
 11
-26.8169676259
 21
39.8447910901
 31
0.0
  0
LINE
  5
77C
330
5D7
100
AcDbEntity
  8
0
  6
Continuous
 62
     7
370
    25
100
AcDbLine
 10
-39.4082798796
 20
15.5401160053
 30
0.0
 11
-39.391972259
 21
15.5401160053
 31
0.0
  0
LINE
  5
77D
330
5D7
100
AcDbEntity
  8
0
  6
Continuous
 62
     7
370
    25
100
AcDbLine
 10
-5.2255483247
 20
27.3576040254
 30
0.0
 11
-17.3517555444
 21
20.3572936033
 31
0.0
  0
LINE
  5
77E
330
5D7
100
AcDbEntity
  8
0
  6
Continuous
 62
     7
370
    25
100
AcDbLine
 10
-4.740759851
 20
27.1004676122
 30
0.0
 11
-5.1861814455
 21
27.3576040254
 31
0.0
  0
LINE
  5
77F
330
5D7
100
AcDbEntity
  8
0
  6
Continuous
 62
     7
370
    25
100
AcDbLine
 10
-21.3913744263
 20
23.4679850691
 30
0.0
 11
-22.8473483763
 21
24.3085009395
 31
0.0
  0
LINE
  5
780
330
5D7
100
AcDbEntity
  8
0
  6
Continuous
 62
     7
370
    25
100
AcDbLine
 10
-17.4271198828
 20
3.377674305
 30
0.0
 11
-17.3911256231
 21
3.3568952612
 31
0.0
  0
LINE
  5
781
330
5D7
100
AcDbEntity
  8
0
  6
Continuous
 62
     7
370
    25
100
AcDbLine
 10
-17.3714421835
 20
12.5661939029
 30
0.0
 11
-17.4271198828
 21
12.5983359545
 31
0.0
  0
LINE
  5
782
330
5D7
100
AcDbEntity
  8
0
  6
Continuous
 62
     7
370
    25
100
AcDbLine
 10
-17.4271198828
 20
9.4856567562
 30
0.0
 11
-17.3911256231
 21
9.4648777123
 31
0.0
  0
LINE
  5
783
330
5D7
100
AcDbEntity
  8
0
  6
Continuous
 62
     7
370
    25
100
AcDbLine
 10
-38.4848214496
 20
23.5387924423
 30
0.0
 11
-38.4848214496
 21
22.0600103553
 31
0.0
  0
LINE
  5
784
330
5D7
100
AcDbEntity
  8
0
  6
Continuous
 62
     7
370
    25
100
AcDbLine
 10
-17.1847256459
 20
20.4952759989
 30
0.0
 11
-38.2587348333
 21
32.6610425471
 31
0.0
  0
LINE
  5
785
330
5D7
100
AcDbEntity
  8
0
  6
Continuous
 62
     7
370
    25
100
AcDbLine
 10
-17.4271198828
 20
17.2010030102
 30
0.0
 11
-17.3911256231
 21
17.1802239664
 31
0.0
  0
LINE
  5
786
330
5D7
100
AcDbEntity
  8
0
  6
Continuous
 62
     7
370
    25
100
AcDbLine
 10
-38.4848214496
 20
32.5305199802
 30
0.0
 11
-38.4848214496
 21
30.6433330629
 31
0.0
  0
LINE
  5
787
330
5D7
100
AcDbEntity
  8
0
  6
Continuous
 62
     7
370
    25
100
AcDbLine
 10
-38.2981017125
 20
32.6610425471
 30
0.0
 11
-38.4651348104
 21
32.5646163921
 31
0.0
  0
LINE
  5
788
330
5D7
100
AcDbEntity
  8
0
  6
Continuous
 62
     7
370
    25
100
AcDbLine
 10
-17.3157644842
 20
19.7767823134
 30
0.0
 11
-17.3157644842
 21
2.8030205545
 31
0.0
  0
LINE
  5
789
330
5D7
100
AcDbEntity
  8
0
  6
Continuous
 62
     7
370
    25
100
AcDbLine
 10
-4.724449031
 20
27.0683255606
 30
0.0
 11
-17.2960778451
 21
19.8108787253
 31
0.0
  0
LINE
  5
78A
330
5D7
100
AcDbEntity
  8
0
  6
Continuous
 62
     7
370
    25
100
AcDbLine
 10
-4.2199739182
 20
21.1797583558
 30
0.0
 11
-4.2199739182
 21
26.7770927355
 31
0.0
  0
LINE
  5
78B
330
5D7
100
AcDbEntity
  8
0
  6
Continuous
 62
     7
370
    25
100
AcDbLine
 10
-4.2396605573
 20
26.8111891474
 30
0.0
 11
-4.6850821517
 21
27.0683255606
 31
0.0
  0
LINE
  5
78C
330
5D7
100
AcDbEntity
  8
0
  6
Continuous
 62
     7
370
    25
100
AcDbLine
 10
-17.2763944054
 20
2.7636504758
 30
0.0
 11
-17.2600867849
 21
2.7636504758
 31
0.0
  0
LINE
  5
78D
330
5D7
100
AcDbEntity
  8
0
  6
Continuous
 62
     7
370
    25
100
AcDbLine
 10
16.9063371494
 20
14.5811384959
 30
0.0
 11
4.7801299298
 21
7.5808280738
 31
0.0
  0
LINE
  5
78E
330
5D7
100
AcDbEntity
  8
0
  6
Continuous
 62
     7
370
    25
100
AcDbLine
 10
17.4108122622
 20
-2.6838560881
 30
0.0
 11
17.4108122622
 21
14.2899056708
 31
0.0
  0
LINE
  5
78F
330
5D7
100
AcDbEntity
  8
0
  6
Continuous
 62
     7
370
    25
100
AcDbLine
 10
17.3911256231
 20
14.3240020827
 30
0.0
 11
16.9457040287
 21
14.5811384959
 31
0.0
  0
LINE
  5
790
330
5D7
100
AcDbEntity
  8
0
  6
Continuous
 62
     7
370
    25
100
AcDbLine
 10
4.819496809
 20
-9.9753993352
 30
0.0
 11
17.3911256231
 21
-2.7179525
 31
0.0
  0
LINE
  5
791
330
5D7
100
AcDbEntity
  8
0
  6
Continuous
 62
     7
370
    25
100
AcDbLine
 10
0.7405110478
 20
10.6915195396
 30
0.0
 11
-0.7154629021
 21
11.53203541
 31
0.0
  0
LINE
  5
792
330
5D7
100
AcDbEntity
  8
0
  6
Continuous
 62
     7
370
    25
100
AcDbLine
 10
4.7047655914
 20
-9.3987912245
 30
0.0
 11
4.740759851
 21
-9.4195702683
 31
0.0
  0
LINE
  5
793
330
5D7
100
AcDbEntity
  8
0
  6
Continuous
 62
     7
370
    25
100
AcDbLine
 10
4.7604432907
 20
-0.2102716266
 30
0.0
 11
4.7047655914
 21
-0.178129575
 31
0.0
  0
LINE
  5
794
330
5D7
100
AcDbEntity
  8
0
  6
Continuous
 62
     7
370
    25
100
AcDbLine
 10
4.7047655914
 20
-3.2908087734
 30
0.0
 11
4.740759851
 21
-3.3115878172
 31
0.0
  0
LINE
  5
795
330
5D7
100
AcDbEntity
  8
0
  6
Continuous
 62
     7
370
    25
100
AcDbLine
 10
-16.3529359754
 20
10.7623269128
 30
0.0
 11
-16.3529359754
 21
9.2835448258
 31
0.0
  0
LINE
  5
796
330
5D7
100
AcDbEntity
  8
0
  6
Continuous
 62
     7
370
    25
100
AcDbLine
 10
4.9471598282
 20
7.7188104693
 30
0.0
 11
-16.1268493591
 21
19.8845770176
 31
0.0
  0
LINE
  5
797
330
5D7
100
AcDbEntity
  8
0
  6
Continuous
 62
     7
370
    25
100
AcDbLine
 10
4.7047655914
 20
4.4245374807
 30
0.0
 11
4.740759851
 21
4.4037584369
 31
0.0
  0
LINE
  5
798
330
5D7
100
AcDbEntity
  8
0
  6
Continuous
 62
     7
370
    25
100
AcDbLine
 10
-16.3529359754
 20
19.7540544507
 30
0.0
 11
-16.3529359754
 21
17.8668675334
 31
0.0
  0
LINE
  5
799
330
5D7
100
AcDbEntity
  8
0
  6
Continuous
 62
     7
370
    25
100
AcDbLine
 10
-16.1662162384
 20
19.8845770176
 30
0.0
 11
-16.3332493363
 21
19.7881508626
 31
0.0
  0
LINE
  5
79A
330
5D7
100
AcDbEntity
  8
0
  6
Continuous
 62
     7
370
    25
100
AcDbLine
 10
-17.2404001457
 20
2.6913263656
 30
0.0
 11
4.645712073
 21
-9.9432572836
 31
0.0
  0
LINE
  5
79B
330
5D7
100
AcDbEntity
  8
0
  6
Continuous
 62
     7
370
    25
100
AcDbLine
 10
-17.2600867849
 20
9.7617761157
 30
0.0
 11
-17.2600867849
 21
2.7254227775
 31
0.0
  0
LINE
  5
79C
330
5D7
100
AcDbEntity
  8
0
  6
Continuous
 62
     7
370
    25
100
AcDbLine
 10
-39.3722856199
 20
24.0511146027
 30
0.0
 11
-17.4861734011
 21
11.4165309535
 31
0.0
  0
LINE
  5
79D
330
5D7
100
AcDbEntity
  8
0
  6
Continuous
 62
     7
370
    25
100
AcDbLine
 10
-39.391972259
 20
31.1215643529
 30
0.0
 11
-39.391972259
 21
24.0852110146
 31
0.0
  0
LINE
  5
79E
330
5D7
100
AcDbEntity
  8
0
  6
Continuous
 62
     7
370
    25
100
AcDbLine
 10
-39.3722856199
 20
15.4677918951
 30
0.0
 11
-17.4861734011
 21
2.8332082459
 31
0.0
  0
LINE
  5
79F
330
5D7
100
AcDbEntity
  8
0
  6
Continuous
 62
     7
370
    25
100
AcDbLine
 10
-39.391972259
 20
22.5382416453
 30
0.0
 11
-39.391972259
 21
15.501888307
 31
0.0
  0
LINE
  5
7A0
330
5D7
100
AcDbEntity
  8
0
  6
Continuous
 62
     7
370
    25
100
AcDbLine
 10
4.637556663
 20
5.6717125914
 30
0.0
 11
-17.2485555558
 21
18.3062962406
 31
0.0
  0
LINE
  5
7A1
330
5D7
100
AcDbEntity
  8
0
  6
Continuous
 62
     7
370
    25
100
AcDbLine
 10
-17.2207167061
 20
18.367826686
 30
0.0
 11
4.7047655914
 21
5.7105151742
 31
0.0
  0
LINE
  5
7A2
330
5D7
100
AcDbEntity
  8
0
  6
Continuous
 62
     7
370
    25
100
AcDbLine
 10
4.7047655914
 20
5.7105151742
 30
0.0
 11
4.7047655914
 21
-1.3258381641
 31
0.0
  0
LINE
  5
7A3
330
5D7
100
AcDbEntity
  8
0
  6
Continuous
 62
     7
370
    25
100
AcDbLine
 10
4.637556663
 20
-1.3419091899
 30
0.0
 11
4.637556663
 21
5.6717125914
 31
0.0
  0
LINE
  5
7A4
330
5D7
100
AcDbEntity
  8
0
  6
Continuous
 62
     7
370
    25
100
AcDbLine
 10
-17.2485555558
 20
11.2926744593
 30
0.0
 11
4.637556663
 21
-1.3419091899
 31
0.0
  0
LINE
  5
7A5
330
5D7
100
AcDbEntity
  8
0
  6
Continuous
 62
     7
370
    25
100
AcDbLine
 10
-17.2485555558
 20
18.3062962406
 30
0.0
 11
-17.2485555558
 21
11.2926744593
 31
0.0
  0
LINE
  5
7A6
330
5D7
100
AcDbEntity
  8
0
  6
Continuous
 62
     7
370
    25
100
AcDbLine
 10
-5.1084289113
 20
21.9819779906
 30
0.0
 11
-12.4342384921
 21
17.7528781385
 31
0.0
  0
LINE
  5
7A7
330
5D7
100
AcDbEntity
  8
0
  6
Continuous
 62
     7
370
    25
100
AcDbLine
 10
-4.6073296176
 20
21.6926995258
 30
0.0
 11
-5.1084289113
 21
21.9819779906
 31
0.0
  0
LINE
  5
7A8
330
5D7
100
AcDbEntity
  8
0
  6
Continuous
 62
     7
370
    25
100
AcDbLine
 10
-11.9331391984
 20
17.4635996737
 30
0.0
 11
-4.6073296176
 21
21.6926995258
 31
0.0
  0
LINE
  5
7A9
330
5D7
100
AcDbEntity
  8
0
  6
Continuous
 62
     7
370
    25
100
AcDbLine
 10
-4.6073296176
 20
21.4033740413
 30
0.0
 11
-4.6073296176
 21
21.6926995258
 31
0.0
  0
LINE
  5
7AA
330
5D7
100
AcDbEntity
  8
0
  6
Continuous
 62
     7
370
    25
100
AcDbLine
 10
4.7047655914
 20
3.5404758584
 30
0.0
 11
4.7604432907
 21
3.57261791
 31
0.0
  0
LINE
  5
7AB
330
5D7
100
AcDbEntity
  8
0
  6
Continuous
 62
     7
370
    25
100
AcDbLine
 10
4.7604432907
 20
4.1511748397
 30
0.0
 11
4.7047655914
 21
4.119032788
 31
0.0
  0
LINE
  5
7AC
330
5D7
100
AcDbEntity
  8
0
  6
Continuous
 62
     7
370
    25
100
AcDbLine
 10
4.7047655914
 20
0.1650118723
 30
0.0
 11
4.7604432907
 21
0.1971539239
 31
0.0
  0
LINE
  5
7AD
330
5D7
100
AcDbEntity
  8
0
  6
Continuous
 62
     7
370
    25
100
AcDbLine
 10
7.0014706877
 20
11.4871331553
 30
0.0
 11
2.7104984409
 21
9.0100076043
 31
0.0
  0
LINE
  5
7AE
330
5D7
100
AcDbEntity
  8
0
  6
Continuous
 62
     7
370
    25
100
AcDbLine
 10
-9.4550788575
 20
16.0330458891
 30
0.0
 11
-5.1084289113
 21
18.5423134918
 31
0.0
  0
LINE
  5
7AF
330
5D7
100
AcDbEntity
  8
0
  6
Continuous
 62
     7
370
    25
100
AcDbLine
 10
7.6139253801
 20
11.1978546905
 30
0.0
 11
9.329804034
 21
10.2072990282
 31
0.0
  0
LINE
  5
7B0
330
5D7
100
AcDbEntity
  8
0
  6
Continuous
 62
     7
370
    25
100
AcDbLine
 10
7.057148387
 20
14.0910572917
 30
0.0
 11
11.5572740034
 21
11.4931900705
 31
0.0
  0
LINE
  5
7B1
330
5D7
100
AcDbEntity
  8
0
  6
Continuous
 62
     7
370
    25
100
AcDbLine
 10
12.0583732971
 20
11.7824685353
 30
0.0
 11
7.5582476808
 21
14.3803357565
 31
0.0
  0
LINE
  5
7B2
330
5D7
100
AcDbEntity
  8
0
  6
Continuous
 62
     7
370
    25
100
AcDbLine
 10
7.057148387
 20
14.0910572917
 30
0.0
 11
7.5582476808
 21
14.3803357565
 31
0.0
  0
LINE
  5
7B3
330
5D7
100
AcDbEntity
  8
0
  6
Continuous
 62
     7
370
    25
100
AcDbLine
 10
-5.1084289113
 20
21.1140955764
 30
0.0
 11
-5.1084289113
 21
18.5423134918
 31
0.0
  0
LINE
  5
7B4
330
5D7
100
AcDbEntity
  8
0
  6
Continuous
 62
     7
370
    25
100
AcDbLine
 10
-5.1084289113
 20
21.1140955764
 30
0.0
 11
2.6029324426
 21
16.6624214234
 31
0.0
  0
LINE
  5
7B5
330
5D7
100
AcDbEntity
  8
0
  6
Continuous
 62
     7
370
    25
100
AcDbLine
 10
-5.1084289113
 20
18.5423134918
 30
0.0
 11
0.3754624732
 21
15.3765303811
 31
0.0
  0
LINE
  5
7B6
330
5D7
100
AcDbEntity
  8
0
  6
Continuous
 62
     7
370
    25
100
AcDbLine
 10
-4.6073296176
 20
21.4033740413
 30
0.0
 11
-5.1084289113
 21
21.1140955764
 31
0.0
  0
LINE
  5
7B7
330
5D7
100
AcDbEntity
  8
0
  6
Continuous
 62
     7
370
    25
100
AcDbLine
 10
3.1040317363
 20
16.9516998882
 30
0.0
 11
-4.6073296176
 21
21.4033740413
 31
0.0
  0
LINE
  5
7B8
330
5D7
100
AcDbEntity
  8
0
  6
Continuous
 62
     7
370
    25
100
AcDbLine
 10
3.1040317363
 20
16.9516998882
 30
0.0
 11
2.6029324426
 21
16.6624214234
 31
0.0
  0
LINE
  5
7B9
330
5D7
100
AcDbEntity
  8
0
  6
Continuous
 62
     7
370
    25
100
AcDbLine
 10
7.5582476808
 20
14.4446198598
 30
0.0
 11
1.6564115544
 21
11.0375623852
 31
0.0
  0
LINE
  5
7BA
330
5D7
100
AcDbEntity
  8
0
  6
Continuous
 62
     7
370
    25
100
AcDbLine
 10
7.5582476808
 20
14.4446198598
 30
0.0
 11
8.1150246739
 21
14.1231993433
 31
0.0
  0
LINE
  5
7BB
330
5D7
100
AcDbEntity
  8
0
  6
Continuous
 62
     7
370
    25
100
AcDbLine
 10
8.0593469745
 20
14.0910572917
 30
0.0
 11
8.1150246739
 21
14.1231993433
 31
0.0
  0
LINE
  5
7BC
330
5D7
100
AcDbEntity
  8
0
  6
Continuous
 62
     7
370
    25
100
AcDbLine
 10
7.6139253801
 20
13.7696367752
 30
0.0
 11
7.5582476808
 21
13.7374947236
 31
0.0
  0
LINE
  5
7BD
330
5D7
100
AcDbEntity
  8
0
  6
Continuous
 62
     7
370
    25
100
AcDbLine
 10
7.0014706877
 20
14.05891524
 30
0.0
 11
7.5582476808
 21
13.7374947236
 31
0.0
  0
LINE
  5
7BE
330
5D7
100
AcDbEntity
  8
0
  6
Continuous
 62
     7
370
    25
100
AcDbLine
 10
7.0014706877
 20
14.05891524
 30
0.0
 11
1.7120892537
 21
11.0054203336
 31
0.0
  0
LINE
  5
7BF
330
5D7
100
AcDbEntity
  8
0
  6
Continuous
 62
     7
370
    25
100
AcDbLine
 10
-2.7421266908
 20
13.5767844653
 30
0.0
 11
2.5472547433
 21
16.6302793717
 31
0.0
  0
LINE
  5
7C0
330
5D7
100
AcDbEntity
  8
0
  6
Continuous
 62
     7
370
    25
100
AcDbLine
 10
2.5472547433
 20
16.6302793717
 30
0.0
 11
1.9904777502
 21
16.9516998882
 31
0.0
  0
LINE
  5
7C1
330
5D7
100
AcDbEntity
  8
0
  6
Continuous
 62
     7
370
    25
100
AcDbLine
 10
2.0461554495
 20
16.9838419399
 30
0.0
 11
1.9904777502
 21
16.9516998882
 31
0.0
  0
LINE
  5
7C2
330
5D7
100
AcDbEntity
  8
0
  6
Continuous
 62
     7
370
    25
100
AcDbLine
 10
2.6029324426
 20
17.240978353
 30
0.0
 11
2.6586101419
 21
17.2731204047
 31
0.0
  0
LINE
  5
7C3
330
5D7
100
AcDbEntity
  8
0
  6
Continuous
 62
     7
370
    25
100
AcDbLine
 10
3.2153871349
 20
16.9516998882
 30
0.0
 11
2.6586101419
 21
17.2731204047
 31
0.0
  0
LINE
  5
7C4
330
5D7
100
AcDbEntity
  8
0
  6
Continuous
 62
     7
370
    25
100
AcDbLine
 10
-2.6864489915
 20
13.5446424137
 30
0.0
 11
3.2153871349
 21
16.9516998882
 31
0.0
  0
LINE
  5
7C5
330
5D7
100
AcDbEntity
  8
0
  6
Continuous
 62
     7
370
    25
100
AcDbLine
 10
7.0014706877
 20
14.05891524
 30
0.0
 11
7.0014706877
 21
11.4871331553
 31
0.0
  0
LINE
  5
7C6
330
5D7
100
AcDbEntity
  8
0
  6
Continuous
 62
     7
370
    25
100
AcDbLine
 10
3.2153871349
 20
16.9516998882
 30
0.0
 11
3.2153871349
 21
13.8012668345
 31
0.0
  0
LINE
  5
7C7
330
5D7
100
AcDbEntity
  8
0
  6
Continuous
 62
     7
370
    25
100
AcDbLine
 10
3.2153871349
 20
13.8012668345
 30
0.0
 11
-1.1868590612
 21
11.2599041999
 31
0.0
  0
LINE
  5
7C8
330
5D7
100
AcDbEntity
  8
0
  6
Continuous
 62
     7
370
    25
100
AcDbLine
 10
7.5582476808
 20
13.7374947236
 30
0.0
 11
7.5582476808
 21
11.1657126389
 31
0.0
  0
LINE
  5
7C9
330
5D7
100
AcDbEntity
  8
0
  6
Continuous
 62
     7
370
    25
100
AcDbLine
 10
7.0014706877
 20
11.4871331553
 30
0.0
 11
7.5582476808
 21
11.1657126389
 31
0.0
  0
LINE
  5
7CA
330
5D7
100
AcDbEntity
  8
0
  6
Continuous
 62
     7
370
    25
100
AcDbLine
 10
7.6139253801
 20
11.1978546905
 30
0.0
 11
7.5582476808
 21
11.1657126389
 31
0.0
  0
LINE
  5
7CB
330
5D7
100
AcDbEntity
  8
0
  6
Continuous
 62
     7
370
    25
100
AcDbLine
 10
7.6139253801
 20
13.7696367752
 30
0.0
 11
7.6139253801
 21
11.1978546905
 31
0.0
  0
LINE
  5
7CC
330
5D7
100
AcDbEntity
  8
0
  6
Continuous
 62
     7
370
    25
100
AcDbLine
 10
8.1150246739
 20
14.1231993433
 30
0.0
 11
8.1150246739
 21
14.05891524
 31
0.0
  0
LINE
  5
7CD
330
5D7
100
AcDbEntity
  8
0
  6
Continuous
 62
     7
370
    25
100
AcDbLine
 10
1.9904777502
 20
16.9516998882
 30
0.0
 11
1.9904777502
 21
16.3088588553
 31
0.0
  0
LINE
  5
7CE
330
5D7
100
AcDbEntity
  8
0
  6
Continuous
 62
     7
370
    25
100
AcDbLine
 10
-39.4082798796
 20
32.585395119
 30
0.0
 11
-38.5174366907
 21
32.585395119
 31
0.0
  0
LINE
  5
7CF
330
5D7
100
AcDbEntity
  8
0
  6
Continuous
 62
     7
370
    25
100
AcDbLine
 10
-38.5174366907
 20
30.6621614409
 30
0.0
 11
-38.5174366907
 21
32.585395119
 31
0.0
  0
LINE
  5
7D0
330
5D7
100
AcDbEntity
  8
0
  6
Continuous
 62
     7
370
    25
100
AcDbLine
 10
-38.5174366907
 20
32.5305199802
 30
0.0
 11
-39.4082798796
 21
32.5305199802
 31
0.0
  0
LINE
  5
7D1
330
5D7
100
AcDbEntity
  8
0
  6
Continuous
 62
     7
370
    25
100
AcDbLine
 10
-39.4082798796
 20
32.585395119
 30
0.0
 11
-39.4082798796
 21
15.5401160053
 31
0.0
  0
LINE
  5
7D2
330
5D7
100
AcDbEntity
  8
0
  6
Continuous
 62
     7
370
    25
100
AcDbLine
 10
-26.8366510655
 20
39.8428419542
 30
0.0
 11
-39.4082798796
 21
32.585395119
 31
0.0
  0
LINE
  5
7D3
330
5D7
100
AcDbEntity
  8
0
  6
Continuous
 62
     7
370
    25
100
AcDbLine
 10
-26.3912294711
 20
39.5857055411
 30
0.0
 11
-26.8366510655
 21
39.8428419542
 31
0.0
  0
LINE
  5
7D4
330
5D7
100
AcDbEntity
  8
0
  6
Continuous
 62
     7
370
    25
100
AcDbLine
 10
-38.5174366907
 20
32.585395119
 30
0.0
 11
-26.3912294711
 21
39.5857055411
 31
0.0
  0
LINE
  5
7D5
330
5D7
100
AcDbEntity
  8
0
  6
Continuous
 62
     7
370
    25
100
AcDbLine
 10
-17.3714421835
 20
2.8351626062
 30
0.0
 11
-17.3714421835
 21
20.3231971914
 31
0.0
  0
LINE
  5
7D6
330
5D7
100
AcDbEntity
  8
0
  6
Continuous
 62
     7
370
    25
100
AcDbLine
 10
-17.3320721047
 20
19.8410716411
 30
0.0
 11
-4.7604432907
 21
27.0985184764
 31
0.0
  0
LINE
  5
7D7
330
5D7
100
AcDbEntity
  8
0
  6
Continuous
 62
     7
370
    25
100
AcDbLine
 10
-17.3320721047
 20
20.3553444675
 30
0.0
 11
-17.3320721047
 21
19.8410716411
 31
0.0
  0
LINE
  5
7D8
330
5D7
100
AcDbEntity
  8
0
  6
Continuous
 62
     7
370
    25
100
AcDbLine
 10
-5.2058648851
 20
27.3556548895
 30
0.0
 11
-17.3320721047
 21
20.3553444675
 31
0.0
  0
LINE
  5
7D9
330
5D7
100
AcDbEntity
  8
0
  6
Continuous
 62
     7
370
    25
100
AcDbLine
 10
-4.7604432907
 20
27.0985184764
 30
0.0
 11
-5.2058648851
 21
27.3556548895
 31
0.0
  0
LINE
  5
7DA
330
5D7
100
AcDbEntity
  8
0
  6
Continuous
 62
     7
370
    25
100
AcDbLine
 10
-17.3992810331
 20
3.3749206473
 30
0.0
 11
-17.3992810331
 21
3.8892770642
 31
0.0
  0
LINE
  5
7DB
330
5D7
100
AcDbEntity
  8
0
  6
Continuous
 62
     7
370
    25
100
AcDbLine
 10
-17.3992810331
 20
9.4829030984
 30
0.0
 11
-17.3992810331
 21
11.990390631
 31
0.0
  0
LINE
  5
7DC
330
5D7
100
AcDbEntity
  8
0
  6
Continuous
 62
     7
370
    25
100
AcDbLine
 10
-17.3992810331
 20
17.1982493525
 30
0.0
 11
-17.3992810331
 21
20.3486824062
 31
0.0
  0
LINE
  5
7DD
330
5D7
100
AcDbEntity
  8
0
  6
Continuous
 62
     7
370
    25
100
AcDbLine
 10
-17.3714421835
 20
20.3969007081
 30
0.0
 11
-17.2044090856
 21
20.493326863
 31
0.0
  0
LINE
  5
7DE
330
5D7
100
AcDbEntity
  8
0
  6
Continuous
 62
     7
370
    25
100
AcDbLine
 10
-38.4454513708
 20
32.5626672563
 30
0.0
 11
-17.3714421835
 21
20.3969007081
 31
0.0
  0
LINE
  5
7DF
330
5D7
100
AcDbEntity
  8
0
  6
Continuous
 62
     7
370
    25
100
AcDbLine
 10
-17.3992810331
 20
20.3486824062
 30
0.0
 11
-38.4732902205
 21
32.5144489544
 31
0.0
  0
LINE
  5
7E0
330
5D7
100
AcDbEntity
  8
0
  6
Continuous
 62
     7
370
    25
100
AcDbLine
 10
-38.2784182729
 20
32.6590934112
 30
0.0
 11
-38.4454513708
 21
32.5626672563
 31
0.0
  0
LINE
  5
7E1
330
5D7
100
AcDbEntity
  8
0
  6
Continuous
 62
     7
370
    25
100
AcDbLine
 10
-17.2044090856
 20
20.493326863
 30
0.0
 11
-38.2784182729
 21
32.6590934112
 31
0.0
  0
LINE
  5
7E2
330
5D7
100
AcDbEntity
  8
0
  6
Continuous
 62
     7
370
    25
100
AcDbLine
 10
-17.2763944054
 20
19.8089295895
 30
0.0
 11
-16.3855512165
 21
19.8089295895
 31
0.0
  0
LINE
  5
7E3
330
5D7
100
AcDbEntity
  8
0
  6
Continuous
 62
     7
370
    25
100
AcDbLine
 10
-16.3855512165
 20
17.8856959113
 30
0.0
 11
-16.3855512165
 21
19.8089295895
 31
0.0
  0
LINE
  5
7E4
330
5D7
100
AcDbEntity
  8
0
  6
Continuous
 62
     7
370
    25
100
AcDbLine
 10
-16.3855512165
 20
19.7540544507
 30
0.0
 11
-17.2763944054
 21
19.7540544507
 31
0.0
  0
LINE
  5
7E5
330
5D7
100
AcDbEntity
  8
0
  6
Continuous
 62
     7
370
    25
100
AcDbLine
 10
-17.2763944054
 20
19.8089295895
 30
0.0
 11
-17.2763944054
 21
2.7636504758
 31
0.0
  0
LINE
  5
7E6
330
5D7
100
AcDbEntity
  8
0
  6
Continuous
 62
     7
370
    25
100
AcDbLine
 10
-4.7047655914
 20
27.0663764247
 30
0.0
 11
-17.2763944054
 21
19.8089295895
 31
0.0
  0
LINE
  5
7E7
330
5D7
100
AcDbEntity
  8
0
  6
Continuous
 62
     7
370
    25
100
AcDbLine
 10
-4.2593439969
 20
26.8092400116
 30
0.0
 11
-4.7047655914
 21
27.0663764247
 31
0.0
  0
LINE
  5
7E8
330
5D7
100
AcDbEntity
  8
0
  6
Continuous
 62
     7
370
    25
100
AcDbLine
 10
-16.3855512165
 20
19.8089295895
 30
0.0
 11
-4.2593439969
 21
26.8092400116
 31
0.0
  0
LINE
  5
7E9
330
5D7
100
AcDbEntity
  8
0
  6
Continuous
 62
     7
370
    25
100
AcDbLine
 10
4.8276522191
 20
7.0163878097
 30
0.0
 11
4.8276522191
 21
-9.9573739492
 31
0.0
  0
LINE
  5
7EA
330
5D7
100
AcDbEntity
  8
0
  6
Continuous
 62
     7
370
    25
100
AcDbLine
 10
4.7604432907
 20
-9.9413029233
 30
0.0
 11
4.7604432907
 21
7.5467316619
 31
0.0
  0
LINE
  5
7EB
330
5D7
100
AcDbEntity
  8
0
  6
Continuous
 62
     7
370
    25
100
AcDbLine
 10
17.3992810331
 20
14.273834645
 30
0.0
 11
4.8276522191
 21
7.0163878097
 31
0.0
  0
LINE
  5
7EC
330
5D7
100
AcDbEntity
  8
0
  6
Continuous
 62
     7
370
    25
100
AcDbLine
 10
4.7998133694
 20
7.0646061116
 30
0.0
 11
17.3714421835
 21
14.3220529469
 31
0.0
  0
LINE
  5
7ED
330
5D7
100
AcDbEntity
  8
0
  6
Continuous
 62
     7
370
    25
100
AcDbLine
 10
4.7998133694
 20
7.5788789379
 30
0.0
 11
4.7998133694
 21
7.0646061116
 31
0.0
  0
LINE
  5
7EE
330
5D7
100
AcDbEntity
  8
0
  6
Continuous
 62
     7
370
    25
100
AcDbLine
 10
17.3992810331
 20
-2.6999271139
 30
0.0
 11
17.3992810331
 21
14.273834645
 31
0.0
  0
LINE
  5
7EF
330
5D7
100
AcDbEntity
  8
0
  6
Continuous
 62
     7
370
    25
100
AcDbLine
 10
4.8276522191
 20
-9.9573739492
 30
0.0
 11
17.3992810331
 21
-2.6999271139
 31
0.0
  0
LINE
  5
7F0
330
5D7
100
AcDbEntity
  8
0
  6
Continuous
 62
     7
370
    25
100
AcDbLine
 10
16.926020589
 20
14.57918936
 30
0.0
 11
4.7998133694
 21
7.5788789379
 31
0.0
  0
LINE
  5
7F1
330
5D7
100
AcDbEntity
  8
0
  6
Continuous
 62
     7
370
    25
100
AcDbLine
 10
17.3714421835
 20
14.3220529469
 30
0.0
 11
16.926020589
 21
14.57918936
 31
0.0
  0
LINE
  5
7F2
330
5D7
100
AcDbEntity
  8
0
  6
Continuous
 62
     7
370
    25
100
AcDbLine
 10
4.732604441
 20
-9.4015448822
 30
0.0
 11
4.732604441
 21
-8.8871884653
 31
0.0
  0
LINE
  5
7F3
330
5D7
100
AcDbEntity
  8
0
  6
Continuous
 62
     7
370
    25
100
AcDbLine
 10
4.732604441
 20
-3.2935624311
 30
0.0
 11
4.732604441
 21
-0.7860748985
 31
0.0
  0
LINE
  5
7F4
330
5D7
100
AcDbEntity
  8
0
  6
Continuous
 62
     7
370
    25
100
AcDbLine
 10
4.732604441
 20
4.4217838229
 30
0.0
 11
4.732604441
 21
7.5722168767
 31
0.0
  0
LINE
  5
7F5
330
5D7
100
AcDbEntity
  8
0
  6
Continuous
 62
     7
370
    25
100
AcDbLine
 10
4.7604432907
 20
7.6204351786
 30
0.0
 11
4.9274763886
 21
7.7168613335
 31
0.0
  0
LINE
  5
7F6
330
5D7
100
AcDbEntity
  8
0
  6
Continuous
 62
     7
370
    25
100
AcDbLine
 10
-16.3135658967
 20
19.7862017268
 30
0.0
 11
4.7604432907
 21
7.6204351786
 31
0.0
  0
LINE
  5
7F7
330
5D7
100
AcDbEntity
  8
0
  6
Continuous
 62
     7
370
    25
100
AcDbLine
 10
4.732604441
 20
7.5722168767
 30
0.0
 11
-16.3414047463
 21
19.7379834249
 31
0.0
  0
LINE
  5
7F8
330
5D7
100
AcDbEntity
  8
0
  6
Continuous
 62
     7
370
    25
100
AcDbLine
 10
-16.1465327987
 20
19.8826278817
 30
0.0
 11
-16.3135658967
 21
19.7862017268
 31
0.0
  0
LINE
  5
7F9
330
5D7
100
AcDbEntity
  8
0
  6
Continuous
 62
     7
370
    25
100
AcDbLine
 10
4.9274763886
 20
7.7168613335
 30
0.0
 11
-16.1465327987
 21
19.8826278817
 31
0.0
  0
LINE
  5
7FA
330
5D7
100
AcDbEntity
  8
0
  6
Continuous
 62
     7
370
    25
100
AcDbLine
 10
4.637556663
 20
-2.9116101162
 30
0.0
 11
-17.2485555558
 21
9.722973533
 31
0.0
  0
LINE
  5
7FB
330
5D7
100
AcDbEntity
  8
0
  6
Continuous
 62
     7
370
    25
100
AcDbLine
 10
-17.2207167061
 20
9.7845039784
 30
0.0
 11
4.7047655914
 21
-2.8728075335
 31
0.0
  0
LINE
  5
7FC
330
5D7
100
AcDbEntity
  8
0
  6
Continuous
 62
     7
370
    25
100
AcDbLine
 10
4.7047655914
 20
-2.8728075335
 30
0.0
 11
4.7047655914
 21
-9.9091608717
 31
0.0
  0
LINE
  5
7FD
330
5D7
100
AcDbEntity
  8
0
  6
Continuous
 62
     7
370
    25
100
AcDbLine
 10
4.637556663
 20
-9.9252318975
 30
0.0
 11
4.637556663
 21
-2.9116101162
 31
0.0
  0
LINE
  5
7FE
330
5D7
100
AcDbEntity
  8
0
  6
Continuous
 62
     7
370
    25
100
AcDbLine
 10
-17.2485555558
 20
2.7093517517
 30
0.0
 11
4.637556663
 21
-9.9252318975
 31
0.0
  0
LINE
  5
7FF
330
5D7
100
AcDbEntity
  8
0
  6
Continuous
 62
     7
370
    25
100
AcDbLine
 10
-17.2485555558
 20
9.722973533
 30
0.0
 11
-17.2485555558
 21
2.7093517517
 31
0.0
  0
LINE
  5
800
330
5D7
100
AcDbEntity
  8
0
  6
Continuous
 62
     7
370
    25
100
AcDbLine
 10
4.7047655914
 20
-5.0428468492
 30
0.0
 11
4.7604432907
 21
-5.0107047976
 31
0.0
  0
LINE
  5
801
330
5D7
100
AcDbEntity
  8
0
  6
Continuous
 62
     7
370
    25
100
AcDbLine
 10
4.7604432907
 20
-4.4321478679
 30
0.0
 11
4.7047655914
 21
-4.4642899196
 31
0.0
  0
LINE
  5
802
330
5D7
100
AcDbEntity
  8
0
  6
Continuous
 62
     7
370
    25
100
AcDbLine
 10
4.7047655914
 20
-8.4183108354
 30
0.0
 11
4.7604432907
 21
-8.3861687837
 31
0.0
  0
LINE
  5
803
330
5D7
100
AcDbEntity
  8
0
  6
Continuous
 62
     7
370
    25
100
AcDbLine
 10
-17.4943288112
 20
18.4481781209
 30
0.0
 11
-39.3804410299
 21
31.0827617702
 31
0.0
  0
LINE
  5
804
330
5D7
100
AcDbEntity
  8
0
  6
Continuous
 62
     7
370
    25
100
AcDbLine
 10
-39.3526021803
 20
31.1442922156
 30
0.0
 11
-17.4271198828
 21
18.4869807037
 31
0.0
  0
LINE
  5
805
330
5D7
100
AcDbEntity
  8
0
  6
Continuous
 62
     7
370
    25
100
AcDbLine
 10
-17.4271198828
 20
18.4869807037
 30
0.0
 11
-17.4271198828
 21
11.4506273654
 31
0.0
  0
LINE
  5
806
330
5D7
100
AcDbEntity
  8
0
  6
Continuous
 62
     7
370
    25
100
AcDbLine
 10
-17.4943288112
 20
11.4345563396
 30
0.0
 11
-17.4943288112
 21
18.4481781209
 31
0.0
  0
LINE
  5
807
330
5D7
100
AcDbEntity
  8
0
  6
Continuous
 62
     7
370
    25
100
AcDbLine
 10
-39.3804410299
 20
24.0691399888
 30
0.0
 11
-17.4943288112
 21
11.4345563396
 31
0.0
  0
LINE
  5
808
330
5D7
100
AcDbEntity
  8
0
  6
Continuous
 62
     7
370
    25
100
AcDbLine
 10
-39.3804410299
 20
31.0827617702
 30
0.0
 11
-39.3804410299
 21
24.0691399888
 31
0.0
  0
LINE
  5
809
330
5D7
100
AcDbEntity
  8
0
  6
Continuous
 62
     7
370
    25
100
AcDbLine
 10
-27.2403143855
 20
34.7584435201
 30
0.0
 11
-34.5661239663
 21
30.529343668
 31
0.0
  0
LINE
  5
80A
330
5D7
100
AcDbEntity
  8
0
  6
Continuous
 62
     7
370
    25
100
AcDbLine
 10
-26.7392150917
 20
34.4691650553
 30
0.0
 11
-27.2403143855
 21
34.7584435201
 31
0.0
  0
LINE
  5
80B
330
5D7
100
AcDbEntity
  8
0
  6
Continuous
 62
     7
370
    25
100
AcDbLine
 10
-34.0650246725
 20
30.2400652032
 30
0.0
 11
-26.7392150917
 21
34.4691650553
 31
0.0
  0
LINE
  5
80C
330
5D7
100
AcDbEntity
  8
0
  6
Continuous
 62
     7
370
    25
100
AcDbLine
 10
-26.7392150917
 20
34.1798395708
 30
0.0
 11
-26.7392150917
 21
34.4691650553
 31
0.0
  0
LINE
  5
80D
330
5D7
100
AcDbEntity
  8
0
  6
Continuous
 62
     7
370
    25
100
AcDbLine
 10
-17.4271198828
 20
16.3169413879
 30
0.0
 11
-17.3714421835
 21
16.3490834395
 31
0.0
  0
LINE
  5
80E
330
5D7
100
AcDbEntity
  8
0
  6
Continuous
 62
     7
370
    25
100
AcDbLine
 10
-17.3714421835
 20
16.9276403692
 30
0.0
 11
-17.4271198828
 21
16.8954983175
 31
0.0
  0
LINE
  5
80F
330
5D7
100
AcDbEntity
  8
0
  6
Continuous
 62
     7
370
    25
100
AcDbLine
 10
-17.4271198828
 20
12.9414774018
 30
0.0
 11
-17.3714421835
 21
12.9736194534
 31
0.0
  0
LINE
  5
810
330
5D7
100
AcDbEntity
  8
0
  6
Continuous
 62
     7
370
    25
100
AcDbLine
 10
-15.1304147864
 20
24.2635986849
 30
0.0
 11
-19.4213870333
 21
21.7864731338
 31
0.0
  0
LINE
  5
811
330
5D7
100
AcDbEntity
  8
0
  6
Continuous
 62
     7
370
    25
100
AcDbLine
 10
-31.5869643316
 20
28.8095114186
 30
0.0
 11
-27.2403143855
 21
31.3187790213
 31
0.0
  0
LINE
  5
812
330
5D7
100
AcDbEntity
  8
0
  6
Continuous
 62
     7
370
    25
100
AcDbLine
 10
-14.517960094
 20
23.97432022
 30
0.0
 11
-12.8020814401
 21
22.9837645577
 31
0.0
  0
LINE
  5
813
330
5D7
100
AcDbEntity
  8
0
  6
Continuous
 62
     7
370
    25
100
AcDbLine
 10
-15.0747370871
 20
26.8675228212
 30
0.0
 11
-10.5746114708
 21
24.2696556
 31
0.0
  0
LINE
  5
814
330
5D7
100
AcDbEntity
  8
0
  6
Continuous
 62
     7
370
    25
100
AcDbLine
 10
-10.073512177
 20
24.5589340648
 30
0.0
 11
-14.5736377934
 21
27.156801286
 31
0.0
  0
LINE
  5
815
330
5D7
100
AcDbEntity
  8
0
  6
Continuous
 62
     7
370
    25
100
AcDbLine
 10
-15.0747370871
 20
26.8675228212
 30
0.0
 11
-14.5736377934
 21
27.156801286
 31
0.0
  0
LINE
  5
816
330
5D7
100
AcDbEntity
  8
0
  6
Continuous
 62
     7
370
    25
100
AcDbLine
 10
-27.2403143855
 20
33.890561106
 30
0.0
 11
-19.5289530316
 21
29.4388869529
 31
0.0
  0
LINE
  5
817
330
5D7
100
AcDbEntity
  8
0
  6
Continuous
 62
     7
370
    25
100
AcDbLine
 10
-26.7392150917
 20
34.1798395708
 30
0.0
 11
-27.2403143855
 21
33.890561106
 31
0.0
  0
LINE
  5
818
330
5D7
100
AcDbEntity
  8
0
  6
Continuous
 62
     7
370
    25
100
AcDbLine
 10
-19.0278537378
 20
29.7281654177
 30
0.0
 11
-26.7392150917
 21
34.1798395708
 31
0.0
  0
LINE
  5
819
330
5D7
100
AcDbEntity
  8
0
  6
Continuous
 62
     7
370
    25
100
AcDbLine
 10
-19.0278537378
 20
29.7281654177
 30
0.0
 11
-19.5289530316
 21
29.4388869529
 31
0.0
  0
LINE
  5
81A
330
5D7
100
AcDbEntity
  8
0
  6
Continuous
 62
     7
370
    25
100
AcDbLine
 10
-27.2403143855
 20
33.890561106
 30
0.0
 11
-27.2403143855
 21
31.3187790213
 31
0.0
  0
LINE
  5
81B
330
5D7
100
AcDbEntity
  8
0
  6
Continuous
 62
     7
370
    25
100
AcDbLine
 10
-27.2403143855
 20
31.3187790213
 30
0.0
 11
-21.7564230009
 21
28.1529959106
 31
0.0
  0
LINE
  5
81C
330
5D7
100
AcDbEntity
  8
0
  6
Continuous
 62
     7
370
    25
100
AcDbLine
 10
-14.5736377934
 20
27.2210853893
 30
0.0
 11
-20.4754739198
 21
23.8140279148
 31
0.0
  0
LINE
  5
81D
330
5D7
100
AcDbEntity
  8
0
  6
Continuous
 62
     7
370
    25
100
AcDbLine
 10
-14.5736377934
 20
27.2210853893
 30
0.0
 11
-14.0168608003
 21
26.8996648728
 31
0.0
  0
LINE
  5
81E
330
5D7
100
AcDbEntity
  8
0
  6
Continuous
 62
     7
370
    25
100
AcDbLine
 10
-14.0725384996
 20
26.8675228212
 30
0.0
 11
-14.0168608003
 21
26.8996648728
 31
0.0
  0
LINE
  5
81F
330
5D7
100
AcDbEntity
  8
0
  6
Continuous
 62
     7
370
    25
100
AcDbLine
 10
-14.517960094
 20
26.5461023047
 30
0.0
 11
-14.5736377934
 21
26.5139602531
 31
0.0
  0
LINE
  5
820
330
5D7
100
AcDbEntity
  8
0
  6
Continuous
 62
     7
370
    25
100
AcDbLine
 10
-15.1304147864
 20
26.8353807695
 30
0.0
 11
-14.5736377934
 21
26.5139602531
 31
0.0
  0
LINE
  5
821
330
5D7
100
AcDbEntity
  8
0
  6
Continuous
 62
     7
370
    25
100
AcDbLine
 10
-15.1304147864
 20
26.8353807695
 30
0.0
 11
-20.4197962205
 21
23.7818858631
 31
0.0
  0
LINE
  5
822
330
5D7
100
AcDbEntity
  8
0
  6
Continuous
 62
     7
370
    25
100
AcDbLine
 10
-24.874012165
 20
26.3532499948
 30
0.0
 11
-19.5846307309
 21
29.4067449013
 31
0.0
  0
LINE
  5
823
330
5D7
100
AcDbEntity
  8
0
  6
Continuous
 62
     7
370
    25
100
AcDbLine
 10
-19.5846307309
 20
29.4067449013
 30
0.0
 11
-20.141407724
 21
29.7281654177
 31
0.0
  0
LINE
  5
824
330
5D7
100
AcDbEntity
  8
0
  6
Continuous
 62
     7
370
    25
100
AcDbLine
 10
-20.0857300246
 20
29.7603074694
 30
0.0
 11
-20.141407724
 21
29.7281654177
 31
0.0
  0
LINE
  5
825
330
5D7
100
AcDbEntity
  8
0
  6
Continuous
 62
     7
370
    25
100
AcDbLine
 10
-19.5289530316
 20
30.0174438825
 30
0.0
 11
-19.4732753323
 21
30.0495859342
 31
0.0
  0
LINE
  5
826
330
5D7
100
AcDbEntity
  8
0
  6
Continuous
 62
     7
370
    25
100
AcDbLine
 10
-18.9164983392
 20
29.7281654177
 30
0.0
 11
-19.4732753323
 21
30.0495859342
 31
0.0
  0
LINE
  5
827
330
5D7
100
AcDbEntity
  8
0
  6
Continuous
 62
     7
370
    25
100
AcDbLine
 10
-24.8183344657
 20
26.3211079432
 30
0.0
 11
-18.9164983392
 21
29.7281654177
 31
0.0
  0
LINE
  5
828
330
5D7
100
AcDbEntity
  8
0
  6
Continuous
 62
     7
370
    25
100
AcDbLine
 10
-15.1304147864
 20
26.8353807695
 30
0.0
 11
-15.1304147864
 21
24.2635986849
 31
0.0
  0
LINE
  5
829
330
5D7
100
AcDbEntity
  8
0
  6
Continuous
 62
     7
370
    25
100
AcDbLine
 10
-18.9164983392
 20
29.7281654177
 30
0.0
 11
-18.9164983392
 21
26.577732364
 31
0.0
  0
LINE
  5
82A
330
5D7
100
AcDbEntity
  8
0
  6
Continuous
 62
     7
370
    25
100
AcDbLine
 10
-18.9164983392
 20
26.577732364
 30
0.0
 11
-23.3187445353
 21
24.0363697294
 31
0.0
  0
LINE
  5
82B
330
5D7
100
AcDbEntity
  8
0
  6
Continuous
 62
     7
370
    25
100
AcDbLine
 10
-14.5736377934
 20
26.5139602531
 30
0.0
 11
-14.5736377934
 21
23.9421781684
 31
0.0
  0
LINE
  5
82C
330
5D7
100
AcDbEntity
  8
0
  6
Continuous
 62
     7
370
    25
100
AcDbLine
 10
-15.1304147864
 20
24.2635986849
 30
0.0
 11
-14.5736377934
 21
23.9421781684
 31
0.0
  0
LINE
  5
82D
330
5D7
100
AcDbEntity
  8
0
  6
Continuous
 62
     7
370
    25
100
AcDbLine
 10
-14.517960094
 20
23.97432022
 30
0.0
 11
-14.5736377934
 21
23.9421781684
 31
0.0
  0
LINE
  5
82E
330
5D7
100
AcDbEntity
  8
0
  6
Continuous
 62
     7
370
    25
100
AcDbLine
 10
-14.517960094
 20
26.5461023047
 30
0.0
 11
-14.517960094
 21
23.97432022
 31
0.0
  0
LINE
  5
82F
330
5D7
100
AcDbEntity
  8
0
  6
Continuous
 62
     7
370
    25
100
AcDbLine
 10
-14.0168608003
 20
26.8996648728
 30
0.0
 11
-14.0168608003
 21
26.8353807695
 31
0.0
  0
LINE
  5
830
330
5D7
100
AcDbEntity
  8
0
  6
Continuous
 62
     7
370
    25
100
AcDbLine
 10
-20.141407724
 20
29.7281654177
 30
0.0
 11
-20.141407724
 21
29.0853243848
 31
0.0
  0
LINE
  5
831
330
5D7
100
AcDbEntity
  8
0
  6
Continuous
 62
     7
370
    25
100
AcDbLine
 10
-17.4943288112
 20
9.8648554133
 30
0.0
 11
-39.3804410299
 21
22.4994390625
 31
0.0
  0
LINE
  5
832
330
5D7
100
AcDbEntity
  8
0
  6
Continuous
 62
     7
370
    25
100
AcDbLine
 10
-39.3526021803
 20
22.5609695079
 30
0.0
 11
-17.4271198828
 21
9.903657996
 31
0.0
  0
LINE
  5
833
330
5D7
100
AcDbEntity
  8
0
  6
Continuous
 62
     7
370
    25
100
AcDbLine
 10
-17.4271198828
 20
9.903657996
 30
0.0
 11
-17.4271198828
 21
2.8673046578
 31
0.0
  0
LINE
  5
834
330
5D7
100
AcDbEntity
  8
0
  6
Continuous
 62
     7
370
    25
100
AcDbLine
 10
-17.4943288112
 20
2.851233632
 30
0.0
 11
-17.4943288112
 21
9.8648554133
 31
0.0
  0
LINE
  5
835
330
5D7
100
AcDbEntity
  8
0
  6
Continuous
 62
     7
370
    25
100
AcDbLine
 10
-39.3804410299
 20
15.4858172812
 30
0.0
 11
-17.4943288112
 21
2.851233632
 31
0.0
  0
LINE
  5
836
330
5D7
100
AcDbEntity
  8
0
  6
Continuous
 62
     7
370
    25
100
AcDbLine
 10
-39.3804410299
 20
22.4994390625
 30
0.0
 11
-39.3804410299
 21
15.4858172812
 31
0.0
  0
LINE
  5
837
330
5D7
100
AcDbEntity
  8
0
  6
Continuous
 62
     7
370
    25
100
AcDbLine
 10
-17.4271198828
 20
4.3581546941
 30
0.0
 11
-17.3714421835
 21
4.3902967458
 31
0.0
  0
LINE
  5
838
330
5D7
100
AcDbEntity
  8
0
  6
Continuous
 62
     7
370
    25
100
AcDbLine
 10
-17.4271198828
 20
7.7336186803
 30
0.0
 11
-17.3714421835
 21
7.7657607319
 31
0.0
  0
LINE
  5
839
330
5D7
100
AcDbEntity
  8
0
  6
Continuous
 62
     7
370
    25
100
AcDbLine
 10
-17.3714421835
 20
8.3443176616
 30
0.0
 11
-17.4271198828
 21
8.3121756099
 31
0.0
  0
LINE
  5
83A
330
5D7
100
AcDbEntity
  8
0
  6
Continuous
 62
     8
370
    25
100
AcDbLine
 10
1.7120892537
 20
11.0054203336
 30
0.0
 11
1.7120892537
 21
9.5863769598
 31
0.0
  0
LINE
  5
83B
330
5D7
100
AcDbEntity
  8
0
  6
Continuous
 62
     8
370
    25
100
AcDbLine
 10
-2.6864489915
 20
13.5446424137
 30
0.0
 11
-2.6864489915
 21
12.1255990398
 31
0.0
  0
LINE
  5
83C
330
5D7
100
AcDbEntity
  8
0
  6
Continuous
 62
     8
370
    25
100
AcDbLine
 10
-38.5174366907
 20
22.0788387332
 30
0.0
 11
-38.5174366907
 21
23.5576208202
 31
0.0
  0
LINE
  5
83D
330
5D7
100
AcDbEntity
  8
0
  6
Continuous
 62
     8
370
    25
100
AcDbLine
 10
-39.4082798796
 20
15.5567582213
 30
0.0
 11
-39.391972259
 21
15.5567582213
 31
0.0
  0
LINE
  5
83E
330
5D7
100
AcDbEntity
  8
0
  6
Continuous
 62
     8
370
    25
100
AcDbLine
 10
-26.3633906214
 20
39.5374872392
 30
0.0
 11
-38.2682236722
 21
32.6649734045
 31
0.0
  0
LINE
  5
83F
330
5D7
100
AcDbEntity
  8
0
  6
Continuous
 62
     8
370
    25
100
AcDbLine
 10
-38.4834802966
 20
32.5407084003
 30
0.0
 11
-38.489597841
 21
32.5371768171
 31
0.0
  0
LINE
  5
840
330
5D7
100
AcDbEntity
  8
0
  6
Continuous
 62
     8
370
    25
100
AcDbLine
 10
-38.489597841
 20
32.5371768171
 30
0.0
 11
-38.489597841
 21
30.646090415
 31
0.0
  0
LINE
  5
841
330
5D7
100
AcDbEntity
  8
0
  6
Continuous
 62
     8
370
    25
100
AcDbLine
 10
-38.489597841
 20
23.5415497944
 30
0.0
 11
-38.489597841
 21
22.0627677074
 31
0.0
  0
LINE
  5
842
330
5D7
100
AcDbEntity
  8
0
  6
Continuous
 62
     8
370
    25
100
AcDbLine
 10
-26.3633906214
 20
33.9628807222
 30
0.0
 11
-26.3633906214
 21
39.5374872392
 31
0.0
  0
LINE
  5
843
330
5D7
100
AcDbEntity
  8
0
  6
Continuous
 62
     8
370
    25
100
AcDbLine
 10
-23.3042998746
 20
24.0447084545
 30
0.0
 11
-22.1311280832
 21
23.3674507952
 31
0.0
  0
LINE
  5
844
330
5D7
100
AcDbEntity
  8
0
  6
Continuous
 62
     8
370
    25
100
AcDbLine
 10
-21.407985694
 20
23.4642624061
 30
0.0
 11
-22.8588782802
 21
24.3018448677
 31
0.0
  0
LINE
  5
845
330
5D7
100
AcDbEntity
  8
0
  6
Continuous
 62
     8
370
    25
100
AcDbLine
 10
-17.3992810331
 20
3.8892770642
 30
0.0
 11
-17.4271198828
 21
3.9053480901
 31
0.0
  0
LINE
  5
846
330
5D7
100
AcDbEntity
  8
0
  6
Continuous
 62
     8
370
    25
100
AcDbLine
 10
-17.4271198828
 20
3.9696374178
 30
0.0
 11
-17.3714421835
 21
3.9374953661
 31
0.0
  0
LINE
  5
847
330
5D7
100
AcDbEntity
  8
0
  6
Continuous
 62
     8
370
    25
100
AcDbLine
 10
-17.4271198828
 20
3.3909916731
 30
0.0
 11
-17.3992810331
 21
3.3749206473
 31
0.0
  0
LINE
  5
848
330
5D7
100
AcDbEntity
  8
0
  6
Continuous
 62
     8
370
    25
100
AcDbLine
 10
-17.4271198828
 20
12.0707509845
 30
0.0
 11
-17.3714421835
 21
12.0386089329
 31
0.0
  0
LINE
  5
849
330
5D7
100
AcDbEntity
  8
0
  6
Continuous
 62
     8
370
    25
100
AcDbLine
 10
-17.3992810331
 20
11.990390631
 30
0.0
 11
-17.4271198828
 21
12.0064616568
 31
0.0
  0
LINE
  5
84A
330
5D7
100
AcDbEntity
  8
0
  6
Continuous
 62
     8
370
    25
100
AcDbLine
 10
-38.4732902205
 20
23.5321356054
 30
0.0
 11
-38.4732902205
 21
22.0533535184
 31
0.0
  0
LINE
  5
84B
330
5D7
100
AcDbEntity
  8
0
  6
Continuous
 62
     8
370
    25
100
AcDbLine
 10
-17.4271198828
 20
9.4989741242
 30
0.0
 11
-17.3992810331
 21
9.4829030984
 31
0.0
  0
LINE
  5
84C
330
5D7
100
AcDbEntity
  8
0
  6
Continuous
 62
     8
370
    25
100
AcDbLine
 10
-17.3714421835
 20
12.5528817592
 30
0.0
 11
-17.4271198828
 21
12.5850238109
 31
0.0
  0
LINE
  5
84D
330
5D7
100
AcDbEntity
  8
0
  6
Continuous
 62
     8
370
    25
100
AcDbLine
 10
-38.4732902205
 20
32.5144489544
 30
0.0
 11
-38.4732902205
 21
30.6366762261
 31
0.0
  0
LINE
  5
84E
330
5D7
100
AcDbEntity
  8
0
  6
Continuous
 62
     8
370
    25
100
AcDbLine
 10
-17.4271198828
 20
17.2143203783
 30
0.0
 11
-17.3992810331
 21
17.1982493525
 31
0.0
  0
LINE
  5
84F
330
5D7
100
AcDbEntity
  8
0
  6
Continuous
 62
     8
370
    25
100
AcDbLine
 10
-16.3855512165
 20
9.3023732037
 30
0.0
 11
-16.3855512165
 21
10.7811552907
 31
0.0
  0
LINE
  5
850
330
5D7
100
AcDbEntity
  8
0
  6
Continuous
 62
     8
370
    25
100
AcDbLine
 10
-17.2763944054
 20
2.7802926918
 30
0.0
 11
-17.2600867849
 21
2.7802926918
 31
0.0
  0
LINE
  5
851
330
5D7
100
AcDbEntity
  8
0
  6
Continuous
 62
     8
370
    25
100
AcDbLine
 10
-4.2315051473
 20
26.7610217097
 30
0.0
 11
-16.136338198
 21
19.888507875
 31
0.0
  0
LINE
  5
852
330
5D7
100
AcDbEntity
  8
0
  6
Continuous
 62
     8
370
    25
100
AcDbLine
 10
-16.3515948224
 20
19.7642428708
 30
0.0
 11
-16.3577123669
 21
19.7607112876
 31
0.0
  0
LINE
  5
853
330
5D7
100
AcDbEntity
  8
0
  6
Continuous
 62
     8
370
    25
100
AcDbLine
 10
-16.3577123669
 20
19.7607112876
 30
0.0
 11
-16.3577123669
 21
17.8696248855
 31
0.0
  0
LINE
  5
854
330
5D7
100
AcDbEntity
  8
0
  6
Continuous
 62
     8
370
    25
100
AcDbLine
 10
-16.3577123669
 20
10.7650842649
 30
0.0
 11
-16.3577123669
 21
9.2863021779
 31
0.0
  0
LINE
  5
855
330
5D7
100
AcDbEntity
  8
0
  6
Continuous
 62
     8
370
    25
100
AcDbLine
 10
-4.2315051473
 20
21.1864151926
 30
0.0
 11
-4.2315051473
 21
26.7610217097
 31
0.0
  0
LINE
  5
856
330
5D7
100
AcDbEntity
  8
0
  6
Continuous
 62
     8
370
    25
100
AcDbLine
 10
-1.1724144005
 20
11.268242925
 30
0.0
 11
0.000757391
 21
10.5909852656
 31
0.0
  0
LINE
  5
857
330
5D7
100
AcDbEntity
  8
0
  6
Continuous
 62
     8
370
    25
100
AcDbLine
 10
0.7238997802
 20
10.6877968766
 30
0.0
 11
-0.726992806
 21
11.5253793382
 31
0.0
  0
LINE
  5
858
330
5D7
100
AcDbEntity
  8
0
  6
Continuous
 62
     8
370
    25
100
AcDbLine
 10
4.732604441
 20
-8.8871884653
 30
0.0
 11
4.7047655914
 21
-8.8711174394
 31
0.0
  0
LINE
  5
859
330
5D7
100
AcDbEntity
  8
0
  6
Continuous
 62
     8
370
    25
100
AcDbLine
 10
4.7047655914
 20
-8.8068281117
 30
0.0
 11
4.7604432907
 21
-8.8389701634
 31
0.0
  0
LINE
  5
85A
330
5D7
100
AcDbEntity
  8
0
  6
Continuous
 62
     8
370
    25
100
AcDbLine
 10
4.7047655914
 20
-9.3854738564
 30
0.0
 11
4.732604441
 21
-9.4015448822
 31
0.0
  0
LINE
  5
85B
330
5D7
100
AcDbEntity
  8
0
  6
Continuous
 62
     8
370
    25
100
AcDbLine
 10
4.7047655914
 20
-0.705714545
 30
0.0
 11
4.7604432907
 21
-0.7378565966
 31
0.0
  0
LINE
  5
85C
330
5D7
100
AcDbEntity
  8
0
  6
Continuous
 62
     8
370
    25
100
AcDbLine
 10
4.732604441
 20
-0.7860748985
 30
0.0
 11
4.7047655914
 21
-0.7700038727
 31
0.0
  0
LINE
  5
85D
330
5D7
100
AcDbEntity
  8
0
  6
Continuous
 62
     8
370
    25
100
AcDbLine
 10
-16.3414047463
 20
10.7556700759
 30
0.0
 11
-16.3414047463
 21
9.2768879889
 31
0.0
  0
LINE
  5
85E
330
5D7
100
AcDbEntity
  8
0
  6
Continuous
 62
     8
370
    25
100
AcDbLine
 10
4.7047655914
 20
-3.2774914053
 30
0.0
 11
4.732604441
 21
-3.2935624311
 31
0.0
  0
LINE
  5
85F
330
5D7
100
AcDbEntity
  8
0
  6
Continuous
 62
     8
370
    25
100
AcDbLine
 10
4.7604432907
 20
-0.2235837703
 30
0.0
 11
4.7047655914
 21
-0.1914417187
 31
0.0
  0
LINE
  5
860
330
5D7
100
AcDbEntity
  8
0
  6
Continuous
 62
     8
370
    25
100
AcDbLine
 10
-16.3414047463
 20
19.7379834249
 30
0.0
 11
-16.3414047463
 21
17.8602106966
 31
0.0
  0
LINE
  5
861
330
5D7
100
AcDbEntity
  8
0
  6
Continuous
 62
     8
370
    25
100
AcDbLine
 10
4.7047655914
 20
4.4378548488
 30
0.0
 11
4.732604441
 21
4.4217838229
 31
0.0
  0
LINE
  5
862
330
5D7
100
AcDbEntity
  8
0
  6
Continuous
 62
     8
370
    25
100
AcDbLine
 10
-20.4197962205
 20
23.7818858631
 30
0.0
 11
-20.4197962205
 21
22.3628424893
 31
0.0
  0
LINE
  5
863
330
5D7
100
AcDbEntity
  8
0
  6
Continuous
 62
     8
370
    25
100
AcDbLine
 10
-24.8183344657
 20
26.3211079432
 30
0.0
 11
-24.8183344657
 21
24.9020645693
 31
0.0
  0
ARC
  5
864
330
5D7
100
AcDbEntity
  8
0
  6
Continuous
 62
     7
370
    25
100
AcDbCircle
 10
4.6653955126
 20
-1.3258381641
 30
0.0
 40
0.0393700787401574
100
AcDbArc
 50
240.0026882664
 51
0.0
  0
ARC
  5
865
330
5D7
100
AcDbEntity
  8
0
  6
Continuous
 62
     7
370
    25
100
AcDbCircle
 10
-17.2207167061
 20
11.3087454851
 30
0.0
 40
0.0393700787401663
100
AcDbArc
 50
180.0
 51
240.0026882663
  0
ARC
  5
866
330
5D7
100
AcDbEntity
  8
0
  6
Continuous
 62
     7
370
    25
100
AcDbCircle
 10
-39.4082798796
 20
32.5532478429
 30
0.0
 40
0.0393700787401957
100
AcDbArc
 50
119.9973117337
 51
180.0
  0
ARC
  5
867
330
5D7
100
AcDbEntity
  8
0
  6
Continuous
 62
     7
370
    25
100
AcDbCircle
 10
-26.3912294711
 20
39.553558265
 30
0.0
 40
0.0393700787401612
100
AcDbArc
 50
0.0
 51
60.0026882664
  0
ARC
  5
868
330
5D7
100
AcDbEntity
  8
0
  6
Continuous
 62
     7
370
    25
100
AcDbCircle
 10
-26.8366510655
 20
39.8106946782
 30
0.0
 40
0.0393700787400917
100
AcDbArc
 50
60.0026882663
 51
119.9973117337
  0
ARC
  5
869
330
5D7
100
AcDbEntity
  8
0
  6
Continuous
 62
     7
370
    25
100
AcDbCircle
 10
-39.4082798796
 20
15.579486084
 30
0.0
 40
0.0393700787401556
100
AcDbArc
 50
180.0
 51
270.0
  0
ARC
  5
86A
330
5D7
100
AcDbEntity
  8
0
  6
Continuous
 62
     7
370
    25
100
AcDbCircle
 10
-17.3320721047
 20
20.3231971914
 30
0.0
 40
0.0393700787401698
100
AcDbArc
 50
119.9973117337
 51
180.0
  0
ARC
  5
86B
330
5D7
100
AcDbEntity
  8
0
  6
Continuous
 62
     7
370
    25
100
AcDbCircle
 10
-4.7604432907
 20
27.0663712003
 30
0.0
 40
0.039370078740155
100
AcDbArc
 50
5.2692727001
 51
60.0026882664
  0
ARC
  5
86C
330
5D7
100
AcDbEntity
  8
0
  6
Continuous
 62
     7
370
    25
100
AcDbCircle
 10
-5.2058648851
 20
27.3235076135
 30
0.0
 40
0.039370078740188
100
AcDbArc
 50
60.0026882664
 51
119.9973117336
  0
ARC
  5
86D
330
5D7
100
AcDbEntity
  8
0
  6
Continuous
 62
     7
370
    25
100
AcDbCircle
 10
-17.3320721047
 20
2.8351626062
 30
0.0
 40
0.0393700787401627
100
AcDbArc
 50
180.0
 51
294.7361038319
  0
ARC
  5
86E
330
5D7
100
AcDbEntity
  8
0
  6
Continuous
 62
     7
370
    25
100
AcDbCircle
 10
-17.3714421835
 20
3.3909916731
 30
0.0
 40
0.0393700787401703
100
AcDbArc
 50
240.0026882664
 51
270.0
  0
ARC
  5
86F
330
5D7
100
AcDbEntity
  8
0
  6
Continuous
 62
     7
370
    25
100
AcDbCircle
 10
-17.3714421835
 20
9.4989741242
 30
0.0
 40
0.0393700787401876
100
AcDbArc
 50
240.0026882664
 51
270.0
  0
ARC
  5
870
330
5D7
100
AcDbEntity
  8
0
  6
Continuous
 62
     7
370
    25
100
AcDbCircle
 10
-17.2044090856
 20
20.4611795869
 30
0.0
 40
0.0393700787401356
100
AcDbArc
 50
5.5347458071
 51
60.0026882664
  0
ARC
  5
871
330
5D7
100
AcDbEntity
  8
0
  6
Continuous
 62
     7
370
    25
100
AcDbCircle
 10
-17.3714421835
 20
17.2143203783
 30
0.0
 40
0.0393700787401951
100
AcDbArc
 50
240.0026882664
 51
270.0
  0
ARC
  5
872
330
5D7
100
AcDbEntity
  8
0
  6
Continuous
 62
     7
370
    25
100
AcDbCircle
 10
-38.4454513708
 20
32.5305199802
 30
0.0
 40
0.039370078740163
100
AcDbArc
 50
119.9973117337
 51
180.0
  0
ARC
  5
873
330
5D7
100
AcDbEntity
  8
0
  6
Continuous
 62
     7
370
    25
100
AcDbCircle
 10
-38.2784182729
 20
32.6269461352
 30
0.0
 40
0.039370078740163
100
AcDbArc
 50
60.0026882663
 51
119.9973117336
  0
ARC
  5
874
330
5D7
100
AcDbEntity
  8
0
  6
Continuous
 62
     7
370
    25
100
AcDbCircle
 10
-17.2763944054
 20
19.7767823134
 30
0.0
 40
0.0393700787401485
100
AcDbArc
 50
119.9973117336
 51
180.0
  0
ARC
  5
875
330
5D7
100
AcDbEntity
  8
0
  6
Continuous
 62
     7
370
    25
100
AcDbCircle
 10
-4.2593439969
 20
26.7770927355
 30
0.0
 40
0.0393700787401743
100
AcDbArc
 50
0.0
 51
60.0026882663
  0
ARC
  5
876
330
5D7
100
AcDbEntity
  8
0
  6
Continuous
 62
     7
370
    25
100
AcDbCircle
 10
-4.7047655914
 20
27.0342291487
 30
0.0
 40
0.0393700787401801
100
AcDbArc
 50
60.0026882664
 51
119.9973117336
  0
ARC
  5
877
330
5D7
100
AcDbEntity
  8
0
  6
Continuous
 62
     7
370
    25
100
AcDbCircle
 10
-17.2763944054
 20
2.8030205545
 30
0.0
 40
0.039370078740153
100
AcDbArc
 50
180.0
 51
270.0
  0
ARC
  5
878
330
5D7
100
AcDbEntity
  8
0
  6
Continuous
 62
     7
370
    25
100
AcDbCircle
 10
4.7998133694
 20
7.5467316619
 30
0.0
 40
0.0393700787401662
100
AcDbArc
 50
119.9973117337
 51
180.0
  0
ARC
  5
879
330
5D7
100
AcDbEntity
  8
0
  6
Continuous
 62
     7
370
    25
100
AcDbCircle
 10
17.3714421835
 20
14.2899056708
 30
0.0
 40
0.0393700787401564
100
AcDbArc
 50
0.0
 51
60.0026882664
  0
ARC
  5
87A
330
5D7
100
AcDbEntity
  8
0
  6
Continuous
 62
     7
370
    25
100
AcDbCircle
 10
16.926020589
 20
14.547042084
 30
0.0
 40
0.0393700787401658
100
AcDbArc
 50
60.0026882664
 51
119.9973117336
  0
ARC
  5
87B
330
5D7
100
AcDbEntity
  8
0
  6
Continuous
 62
     7
370
    25
100
AcDbCircle
 10
4.7998133694
 20
-9.9413029233
 30
0.0
 40
0.0393700787401627
100
AcDbArc
 50
180.0
 51
299.9973117336
  0
ARC
  5
87C
330
5D7
100
AcDbEntity
  8
0
  6
Continuous
 62
     7
370
    25
100
AcDbCircle
 10
17.3714421835
 20
-2.6838560881
 30
0.0
 40
0.0393700787401663
100
AcDbArc
 50
299.9973117337
 51
360.0
  0
ARC
  5
87D
330
5D7
100
AcDbEntity
  8
0
  6
Continuous
 62
     7
370
    25
100
AcDbCircle
 10
4.7604432907
 20
-9.3854738564
 30
0.0
 40
0.0393700787401325
100
AcDbArc
 50
240.0026882663
 51
270.0
  0
ARC
  5
87E
330
5D7
100
AcDbEntity
  8
0
  6
Continuous
 62
     7
370
    25
100
AcDbCircle
 10
4.7604432907
 20
-3.2774914053
 30
0.0
 40
0.0393700787401245
100
AcDbArc
 50
240.0026882663
 51
270.0
  0
ARC
  5
87F
330
5D7
100
AcDbEntity
  8
0
  6
Continuous
 62
     7
370
    25
100
AcDbCircle
 10
4.9274763886
 20
7.6847140574
 30
0.0
 40
0.0393700787401758
100
AcDbArc
 50
5.5347458071
 51
60.0026882663
  0
ARC
  5
880
330
5D7
100
AcDbEntity
  8
0
  6
Continuous
 62
     7
370
    25
100
AcDbCircle
 10
4.7604432907
 20
4.4378548488
 30
0.0
 40
0.0393700787401476
100
AcDbArc
 50
240.0026882663
 51
270.0
  0
ARC
  5
881
330
5D7
100
AcDbEntity
  8
0
  6
Continuous
 62
     7
370
    25
100
AcDbCircle
 10
-16.3135658967
 20
19.7540544507
 30
0.0
 40
0.0393700787401556
100
AcDbArc
 50
119.9973117337
 51
180.0
  0
ARC
  5
882
330
5D7
100
AcDbEntity
  8
0
  6
Continuous
 62
     7
370
    25
100
AcDbCircle
 10
-16.1465327987
 20
19.8504806057
 30
0.0
 40
0.0393700787401691
100
AcDbArc
 50
60.0026882664
 51
119.9973117336
  0
ARC
  5
883
330
5D7
100
AcDbEntity
  8
0
  6
Continuous
 62
     7
370
    25
100
AcDbCircle
 10
4.6653955126
 20
-9.9091608717
 30
0.0
 40
0.0393700787401592
100
AcDbArc
 50
240.0026882664
 51
0.0
  0
ARC
  5
884
330
5D7
100
AcDbEntity
  8
0
  6
Continuous
 62
     7
370
    25
100
AcDbCircle
 10
-17.2207167061
 20
2.7254227775
 30
0.0
 40
0.0393700787401704
100
AcDbArc
 50
180.0
 51
240.0026882663
  0
ARC
  5
885
330
5D7
100
AcDbEntity
  8
0
  6
Continuous
 62
     7
370
    25
100
AcDbCircle
 10
-17.4664899615
 20
11.4506273654
 30
0.0
 40
0.0393700787401592
100
AcDbArc
 50
240.0026882663
 51
360.0
  0
ARC
  5
886
330
5D7
100
AcDbEntity
  8
0
  6
Continuous
 62
     7
370
    25
100
AcDbCircle
 10
-39.3526021803
 20
24.0852110146
 30
0.0
 40
0.0393700787400917
100
AcDbArc
 50
179.9999999999
 51
240.0026882664
  0
ARC
  5
887
330
5D7
100
AcDbEntity
  8
0
  6
Continuous
 62
     7
370
    25
100
AcDbCircle
 10
-17.4664899615
 20
2.8673046578
 30
0.0
 40
0.0393700787401614
100
AcDbArc
 50
240.0026882663
 51
360.0
  0
ARC
  5
888
330
5D7
100
AcDbEntity
  8
0
  6
Continuous
 62
     7
370
    25
100
AcDbCircle
 10
-39.3526021803
 20
15.501888307
 30
0.0
 40
0.0393700787400917
100
AcDbArc
 50
179.9999999999
 51
240.0026882664
  0
ARC
  5
889
330
5D7
100
AcDbEntity
  8
0
  6
Continuous
 62
     7
370
    25
100
AcDbCircle
 10
-38.5163024254
 20
32.5873158551
 30
0.0
 40
0.0568071998464334
100
AcDbArc
 50
268.8559032542
 51
298.0402391154
  0
ARC
  5
88A
330
5D7
100
AcDbEntity
  8
0
  6
Continuous
 62
     7
370
    25
100
AcDbCircle
 10
-38.5500394198
 20
32.5344263898
 30
0.0
 40
0.0605041262823602
100
AcDbArc
 50
2.6054784857
 51
57.39452166
  0
ARC
  5
88B
330
5D7
100
AcDbEntity
  8
0
  6
Continuous
 62
     7
370
    25
100
AcDbCircle
 10
-26.4238322002
 20
39.5347368119
 30
0.0
 40
0.0605041262823564
100
AcDbArc
 50
2.6054784856
 51
57.39452166
  0
ARC
  5
88C
330
5D7
100
AcDbEntity
  8
0
  6
Continuous
 62
     7
370
    25
100
AcDbCircle
 10
-17.3353522337
 20
19.8049072615
 30
0.0
 40
0.0363128296282938
100
AcDbArc
 50
84.8174221345
 51
173.6486598634
  0
ARC
  5
88D
330
5D7
100
AcDbEntity
  8
0
  6
Continuous
 62
     7
370
    25
100
AcDbCircle
 10
-17.3353522337
 20
20.3191800879
 30
0.0
 40
0.0363128296282993
100
AcDbArc
 50
84.8174221345
 51
173.6486598634
  0
ARC
  5
88E
330
5D7
100
AcDbEntity
  8
0
  6
Continuous
 62
     7
370
    25
100
AcDbCircle
 10
-17.3388394543
 20
3.886526637
 30
0.0
 40
0.0605041262823502
100
AcDbArc
 50
122.60547834
 51
177.3945215144
  0
ARC
  5
88F
330
5D7
100
AcDbEntity
  8
0
  6
Continuous
 62
     7
370
    25
100
AcDbCircle
 10
-17.3388394543
 20
11.9876402037
 30
0.0
 40
0.0605041262823853
100
AcDbArc
 50
122.60547834
 51
177.3945215143
  0
ARC
  5
890
330
5D7
100
AcDbEntity
  8
0
  6
Continuous
 62
     7
370
    25
100
AcDbCircle
 10
-17.3388394543
 20
20.3459319789
 30
0.0
 40
0.0605041262823489
100
AcDbArc
 50
122.60547834
 51
177.3945215144
  0
ARC
  5
891
330
5D7
100
AcDbEntity
  8
0
  6
Continuous
 62
     7
370
    25
100
AcDbCircle
 10
-38.4128486417
 20
32.5116985272
 30
0.0
 40
0.0605041262823602
100
AcDbArc
 50
122.60547834
 51
177.3945215144
  0
ARC
  5
892
330
5D7
100
AcDbEntity
  8
0
  6
Continuous
 62
     7
370
    25
100
AcDbCircle
 10
-16.3844169513
 20
19.8108503255
 30
0.0
 40
0.0568071998464869
100
AcDbArc
 50
268.8559032541
 51
298.0402391154
  0
ARC
  5
893
330
5D7
100
AcDbEntity
  8
0
  6
Continuous
 62
     7
370
    25
100
AcDbCircle
 10
-16.4181539457
 20
19.7579608603
 30
0.0
 40
0.060504126282356
100
AcDbArc
 50
2.6054784856
 51
57.39452166
  0
ARC
  5
894
330
5D7
100
AcDbEntity
  8
0
  6
Continuous
 62
     7
370
    25
100
AcDbCircle
 10
-4.2919467261
 20
26.7582712824
 30
0.0
 40
0.0605041262823489
100
AcDbArc
 50
2.6054784856
 51
57.39452166
  0
ARC
  5
895
330
5D7
100
AcDbEntity
  8
0
  6
Continuous
 62
     7
370
    25
100
AcDbCircle
 10
4.7965332404
 20
7.028441732
 30
0.0
 40
0.0363128296282944
100
AcDbArc
 50
84.8174221345
 51
173.6486598635
  0
ARC
  5
896
330
5D7
100
AcDbEntity
  8
0
  6
Continuous
 62
     7
370
    25
100
AcDbCircle
 10
4.7672106403
 20
7.0136373825
 30
0.0
 40
0.0605041262823532
100
AcDbArc
 50
2.6054784856
 51
57.39452166
  0
ARC
  5
897
330
5D7
100
AcDbEntity
  8
0
  6
Continuous
 62
     7
370
    25
100
AcDbCircle
 10
17.3388394543
 20
14.2710842177
 30
0.0
 40
0.0605041262823562
100
AcDbArc
 50
2.6054784857
 51
57.39452166
  0
ARC
  5
898
330
5D7
100
AcDbEntity
  8
0
  6
Continuous
 62
     7
370
    25
100
AcDbCircle
 10
4.7965332404
 20
7.5427145584
 30
0.0
 40
0.0363128296282955
100
AcDbArc
 50
84.8174221345
 51
173.6486598634
  0
ARC
  5
899
330
5D7
100
AcDbEntity
  8
0
  6
Continuous
 62
     7
370
    25
100
AcDbCircle
 10
4.7930460198
 20
-8.8899388925
 30
0.0
 40
0.0605041262823715
100
AcDbArc
 50
122.60547834
 51
177.3945215143
  0
ARC
  5
89A
330
5D7
100
AcDbEntity
  8
0
  6
Continuous
 62
     7
370
    25
100
AcDbCircle
 10
4.7930460198
 20
-0.7888253258
 30
0.0
 40
0.0605041262823707
100
AcDbArc
 50
122.60547834
 51
177.3945215143
  0
ARC
  5
89B
330
5D7
100
AcDbEntity
  8
0
  6
Continuous
 62
     7
370
    25
100
AcDbCircle
 10
4.7930460198
 20
7.5694664494
 30
0.0
 40
0.0605041262823534
100
AcDbArc
 50
122.60547834
 51
177.3945215144
  0
ARC
  5
89C
330
5D7
100
AcDbEntity
  8
0
  6
Continuous
 62
     7
370
    25
100
AcDbCircle
 10
-16.2809631675
 20
19.7352329976
 30
0.0
 40
0.0605041262823495
100
AcDbArc
 50
122.60547834
 51
177.3945215144
  0
ARC
  5
89D
330
5D7
100
AcDbEntity
  8
0
  6
Continuous
 62
     8
370
    25
100
AcDbCircle
 10
4.6567926602
 20
-1.3440636615
 30
0.0
 40
0.0193562738973021
100
AcDbArc
 50
173.6093872136
 51
235.078432393
  0
ARC
  5
89E
330
5D7
100
AcDbEntity
  8
0
  6
Continuous
 62
     8
370
    25
100
AcDbCircle
 10
-17.2293195585
 20
11.2905199877
 30
0.0
 40
0.0193562738972952
100
AcDbArc
 50
173.6093872136
 51
235.078432393
  0
ARC
  5
89F
330
5D7
100
AcDbEntity
  8
0
  6
Continuous
 62
     8
370
    25
100
AcDbCircle
 10
-17.2408067271
 20
11.3104068106
 30
0.0
 40
0.0193515019933857
100
AcDbArc
 50
184.9249021695
 51
246.3952387881
  0
ARC
  5
8A0
330
5D7
100
AcDbEntity
  8
0
  6
Continuous
 62
     8
370
    25
100
AcDbCircle
 10
-39.4198121652
 20
32.5692974288
 30
0.0
 40
0.0198022533819501
100
AcDbArc
 50
54.3824225248
 51
114.3071190461
  0
ARC
  5
8A1
330
5D7
100
AcDbEntity
  8
0
  6
Continuous
 62
     8
370
    25
100
AcDbCircle
 10
-26.8481833511
 20
39.8267442641
 30
0.0
 40
0.0198022533820169
100
AcDbArc
 50
54.3824225249
 51
114.307119046
  0
ARC
  5
8A2
330
5D7
100
AcDbEntity
  8
0
  6
Continuous
 62
     8
370
    25
100
AcDbCircle
 10
-26.3715624263
 20
39.555523083
 30
0.0
 40
0.019800758995791
100
AcDbArc
 50
294.3746582935
 51
354.3052007488
  0
ARC
  5
8A3
330
5D7
100
AcDbEntity
  8
0
  6
Continuous
 62
     8
370
    25
100
AcDbCircle
 10
-26.3796971854
 20
39.5696078509
 30
0.0
 40
0.019802253381976
100
AcDbArc
 50
65.6928809539
 51
125.6175774752
  0
ARC
  5
8A4
330
5D7
100
AcDbEntity
  8
0
  6
Continuous
 62
     8
370
    25
100
AcDbCircle
 10
-26.8251187799
 20
39.8267442641
 30
0.0
 40
0.0198022533819127
100
AcDbArc
 50
65.6928809538
 51
125.6175774753
  0
ARC
  5
8A5
330
5D7
100
AcDbEntity
  8
0
  6
Continuous
 62
     8
370
    25
100
AcDbCircle
 10
-17.3650275696
 20
19.7897024332
 30
0.0
 40
0.0610316162213866
100
AcDbArc
 50
12.843276151
 51
57.3181546135
  0
ARC
  5
8A6
330
5D7
100
AcDbEntity
  8
0
  6
Continuous
 62
     8
370
    25
100
AcDbCircle
 10
-4.7933913279
 20
27.047185261
 30
0.0
 40
0.0609973126903923
100
AcDbArc
 50
14.6347164038
 51
57.305771306
  0
ARC
  5
8A7
330
5D7
100
AcDbEntity
  8
0
  6
Continuous
 62
     8
370
    25
100
AcDbCircle
 10
-17.3436043904
 20
20.3392467773
 30
0.0
 40
0.0198022533819681
100
AcDbArc
 50
54.3824225248
 51
114.3071190461
  0
ARC
  5
8A8
330
5D7
100
AcDbEntity
  8
0
  6
Continuous
 62
     8
370
    25
100
AcDbCircle
 10
-5.2173971707
 20
27.3395571994
 30
0.0
 40
0.0198022533820175
100
AcDbArc
 50
54.3824225249
 51
114.307119046
  0
ARC
  5
8A9
330
5D7
100
AcDbEntity
  8
0
  6
Continuous
 62
     8
370
    25
100
AcDbCircle
 10
-4.748911005
 20
27.0824207863
 30
0.0
 40
0.0198022533819626
100
AcDbArc
 50
65.6928809539
 51
125.6175774752
  0
ARC
  5
8AA
330
5D7
100
AcDbEntity
  8
0
  6
Continuous
 62
     8
370
    25
100
AcDbCircle
 10
-5.1943325995
 20
27.3395571994
 30
0.0
 40
0.0198022533819815
100
AcDbArc
 50
65.6928809539
 51
125.6175774751
  0
ARC
  5
8AB
330
5D7
100
AcDbEntity
  8
0
  6
Continuous
 62
     8
370
    25
100
AcDbCircle
 10
-17.3725764488
 20
3.9394161022
 30
0.0
 40
0.0568071998465337
100
AcDbArc
 50
241.9597608846
 51
271.1440967458
  0
ARC
  5
8AC
330
5D7
100
AcDbEntity
  8
0
  6
Continuous
 62
     8
370
    25
100
AcDbCircle
 10
-17.3725764488
 20
3.4250596853
 30
0.0
 40
0.0568071998465798
100
AcDbArc
 50
241.9597608846
 51
271.1440967458
  0
ARC
  5
8AD
330
5D7
100
AcDbEntity
  8
0
  6
Continuous
 62
     8
370
    25
100
AcDbCircle
 10
-17.3799896197
 20
3.3727912482
 30
0.0
 40
0.0194085799158839
100
AcDbArc
 50
173.701152472
 51
234.9866671346
  0
ARC
  5
8AE
330
5D7
100
AcDbEntity
  8
0
  6
Continuous
 62
     8
370
    25
100
AcDbCircle
 10
-17.3725764488
 20
12.0405296689
 30
0.0
 40
0.0568071998465257
100
AcDbArc
 50
241.9597608846
 51
271.1440967458
  0
ARC
  5
8AF
330
5D7
100
AcDbEntity
  8
0
  6
Continuous
 62
     8
370
    25
100
AcDbCircle
 10
-17.3725764488
 20
9.5330421364
 30
0.0
 40
0.056807199846531
100
AcDbArc
 50
241.9597608846
 51
271.1440967458
  0
ARC
  5
8B0
330
5D7
100
AcDbEntity
  8
0
  6
Continuous
 62
     8
370
    25
100
AcDbCircle
 10
-17.3805532553
 20
9.4805186878
 30
0.0
 40
0.0188789585247407
100
AcDbArc
 50
172.7441704465
 51
235.9436491601
  0
ARC
  5
8B1
330
5D7
100
AcDbEntity
  8
0
  6
Continuous
 62
     8
370
    25
100
AcDbCircle
 10
-17.4053180048
 20
20.344894154
 30
0.0
 40
0.0620665202659469
100
AcDbArc
 50
15.0197433969
 51
56.9207443129
  0
ARC
  5
8B2
330
5D7
100
AcDbEntity
  8
0
  6
Continuous
 62
     8
370
    25
100
AcDbCircle
 10
-17.3718371413
 20
20.4013942182
 30
0.0
 40
0.0594281274021004
100
AcDbArc
 50
242.4966996038
 51
275.1026363497
  0
ARC
  5
8B3
330
5D7
100
AcDbEntity
  8
0
  6
Continuous
 62
     8
370
    25
100
AcDbCircle
 10
-17.3725764488
 20
17.2483883904
 30
0.0
 40
0.0568071998464339
100
AcDbArc
 50
241.9597608846
 51
271.1440967459
  0
ARC
  5
8B4
330
5D7
100
AcDbEntity
  8
0
  6
Continuous
 62
     8
370
    25
100
AcDbCircle
 10
-17.2373571228
 20
20.4419936476
 30
0.0
 40
0.0609973126905005
100
AcDbArc
 50
14.6347164038
 51
57.305771306
  0
ARC
  5
8B5
330
5D7
100
AcDbEntity
  8
0
  6
Continuous
 62
     8
370
    25
100
AcDbCircle
 10
-17.1928767999
 20
20.4772291729
 30
0.0
 40
0.0198022533819616
100
AcDbArc
 50
65.6928809539
 51
125.6175774752
  0
ARC
  5
8B6
330
5D7
100
AcDbEntity
  8
0
  6
Continuous
 62
     8
370
    25
100
AcDbCircle
 10
-38.2668859873
 20
32.6429957211
 30
0.0
 40
0.0198022533819915
100
AcDbArc
 50
65.692880954
 51
125.6175774752
  0
ARC
  5
8B7
330
5D7
100
AcDbEntity
  8
0
  6
Continuous
 62
     8
370
    25
100
AcDbCircle
 10
-17.3805532553
 20
17.1958649419
 30
0.0
 40
0.0188789585316299
100
AcDbArc
 50
172.7441704594
 51
235.9436491472
  0
ARC
  5
8B8
330
5D7
100
AcDbEntity
  8
0
  6
Continuous
 62
     8
370
    25
100
AcDbCircle
 10
-38.4651184156
 20
32.5324847982
 30
0.0
 40
0.019800758995796
100
AcDbArc
 50
185.6947992512
 51
245.6253417065
  0
ARC
  5
8B9
330
5D7
100
AcDbEntity
  8
0
  6
Continuous
 62
     8
370
    25
100
AcDbCircle
 10
-38.4569836564
 20
32.5465695662
 30
0.0
 40
0.0198022533819915
100
AcDbArc
 50
54.3824225248
 51
114.307119046
  0
ARC
  5
8BA
330
5D7
100
AcDbEntity
  8
0
  6
Continuous
 62
     8
370
    25
100
AcDbCircle
 10
-38.2899505585
 20
32.6429957211
 30
0.0
 40
0.0198022533819626
100
AcDbArc
 50
54.3824225248
 51
114.3071190461
  0
ARC
  5
8BB
330
5D7
100
AcDbEntity
  8
0
  6
Continuous
 62
     8
370
    25
100
AcDbCircle
 10
-17.2879266911
 20
19.7928318993
 30
0.0
 40
0.0198022533819411
100
AcDbArc
 50
54.3824225248
 51
114.3071190461
  0
ARC
  5
8BC
330
5D7
100
AcDbEntity
  8
0
  6
Continuous
 62
     8
370
    25
100
AcDbCircle
 10
-4.716297877
 20
27.0502787346
 30
0.0
 40
0.0198022533819542
100
AcDbArc
 50
54.3824225248
 51
114.3071190461
  0
ARC
  5
8BD
330
5D7
100
AcDbEntity
  8
0
  6
Continuous
 62
     8
370
    25
100
AcDbCircle
 10
-4.2396769521
 20
26.7790575535
 30
0.0
 40
0.0198007589958232
100
AcDbArc
 50
294.3746582936
 51
354.3052007488
  0
ARC
  5
8BE
330
5D7
100
AcDbEntity
  8
0
  6
Continuous
 62
     8
370
    25
100
AcDbCircle
 10
-4.2478117113
 20
26.7931423214
 30
0.0
 40
0.0198022533819882
100
AcDbArc
 50
65.692880954
 51
125.6175774752
  0
ARC
  5
8BF
330
5D7
100
AcDbEntity
  8
0
  6
Continuous
 62
     8
370
    25
100
AcDbCircle
 10
-4.6932333057
 20
27.0502787346
 30
0.0
 40
0.0198022533819418
100
AcDbArc
 50
65.6928809539
 51
125.6175774752
  0
ARC
  5
8C0
330
5D7
100
AcDbEntity
  8
0
  6
Continuous
 62
     8
370
    25
100
AcDbCircle
 10
4.7882810838
 20
7.5627812478
 30
0.0
 40
0.0198022533819701
100
AcDbArc
 50
54.3824225248
 51
114.3071190461
  0
ARC
  5
8C1
330
5D7
100
AcDbEntity
  8
0
  6
Continuous
 62
     8
370
    25
100
AcDbCircle
 10
16.9144883034
 20
14.5630916699
 30
0.0
 40
0.0198022533819698
100
AcDbArc
 50
54.3824225248
 51
114.3071190461
  0
ARC
  5
8C2
330
5D7
100
AcDbEntity
  8
0
  6
Continuous
 62
     8
370
    25
100
AcDbCircle
 10
17.3829744691
 20
14.3059552567
 30
0.0
 40
0.0198022533819584
100
AcDbArc
 50
65.6928809539
 51
125.6175774752
  0
ARC
  5
8C3
330
5D7
100
AcDbEntity
  8
0
  6
Continuous
 62
     8
370
    25
100
AcDbCircle
 10
17.3911092283
 20
14.2918704888
 30
0.0
 40
0.0198007589958223
100
AcDbArc
 50
294.3746582936
 51
354.3052007488
  0
ARC
  5
8C4
330
5D7
100
AcDbEntity
  8
0
  6
Continuous
 62
     8
370
    25
100
AcDbCircle
 10
17.3911092283
 20
-2.6818912701
 30
0.0
 40
0.0198007589958166
100
AcDbArc
 50
294.3746582936
 51
354.3052007488
  0
ARC
  5
8C5
330
5D7
100
AcDbEntity
  8
0
  6
Continuous
 62
     8
370
    25
100
AcDbCircle
 10
16.9375528747
 20
14.5630916699
 30
0.0
 40
0.0198022533819569
100
AcDbArc
 50
65.6928809539
 51
125.6175774752
  0
ARC
  5
8C6
330
5D7
100
AcDbEntity
  8
0
  6
Continuous
 62
     8
370
    25
100
AcDbCircle
 10
4.8083608056
 20
-9.9595033483
 30
0.0
 40
0.0194085799167012
100
AcDbArc
 50
305.0133328668
 51
6.2988475265
  0
ARC
  5
8C7
330
5D7
100
AcDbEntity
  8
0
  6
Continuous
 62
     8
370
    25
100
AcDbCircle
 10
17.3799896197
 20
-2.702056513
 30
0.0
 40
0.0194085799141457
100
AcDbArc
 50
305.0133328624
 51
6.298847531
  0
ARC
  5
8C8
330
5D7
100
AcDbEntity
  8
0
  6
Continuous
 62
     8
370
    25
100
AcDbCircle
 10
4.7593090254
 20
-8.8370494273
 30
0.0
 40
0.0568071998464851
100
AcDbArc
 50
241.9597608846
 51
271.1440967459
  0
ARC
  5
8C9
330
5D7
100
AcDbEntity
  8
0
  6
Continuous
 62
     8
370
    25
100
AcDbCircle
 10
4.7593090254
 20
-9.3514058442
 30
0.0
 40
0.0568071998465716
100
AcDbArc
 50
241.9597608846
 51
271.1440967458
  0
ARC
  5
8CA
330
5D7
100
AcDbEntity
  8
0
  6
Continuous
 62
     8
370
    25
100
AcDbCircle
 10
4.7518958545
 20
-9.4036742813
 30
0.0
 40
0.0194085799146834
100
AcDbArc
 50
173.7011524699
 51
234.9866671367
  0
ARC
  5
8CB
330
5D7
100
AcDbEntity
  8
0
  6
Continuous
 62
     8
370
    25
100
AcDbCircle
 10
4.7593090254
 20
-0.7359358606
 30
0.0
 40
0.0568071998465767
100
AcDbArc
 50
241.9597608846
 51
271.1440967458
  0
ARC
  5
8CC
330
5D7
100
AcDbEntity
  8
0
  6
Continuous
 62
     8
370
    25
100
AcDbCircle
 10
4.7593090254
 20
-3.2434233931
 30
0.0
 40
0.0568071998465314
100
AcDbArc
 50
241.9597608846
 51
271.1440967458
  0
ARC
  5
8CD
330
5D7
100
AcDbEntity
  8
0
  6
Continuous
 62
     8
370
    25
100
AcDbCircle
 10
4.7513322188
 20
-3.2959468417
 30
0.0
 40
0.0188789585173241
100
AcDbArc
 50
172.7441704327
 51
235.943649174
  0
ARC
  5
8CE
330
5D7
100
AcDbEntity
  8
0
  6
Continuous
 62
     8
370
    25
100
AcDbCircle
 10
4.7265674693
 20
7.5684286245
 30
0.0
 40
0.0620665202661321
100
AcDbArc
 50
15.019743397
 51
56.9207443129
  0
ARC
  5
8CF
330
5D7
100
AcDbEntity
  8
0
  6
Continuous
 62
     8
370
    25
100
AcDbCircle
 10
4.7600483328
 20
7.6249286887
 30
0.0
 40
0.0594281274013351
100
AcDbArc
 50
242.4966996037
 51
275.1026363458
  0
ARC
  5
8D0
330
5D7
100
AcDbEntity
  8
0
  6
Continuous
 62
     8
370
    25
100
AcDbCircle
 10
4.7593090254
 20
4.4719228609
 30
0.0
 40
0.0568071998465539
100
AcDbArc
 50
241.9597608846
 51
271.1440967458
  0
ARC
  5
8D1
330
5D7
100
AcDbEntity
  8
0
  6
Continuous
 62
     8
370
    25
100
AcDbCircle
 10
4.8945283514
 20
7.6655281181
 30
0.0
 40
0.0609973126904495
100
AcDbArc
 50
14.6347164038
 51
57.305771306
  0
ARC
  5
8D2
330
5D7
100
AcDbEntity
  8
0
  6
Continuous
 62
     8
370
    25
100
AcDbCircle
 10
4.9390086742
 20
7.7007636434
 30
0.0
 40
0.0198022533819677
100
AcDbArc
 50
65.6928809539
 51
125.6175774752
  0
ARC
  5
8D3
330
5D7
100
AcDbEntity
  8
0
  6
Continuous
 62
     8
370
    25
100
AcDbCircle
 10
-16.1350005131
 20
19.8665301916
 30
0.0
 40
0.0198022533819551
100
AcDbArc
 50
65.6928809539
 51
125.6175774752
  0
ARC
  5
8D4
330
5D7
100
AcDbEntity
  8
0
  6
Continuous
 62
     8
370
    25
100
AcDbCircle
 10
4.7513322188
 20
4.4193994124
 30
0.0
 40
0.0188789585124252
100
AcDbArc
 50
172.7441704235
 51
235.9436491831
  0
ARC
  5
8D5
330
5D7
100
AcDbEntity
  8
0
  6
Continuous
 62
     8
370
    25
100
AcDbCircle
 10
-16.3332329414
 20
19.7560192687
 30
0.0
 40
0.01980075899582
100
AcDbArc
 50
185.6947992512
 51
245.6253417064
  0
ARC
  5
8D6
330
5D7
100
AcDbEntity
  8
0
  6
Continuous
 62
     8
370
    25
100
AcDbCircle
 10
-16.3250981823
 20
19.7701040367
 30
0.0
 40
0.0198022533819547
100
AcDbArc
 50
54.3824225248
 51
114.3071190461
  0
ARC
  5
8D7
330
5D7
100
AcDbEntity
  8
0
  6
Continuous
 62
     8
370
    25
100
AcDbCircle
 10
-16.1580650844
 20
19.8665301916
 30
0.0
 40
0.019802253381944
100
AcDbArc
 50
54.3824225248
 51
114.3071190461
  0
ARC
  5
8D8
330
5D7
100
AcDbEntity
  8
0
  6
Continuous
 62
     8
370
    25
100
AcDbCircle
 10
4.6567926602
 20
-9.9273863691
 30
0.0
 40
0.0193562738973119
100
AcDbArc
 50
173.6093872137
 51
235.078432393
  0
ARC
  5
8D9
330
5D7
100
AcDbEntity
  8
0
  6
Continuous
 62
     8
370
    25
100
AcDbCircle
 10
-17.2293195585
 20
2.7071972801
 30
0.0
 40
0.0193562738973089
100
AcDbArc
 50
173.6093872136
 51
235.078432393
  0
ARC
  5
8DA
330
5D7
100
AcDbEntity
  8
0
  6
Continuous
 62
     8
370
    25
100
AcDbCircle
 10
-17.2408067271
 20
2.727084103
 30
0.0
 40
0.0193515019933831
100
AcDbArc
 50
184.9249021695
 51
246.3952387881
  0
ARC
  5
8DB
330
5D7
100
AcDbEntity
  8
0
  6
Continuous
 62
     8
370
    25
100
AcDbCircle
 10
-17.4750928139
 20
11.432401868
 30
0.0
 40
0.0193562738972982
100
AcDbArc
 50
173.6093872136
 51
235.078432393
  0
ARC
  5
8DC
330
5D7
100
AcDbEntity
  8
0
  6
Continuous
 62
     8
370
    25
100
AcDbCircle
 10
-39.3612050327
 20
24.0669855172
 30
0.0
 40
0.0193562738973219
100
AcDbArc
 50
173.6093872137
 51
235.078432393
  0
ARC
  5
8DD
330
5D7
100
AcDbEntity
  8
0
  6
Continuous
 62
     8
370
    25
100
AcDbCircle
 10
-39.3726922013
 20
24.0868723401
 30
0.0
 40
0.0193515019933883
100
AcDbArc
 50
184.9249021695
 51
246.3952387881
  0
ARC
  5
8DE
330
5D7
100
AcDbEntity
  8
0
  6
Continuous
 62
     8
370
    25
100
AcDbCircle
 10
-17.4750928139
 20
2.8490791604
 30
0.0
 40
0.0193562738973088
100
AcDbArc
 50
173.6093872136
 51
235.078432393
  0
ARC
  5
8DF
330
5D7
100
AcDbEntity
  8
0
  6
Continuous
 62
     8
370
    25
100
AcDbCircle
 10
-39.3612050327
 20
15.4836628096
 30
0.0
 40
0.019356273897315
100
AcDbArc
 50
173.6093872137
 51
235.078432393
  0
ARC
  5
8E0
330
5D7
100
AcDbEntity
  8
0
  6
Continuous
 62
     8
370
    25
100
AcDbCircle
 10
-39.3726922013
 20
15.5035496325
 30
0.0
 40
0.0193515019933886
100
AcDbArc
 50
184.9249021695
 51
246.3952387881
  0
VIEWPORT
  5
8E7
330
5D7
100
AcDbEntity
  8
0
100
AcDbViewport
 10
0.0
 20
0.0
 30
0.0
 40
8.4
 41
6.4
 68
     1
 69
     1
 12
-15.6496062992
 22
10.4330708661
 13
0.0
 23
0.0
 14
0.5
 24
0.5
 15
0.5
 25
0.5
 16
0.0
 26
0.0
 36
1.0
 17
0.0
 27
0.0
 37
0.0
 42
50.0
 43
0.0
 44
0.0
 45
48.6479190101
 50
0.0
 51
0.0
 72
   100
 90
   557152
  1

281
     0
 71
     1
 74
     0
110
0.0
120
0.0
130
0.0
111
1.0
121
0.0
131
0.0
112
0.0
122
1.0
132
0.0
 79
     0
146
0.0
  0
ENDBLK
  5
5DA
330
5D7
100
AcDbEntity
  8
0
100
AcDbBlockEnd
  0
ENDSEC
  0
SECTION
  2
ENTITIES
  0
LINE
  5
117
330
1F
100
AcDbEntity
  8
0
  6
Continuous
 62
     7
370
    25
100
AcDbLine
 10
-15.4758183637
 20
10.5118110236
 30
0.0
 11
15.4758183637
 21
10.5118110236
 31
0.0
  0
LINE
  5
118
330
1F
100
AcDbEntity
  8
0
  6
Continuous
 62
     7
370
    25
100
AcDbLine
 10
15.5151884424
 20
10.5511811024
 30
0.0
 11
15.5151884424
 21
19.1799831841
 31
0.0
  0
LINE
  5
119
330
1F
100
AcDbEntity
  8
0
  6
Continuous
 62
     7
370
    25
100
AcDbLine
 10
15.5151884424
 20
19.1799831841
 30
0.0
 11
-15.5151884424
 21
19.1799831841
 31
0.0
  0
LINE
  5
11A
330
1F
100
AcDbEntity
  8
0
  6
Continuous
 62
     7
370
    25
100
AcDbLine
 10
-15.5151884424
 20
19.1799831841
 30
0.0
 11
-15.5151884424
 21
10.5511811024
 31
0.0
  0
LINE
  5
11B
330
1F
100
AcDbEntity
  8
0
  6
Continuous
 62
     7
370
    25
100
AcDbLine
 10
-15.6102362205
 20
0.0
 30
0.0
 11
15.6102362205
 21
0.0
 31
0.0
  0
LINE
  5
11C
330
1F
100
AcDbEntity
  8
0
  6
Continuous
 62
     7
370
    25
100
AcDbLine
 10
15.5151884424
 20
0.0393700787
 30
0.0
 11
15.5151884424
 21
8.6681721604
 31
0.0
  0
LINE
  5
11D
330
1F
100
AcDbEntity
  8
0
  6
Continuous
 62
     7
370
    25
100
AcDbLine
 10
-15.5151884424
 20
8.6681721604
 30
0.0
 11
-15.5151884424
 21
0.0393700787
 31
0.0
  0
LINE
  5
11E
330
1F
100
AcDbEntity
  8
0
  6
Continuous
 62
     7
370
    25
100
AcDbLine
 10
15.5151884424
 20
8.6681721604
 30
0.0
 11
-15.5151884424
 21
8.6681721604
 31
0.0
  0
LINE
  5
11F
330
1F
100
AcDbEntity
  8
0
  6
Continuous
 62
     7
370
    25
100
AcDbLine
 10
-46.7750309621
 20
10.5118110236
 30
0.0
 11
-15.8233942347
 21
10.5118110236
 31
0.0
  0
LINE
  5
120
330
1F
100
AcDbEntity
  8
0
  6
Continuous
 62
     7
370
    25
100
AcDbLine
 10
-15.784024156
 20
10.5511811024
 30
0.0
 11
-15.784024156
 21
19.1799831841
 31
0.0
  0
LINE
  5
121
330
1F
100
AcDbEntity
  8
0
  6
Continuous
 62
     7
370
    25
100
AcDbLine
 10
-15.784024156
 20
19.1799831841
 30
0.0
 11
-46.8144010409
 21
19.1799831841
 31
0.0
  0
LINE
  5
122
330
1F
100
AcDbEntity
  8
0
  6
Continuous
 62
     7
370
    25
100
AcDbLine
 10
-46.8144010409
 20
19.1799831841
 30
0.0
 11
-46.8144010409
 21
10.5511811024
 31
0.0
  0
LINE
  5
123
330
1F
100
AcDbEntity
  8
0
  6
Continuous
 62
     7
370
    25
100
AcDbLine
 10
-46.9094488189
 20
0.0
 30
0.0
 11
-15.688976378
 21
0.0
 31
0.0
  0
LINE
  5
124
330
1F
100
AcDbEntity
  8
0
  6
Continuous
 62
     7
370
    25
100
AcDbLine
 10
-15.784024156
 20
8.6681721604
 30
0.0
 11
-46.8144010409
 21
8.6681721604
 31
0.0
  0
LINE
  5
125
330
1F
100
AcDbEntity
  8
0
  6
Continuous
 62
     7
370
    25
100
AcDbLine
 10
-46.8144010409
 20
8.6681721604
 30
0.0
 11
-46.8144010409
 21
0.0393700787
 31
0.0
  0
LINE
  5
126
330
1F
100
AcDbEntity
  8
0
  6
Continuous
 62
     7
370
    25
100
AcDbLine
 10
-15.784024156
 20
0.0393700787
 30
0.0
 11
-15.784024156
 21
8.6681721604
 31
0.0
  0
LINE
  5
127
330
1F
100
AcDbEntity
  8
0
  6
Continuous
 62
     7
370
    25
100
AcDbLine
 10
-15.5151884424
 20
10.5511811024
 30
0.0
 11
15.5151884424
 21
10.5511811024
 31
0.0
  0
LINE
  5
128
330
1F
100
AcDbEntity
  8
0
  6
Continuous
 62
     7
370
    25
100
AcDbLine
 10
15.4758183637
 20
19.1406131053
 30
0.0
 11
15.5151884424
 21
19.1799831841
 31
0.0
  0
LINE
  5
129
330
1F
100
AcDbEntity
  8
0
  6
Continuous
 62
     7
370
    25
100
AcDbLine
 10
15.4758183637
 20
10.5118110236
 30
0.0
 11
15.4758183637
 21
19.1406131053
 31
0.0
  0
LINE
  5
12A
330
1F
100
AcDbEntity
  8
0
  6
Continuous
 62
     7
370
    25
100
AcDbLine
 10
15.4758183637
 20
19.1406131053
 30
0.0
 11
-15.4758183637
 21
19.1406131053
 31
0.0
  0
LINE
  5
12B
330
1F
100
AcDbEntity
  8
0
  6
Continuous
 62
     7
370
    25
100
AcDbLine
 10
-15.4758183637
 20
19.1406131053
 30
0.0
 11
-15.5151884424
 21
19.1799831841
 31
0.0
  0
LINE
  5
12C
330
1F
100
AcDbEntity
  8
0
  6
Continuous
 62
     7
370
    25
100
AcDbLine
 10
-15.4758183637
 20
19.1406131053
 30
0.0
 11
-15.4758183637
 21
10.5118110236
 31
0.0
  0
LINE
  5
12D
330
1F
100
AcDbEntity
  8
0
  6
Continuous
 62
     7
370
    25
100
AcDbLine
 10
-46.8816099692
 20
20.8267716535
 30
0.0
 11
-46.8816099692
 21
0.0393700787
 31
0.0
  0
LINE
  5
12E
330
1F
100
AcDbEntity
  8
0
  6
Continuous
 62
     7
370
    25
100
AcDbLine
 10
-46.9488188976
 20
0.0393700787
 30
0.0
 11
-46.9488188976
 21
20.8267716535
 31
0.0
  0
LINE
  5
12F
330
1F
100
AcDbEntity
  8
0
  6
Continuous
 62
     7
370
    25
100
AcDbLine
 10
-46.9094488189
 20
20.8661417323
 30
0.0
 11
-46.2795275591
 21
20.8661417323
 31
0.0
  0
LINE
  5
130
330
1F
100
AcDbEntity
  8
0
  6
Continuous
 62
     7
370
    25
100
AcDbLine
 10
-46.2401574803
 20
20.8267716535
 30
0.0
 11
-46.2401574803
 21
19.1799831841
 31
0.0
  0
LINE
  5
131
330
1F
100
AcDbEntity
  8
0
  6
Continuous
 62
     7
370
    25
100
AcDbLine
 10
-46.2401574803
 20
10.5118110236
 30
0.0
 11
-46.2401574803
 21
8.6681721604
 31
0.0
  0
LINE
  5
132
330
1F
100
AcDbEntity
  8
0
  6
Continuous
 62
     7
370
    25
100
AcDbLine
 10
-15.6496062992
 20
0.0393700787
 30
0.0
 11
-15.6496062992
 21
20.8267716535
 31
0.0
  0
LINE
  5
133
330
1F
100
AcDbEntity
  8
0
  6
Continuous
 62
     7
370
    25
100
AcDbLine
 10
-15.7168152276
 20
0.0393700787
 30
0.0
 11
-15.7168152276
 21
20.8267716535
 31
0.0
  0
LINE
  5
134
330
1F
100
AcDbEntity
  8
0
  6
Continuous
 62
     7
370
    25
100
AcDbLine
 10
-16.3188976378
 20
20.8661417323
 30
0.0
 11
-15.688976378
 21
20.8661417323
 31
0.0
  0
LINE
  5
135
330
1F
100
AcDbEntity
  8
0
  6
Continuous
 62
     7
370
    25
100
AcDbLine
 10
-16.3582677165
 20
8.6681721604
 30
0.0
 11
-16.3582677165
 21
10.5118110236
 31
0.0
  0
LINE
  5
136
330
1F
100
AcDbEntity
  8
0
  6
Continuous
 62
     7
370
    25
100
AcDbLine
 10
-16.3582677165
 20
19.1799831841
 30
0.0
 11
-16.3582677165
 21
20.8267716535
 31
0.0
  0
LINE
  5
137
330
1F
100
AcDbEntity
  8
0
  6
Continuous
 62
     7
370
    25
100
AcDbLine
 10
-16.3976377953
 20
19.1799831841
 30
0.0
 11
-16.3976377953
 21
20.8661417323
 31
0.0
  0
LINE
  5
138
330
1F
100
AcDbEntity
  8
0
  6
Continuous
 62
     7
370
    25
100
AcDbLine
 10
-46.2007874016
 20
20.8661417323
 30
0.0
 11
-46.2007874016
 21
19.1799831841
 31
0.0
  0
LINE
  5
139
330
1F
100
AcDbEntity
  8
0
  6
Continuous
 62
     7
370
    25
100
AcDbLine
 10
-46.2007874016
 20
20.8661417323
 30
0.0
 11
-16.3976377953
 21
20.8661417323
 31
0.0
  0
LINE
  5
13A
330
1F
100
AcDbEntity
  8
0
  6
Continuous
 62
     7
370
    25
100
AcDbLine
 10
-15.5823973708
 20
20.8267716535
 30
0.0
 11
-15.5823973708
 21
0.0393700787
 31
0.0
  0
LINE
  5
13B
330
1F
100
AcDbEntity
  8
0
  6
Continuous
 62
     7
370
    25
100
AcDbLine
 10
-15.6102362205
 20
20.8661417323
 30
0.0
 11
-14.9803149606
 21
20.8661417323
 31
0.0
  0
LINE
  5
13C
330
1F
100
AcDbEntity
  8
0
  6
Continuous
 62
     7
370
    25
100
AcDbLine
 10
-14.9409448819
 20
20.8267716535
 30
0.0
 11
-14.9409448819
 21
19.1799831841
 31
0.0
  0
LINE
  5
13D
330
1F
100
AcDbEntity
  8
0
  6
Continuous
 62
     7
370
    25
100
AcDbLine
 10
-14.9409448819
 20
10.5118110236
 30
0.0
 11
-14.9409448819
 21
8.6681721604
 31
0.0
  0
LINE
  5
13E
330
1F
100
AcDbEntity
  8
0
  6
Continuous
 62
     7
370
    25
100
AcDbLine
 10
15.6496062992
 20
20.8267716535
 30
0.0
 11
15.6496062992
 21
0.0393700787
 31
0.0
  0
LINE
  5
13F
330
1F
100
AcDbEntity
  8
0
  6
Continuous
 62
     7
370
    25
100
AcDbLine
 10
15.5823973708
 20
0.0393700787
 30
0.0
 11
15.5823973708
 21
20.8267716535
 31
0.0
  0
LINE
  5
140
330
1F
100
AcDbEntity
  8
0
  6
Continuous
 62
     7
370
    25
100
AcDbLine
 10
14.9803149606
 20
20.8661417323
 30
0.0
 11
15.6102362205
 21
20.8661417323
 31
0.0
  0
LINE
  5
141
330
1F
100
AcDbEntity
  8
0
  6
Continuous
 62
     7
370
    25
100
AcDbLine
 10
14.9409448819
 20
8.6681721604
 30
0.0
 11
14.9409448819
 21
10.5118110236
 31
0.0
  0
LINE
  5
142
330
1F
100
AcDbEntity
  8
0
  6
Continuous
 62
     7
370
    25
100
AcDbLine
 10
14.9409448819
 20
19.1799831841
 30
0.0
 11
14.9409448819
 21
20.8267716535
 31
0.0
  0
LINE
  5
143
330
1F
100
AcDbEntity
  8
0
  6
Continuous
 62
     7
370
    25
100
AcDbLine
 10
15.6496062992
 20
20.8267716535
 30
0.0
 11
-46.9488188976
 21
20.8267716535
 31
0.0
  0
LINE
  5
144
330
1F
100
AcDbEntity
  8
0
  6
Continuous
 62
     7
370
    25
100
AcDbLine
 10
-14.9015748031
 20
20.8661417323
 30
0.0
 11
14.9015748031
 21
20.8661417323
 31
0.0
  0
LINE
  5
145
330
1F
100
AcDbEntity
  8
0
  6
Continuous
 62
     7
370
    25
100
AcDbLine
 10
14.9015748031
 20
19.1799831841
 30
0.0
 11
14.9015748031
 21
20.8661417323
 31
0.0
  0
LINE
  5
146
330
1F
100
AcDbEntity
  8
0
  6
Continuous
 62
     7
370
    25
100
AcDbLine
 10
-14.9015748031
 20
20.8661417323
 30
0.0
 11
-14.9015748031
 21
19.1799831841
 31
0.0
  0
LINE
  5
147
330
1F
100
AcDbEntity
  8
0
  6
Continuous
 62
     7
370
    25
100
AcDbLine
 10
15.4758183637
 20
8.6288020817
 30
0.0
 11
15.5151884424
 21
8.6681721604
 31
0.0
  0
LINE
  5
148
330
1F
100
AcDbEntity
  8
0
  6
Continuous
 62
     7
370
    25
100
AcDbLine
 10
15.4758183637
 20
0.0
 30
0.0
 11
15.4758183637
 21
8.6288020817
 31
0.0
  0
LINE
  5
149
330
1F
100
AcDbEntity
  8
0
  6
Continuous
 62
     7
370
    25
100
AcDbLine
 10
-15.4758183637
 20
8.6288020817
 30
0.0
 11
-15.5151884424
 21
8.6681721604
 31
0.0
  0
LINE
  5
14A
330
1F
100
AcDbEntity
  8
0
  6
Continuous
 62
     7
370
    25
100
AcDbLine
 10
-15.4758183637
 20
8.6288020817
 30
0.0
 11
-15.4758183637
 21
0.0
 31
0.0
  0
LINE
  5
14B
330
1F
100
AcDbEntity
  8
0
  6
Continuous
 62
     7
370
    25
100
AcDbLine
 10
15.4758183637
 20
8.6288020817
 30
0.0
 11
-15.4758183637
 21
8.6288020817
 31
0.0
  0
LINE
  5
14C
330
1F
100
AcDbEntity
  8
0
  6
Continuous
 62
     7
370
    25
100
AcDbLine
 10
-46.8144010409
 20
10.5511811024
 30
0.0
 11
-15.784024156
 21
10.5511811024
 31
0.0
  0
LINE
  5
14D
330
1F
100
AcDbEntity
  8
0
  6
Continuous
 62
     7
370
    25
100
AcDbLine
 10
-15.8233942347
 20
19.1406131053
 30
0.0
 11
-46.7750309621
 21
19.1406131053
 31
0.0
  0
LINE
  5
14E
330
1F
100
AcDbEntity
  8
0
  6
Continuous
 62
     7
370
    25
100
AcDbLine
 10
-15.8233942347
 20
10.5118110236
 30
0.0
 11
-15.8233942347
 21
19.1406131053
 31
0.0
  0
LINE
  5
14F
330
1F
100
AcDbEntity
  8
0
  6
Continuous
 62
     7
370
    25
100
AcDbLine
 10
-46.7750309621
 20
19.1406131053
 30
0.0
 11
-46.7750309621
 21
10.5118110236
 31
0.0
  0
LINE
  5
150
330
1F
100
AcDbEntity
  8
0
  6
Continuous
 62
     7
370
    25
100
AcDbLine
 10
-15.8233942347
 20
19.1406131053
 30
0.0
 11
-15.784024156
 21
19.1799831841
 31
0.0
  0
LINE
  5
151
330
1F
100
AcDbEntity
  8
0
  6
Continuous
 62
     7
370
    25
100
AcDbLine
 10
-46.7750309621
 20
19.1406131053
 30
0.0
 11
-46.8144010409
 21
19.1799831841
 31
0.0
  0
LINE
  5
152
330
1F
100
AcDbEntity
  8
0
  6
Continuous
 62
     7
370
    25
100
AcDbLine
 10
-46.9488188976
 20
0.0393700787
 30
0.0
 11
15.6496062992
 21
0.0393700787
 31
0.0
  0
LINE
  5
153
330
1F
100
AcDbEntity
  8
0
  6
Continuous
 62
     7
370
    25
100
AcDbLine
 10
-15.8233942347
 20
8.6288020817
 30
0.0
 11
-46.7750309621
 21
8.6288020817
 31
0.0
  0
LINE
  5
154
330
1F
100
AcDbEntity
  8
0
  6
Continuous
 62
     7
370
    25
100
AcDbLine
 10
-46.7750309621
 20
8.6288020817
 30
0.0
 11
-46.8144010409
 21
8.6681721604
 31
0.0
  0
LINE
  5
155
330
1F
100
AcDbEntity
  8
0
  6
Continuous
 62
     7
370
    25
100
AcDbLine
 10
-15.8233942347
 20
8.6288020817
 30
0.0
 11
-15.784024156
 21
8.6681721604
 31
0.0
  0
LINE
  5
156
330
1F
100
AcDbEntity
  8
0
  6
Continuous
 62
     7
370
    25
100
AcDbLine
 10
-46.7750309621
 20
8.6288020817
 30
0.0
 11
-46.7750309621
 21
0.0
 31
0.0
  0
LINE
  5
157
330
1F
100
AcDbEntity
  8
0
  6
Continuous
 62
     7
370
    25
100
AcDbLine
 10
-15.8233942347
 20
0.0
 30
0.0
 11
-15.8233942347
 21
8.6288020817
 31
0.0
  0
LINE
  5
158
330
1F
100
AcDbEntity
  8
0
  6
Continuous
 62
     8
370
    25
100
AcDbLine
 10
-46.2516887094
 20
8.6681721604
 30
0.0
 11
-46.2516887094
 21
10.5118110236
 31
0.0
  0
LINE
  5
159
330
1F
100
AcDbEntity
  8
0
  6
Continuous
 62
     8
370
    25
100
AcDbLine
 10
-46.2516887094
 20
19.1799831841
 30
0.0
 11
-46.2516887094
 21
20.8267716535
 31
0.0
  0
LINE
  5
15A
330
1F
100
AcDbEntity
  8
0
  6
Continuous
 62
     8
370
    25
100
AcDbLine
 10
-16.3467364874
 20
20.8267716535
 30
0.0
 11
-16.3467364874
 21
19.1799831841
 31
0.0
  0
LINE
  5
15B
330
1F
100
AcDbEntity
  8
0
  6
Continuous
 62
     8
370
    25
100
AcDbLine
 10
-16.3467364874
 20
10.5118110236
 30
0.0
 11
-16.3467364874
 21
8.6681721604
 31
0.0
  0
LINE
  5
15C
330
1F
100
AcDbEntity
  8
0
  6
Continuous
 62
     8
370
    25
100
AcDbLine
 10
-46.2007874016
 20
10.5118110236
 30
0.0
 11
-46.2007874016
 21
8.6681721604
 31
0.0
  0
LINE
  5
15D
330
1F
100
AcDbEntity
  8
0
  6
Continuous
 62
     8
370
    25
100
AcDbLine
 10
-16.3976377953
 20
8.6681721604
 30
0.0
 11
-16.3976377953
 21
10.5118110236
 31
0.0
  0
LINE
  5
15E
330
1F
100
AcDbEntity
  8
0
  6
Continuous
 62
     8
370
    25
100
AcDbLine
 10
-14.952476111
 20
8.6681721604
 30
0.0
 11
-14.952476111
 21
10.5118110236
 31
0.0
  0
LINE
  5
15F
330
1F
100
AcDbEntity
  8
0
  6
Continuous
 62
     8
370
    25
100
AcDbLine
 10
-14.952476111
 20
19.1799831841
 30
0.0
 11
-14.952476111
 21
20.8267716535
 31
0.0
  0
LINE
  5
160
330
1F
100
AcDbEntity
  8
0
  6
Continuous
 62
     8
370
    25
100
AcDbLine
 10
14.952476111
 20
20.8267716535
 30
0.0
 11
14.952476111
 21
19.1799831841
 31
0.0
  0
LINE
  5
161
330
1F
100
AcDbEntity
  8
0
  6
Continuous
 62
     8
370
    25
100
AcDbLine
 10
14.952476111
 20
10.5118110236
 30
0.0
 11
14.952476111
 21
8.6681721604
 31
0.0
  0
LINE
  5
162
330
1F
100
AcDbEntity
  8
0
  6
Continuous
 62
     8
370
    25
100
AcDbLine
 10
14.9015748031
 20
8.6681721604
 30
0.0
 11
14.9015748031
 21
10.5118110236
 31
0.0
  0
LINE
  5
163
330
1F
100
AcDbEntity
  8
0
  6
Continuous
 62
     8
370
    25
100
AcDbLine
 10
-14.9015748031
 20
10.5118110236
 30
0.0
 11
-14.9015748031
 21
8.6681721604
 31
0.0
  0
ARC
  5
164
330
1F
100
AcDbEntity
  8
0
  6
Continuous
 62
     7
370
    25
100
AcDbCircle
 10
-15.4758183637
 20
10.5511811024
 30
0.0
 40
0.0393700787401592
100
AcDbArc
 50
180.0
 51
270.0
  0
ARC
  5
165
330
1F
100
AcDbEntity
  8
0
  6
Continuous
 62
     7
370
    25
100
AcDbCircle
 10
15.4758183637
 20
10.5511811024
 30
0.0
 40
0.0393700787401663
100
AcDbArc
 50
270.0
 51
360.0
  0
ARC
  5
166
330
1F
100
AcDbEntity
  8
0
  6
Continuous
 62
     7
370
    25
100
AcDbCircle
 10
-15.4758183637
 20
0.0393700787
 30
0.0
 40
0.0393700787401563
100
AcDbArc
 50
180.0
 51
270.0
  0
ARC
  5
167
330
1F
100
AcDbEntity
  8
0
  6
Continuous
 62
     7
370
    25
100
AcDbCircle
 10
15.4758183637
 20
0.0393700787
 30
0.0
 40
0.0393700787401663
100
AcDbArc
 50
270.0
 51
360.0
  0
ARC
  5
168
330
1F
100
AcDbEntity
  8
0
  6
Continuous
 62
     7
370
    25
100
AcDbCircle
 10
-46.7750309621
 20
10.5511811024
 30
0.0
 40
0.0393700787401556
100
AcDbArc
 50
180.0
 51
270.0
  0
ARC
  5
169
330
1F
100
AcDbEntity
  8
0
  6
Continuous
 62
     7
370
    25
100
AcDbCircle
 10
-15.8233942347
 20
10.5511811024
 30
0.0
 40
0.0393700787401592
100
AcDbArc
 50
270.0
 51
360.0
  0
ARC
  5
16A
330
1F
100
AcDbEntity
  8
0
  6
Continuous
 62
     7
370
    25
100
AcDbCircle
 10
-46.7750309621
 20
0.0393700787
 30
0.0
 40
0.0393700787401556
100
AcDbArc
 50
180.0
 51
270.0
  0
ARC
  5
16B
330
1F
100
AcDbEntity
  8
0
  6
Continuous
 62
     7
370
    25
100
AcDbCircle
 10
-15.8233942347
 20
0.0393700787
 30
0.0
 40
0.0393700787401563
100
AcDbArc
 50
270.0
 51
0.0
  0
ARC
  5
16C
330
1F
100
AcDbEntity
  8
0
  6
Continuous
 62
     7
370
    25
100
AcDbCircle
 10
-46.9094488189
 20
0.0393700787
 30
0.0
 40
0.0393700787401556
100
AcDbArc
 50
180.0
 51
270.0
  0
ARC
  5
16D
330
1F
100
AcDbEntity
  8
0
  6
Continuous
 62
     7
370
    25
100
AcDbCircle
 10
-46.9164085313
 20
0.0344488189
 30
0.0
 40
0.0351448249436267
100
AcDbArc
 50
281.421753659
 51
8.0494669755
  0
ARC
  5
16E
330
1F
100
AcDbEntity
  8
0
  6
Continuous
 62
     7
370
    25
100
AcDbCircle
 10
-46.9094488189
 20
20.8267716535
 30
0.0
 40
0.0393700787401663
100
AcDbArc
 50
90.0
 51
180.0
  0
ARC
  5
16F
330
1F
100
AcDbEntity
  8
0
  6
Continuous
 62
     7
370
    25
100
AcDbCircle
 10
-46.9164085313
 20
20.8316929134
 30
0.0
 40
0.0351448249436203
100
AcDbArc
 50
351.9505330245
 51
78.578246341
  0
ARC
  5
170
330
1F
100
AcDbEntity
  8
0
  6
Continuous
 62
     7
370
    25
100
AcDbCircle
 10
-46.2864872715
 20
20.8316929134
 30
0.0
 40
0.0351448249436203
100
AcDbArc
 50
351.9505330245
 51
78.578246341
  0
ARC
  5
171
330
1F
100
AcDbEntity
  8
0
  6
Continuous
 62
     7
370
    25
100
AcDbCircle
 10
-46.2795275591
 20
20.8267716535
 30
0.0
 40
0.0393700787401521
100
AcDbArc
 50
360.0
 51
90.0
  0
ARC
  5
172
330
1F
100
AcDbEntity
  8
0
  6
Continuous
 62
     7
370
    25
100
AcDbCircle
 10
-15.6820166655
 20
0.0344488189
 30
0.0
 40
0.0351448249436106
100
AcDbArc
 50
171.9505330245
 51
258.5782463411
  0
ARC
  5
173
330
1F
100
AcDbEntity
  8
0
  6
Continuous
 62
     7
370
    25
100
AcDbCircle
 10
-15.688976378
 20
0.0393700787
 30
0.0
 40
0.0393700787401592
100
AcDbArc
 50
270.0
 51
360.0
  0
ARC
  5
174
330
1F
100
AcDbEntity
  8
0
  6
Continuous
 62
     7
370
    25
100
AcDbCircle
 10
-15.6820166655
 20
20.8316929134
 30
0.0
 40
0.0351448249436196
100
AcDbArc
 50
101.421753659
 51
188.0494669755
  0
ARC
  5
175
330
1F
100
AcDbEntity
  8
0
  6
Continuous
 62
     7
370
    25
100
AcDbCircle
 10
-15.688976378
 20
20.8267716535
 30
0.0
 40
0.0393700787401592
100
AcDbArc
 50
0.0
 51
90.0
  0
ARC
  5
176
330
1F
100
AcDbEntity
  8
0
  6
Continuous
 62
     7
370
    25
100
AcDbCircle
 10
-16.3119379254
 20
20.8316929134
 30
0.0
 40
0.0351448249436208
100
AcDbArc
 50
101.421753659
 51
188.0494669755
  0
ARC
  5
177
330
1F
100
AcDbEntity
  8
0
  6
Continuous
 62
     7
370
    25
100
AcDbCircle
 10
-16.3188976378
 20
20.8267716535
 30
0.0
 40
0.0393700787401556
100
AcDbArc
 50
90.0
 51
180.0
  0
ARC
  5
178
330
1F
100
AcDbEntity
  8
0
  6
Continuous
 62
     7
370
    25
100
AcDbCircle
 10
-16.3976377953
 20
20.8267716535
 30
0.0
 40
0.0393700787401592
100
AcDbArc
 50
0.0
 51
90.0
  0
ARC
  5
179
330
1F
100
AcDbEntity
  8
0
  6
Continuous
 62
     7
370
    25
100
AcDbCircle
 10
-46.2007874016
 20
20.8267716535
 30
0.0
 40
0.0393700787401698
100
AcDbArc
 50
90.0
 51
180.0
  0
ARC
  5
17A
330
1F
100
AcDbEntity
  8
0
  6
Continuous
 62
     7
370
    25
100
AcDbCircle
 10
-15.6102362205
 20
0.0393700787
 30
0.0
 40
0.039370078740161
100
AcDbArc
 50
180.0
 51
270.0
  0
ARC
  5
17B
330
1F
100
AcDbEntity
  8
0
  6
Continuous
 62
     7
370
    25
100
AcDbCircle
 10
-15.6171959329
 20
0.0344488189
 30
0.0
 40
0.0351448249436169
100
AcDbArc
 50
281.421753659
 51
8.0494669755
  0
ARC
  5
17C
330
1F
100
AcDbEntity
  8
0
  6
Continuous
 62
     7
370
    25
100
AcDbCircle
 10
-15.6102362205
 20
20.8267716535
 30
0.0
 40
0.0393700787401627
100
AcDbArc
 50
90.0
 51
180.0
  0
ARC
  5
17D
330
1F
100
AcDbEntity
  8
0
  6
Continuous
 62
     7
370
    25
100
AcDbCircle
 10
-15.6171959329
 20
20.8316929134
 30
0.0
 40
0.0351448249436125
100
AcDbArc
 50
351.9505330245
 51
78.578246341
  0
ARC
  5
17E
330
1F
100
AcDbEntity
  8
0
  6
Continuous
 62
     7
370
    25
100
AcDbCircle
 10
-14.987274673
 20
20.8316929134
 30
0.0
 40
0.0351448249436147
100
AcDbArc
 50
351.9505330245
 51
78.578246341
  0
ARC
  5
17F
330
1F
100
AcDbEntity
  8
0
  6
Continuous
 62
     7
370
    25
100
AcDbCircle
 10
-14.9803149606
 20
20.8267716535
 30
0.0
 40
0.0393700787401539
100
AcDbArc
 50
360.0
 51
90.0
  0
ARC
  5
180
330
1F
100
AcDbEntity
  8
0
  6
Continuous
 62
     7
370
    25
100
AcDbCircle
 10
15.6171959329
 20
0.0344488189
 30
0.0
 40
0.0351448249436076
100
AcDbArc
 50
171.9505330245
 51
258.578246341
  0
ARC
  5
181
330
1F
100
AcDbEntity
  8
0
  6
Continuous
 62
     7
370
    25
100
AcDbCircle
 10
15.6102362205
 20
0.0393700787
 30
0.0
 40
0.0393700787401574
100
AcDbArc
 50
270.0
 51
0.0
  0
ARC
  5
182
330
1F
100
AcDbEntity
  8
0
  6
Continuous
 62
     7
370
    25
100
AcDbCircle
 10
15.6171959329
 20
20.8316929134
 30
0.0
 40
0.0351448249436112
100
AcDbArc
 50
101.421753659
 51
188.0494669755
  0
ARC
  5
183
330
1F
100
AcDbEntity
  8
0
  6
Continuous
 62
     7
370
    25
100
AcDbCircle
 10
15.6102362205
 20
20.8267716535
 30
0.0
 40
0.0393700787401539
100
AcDbArc
 50
360.0
 51
90.0
  0
ARC
  5
184
330
1F
100
AcDbEntity
  8
0
  6
Continuous
 62
     7
370
    25
100
AcDbCircle
 10
14.987274673
 20
20.8316929134
 30
0.0
 40
0.0351448249436112
100
AcDbArc
 50
101.421753659
 51
188.0494669755
  0
ARC
  5
185
330
1F
100
AcDbEntity
  8
0
  6
Continuous
 62
     7
370
    25
100
AcDbCircle
 10
14.9803149606
 20
20.8267716535
 30
0.0
 40
0.0393700787401592
100
AcDbArc
 50
90.0
 51
180.0
  0
ARC
  5
186
330
1F
100
AcDbEntity
  8
0
  6
Continuous
 62
     7
370
    25
100
AcDbCircle
 10
-14.9015748031
 20
20.8267716535
 30
0.0
 40
0.0393700787401592
100
AcDbArc
 50
90.0
 51
180.0
  0
ARC
  5
187
330
1F
100
AcDbEntity
  8
0
  6
Continuous
 62
     7
370
    25
100
AcDbCircle
 10
14.9015748031
 20
20.8267716535
 30
0.0
 40
0.0393700787401592
100
AcDbArc
 50
0.0
 51
90.0
  0
LWPOLYLINE
  5
2C6
330
1B
100
AcDbEntity
 67
     1
  8
0
  6
Continuous
 62
     7
370
    25
100
AcDbPolyline
 90
        3
 70
   128
 43
0.0
 10
-2.9527559055
 20
4.904952222
 10
-2.9455631405
 20
4.6989783822
 10
-2.9413499961
 20
4.6456692913
  0
LWPOLYLINE
  5
2C7
330
1B
100
AcDbEntity
 67
     1
  8
0
  6
Continuous
 62
     7
370
    25
100
AcDbPolyline
 90
        3
 70
   128
 43
0.0
 10
2.9413499961
 20
4.6456692913
 10
2.9455631405
 20
4.6989783822
 10
2.9527559055
 20
4.904952222
  0
LWPOLYLINE
  5
2FD
330
1B
100
AcDbEntity
 67
     1
  8
0
  6
Continuous
 62
     7
370
    25
100
AcDbPolyline
 90
        3
 70
   128
 43
0.0
 10
28.3464566929
 20
4.904952222
 10
28.3536494579
 20
4.6989783822
 10
28.3578626023
 20
4.6456692913
  0
LWPOLYLINE
  5
2FE
330
1B
100
AcDbEntity
 67
     1
  8
0
  6
Continuous
 62
     7
370
    25
100
AcDbPolyline
 90
        3
 70
   128
 43
0.0
 10
34.2405625945
 20
4.6456692913
 10
34.244775739
 20
4.6989783822
 10
34.2519685039
 20
4.904952222
  0
LINE
  5
30C
330
1B
100
AcDbEntity
 67
     1
  8
0
  6
Continuous
 62
     7
370
    25
100
AcDbLine
 10
15.6102362205
 20
0.0
 30
0.0
 11
-15.6102362205
 21
0.0
 31
0.0
  0
LINE
  5
30D
330
1B
100
AcDbEntity
 67
     1
  8
0
  6
Continuous
 62
     7
370
    25
100
AcDbLine
 10
46.9094488189
 20
0.0
 30
0.0
 11
15.688976378
 21
0.0
 31
0.0
  0
LINE
  5
30E
330
1B
100
AcDbEntity
 67
     1
  8
0
  6
Continuous
 62
     7
370
    25
100
AcDbLine
 10
-14.8622047244
 20
16.9291338583
 30
0.0
 11
-14.8622047244
 21
11.1926335913
 31
0.0
  0
LINE
  5
30F
330
1B
100
AcDbEntity
 67
     1
  8
0
  6
Continuous
 62
     7
370
    25
100
AcDbLine
 10
14.8622047244
 20
11.1926335913
 30
0.0
 11
14.8622047244
 21
16.9291338583
 31
0.0
  0
LINE
  5
310
330
1B
100
AcDbEntity
 67
     1
  8
0
  6
Continuous
 62
     7
370
    25
100
AcDbLine
 10
-14.8343658748
 20
11.1647947416
 30
0.0
 11
14.8343658748
 21
11.1647947416
 31
0.0
  0
LINE
  5
311
330
1B
100
AcDbEntity
 67
     1
  8
0
  6
Continuous
 62
     7
370
    25
100
AcDbLine
 10
14.0551181102
 20
11.6372356865
 30
0.0
 11
14.7637795276
 21
11.6372356865
 31
0.0
  0
LINE
  5
312
330
1B
100
AcDbEntity
 67
     1
  8
0
  6
Continuous
 62
     7
370
    25
100
AcDbLine
 10
14.0551181102
 20
15.7710939542
 30
0.0
 11
14.7637795276
 21
15.7710939542
 31
0.0
  0
LINE
  5
313
330
1B
100
AcDbEntity
 67
     1
  8
0
  6
Continuous
 62
     7
370
    25
100
AcDbLine
 10
14.7637795276
 20
11.6372356865
 30
0.0
 11
14.7637795276
 21
15.7710939542
 31
0.0
  0
LINE
  5
314
330
1B
100
AcDbEntity
 67
     1
  8
0
  6
Continuous
 62
     7
370
    25
100
AcDbLine
 10
14.0551181102
 20
11.558495529
 30
0.0
 11
14.0551181102
 21
15.7710939542
 31
0.0
  0
LINE
  5
315
330
1B
100
AcDbEntity
 67
     1
  8
0
  6
Continuous
 62
     7
370
    25
100
AcDbLine
 10
-14.7637795276
 20
11.6372356865
 30
0.0
 11
-14.0551181102
 21
11.6372356865
 31
0.0
  0
LINE
  5
316
330
1B
100
AcDbEntity
 67
     1
  8
0
  6
Continuous
 62
     7
370
    25
100
AcDbLine
 10
-14.7637795276
 20
11.6372356865
 30
0.0
 11
-14.7637795276
 21
15.7710939542
 31
0.0
  0
LINE
  5
317
330
1B
100
AcDbEntity
 67
     1
  8
0
  6
Continuous
 62
     7
370
    25
100
AcDbLine
 10
-14.7637795276
 20
15.7710939542
 30
0.0
 11
-14.0551181102
 21
15.7710939542
 31
0.0
  0
LINE
  5
318
330
1B
100
AcDbEntity
 67
     1
  8
0
  6
Continuous
 62
     7
370
    25
100
AcDbLine
 10
-14.0551181102
 20
11.558495529
 30
0.0
 11
-14.0551181102
 21
15.7710939542
 31
0.0
  0
LINE
  5
319
330
1B
100
AcDbEntity
 67
     1
  8
0
  6
Continuous
 62
     7
370
    25
100
AcDbLine
 10
3.8582677165
 20
12.2671569464
 30
0.0
 11
14.0551181102
 21
12.2671569464
 31
0.0
  0
LINE
  5
31A
330
1B
100
AcDbEntity
 67
     1
  8
0
  6
Continuous
 62
     7
370
    25
100
AcDbLine
 10
14.0551181102
 20
11.558495529
 30
0.0
 11
-14.0551181102
 21
11.558495529
 31
0.0
  0
LINE
  5
31B
330
1B
100
AcDbEntity
 67
     1
  8
0
  6
Continuous
 62
     7
370
    25
100
AcDbLine
 10
-14.0551181102
 20
12.2671569464
 30
0.0
 11
-3.8582677165
 21
12.2671569464
 31
0.0
  0
LINE
  5
31C
330
1B
100
AcDbEntity
 67
     1
  8
0
  6
Continuous
 62
     7
370
    25
100
AcDbLine
 10
-14.0551181102
 20
15.4167632456
 30
0.0
 11
14.0551181102
 21
15.4167632456
 31
0.0
  0
LINE
  5
31D
330
1B
100
AcDbEntity
 67
     1
  8
0
  6
Continuous
 62
     7
370
    25
100
AcDbLine
 10
3.8582677165
 20
15.4167632456
 30
0.0
 11
3.8582677165
 21
11.558495529
 31
0.0
  0
LINE
  5
31E
330
1B
100
AcDbEntity
 67
     1
  8
0
  6
Continuous
 62
     7
370
    25
100
AcDbLine
 10
3.0708661417
 20
15.4167632456
 30
0.0
 11
3.0708661417
 21
11.558495529
 31
0.0
  0
LINE
  5
31F
330
1B
100
AcDbEntity
 67
     1
  8
0
  6
Continuous
 62
     7
370
    25
100
AcDbLine
 10
-3.8582677165
 20
15.4167632456
 30
0.0
 11
-3.8582677165
 21
11.558495529
 31
0.0
  0
LINE
  5
320
330
1B
100
AcDbEntity
 67
     1
  8
0
  6
Continuous
 62
     7
370
    25
100
AcDbLine
 10
-3.0708661417
 20
15.4167632456
 30
0.0
 11
-3.0708661417
 21
11.558495529
 31
0.0
  0
LINE
  5
321
330
1B
100
AcDbEntity
 67
     1
  8
0
  6
Continuous
 62
     7
370
    25
100
AcDbLine
 10
-0.3937007874
 20
15.4167632456
 30
0.0
 11
-0.3937007874
 21
11.558495529
 31
0.0
  0
LINE
  5
322
330
1B
100
AcDbEntity
 67
     1
  8
0
  6
Continuous
 62
     7
370
    25
100
AcDbLine
 10
0.3937007874
 20
15.4167632456
 30
0.0
 11
0.3937007874
 21
11.558495529
 31
0.0
  0
LINE
  5
323
330
1B
100
AcDbEntity
 67
     1
  8
0
  6
Continuous
 62
     7
370
    25
100
AcDbLine
 10
46.9094488189
 20
0.0
 30
0.0
 11
46.9094488189
 21
20.8661417323
 31
0.0
  0
LINE
  5
324
330
1B
100
AcDbEntity
 67
     1
  8
0
  6
Continuous
 62
     7
370
    25
100
AcDbLine
 10
46.2795275591
 20
20.8661417323
 30
0.0
 11
46.2795275591
 21
0.0
 31
0.0
  0
LINE
  5
325
330
1B
100
AcDbEntity
 67
     1
  8
0
  6
Continuous
 62
     7
370
    25
100
AcDbLine
 10
46.9488188976
 20
20.8267716535
 30
0.0
 11
46.9488188976
 21
0.0393700787
 31
0.0
  0
LINE
  5
326
330
1B
100
AcDbEntity
 67
     1
  8
0
  6
Continuous
 62
     7
370
    25
100
AcDbLine
 10
46.2795275591
 20
20.8661417323
 30
0.0
 11
46.9094488189
 21
20.8661417323
 31
0.0
  0
LINE
  5
327
330
1B
100
AcDbEntity
 67
     1
  8
0
  6
Continuous
 62
     7
370
    25
100
AcDbLine
 10
46.2401574803
 20
0.0393700787
 30
0.0
 11
46.2401574803
 21
20.8267716535
 31
0.0
  0
LINE
  5
328
330
1B
100
AcDbEntity
 67
     1
  8
0
  6
Continuous
 62
     7
370
    25
100
AcDbLine
 10
15.688976378
 20
20.8661417323
 30
0.0
 11
15.688976378
 21
0.0
 31
0.0
  0
LINE
  5
329
330
1B
100
AcDbEntity
 67
     1
  8
0
  6
Continuous
 62
     7
370
    25
100
AcDbLine
 10
16.3188976378
 20
0.0
 30
0.0
 11
16.3188976378
 21
20.8661417323
 31
0.0
  0
LINE
  5
32A
330
1B
100
AcDbEntity
 67
     1
  8
0
  6
Continuous
 62
     7
370
    25
100
AcDbLine
 10
16.3582677165
 20
20.8267716535
 30
0.0
 11
16.3582677165
 21
0.0393700787
 31
0.0
  0
LINE
  5
32B
330
1B
100
AcDbEntity
 67
     1
  8
0
  6
Continuous
 62
     7
370
    25
100
AcDbLine
 10
15.688976378
 20
20.8661417323
 30
0.0
 11
16.3188976378
 21
20.8661417323
 31
0.0
  0
LINE
  5
32C
330
1B
100
AcDbEntity
 67
     1
  8
0
  6
Continuous
 62
     7
370
    25
100
AcDbLine
 10
15.6496062992
 20
0.0393700787
 30
0.0
 11
15.6496062992
 21
20.8267716535
 31
0.0
  0
LINE
  5
32D
330
1B
100
AcDbEntity
 67
     1
  8
0
  6
Continuous
 62
     7
370
    25
100
AcDbLine
 10
16.3582677165
 20
0.7480314961
 30
0.0
 11
46.2401574803
 21
0.7480314961
 31
0.0
  0
LINE
  5
32E
330
1B
100
AcDbEntity
 67
     1
  8
0
  6
Continuous
 62
     7
370
    25
100
AcDbLine
 10
46.2401574803
 20
4.6062992126
 30
0.0
 11
16.3582677165
 21
4.6062992126
 31
0.0
  0
LINE
  5
32F
330
1B
100
AcDbEntity
 67
     1
  8
0
  6
Continuous
 62
     7
370
    25
100
AcDbLine
 10
16.3976377953
 20
0.7086614173
 30
0.0
 11
46.2007874016
 21
0.7086614173
 31
0.0
  0
LINE
  5
330
330
1B
100
AcDbEntity
 67
     1
  8
0
  6
Continuous
 62
     7
370
    25
100
AcDbLine
 10
16.3976377953
 20
4.6456692913
 30
0.0
 11
46.2007874016
 21
4.6456692913
 31
0.0
  0
LINE
  5
331
330
1B
100
AcDbEntity
 67
     1
  8
0
  6
Continuous
 62
     7
370
    25
100
AcDbLine
 10
46.2007874016
 20
0.0
 30
0.0
 11
46.2007874016
 21
4.6456692913
 31
0.0
  0
LINE
  5
332
330
1B
100
AcDbEntity
 67
     1
  8
0
  6
Continuous
 62
     7
370
    25
100
AcDbLine
 10
16.3976377953
 20
4.6456692913
 30
0.0
 11
16.3976377953
 21
0.0
 31
0.0
  0
LINE
  5
333
330
1B
100
AcDbEntity
 67
     1
  8
0
  6
Continuous
 62
     7
370
    25
100
AcDbLine
 10
46.2401574803
 20
0.6692913386
 30
0.0
 11
16.3582677165
 21
0.6692913386
 31
0.0
  0
LINE
  5
334
330
1B
100
AcDbEntity
 67
     1
  8
0
  6
Continuous
 62
     7
370
    25
100
AcDbLine
 10
46.2401574803
 20
10.5905511811
 30
0.0
 11
16.3582677165
 21
10.5905511811
 31
0.0
  0
LINE
  5
335
330
1B
100
AcDbEntity
 67
     1
  8
0
  6
Continuous
 62
     7
370
    25
100
AcDbLine
 10
16.3976377953
 20
10.6299212598
 30
0.0
 11
46.2007874016
 21
10.6299212598
 31
0.0
  0
LINE
  5
336
330
1B
100
AcDbEntity
 67
     1
  8
0
  6
Continuous
 62
     7
370
    25
100
AcDbLine
 10
46.2007874016
 20
7.4803149606
 30
0.0
 11
46.2007874016
 21
10.6299212598
 31
0.0
  0
LINE
  5
337
330
1B
100
AcDbEntity
 67
     1
  8
0
  6
Continuous
 62
     7
370
    25
100
AcDbLine
 10
16.3582677165
 20
7.5196850394
 30
0.0
 11
46.2401574803
 21
7.5196850394
 31
0.0
  0
LINE
  5
338
330
1B
100
AcDbEntity
 67
     1
  8
0
  6
Continuous
 62
     7
370
    25
100
AcDbLine
 10
16.3976377953
 20
10.6299212598
 30
0.0
 11
16.3976377953
 21
7.4803149606
 31
0.0
  0
LINE
  5
339
330
1B
100
AcDbEntity
 67
     1
  8
0
  6
Continuous
 62
     7
370
    25
100
AcDbLine
 10
46.2007874016
 20
7.4803149606
 30
0.0
 11
16.3976377953
 21
7.4803149606
 31
0.0
  0
LINE
  5
33A
330
1B
100
AcDbEntity
 67
     1
  8
0
  6
Continuous
 62
     7
370
    25
100
AcDbLine
 10
46.2007874016
 20
16.9291338583
 30
0.0
 11
46.2007874016
 21
20.8661417323
 31
0.0
  0
LINE
  5
33B
330
1B
100
AcDbEntity
 67
     1
  8
0
  6
Continuous
 62
     7
370
    25
100
AcDbLine
 10
46.2401574803
 20
19.2519685039
 30
0.0
 11
16.3582677165
 21
19.2519685039
 31
0.0
  0
LINE
  5
33C
330
1B
100
AcDbEntity
 67
     1
  8
0
  6
Continuous
 62
     7
370
    25
100
AcDbLine
 10
16.3976377953
 20
19.2913385827
 30
0.0
 11
46.2007874016
 21
19.2913385827
 31
0.0
  0
LINE
  5
33D
330
1B
100
AcDbEntity
 67
     1
  8
0
  6
Continuous
 62
     7
370
    25
100
AcDbLine
 10
16.3582677165
 20
16.968503937
 30
0.0
 11
46.2401574803
 21
16.968503937
 31
0.0
  0
LINE
  5
33E
330
1B
100
AcDbEntity
 67
     1
  8
0
  6
Continuous
 62
     7
370
    25
100
AcDbLine
 10
46.2007874016
 20
16.9291338583
 30
0.0
 11
16.3976377953
 21
16.9291338583
 31
0.0
  0
LINE
  5
33F
330
1B
100
AcDbEntity
 67
     1
  8
0
  6
Continuous
 62
     7
370
    25
100
AcDbLine
 10
16.3582677165
 20
19.3307086614
 30
0.0
 11
46.2401574803
 21
19.3307086614
 31
0.0
  0
LINE
  5
340
330
1B
100
AcDbEntity
 67
     1
  8
0
  6
Continuous
 62
     7
370
    25
100
AcDbLine
 10
16.3976377953
 20
20.8661417323
 30
0.0
 11
16.3976377953
 21
16.9291338583
 31
0.0
  0
LINE
  5
341
330
1B
100
AcDbEntity
 67
     1
  8
0
  6
Continuous
 62
     7
370
    25
100
AcDbLine
 10
16.3976377953
 20
20.8661417323
 30
0.0
 11
46.2007874016
 21
20.8661417323
 31
0.0
  0
LINE
  5
342
330
1B
100
AcDbEntity
 67
     1
  8
0
  6
Continuous
 62
     7
370
    25
100
AcDbLine
 10
14.9803149606
 20
20.8661417323
 30
0.0
 11
14.9803149606
 21
0.0
 31
0.0
  0
LINE
  5
343
330
1B
100
AcDbEntity
 67
     1
  8
0
  6
Continuous
 62
     7
370
    25
100
AcDbLine
 10
15.6102362205
 20
0.0
 30
0.0
 11
15.6102362205
 21
20.8661417323
 31
0.0
  0
LINE
  5
344
330
1B
100
AcDbEntity
 67
     1
  8
0
  6
Continuous
 62
     7
370
    25
100
AcDbLine
 10
14.9803149606
 20
20.8661417323
 30
0.0
 11
15.6102362205
 21
20.8661417323
 31
0.0
  0
LINE
  5
345
330
1B
100
AcDbEntity
 67
     1
  8
0
  6
Continuous
 62
     7
370
    25
100
AcDbLine
 10
14.9409448819
 20
0.0393700787
 30
0.0
 11
14.9409448819
 21
20.8267716535
 31
0.0
  0
LINE
  5
346
330
1B
100
AcDbEntity
 67
     1
  8
0
  6
Continuous
 62
     7
370
    25
100
AcDbLine
 10
-14.9409448819
 20
20.8267716535
 30
0.0
 11
-14.9409448819
 21
0.0393700787
 31
0.0
  0
LINE
  5
347
330
1B
100
AcDbEntity
 67
     1
  8
0
  6
Continuous
 62
     7
370
    25
100
AcDbLine
 10
-14.9803149606
 20
0.0
 30
0.0
 11
-14.9803149606
 21
20.8661417323
 31
0.0
  0
LINE
  5
348
330
1B
100
AcDbEntity
 67
     1
  8
0
  6
Continuous
 62
     7
370
    25
100
AcDbLine
 10
-15.6102362205
 20
20.8661417323
 30
0.0
 11
-15.6102362205
 21
0.0
 31
0.0
  0
LINE
  5
349
330
1B
100
AcDbEntity
 67
     1
  8
0
  6
Continuous
 62
     7
370
    25
100
AcDbLine
 10
-15.6496062992
 20
0.0393700787
 30
0.0
 11
-15.6496062992
 21
20.8267716535
 31
0.0
  0
LINE
  5
34A
330
1B
100
AcDbEntity
 67
     1
  8
0
  6
Continuous
 62
     7
370
    25
100
AcDbLine
 10
-15.6102362205
 20
20.8661417323
 30
0.0
 11
-14.9803149606
 21
20.8661417323
 31
0.0
  0
LINE
  5
34B
330
1B
100
AcDbEntity
 67
     1
  8
0
  6
Continuous
 62
     7
370
    25
100
AcDbLine
 10
-14.9015748031
 20
4.6456692913
 30
0.0
 11
14.9015748031
 21
4.6456692913
 31
0.0
  0
LINE
  5
34C
330
1B
100
AcDbEntity
 67
     1
  8
0
  6
Continuous
 62
     7
370
    25
100
AcDbLine
 10
14.9409448819
 20
4.6062992126
 30
0.0
 11
-14.9409448819
 21
4.6062992126
 31
0.0
  0
LINE
  5
34D
330
1B
100
AcDbEntity
 67
     1
  8
0
  6
Continuous
 62
     7
370
    25
100
AcDbLine
 10
-14.9409448819
 20
0.7480314961
 30
0.0
 11
14.9409448819
 21
0.7480314961
 31
0.0
  0
LINE
  5
34E
330
1B
100
AcDbEntity
 67
     1
  8
0
  6
Continuous
 62
     7
370
    25
100
AcDbLine
 10
-14.9015748031
 20
0.7086614173
 30
0.0
 11
14.9015748031
 21
0.7086614173
 31
0.0
  0
LINE
  5
34F
330
1B
100
AcDbEntity
 67
     1
  8
0
  6
Continuous
 62
     7
370
    25
100
AcDbLine
 10
14.9015748031
 20
0.0
 30
0.0
 11
14.9015748031
 21
4.6456692913
 31
0.0
  0
LINE
  5
350
330
1B
100
AcDbEntity
 67
     1
  8
0
  6
Continuous
 62
     7
370
    25
100
AcDbLine
 10
-15.6496062992
 20
0.0393700787
 30
0.0
 11
46.9488188976
 21
0.0393700787
 31
0.0
  0
LINE
  5
351
330
1B
100
AcDbEntity
 67
     1
  8
0
  6
Continuous
 62
     7
370
    25
100
AcDbLine
 10
-14.9015748031
 20
4.6456692913
 30
0.0
 11
-14.9015748031
 21
0.0
 31
0.0
  0
LINE
  5
352
330
1B
100
AcDbEntity
 67
     1
  8
0
  6
Continuous
 62
     7
370
    25
100
AcDbLine
 10
14.9409448819
 20
0.6692913386
 30
0.0
 11
-14.9409448819
 21
0.6692913386
 31
0.0
  0
LINE
  5
353
330
1B
100
AcDbEntity
 67
     1
  8
0
  6
Continuous
 62
     7
370
    25
100
AcDbLine
 10
-14.9015748031
 20
10.6299212598
 30
0.0
 11
-14.9015748031
 21
7.4803149606
 31
0.0
  0
LINE
  5
354
330
1B
100
AcDbEntity
 67
     1
  8
0
  6
Continuous
 62
     7
370
    25
100
AcDbLine
 10
-14.9409448819
 20
7.5196850394
 30
0.0
 11
14.9409448819
 21
7.5196850394
 31
0.0
  0
LINE
  5
355
330
1B
100
AcDbEntity
 67
     1
  8
0
  6
Continuous
 62
     7
370
    25
100
AcDbLine
 10
14.9015748031
 20
7.4803149606
 30
0.0
 11
14.9015748031
 21
10.6299212598
 31
0.0
  0
LINE
  5
356
330
1B
100
AcDbEntity
 67
     1
  8
0
  6
Continuous
 62
     7
370
    25
100
AcDbLine
 10
14.9409448819
 20
10.5905511811
 30
0.0
 11
-14.9409448819
 21
10.5905511811
 31
0.0
  0
LINE
  5
357
330
1B
100
AcDbEntity
 67
     1
  8
0
  6
Continuous
 62
     7
370
    25
100
AcDbLine
 10
14.9015748031
 20
7.4803149606
 30
0.0
 11
-14.9015748031
 21
7.4803149606
 31
0.0
  0
LINE
  5
358
330
1B
100
AcDbEntity
 67
     1
  8
0
  6
Continuous
 62
     7
370
    25
100
AcDbLine
 10
-14.9015748031
 20
10.6299212598
 30
0.0
 11
14.9015748031
 21
10.6299212598
 31
0.0
  0
LINE
  5
359
330
1B
100
AcDbEntity
 67
     1
  8
0
  6
Continuous
 62
     7
370
    25
100
AcDbLine
 10
14.9409448819
 20
19.2519685039
 30
0.0
 11
-14.9409448819
 21
19.2519685039
 31
0.0
  0
LINE
  5
35A
330
1B
100
AcDbEntity
 67
     1
  8
0
  6
Continuous
 62
     7
370
    25
100
AcDbLine
 10
-14.9015748031
 20
19.2913385827
 30
0.0
 11
14.9015748031
 21
19.2913385827
 31
0.0
  0
LINE
  5
35B
330
1B
100
AcDbEntity
 67
     1
  8
0
  6
Continuous
 62
     7
370
    25
100
AcDbLine
 10
-14.9409448819
 20
16.968503937
 30
0.0
 11
14.9409448819
 21
16.968503937
 31
0.0
  0
LINE
  5
35C
330
1B
100
AcDbEntity
 67
     1
  8
0
  6
Continuous
 62
     7
370
    25
100
AcDbLine
 10
14.9015748031
 20
16.9291338583
 30
0.0
 11
-14.9015748031
 21
16.9291338583
 31
0.0
  0
LINE
  5
35D
330
1B
100
AcDbEntity
 67
     1
  8
0
  6
Continuous
 62
     7
370
    25
100
AcDbLine
 10
-14.9409448819
 20
19.3307086614
 30
0.0
 11
14.9409448819
 21
19.3307086614
 31
0.0
  0
LINE
  5
35E
330
1B
100
AcDbEntity
 67
     1
  8
0
  6
Continuous
 62
     7
370
    25
100
AcDbLine
 10
46.9488188976
 20
20.8267716535
 30
0.0
 11
-15.6496062992
 21
20.8267716535
 31
0.0
  0
LINE
  5
35F
330
1B
100
AcDbEntity
 67
     1
  8
0
  6
Continuous
 62
     7
370
    25
100
AcDbLine
 10
-14.9015748031
 20
20.8661417323
 30
0.0
 11
-14.9015748031
 21
16.9291338583
 31
0.0
  0
LINE
  5
360
330
1B
100
AcDbEntity
 67
     1
  8
0
  6
Continuous
 62
     7
370
    25
100
AcDbLine
 10
-14.9015748031
 20
20.8661417323
 30
0.0
 11
14.9015748031
 21
20.8661417323
 31
0.0
  0
LINE
  5
361
330
1B
100
AcDbEntity
 67
     1
  8
0
  6
Continuous
 62
     7
370
    25
100
AcDbLine
 10
14.9015748031
 20
16.9291338583
 30
0.0
 11
14.9015748031
 21
20.8661417323
 31
0.0
  0
LINE
  5
362
330
1B
100
AcDbEntity
 67
     1
  8
0
  6
Continuous
 62
     7
370
    25
100
AcDbLine
 10
-14.8622047244
 20
7.4803149606
 30
0.0
 11
-14.8622047244
 21
4.6456692913
 31
0.0
  0
LINE
  5
363
330
1B
100
AcDbEntity
 67
     1
  8
0
  6
Continuous
 62
     7
370
    25
100
AcDbLine
 10
14.8622047244
 20
4.6456692913
 30
0.0
 11
14.8622047244
 21
7.4803149606
 31
0.0
  0
LINE
  5
364
330
1B
100
AcDbEntity
 67
     1
  8
0
  6
Continuous
 62
     7
370
    25
100
AcDbLine
 10
14.7637795276
 20
4.6456692913
 30
0.0
 11
14.7637795276
 21
5.2592829306
 31
0.0
  0
LINE
  5
365
330
1B
100
AcDbEntity
 67
     1
  8
0
  6
Continuous
 62
     7
370
    25
100
AcDbLine
 10
14.0551181102
 20
5.2592829306
 30
0.0
 11
14.7637795276
 21
5.2592829306
 31
0.0
  0
LINE
  5
366
330
1B
100
AcDbEntity
 67
     1
  8
0
  6
Continuous
 62
     7
370
    25
100
AcDbLine
 10
14.0551181102
 20
4.6456692913
 30
0.0
 11
14.0551181102
 21
5.2592829306
 31
0.0
  0
LINE
  5
367
330
1B
100
AcDbEntity
 67
     1
  8
0
  6
Continuous
 62
     7
370
    25
100
AcDbLine
 10
-14.7637795276
 20
4.6456692913
 30
0.0
 11
-14.7637795276
 21
5.2592829306
 31
0.0
  0
LINE
  5
368
330
1B
100
AcDbEntity
 67
     1
  8
0
  6
Continuous
 62
     7
370
    25
100
AcDbLine
 10
-14.7637795276
 20
5.2592829306
 30
0.0
 11
-14.0551181102
 21
5.2592829306
 31
0.0
  0
LINE
  5
369
330
1B
100
AcDbEntity
 67
     1
  8
0
  6
Continuous
 62
     7
370
    25
100
AcDbLine
 10
-14.0551181102
 20
4.6456692913
 30
0.0
 11
-14.0551181102
 21
5.2592829306
 31
0.0
  0
LINE
  5
36A
330
1B
100
AcDbEntity
 67
     1
  8
0
  6
Continuous
 62
     7
370
    25
100
AcDbLine
 10
-14.0551181102
 20
4.904952222
 30
0.0
 11
-2.9527559055
 21
4.904952222
 31
0.0
  0
LINE
  5
36B
330
1B
100
AcDbEntity
 67
     1
  8
0
  6
Continuous
 62
     7
370
    25
100
AcDbLine
 10
2.9527559055
 20
4.904952222
 30
0.0
 11
14.0551181102
 21
4.904952222
 31
0.0
  0
LINE
  5
36C
330
1B
100
AcDbEntity
 67
     1
  8
0
  6
Continuous
 62
     7
370
    25
100
AcDbLine
 10
16.437007874
 20
16.9291338583
 30
0.0
 11
16.437007874
 21
11.1926335913
 31
0.0
  0
LINE
  5
36D
330
1B
100
AcDbEntity
 67
     1
  8
0
  6
Continuous
 62
     7
370
    25
100
AcDbLine
 10
16.4648467237
 20
11.1647947416
 30
0.0
 11
46.1335784732
 21
11.1647947416
 31
0.0
  0
LINE
  5
36E
330
1B
100
AcDbEntity
 67
     1
  8
0
  6
Continuous
 62
     7
370
    25
100
AcDbLine
 10
46.1614173228
 20
11.1926335913
 30
0.0
 11
46.1614173228
 21
16.9291338583
 31
0.0
  0
LINE
  5
36F
330
1B
100
AcDbEntity
 67
     1
  8
0
  6
Continuous
 62
     7
370
    25
100
AcDbLine
 10
45.3543307087
 20
11.6372356865
 30
0.0
 11
46.062992126
 21
11.6372356865
 31
0.0
  0
LINE
  5
370
330
1B
100
AcDbEntity
 67
     1
  8
0
  6
Continuous
 62
     7
370
    25
100
AcDbLine
 10
45.3543307087
 20
15.7710939542
 30
0.0
 11
46.062992126
 21
15.7710939542
 31
0.0
  0
LINE
  5
371
330
1B
100
AcDbEntity
 67
     1
  8
0
  6
Continuous
 62
     7
370
    25
100
AcDbLine
 10
45.3543307087
 20
11.558495529
 30
0.0
 11
45.3543307087
 21
15.7710939542
 31
0.0
  0
LINE
  5
372
330
1B
100
AcDbEntity
 67
     1
  8
0
  6
Continuous
 62
     7
370
    25
100
AcDbLine
 10
46.062992126
 20
11.6372356865
 30
0.0
 11
46.062992126
 21
15.7710939542
 31
0.0
  0
LINE
  5
373
330
1B
100
AcDbEntity
 67
     1
  8
0
  6
Continuous
 62
     7
370
    25
100
AcDbLine
 10
16.5354330709
 20
11.6372356865
 30
0.0
 11
17.2440944882
 21
11.6372356865
 31
0.0
  0
LINE
  5
374
330
1B
100
AcDbEntity
 67
     1
  8
0
  6
Continuous
 62
     7
370
    25
100
AcDbLine
 10
16.5354330709
 20
15.7710939542
 30
0.0
 11
17.2440944882
 21
15.7710939542
 31
0.0
  0
LINE
  5
375
330
1B
100
AcDbEntity
 67
     1
  8
0
  6
Continuous
 62
     7
370
    25
100
AcDbLine
 10
16.5354330709
 20
11.6372356865
 30
0.0
 11
16.5354330709
 21
15.7710939542
 31
0.0
  0
LINE
  5
376
330
1B
100
AcDbEntity
 67
     1
  8
0
  6
Continuous
 62
     7
370
    25
100
AcDbLine
 10
17.2440944882
 20
11.558495529
 30
0.0
 11
17.2440944882
 21
15.7710939542
 31
0.0
  0
LINE
  5
377
330
1B
100
AcDbEntity
 67
     1
  8
0
  6
Continuous
 62
     7
370
    25
100
AcDbLine
 10
17.2440944882
 20
12.2671569464
 30
0.0
 11
27.4409448819
 21
12.2671569464
 31
0.0
  0
LINE
  5
378
330
1B
100
AcDbEntity
 67
     1
  8
0
  6
Continuous
 62
     7
370
    25
100
AcDbLine
 10
45.3543307087
 20
12.2671569464
 30
0.0
 11
35.157480315
 21
12.2671569464
 31
0.0
  0
LINE
  5
379
330
1B
100
AcDbEntity
 67
     1
  8
0
  6
Continuous
 62
     7
370
    25
100
AcDbLine
 10
45.3543307087
 20
11.558495529
 30
0.0
 11
17.2440944882
 21
11.558495529
 31
0.0
  0
LINE
  5
37A
330
1B
100
AcDbEntity
 67
     1
  8
0
  6
Continuous
 62
     7
370
    25
100
AcDbLine
 10
17.2440944882
 20
15.4167632456
 30
0.0
 11
45.3543307087
 21
15.4167632456
 31
0.0
  0
LINE
  5
37B
330
1B
100
AcDbEntity
 67
     1
  8
0
  6
Continuous
 62
     7
370
    25
100
AcDbLine
 10
27.4409448819
 20
15.4167632456
 30
0.0
 11
27.4409448819
 21
11.558495529
 31
0.0
  0
LINE
  5
37C
330
1B
100
AcDbEntity
 67
     1
  8
0
  6
Continuous
 62
     7
370
    25
100
AcDbLine
 10
28.2283464567
 20
15.4167632456
 30
0.0
 11
28.2283464567
 21
11.558495529
 31
0.0
  0
LINE
  5
37D
330
1B
100
AcDbEntity
 67
     1
  8
0
  6
Continuous
 62
     7
370
    25
100
AcDbLine
 10
35.157480315
 20
15.4167632456
 30
0.0
 11
35.157480315
 21
11.558495529
 31
0.0
  0
LINE
  5
37E
330
1B
100
AcDbEntity
 67
     1
  8
0
  6
Continuous
 62
     7
370
    25
100
AcDbLine
 10
34.3700787402
 20
15.4167632456
 30
0.0
 11
34.3700787402
 21
11.558495529
 31
0.0
  0
LINE
  5
37F
330
1B
100
AcDbEntity
 67
     1
  8
0
  6
Continuous
 62
     7
370
    25
100
AcDbLine
 10
30.905511811
 20
15.4167632456
 30
0.0
 11
30.905511811
 21
11.558495529
 31
0.0
  0
LINE
  5
380
330
1B
100
AcDbEntity
 67
     1
  8
0
  6
Continuous
 62
     7
370
    25
100
AcDbLine
 10
31.6929133858
 20
15.4167632456
 30
0.0
 11
31.6929133858
 21
11.558495529
 31
0.0
  0
LINE
  5
381
330
1B
100
AcDbEntity
 67
     1
  8
0
  6
Continuous
 62
     7
370
    25
100
AcDbLine
 10
16.437007874
 20
7.4803149606
 30
0.0
 11
16.437007874
 21
4.6456692913
 31
0.0
  0
LINE
  5
382
330
1B
100
AcDbEntity
 67
     1
  8
0
  6
Continuous
 62
     7
370
    25
100
AcDbLine
 10
46.1614173228
 20
4.6456692913
 30
0.0
 11
46.1614173228
 21
7.4803149606
 31
0.0
  0
LINE
  5
383
330
1B
100
AcDbEntity
 67
     1
  8
0
  6
Continuous
 62
     7
370
    25
100
AcDbLine
 10
45.3543307087
 20
4.6456692913
 30
0.0
 11
45.3543307087
 21
5.2592829306
 31
0.0
  0
LINE
  5
384
330
1B
100
AcDbEntity
 67
     1
  8
0
  6
Continuous
 62
     7
370
    25
100
AcDbLine
 10
45.3543307087
 20
5.2592829306
 30
0.0
 11
46.062992126
 21
5.2592829306
 31
0.0
  0
LINE
  5
385
330
1B
100
AcDbEntity
 67
     1
  8
0
  6
Continuous
 62
     7
370
    25
100
AcDbLine
 10
46.062992126
 20
4.6456692913
 30
0.0
 11
46.062992126
 21
5.2592829306
 31
0.0
  0
LINE
  5
386
330
1B
100
AcDbEntity
 67
     1
  8
0
  6
Continuous
 62
     7
370
    25
100
AcDbLine
 10
17.2440944882
 20
4.6456692913
 30
0.0
 11
17.2440944882
 21
5.2592829306
 31
0.0
  0
LINE
  5
387
330
1B
100
AcDbEntity
 67
     1
  8
0
  6
Continuous
 62
     7
370
    25
100
AcDbLine
 10
16.5354330709
 20
4.6456692913
 30
0.0
 11
16.5354330709
 21
5.2592829306
 31
0.0
  0
LINE
  5
388
330
1B
100
AcDbEntity
 67
     1
  8
0
  6
Continuous
 62
     7
370
    25
100
AcDbLine
 10
16.5354330709
 20
5.2592829306
 30
0.0
 11
17.2440944882
 21
5.2592829306
 31
0.0
  0
LINE
  5
389
330
1B
100
AcDbEntity
 67
     1
  8
0
  6
Continuous
 62
     7
370
    25
100
AcDbLine
 10
34.2519685039
 20
4.904952222
 30
0.0
 11
45.3543307087
 21
4.904952222
 31
0.0
  0
LINE
  5
38A
330
1B
100
AcDbEntity
 67
     1
  8
0
  6
Continuous
 62
     7
370
    25
100
AcDbLine
 10
17.2440944882
 20
4.904952222
 30
0.0
 11
28.3464566929
 21
4.904952222
 31
0.0
  0
LINE
  5
38B
330
1B
100
AcDbEntity
 67
     1
  8
0
  6
Continuous
 62
     8
370
    25
100
AcDbLine
 10
-14.9409448819
 20
11.1138934338
 30
0.0
 11
-14.8622047244
 21
11.1926335913
 31
0.0
  0
LINE
  5
38C
330
1B
100
AcDbEntity
 67
     1
  8
0
  6
Continuous
 62
     8
370
    25
100
AcDbLine
 10
-14.8343658748
 20
11.1647947416
 30
0.0
 11
-14.9409448819
 21
11.0582157345
 31
0.0
  0
LINE
  5
38D
330
1B
100
AcDbEntity
 67
     1
  8
0
  6
Continuous
 62
     8
370
    25
100
AcDbLine
 10
14.8622047244
 20
11.1926335913
 30
0.0
 11
14.9409448819
 21
11.1138934338
 31
0.0
  0
LINE
  5
38E
330
1B
100
AcDbEntity
 67
     1
  8
0
  6
Continuous
 62
     8
370
    25
100
AcDbLine
 10
14.9409448819
 20
11.0582157345
 30
0.0
 11
14.8343658748
 21
11.1647947416
 31
0.0
  0
LINE
  5
38F
330
1B
100
AcDbEntity
 67
     1
  8
0
  6
Continuous
 62
     8
370
    25
100
AcDbLine
 10
-14.952476111
 20
0.0115312291
 30
0.0
 11
-14.9294136528
 21
0.0115312291
 31
0.0
  0
LINE
  5
390
330
1B
100
AcDbEntity
 67
     1
  8
0
  6
Continuous
 62
     8
370
    25
100
AcDbLine
 10
14.9294136528
 20
0.0115312291
 30
0.0
 11
14.952476111
 21
0.0115312291
 31
0.0
  0
LINE
  5
391
330
1B
100
AcDbEntity
 67
     1
  8
0
  6
Continuous
 62
     8
370
    25
100
AcDbLine
 10
16.4648467237
 20
11.1647947416
 30
0.0
 11
16.3582677165
 21
11.0582157345
 31
0.0
  0
LINE
  5
392
330
1B
100
AcDbEntity
 67
     1
  8
0
  6
Continuous
 62
     8
370
    25
100
AcDbLine
 10
16.3582677165
 20
11.1138934338
 30
0.0
 11
16.437007874
 21
11.1926335913
 31
0.0
  0
LINE
  5
393
330
1B
100
AcDbEntity
 67
     1
  8
0
  6
Continuous
 62
     8
370
    25
100
AcDbLine
 10
46.2401574803
 20
11.0582157345
 30
0.0
 11
46.1335784732
 21
11.1647947416
 31
0.0
  0
LINE
  5
394
330
1B
100
AcDbEntity
 67
     1
  8
0
  6
Continuous
 62
     8
370
    25
100
AcDbLine
 10
46.1614173228
 20
11.1926335913
 30
0.0
 11
46.2401574803
 21
11.1138934338
 31
0.0
  0
LINE
  5
395
330
1B
100
AcDbEntity
 67
     1
  8
0
  6
Continuous
 62
     8
370
    25
100
AcDbLine
 10
16.3467364874
 20
0.0115312291
 30
0.0
 11
16.3697989456
 21
0.0115312291
 31
0.0
  0
LINE
  5
396
330
1B
100
AcDbEntity
 67
     1
  8
0
  6
Continuous
 62
     8
370
    25
100
AcDbLine
 10
46.2286262512
 20
0.0115312291
 30
0.0
 11
46.2516887094
 21
0.0115312291
 31
0.0
  0
ARC
  5
397
330
1B
100
AcDbEntity
 67
     1
  8
0
  6
Continuous
 62
     7
370
    25
100
AcDbCircle
 10
-14.835873013
 20
11.1911264531
 30
0.0
 40
0.0263748079368129
100
AcDbArc
 50
176.7241572975
 51
273.2758427025
  0
ARC
  5
398
330
1B
100
AcDbEntity
 67
     1
  8
0
  6
Continuous
 62
     7
370
    25
100
AcDbCircle
 10
14.835873013
 20
11.1911264531
 30
0.0
 40
0.0263748079368163
100
AcDbArc
 50
266.7241572976
 51
3.2758427025
  0
ARC
  5
399
330
1B
100
AcDbEntity
 67
     1
  8
0
  6
Continuous
 62
     7
370
    25
100
AcDbCircle
 10
46.2795275591
 20
20.8267716535
 30
0.0
 40
0.0393700787401414
100
AcDbArc
 50
90.0
 51
180.0
  0
ARC
  5
39A
330
1B
100
AcDbEntity
 67
     1
  8
0
  6
Continuous
 62
     7
370
    25
100
AcDbCircle
 10
46.9094488189
 20
20.8267716535
 30
0.0
 40
0.0393700787401627
100
AcDbArc
 50
360.0
 51
90.0
  0
ARC
  5
39B
330
1B
100
AcDbEntity
 67
     1
  8
0
  6
Continuous
 62
     7
370
    25
100
AcDbCircle
 10
46.2795275591
 20
0.0393700787
 30
0.0
 40
0.0393700787401698
100
AcDbArc
 50
180.0
 51
270.0
  0
ARC
  5
39C
330
1B
100
AcDbEntity
 67
     1
  8
0
  6
Continuous
 62
     7
370
    25
100
AcDbCircle
 10
46.9094488189
 20
0.0393700787
 30
0.0
 40
0.0393700787401556
100
AcDbArc
 50
270.0
 51
0.0
  0
ARC
  5
39D
330
1B
100
AcDbEntity
 67
     1
  8
0
  6
Continuous
 62
     7
370
    25
100
AcDbCircle
 10
16.3188976378
 20
20.8267716535
 30
0.0
 40
0.0393700787401556
100
AcDbArc
 50
360.0
 51
90.0
  0
ARC
  5
39E
330
1B
100
AcDbEntity
 67
     1
  8
0
  6
Continuous
 62
     7
370
    25
100
AcDbCircle
 10
15.688976378
 20
20.8267716535
 30
0.0
 40
0.0393700787401592
100
AcDbArc
 50
90.0
 51
180.0
  0
ARC
  5
39F
330
1B
100
AcDbEntity
 67
     1
  8
0
  6
Continuous
 62
     7
370
    25
100
AcDbCircle
 10
16.3188976378
 20
0.0393700787
 30
0.0
 40
0.0393700787401592
100
AcDbArc
 50
270.0
 51
0.0
  0
ARC
  5
3A0
330
1B
100
AcDbEntity
 67
     1
  8
0
  6
Continuous
 62
     7
370
    25
100
AcDbCircle
 10
15.688976378
 20
0.0393700787
 30
0.0
 40
0.0393700787401592
100
AcDbArc
 50
180.0
 51
270.0
  0
ARC
  5
3A1
330
1B
100
AcDbEntity
 67
     1
  8
0
  6
Continuous
 62
     7
370
    25
100
AcDbCircle
 10
46.2007874016
 20
0.7480314961
 30
0.0
 40
0.0393700787401556
100
AcDbArc
 50
270.0
 51
0.0
  0
ARC
  5
3A2
330
1B
100
AcDbEntity
 67
     1
  8
0
  6
Continuous
 62
     7
370
    25
100
AcDbCircle
 10
46.2007874016
 20
4.6062992126
 30
0.0
 40
0.0393700787401698
100
AcDbArc
 50
0.0
 51
90.0
  0
ARC
  5
3A3
330
1B
100
AcDbEntity
 67
     1
  8
0
  6
Continuous
 62
     7
370
    25
100
AcDbCircle
 10
16.3976377953
 20
4.6062992126
 30
0.0
 40
0.039370078740161
100
AcDbArc
 50
90.0
 51
180.0
  0
ARC
  5
3A4
330
1B
100
AcDbEntity
 67
     1
  8
0
  6
Continuous
 62
     7
370
    25
100
AcDbCircle
 10
16.3976377953
 20
0.7480314961
 30
0.0
 40
0.0393700787401663
100
AcDbArc
 50
180.0
 51
270.0
  0
ARC
  5
3A5
330
1B
100
AcDbEntity
 67
     1
  8
0
  6
Continuous
 62
     7
370
    25
100
AcDbCircle
 10
46.2007874016
 20
0.6692913386
 30
0.0
 40
0.0393700787401698
100
AcDbArc
 50
0.0
 51
90.0
  0
ARC
  5
3A6
330
1B
100
AcDbEntity
 67
     1
  8
0
  6
Continuous
 62
     7
370
    25
100
AcDbCircle
 10
46.2007874016
 20
0.0393700787
 30
0.0
 40
0.0393700787401556
100
AcDbArc
 50
270.0
 51
0.0
  0
ARC
  5
3A7
330
1B
100
AcDbEntity
 67
     1
  8
0
  6
Continuous
 62
     7
370
    25
100
AcDbCircle
 10
16.3976377953
 20
0.0393700787
 30
0.0
 40
0.0393700787401627
100
AcDbArc
 50
180.0
 51
270.0
  0
ARC
  5
3A8
330
1B
100
AcDbEntity
 67
     1
  8
0
  6
Continuous
 62
     7
370
    25
100
AcDbCircle
 10
16.3976377953
 20
0.6692913386
 30
0.0
 40
0.0393700787401603
100
AcDbArc
 50
90.0
 51
180.0
  0
ARC
  5
3A9
330
1B
100
AcDbEntity
 67
     1
  8
0
  6
Continuous
 62
     7
370
    25
100
AcDbCircle
 10
16.3976377953
 20
10.5905511811
 30
0.0
 40
0.039370078740161
100
AcDbArc
 50
90.0
 51
180.0
  0
ARC
  5
3AA
330
1B
100
AcDbEntity
 67
     1
  8
0
  6
Continuous
 62
     7
370
    25
100
AcDbCircle
 10
46.2007874016
 20
7.5196850394
 30
0.0
 40
0.0393700787401716
100
AcDbArc
 50
270.0
 51
360.0
  0
ARC
  5
3AB
330
1B
100
AcDbEntity
 67
     1
  8
0
  6
Continuous
 62
     7
370
    25
100
AcDbCircle
 10
16.3976377953
 20
7.5196850394
 30
0.0
 40
0.0393700787401663
100
AcDbArc
 50
180.0
 51
270.0
  0
ARC
  5
3AC
330
1B
100
AcDbEntity
 67
     1
  8
0
  6
Continuous
 62
     7
370
    25
100
AcDbCircle
 10
46.2007874016
 20
10.5905511811
 30
0.0
 40
0.0393700787401556
100
AcDbArc
 50
360.0
 51
90.0
  0
ARC
  5
3AD
330
1B
100
AcDbEntity
 67
     1
  8
0
  6
Continuous
 62
     7
370
    25
100
AcDbCircle
 10
46.2007874016
 20
19.2519685039
 30
0.0
 40
0.0393700787401698
100
AcDbArc
 50
0.0
 51
90.0
  0
ARC
  5
3AE
330
1B
100
AcDbEntity
 67
     1
  8
0
  6
Continuous
 62
     7
370
    25
100
AcDbCircle
 10
16.3976377953
 20
19.2519685039
 30
0.0
 40
0.0393700787401592
100
AcDbArc
 50
90.0
 51
180.0
  0
ARC
  5
3AF
330
1B
100
AcDbEntity
 67
     1
  8
0
  6
Continuous
 62
     7
370
    25
100
AcDbCircle
 10
16.3976377953
 20
16.968503937
 30
0.0
 40
0.0393700787401592
100
AcDbArc
 50
180.0
 51
270.0
  0
ARC
  5
3B0
330
1B
100
AcDbEntity
 67
     1
  8
0
  6
Continuous
 62
     7
370
    25
100
AcDbCircle
 10
46.2007874016
 20
16.968503937
 30
0.0
 40
0.0393700787401556
100
AcDbArc
 50
270.0
 51
0.0
  0
ARC
  5
3B1
330
1B
100
AcDbEntity
 67
     1
  8
0
  6
Continuous
 62
     7
370
    25
100
AcDbCircle
 10
46.2007874016
 20
20.8267716535
 30
0.0
 40
0.0393700787401556
100
AcDbArc
 50
360.0
 51
90.0
  0
ARC
  5
3B2
330
1B
100
AcDbEntity
 67
     1
  8
0
  6
Continuous
 62
     7
370
    25
100
AcDbCircle
 10
16.3976377953
 20
20.8267716535
 30
0.0
 40
0.0393700787401592
100
AcDbArc
 50
90.0
 51
180.0
  0
ARC
  5
3B3
330
1B
100
AcDbEntity
 67
     1
  8
0
  6
Continuous
 62
     7
370
    25
100
AcDbCircle
 10
14.9803149606
 20
20.8267716535
 30
0.0
 40
0.0393700787401539
100
AcDbArc
 50
90.0
 51
180.0
  0
ARC
  5
3B4
330
1B
100
AcDbEntity
 67
     1
  8
0
  6
Continuous
 62
     7
370
    25
100
AcDbCircle
 10
15.6102362205
 20
20.8267716535
 30
0.0
 40
0.0393700787401663
100
AcDbArc
 50
0.0
 51
90.0
  0
ARC
  5
3B5
330
1B
100
AcDbEntity
 67
     1
  8
0
  6
Continuous
 62
     7
370
    25
100
AcDbCircle
 10
14.9803149606
 20
0.0393700787
 30
0.0
 40
0.0393700787401556
100
AcDbArc
 50
180.0
 51
270.0
  0
ARC
  5
3B6
330
1B
100
AcDbEntity
 67
     1
  8
0
  6
Continuous
 62
     7
370
    25
100
AcDbCircle
 10
15.6102362205
 20
0.0393700787
 30
0.0
 40
0.039370078740161
100
AcDbArc
 50
270.0
 51
360.0
  0
ARC
  5
3B7
330
1B
100
AcDbEntity
 67
     1
  8
0
  6
Continuous
 62
     7
370
    25
100
AcDbCircle
 10
-15.6102362205
 20
0.0393700787
 30
0.0
 40
0.0393700787401574
100
AcDbArc
 50
180.0
 51
270.0
  0
ARC
  5
3B8
330
1B
100
AcDbEntity
 67
     1
  8
0
  6
Continuous
 62
     7
370
    25
100
AcDbCircle
 10
-14.9803149606
 20
0.0393700787
 30
0.0
 40
0.0393700787401592
100
AcDbArc
 50
270.0
 51
0.0
  0
ARC
  5
3B9
330
1B
100
AcDbEntity
 67
     1
  8
0
  6
Continuous
 62
     7
370
    25
100
AcDbCircle
 10
-14.9803149606
 20
20.8267716535
 30
0.0
 40
0.0393700787401592
100
AcDbArc
 50
0.0
 51
90.0
  0
ARC
  5
3BA
330
1B
100
AcDbEntity
 67
     1
  8
0
  6
Continuous
 62
     7
370
    25
100
AcDbCircle
 10
-15.6102362205
 20
20.8267716535
 30
0.0
 40
0.0393700787401539
100
AcDbArc
 50
90.0
 51
180.0
  0
ARC
  5
3BB
330
1B
100
AcDbEntity
 67
     1
  8
0
  6
Continuous
 62
     7
370
    25
100
AcDbCircle
 10
-14.9015748031
 20
4.6062992126
 30
0.0
 40
0.0393700787401592
100
AcDbArc
 50
90.0
 51
180.0
  0
ARC
  5
3BC
330
1B
100
AcDbEntity
 67
     1
  8
0
  6
Continuous
 62
     7
370
    25
100
AcDbCircle
 10
14.9015748031
 20
4.6062992126
 30
0.0
 40
0.039370078740161
100
AcDbArc
 50
0.0
 51
90.0
  0
ARC
  5
3BD
330
1B
100
AcDbEntity
 67
     1
  8
0
  6
Continuous
 62
     7
370
    25
100
AcDbCircle
 10
-14.9015748031
 20
0.7480314961
 30
0.0
 40
0.0393700787401592
100
AcDbArc
 50
180.0
 51
270.0
  0
ARC
  5
3BE
330
1B
100
AcDbEntity
 67
     1
  8
0
  6
Continuous
 62
     7
370
    25
100
AcDbCircle
 10
14.9015748031
 20
0.7480314961
 30
0.0
 40
0.039370078740161
100
AcDbArc
 50
270.0
 51
360.0
  0
ARC
  5
3BF
330
1B
100
AcDbEntity
 67
     1
  8
0
  6
Continuous
 62
     7
370
    25
100
AcDbCircle
 10
-14.9015748031
 20
0.6692913386
 30
0.0
 40
0.0393700787401574
100
AcDbArc
 50
90.0
 51
180.0
  0
ARC
  5
3C0
330
1B
100
AcDbEntity
 67
     1
  8
0
  6
Continuous
 62
     7
370
    25
100
AcDbCircle
 10
-14.9015748031
 20
0.0393700787
 30
0.0
 40
0.0393700787401592
100
AcDbArc
 50
180.0
 51
270.0
  0
ARC
  5
3C1
330
1B
100
AcDbEntity
 67
     1
  8
0
  6
Continuous
 62
     7
370
    25
100
AcDbCircle
 10
14.9015748031
 20
0.6692913386
 30
0.0
 40
0.0393700787401592
100
AcDbArc
 50
0.0
 51
90.0
  0
ARC
  5
3C2
330
1B
100
AcDbEntity
 67
     1
  8
0
  6
Continuous
 62
     7
370
    25
100
AcDbCircle
 10
14.9015748031
 20
0.0393700787
 30
0.0
 40
0.039370078740161
100
AcDbArc
 50
270.0
 51
360.0
  0
ARC
  5
3C3
330
1B
100
AcDbEntity
 67
     1
  8
0
  6
Continuous
 62
     7
370
    25
100
AcDbCircle
 10
-14.9015748031
 20
10.5905511811
 30
0.0
 40
0.0393700787401574
100
AcDbArc
 50
90.0
 51
180.0
  0
ARC
  5
3C4
330
1B
100
AcDbEntity
 67
     1
  8
0
  6
Continuous
 62
     7
370
    25
100
AcDbCircle
 10
14.9015748031
 20
10.5905511811
 30
0.0
 40
0.0393700787401592
100
AcDbArc
 50
0.0
 51
90.0
  0
ARC
  5
3C5
330
1B
100
AcDbEntity
 67
     1
  8
0
  6
Continuous
 62
     7
370
    25
100
AcDbCircle
 10
14.9015748031
 20
7.5196850394
 30
0.0
 40
0.039370078740161
100
AcDbArc
 50
270.0
 51
360.0
  0
ARC
  5
3C6
330
1B
100
AcDbEntity
 67
     1
  8
0
  6
Continuous
 62
     7
370
    25
100
AcDbCircle
 10
-14.9015748031
 20
7.5196850394
 30
0.0
 40
0.0393700787401601
100
AcDbArc
 50
180.0
 51
270.0
  0
ARC
  5
3C7
330
1B
100
AcDbEntity
 67
     1
  8
0
  6
Continuous
 62
     7
370
    25
100
AcDbCircle
 10
14.9015748031
 20
19.2519685039
 30
0.0
 40
0.0393700787401556
100
AcDbArc
 50
0.0
 51
90.0
  0
ARC
  5
3C8
330
1B
100
AcDbEntity
 67
     1
  8
0
  6
Continuous
 62
     7
370
    25
100
AcDbCircle
 10
-14.9015748031
 20
19.2519685039
 30
0.0
 40
0.0393700787401556
100
AcDbArc
 50
90.0
 51
180.0
  0
ARC
  5
3C9
330
1B
100
AcDbEntity
 67
     1
  8
0
  6
Continuous
 62
     7
370
    25
100
AcDbCircle
 10
14.9015748031
 20
16.968503937
 30
0.0
 40
0.039370078740161
100
AcDbArc
 50
270.0
 51
0.0
  0
ARC
  5
3CA
330
1B
100
AcDbEntity
 67
     1
  8
0
  6
Continuous
 62
     7
370
    25
100
AcDbCircle
 10
-14.9015748031
 20
16.968503937
 30
0.0
 40
0.0393700787401592
100
AcDbArc
 50
180.0
 51
270.0
  0
ARC
  5
3CB
330
1B
100
AcDbEntity
 67
     1
  8
0
  6
Continuous
 62
     7
370
    25
100
AcDbCircle
 10
14.9015748031
 20
20.8267716535
 30
0.0
 40
0.0393700787401592
100
AcDbArc
 50
0.0
 51
90.0
  0
ARC
  5
3CC
330
1B
100
AcDbEntity
 67
     1
  8
0
  6
Continuous
 62
     7
370
    25
100
AcDbCircle
 10
-14.9015748031
 20
20.8267716535
 30
0.0
 40
0.0393700787401592
100
AcDbArc
 50
90.0
 51
180.0
  0
ARC
  5
3CD
330
1B
100
AcDbEntity
 67
     1
  8
0
  6
Continuous
 62
     7
370
    25
100
AcDbCircle
 10
16.4633395855
 20
11.1911264531
 30
0.0
 40
0.0263748079368179
100
AcDbArc
 50
176.7241572976
 51
273.2758427025
  0
ARC
  5
3CE
330
1B
100
AcDbEntity
 67
     1
  8
0
  6
Continuous
 62
     7
370
    25
100
AcDbCircle
 10
46.1351780281
 20
11.1910340364
 30
0.0
 40
0.0262880041756882
100
AcDbArc
 50
266.5115497877
 51
3.4884502123
  0
VIEWPORT
  5
8E1
330
1B
100
AcDbEntity
 67
     1
  8
0
100
AcDbViewport
 10
0.0
 20
0.0
 30
0.0
 40
8.4
 41
6.4
 68
     1
 69
     1
 12
-15.6496062992
 22
10.4330708661
 13
0.0
 23
0.0
 14
0.5
 24
0.5
 15
0.5
 25
0.5
 16
0.0
 26
0.0
 36
1.0
 17
0.0
 27
0.0
 37
0.0
 42
50.0
 43
0.0
 44
0.0
 45
48.6479190101
 50
0.0
 51
0.0
 72
   100
 90
   557152
  1

281
     0
 71
     1
 74
     0
110
0.0
120
0.0
130
0.0
111
1.0
121
0.0
131
0.0
112
0.0
122
1.0
132
0.0
 79
     0
146
0.0
  0
ENDSEC
  0
SECTION
  2
OBJECTS
  0
DICTIONARY
  5
C
330
0
100
AcDbDictionary
281
     1
  3
ACAD_GROUP
350
D
  3
ACAD_LAYOUT
350
1A
  3
ACAD_MLINESTYLE
350
17
  3
ACAD_PLOTSETTINGS
350
19
  3
ACAD_PLOTSTYLENAME
350
E
  3
ACAD_SCALELIST
350
47
  0
DICTIONARY
  5
D
102
{ACAD_REACTORS
330
C
102
}
330
C
100
AcDbDictionary
281
     1
  0
DICTIONARY
  5
1A
102
{ACAD_REACTORS
330
C
102
}
330
C
100
AcDbDictionary
281
     1
  3
_Back
350
1E
  3
_Isometric
350
5D8
  3
_Right
350
26
  3
_Top
350
3FF
  3
Model
350
22
  0
DICTIONARY
  5
17
102
{ACAD_REACTORS
330
C
102
}
330
C
100
AcDbDictionary
281
     1
  3
Standard
350
18
  0
DICTIONARY
  5
19
102
{ACAD_REACTORS
330
C
102
}
330
C
100
AcDbDictionary
281
     1
  0
ACDBDICTIONARYWDFLT
  5
E
102
{ACAD_REACTORS
330
C
102
}
330
C
100
AcDbDictionary
281
     1
  3
Normal
350
F
100
AcDbDictionaryWithDefault
340
F
  0
DICTIONARY
  5
47
102
{ACAD_REACTORS
330
C
102
}
330
C
100
AcDbDictionary
281
     1
  3
A0
350
48
  3
A1
350
49
  3
A2
350
4A
  3
A3
350
4B
  3
A4
350
4C
  3
A5
350
4D
  3
A6
350
4E
  3
A7
350
4F
  3
A8
350
50
  3
A9
350
51
  3
B0
350
52
  3
B1
350
53
  3
B2
350
54
  3
B3
350
55
  3
B4
350
56
  3
B5
350
57
  3
B6
350
58
  3
B7
350
59
  3
B8
350
5A
  3
B9
350
5B
  3
C0
350
5C
  3
C1
350
5D
  3
C2
350
5E
  3
C3
350
5F
  3
C4
350
60
  3
C5
350
61
  3
C6
350
62
  3
C7
350
63
  3
C8
350
64
  3
C9
350
65
  3
D0
350
66
  3
D1
350
67
  3
D2
350
68
  0
LAYOUT
  5
1E
102
{ACAD_REACTORS
330
1A
102
}
330
1A
100
AcDbPlotSettings
  1

  2
none_device
  4
Letter_(8.50_x_11.00_Inches)
  6

 40
6.35
 41
6.35
 42
6.35001
 43
6.35001
 44
215.9
 45
279.4
 46
0.0
 47
0.0
 48
0.0
 49
0.0
140
0.0
141
0.0
142
1.0
143
5.9617550042
 70
   688
 72
     0
 73
     1
 74
     1
  7

 75
     0
147
0.1677358428
148
397.5
149
0.0
100
AcDbLayout
  1
_Back
 70
     1
 71
     1
 10
-17.1400473974
 20
-1.490438751
 11
48.4392576487
 21
49.1844787846
 12
0.0
 22
0.0
 32
0.0
 14
-15.6496062992
 24
0.0
 34
0.0
 15
46.9488188976
 25
20.8661417323
 35
0.0
146
0.0
 13
0.0
 23
0.0
 33
0.0
 16
1.0
 26
0.0
 36
0.0
 17
0.0
 27
1.0
 37
0.0
 76
     0
330
1B
331
8E1
  0
LAYOUT
  5
5D8
102
{ACAD_REACTORS
330
1A
102
}
330
1A
100
AcDbPlotSettings
  1

  2
none_device
  4
Letter_(8.50_x_11.00_Inches)
  6

 40
6.35
 41
6.35
 42
6.35001
 43
6.35001
 44
215.9
 45
279.4
 46
0.0
 47
0.0
 48
0.0
 49
0.0
140
0.0
141
0.0
142
1.0
143
5.9617550042
 70
   688
 72
     0
 73
     1
 74
     1
  7

 75
     0
147
0.1677358428
148
397.5
149
0.0
100
AcDbLayout
  1
_Isometric
 70
     1
 71
     4
 10
0.0
 20
0.0
 11
0.0
 21
0.0
 12
0.0
 22
0.0
 32
0.0
 14
0.0
 24
0.0
 34
0.0
 15
0.0
 25
0.0
 35
0.0
146
0.0
 13
0.0
 23
0.0
 33
0.0
 16
1.0
 26
0.0
 36
0.0
 17
0.0
 27
1.0
 37
0.0
 76
     0
330
5D7
331
8E7
  0
LAYOUT
  5
26
102
{ACAD_REACTORS
330
1A
102
}
330
1A
100
AcDbPlotSettings
  1

  2
none_device
  4
Letter_(8.50_x_11.00_Inches)
  6

 40
6.35
 41
6.35
 42
6.35001
 43
6.35001
 44
215.9
 45
279.4
 46
0.0
 47
0.0
 48
0.0
 49
0.0
140
0.0
141
0.0
142
1.0
143
5.9617550042
 70
   688
 72
     0
 73
     1
 74
     1
  7

 75
     0
147
0.1677358428
148
397.5
149
0.0
100
AcDbLayout
  1
_Right
 70
     1
 71
     2
 10
0.0
 20
0.0
 11
0.0
 21
0.0
 12
0.0
 22
0.0
 32
0.0
 14
0.0
 24
0.0
 34
0.0
 15
0.0
 25
0.0
 35
0.0
146
0.0
 13
0.0
 23
0.0
 33
0.0
 16
1.0
 26
0.0
 36
0.0
 17
0.0
 27
1.0
 37
0.0
 76
     0
330
23
331
8E3
  0
LAYOUT
  5
3FF
102
{ACAD_REACTORS
330
1A
102
}
330
1A
100
AcDbPlotSettings
  1

  2
none_device
  4
Letter_(8.50_x_11.00_Inches)
  6

 40
6.35
 41
6.35
 42
6.35001
 43
6.35001
 44
215.9
 45
279.4
 46
0.0
 47
0.0
 48
0.0
 49
0.0
140
0.0
141
0.0
142
1.0
143
5.9617550042
 70
   688
 72
     0
 73
     1
 74
     1
  7

 75
     0
147
0.1677358428
148
397.5
149
0.0
100
AcDbLayout
  1
_Top
 70
     1
 71
     3
 10
0.0
 20
0.0
 11
0.0
 21
0.0
 12
0.0
 22
0.0
 32
0.0
 14
0.0
 24
0.0
 34
0.0
 15
0.0
 25
0.0
 35
0.0
146
0.0
 13
0.0
 23
0.0
 33
0.0
 16
1.0
 26
0.0
 36
0.0
 17
0.0
 27
1.0
 37
0.0
 76
     0
330
3FE
331
8E5
  0
LAYOUT
  5
22
102
{ACAD_REACTORS
330
1A
102
}
330
1A
100
AcDbPlotSettings
  1

  2
none_device
  4
ANSI_A_(11.00_x_8.50_Inches)
  6

 40
6.35
 41
19.05
 42
6.35000508
 43
19.05000254
 44
279.4
 45
215.9
 46
202.50149746
 47
42.79899873
 48
0.0
 49
0.0
140
0.0
141
0.0
142
0.1739660377
143
1.0
 70
  1696
 72
     0
 73
     0
 74
     0
  7

 75
     0
147
0.5913241897
148
-39.4088153714
149
0.0
100
AcDbLayout
  1
Model
 70
     1
 71
     0
 10
0.0
 20
0.0
 11
12.0
 21
9.0
 12
0.0
 22
0.0
 32
0.0
 14
-46.9488188976
 24
0.0
 34
0.0
 15
15.6496062992
 25
20.8661417323
 35
0.0
146
0.0
 13
0.0
 23
0.0
 33
0.0
 16
1.0
 26
0.0
 36
0.0
 17
0.0
 27
1.0
 37
0.0
 76
     0
330
1F
331
29
  0
MLINESTYLE
  5
18
102
{ACAD_REACTORS
330
17
102
}
330
17
100
AcDbMlineStyle
  2
Standard
 70
     0
  3

 62
   256
 51
90.0
 52
90.0
 71
     2
 49
0.5
 62
   256
  6
BYLAYER
 49
-0.5
 62
   256
  6
BYLAYER
  0
ACDBPLACEHOLDER
  5
F
102
{ACAD_REACTORS
330
E
102
}
330
E
  0
SCALE
  5
48
102
{ACAD_REACTORS
330
47
102
}
330
47
100
AcDbScale
 70
     0
300
1:1
140
1.0
141
1.0
290
     1
  0
SCALE
  5
49
102
{ACAD_REACTORS
330
47
102
}
330
47
100
AcDbScale
 70
     0
300
1:2
140
1.0
141
2.0
290
     0
  0
SCALE
  5
4A
102
{ACAD_REACTORS
330
47
102
}
330
47
100
AcDbScale
 70
     0
300
1:4
140
1.0
141
4.0
290
     0
  0
SCALE
  5
4B
102
{ACAD_REACTORS
330
47
102
}
330
47
100
AcDbScale
 70
     0
300
1:5
140
1.0
141
5.0
290
     0
  0
SCALE
  5
4C
102
{ACAD_REACTORS
330
47
102
}
330
47
100
AcDbScale
 70
     0
300
1:8
140
1.0
141
8.0
290
     0
  0
SCALE
  5
4D
102
{ACAD_REACTORS
330
47
102
}
330
47
100
AcDbScale
 70
     0
300
1:10
140
1.0
141
10.0
290
     0
  0
SCALE
  5
4E
102
{ACAD_REACTORS
330
47
102
}
330
47
100
AcDbScale
 70
     0
300
1:16
140
1.0
141
16.0
290
     0
  0
SCALE
  5
4F
102
{ACAD_REACTORS
330
47
102
}
330
47
100
AcDbScale
 70
     0
300
1:20
140
1.0
141
20.0
290
     0
  0
SCALE
  5
50
102
{ACAD_REACTORS
330
47
102
}
330
47
100
AcDbScale
 70
     0
300
1:30
140
1.0
141
30.0
290
     0
  0
SCALE
  5
51
102
{ACAD_REACTORS
330
47
102
}
330
47
100
AcDbScale
 70
     0
300
1:40
140
1.0
141
40.0
290
     0
  0
SCALE
  5
52
102
{ACAD_REACTORS
330
47
102
}
330
47
100
AcDbScale
 70
     0
300
1:50
140
1.0
141
50.0
290
     0
  0
SCALE
  5
53
102
{ACAD_REACTORS
330
47
102
}
330
47
100
AcDbScale
 70
     0
300
1:100
140
1.0
141
100.0
290
     0
  0
SCALE
  5
54
102
{ACAD_REACTORS
330
47
102
}
330
47
100
AcDbScale
 70
     0
300
2:1
140
2.0
141
1.0
290
     0
  0
SCALE
  5
55
102
{ACAD_REACTORS
330
47
102
}
330
47
100
AcDbScale
 70
     0
300
4:1
140
4.0
141
1.0
290
     0
  0
SCALE
  5
56
102
{ACAD_REACTORS
330
47
102
}
330
47
100
AcDbScale
 70
     0
300
8:1
140
8.0
141
1.0
290
     0
  0
SCALE
  5
57
102
{ACAD_REACTORS
330
47
102
}
330
47
100
AcDbScale
 70
     0
300
10:1
140
10.0
141
1.0
290
     0
  0
SCALE
  5
58
102
{ACAD_REACTORS
330
47
102
}
330
47
100
AcDbScale
 70
     0
300
100:1
140
100.0
141
1.0
290
     0
  0
SCALE
  5
59
102
{ACAD_REACTORS
330
47
102
}
330
47
100
AcDbScale
 70
     0
300
1/128" = 1'-0"
140
0.0078125
141
12.0
290
     0
  0
SCALE
  5
5A
102
{ACAD_REACTORS
330
47
102
}
330
47
100
AcDbScale
 70
     0
300
1/64" = 1'-0"
140
0.015625
141
12.0
290
     0
  0
SCALE
  5
5B
102
{ACAD_REACTORS
330
47
102
}
330
47
100
AcDbScale
 70
     0
300
1/32" = 1'-0"
140
0.03125
141
12.0
290
     0
  0
SCALE
  5
5C
102
{ACAD_REACTORS
330
47
102
}
330
47
100
AcDbScale
 70
     0
300
1/16" = 1'-0"
140
0.0625
141
12.0
290
     0
  0
SCALE
  5
5D
102
{ACAD_REACTORS
330
47
102
}
330
47
100
AcDbScale
 70
     0
300
3/32" = 1'-0"
140
0.09375
141
12.0
290
     0
  0
SCALE
  5
5E
102
{ACAD_REACTORS
330
47
102
}
330
47
100
AcDbScale
 70
     0
300
1/8" = 1'-0"
140
0.125
141
12.0
290
     0
  0
SCALE
  5
5F
102
{ACAD_REACTORS
330
47
102
}
330
47
100
AcDbScale
 70
     0
300
3/16" = 1'-0"
140
0.1875
141
12.0
290
     0
  0
SCALE
  5
60
102
{ACAD_REACTORS
330
47
102
}
330
47
100
AcDbScale
 70
     0
300
1/4" = 1'-0"
140
0.25
141
12.0
290
     0
  0
SCALE
  5
61
102
{ACAD_REACTORS
330
47
102
}
330
47
100
AcDbScale
 70
     0
300
3/8" = 1'-0"
140
0.375
141
12.0
290
     0
  0
SCALE
  5
62
102
{ACAD_REACTORS
330
47
102
}
330
47
100
AcDbScale
 70
     0
300
1/2" = 1'-0"
140
0.5
141
12.0
290
     0
  0
SCALE
  5
63
102
{ACAD_REACTORS
330
47
102
}
330
47
100
AcDbScale
 70
     0
300
3/4" = 1'-0"
140
0.75
141
12.0
290
     0
  0
SCALE
  5
64
102
{ACAD_REACTORS
330
47
102
}
330
47
100
AcDbScale
 70
     0
300
1" = 1'-0"
140
1.0
141
12.0
290
     0
  0
SCALE
  5
65
102
{ACAD_REACTORS
330
47
102
}
330
47
100
AcDbScale
 70
     0
300
1-1/2" = 1'-0"
140
1.5
141
12.0
290
     0
  0
SCALE
  5
66
102
{ACAD_REACTORS
330
47
102
}
330
47
100
AcDbScale
 70
     0
300
3" = 1'-0"
140
3.0
141
12.0
290
     0
  0
SCALE
  5
67
102
{ACAD_REACTORS
330
47
102
}
330
47
100
AcDbScale
 70
     0
300
6" = 1'-0"
140
6.0
141
12.0
290
     0
  0
SCALE
  5
68
102
{ACAD_REACTORS
330
47
102
}
330
47
100
AcDbScale
 70
     0
300
1'-0" = 1'-0"
140
12.0
141
12.0
290
     0
  0
ENDSEC
  0
EOF
