  0
SECTION
  2
HEADER
  9
$ACADVER
  1
AC1015
  9
$ACADMAINTVER
 70
     6
  9
$DWGCODEPAGE
  3
ANSI_1252
  9
$INSBASE
 10
0.0
 20
0.0
 30
0.0
  9
$EXTMIN
 10
-50.8858267717
 20
0.0
 30
0.0
  9
$EXTMAX
 10
11.7125984252
 20
15.7480314961
 30
0.0
  9
$LIMMIN
 10
0.0
 20
0.0
  9
$LIMMAX
 10
12.0
 20
9.0
  9
$ORTHOMODE
 70
     0
  9
$REGENMODE
 70
     1
  9
$FILLMODE
 70
     1
  9
$QTEXTMODE
 70
     0
  9
$MIRRTEXT
 70
     1
  9
$LTSCALE
 40
1.0
  9
$ATTMODE
 70
     1
  9
$TEXTSIZE
 40
0.1377952756
  9
$TRACEWID
 40
0.05
  9
$TEXTSTYLE
  7
Standard
  9
$CLAYER
  8
0
  9
$CELTYPE
  6
ByLayer
  9
$CECOLOR
 62
   256
  9
$CELTSCALE
 40
1.0
  9
$DISPSILH
 70
     0
  9
$DIMSCALE
 40
1.0
  9
$DIMASZ
 40
0.13
  9
$DIMEXO
 40
0.0393700787
  9
$DIMDLI
 40
0.38
  9
$DIMRND
 40
0.0
  9
$DIMDLE
 40
0.0
  9
$DIMEXE
 40
0.0393700787
  9
$DIMTP
 40
0.0
  9
$DIMTM
 40
0.0
  9
$DIMTXT
 40
0.1377952756
  9
$DIMCEN
 40
0.09
  9
$DIMTSZ
 40
0.0
  9
$DIMTOL
 70
     0
  9
$DIMLIM
 70
     0
  9
$DIMTIH
 70
     1
  9
$DIMTOH
 70
     1
  9
$DIMSE1
 70
     0
  9
$DIMSE2
 70
     0
  9
$DIMTAD
 70
     1
  9
$DIMZIN
 70
     1
  9
$DIMBLK
  1

  9
$DIMASO
 70
     1
  9
$DIMSHO
 70
     1
  9
$DIMPOST
  1

  9
$DIMAPOST
  1

  9
$DIMALT
 70
     0
  9
$DIMALTD
 70
     2
  9
$DIMALTF
 40
25.4
  9
$DIMLFAC
 40
1.0
  9
$DIMTOFL
 70
     0
  9
$DIMTVP
 40
0.0
  9
$DIMTIX
 70
     0
  9
$DIMSOXD
 70
     0
  9
$DIMSAH
 70
     0
  9
$DIMBLK1
  1

  9
$DIMBLK2
  1

  9
$DIMSTYLE
  2
Standard
  9
$DIMCLRD
 70
     0
  9
$DIMCLRE
 70
     0
  9
$DIMCLRT
 70
     0
  9
$DIMTFAC
 40
1.0
  9
$DIMGAP
 40
0.06
  9
$DIMJUST
 70
     0
  9
$DIMSD1
 70
     0
  9
$DIMSD2
 70
     0
  9
$DIMTOLJ
 70
     1
  9
$DIMTZIN
 70
     1
  9
$DIMALTZ
 70
     0
  9
$DIMALTTZ
 70
     0
  9
$DIMUPT
 70
     0
  9
$DIMDEC
 70
     2
  9
$DIMTDEC
 70
     2
  9
$DIMALTU
 70
     2
  9
$DIMALTTD
 70
     2
  9
$DIMTXSTY
  7
Standard
  9
$DIMAUNIT
 70
     0
  9
$DIMADEC
 70
     2
  9
$DIMALTRND
 40
0.0
  9
$DIMAZIN
 70
     0
  9
$DIMDSEP
 70
    46
  9
$DIMATFIT
 70
     3
  9
$DIMFRAC
 70
     0
  9
$DIMLDRBLK
  1

  9
$DIMLUNIT
 70
     2
  9
$DIMLWD
 70
    -2
  9
$DIMLWE
 70
    -2
  9
$DIMTMOVE
 70
     0
  9
$LUNITS
 70
     2
  9
$LUPREC
 70
     2
  9
$SKETCHINC
 40
0.1
  9
$FILLETRAD
 40
0.5
  9
$AUNITS
 70
     0
  9
$AUPREC
 70
     2
  9
$MENU
  1
.
  9
$ELEVATION
 40
0.0
  9
$PELEVATION
 40
0.0
  9
$THICKNESS
 40
0.0
  9
$LIMCHECK
 70
     0
  9
$CHAMFERA
 40
0.0
  9
$CHAMFERB
 40
0.0
  9
$CHAMFERC
 40
0.0
  9
$CHAMFERD
 40
0.0
  9
$SKPOLY
 70
     0
  9
$TDCREATE
 40
2460405.630527963
  9
$TDUCREATE
 40
2460405.588861296
  9
$TDUPDATE
 40
2460405.630562581
  9
$TDUUPDATE
 40
2460405.588895914
  9
$TDINDWG
 40
0.0000000116
  9
$TDUSRTIMER
 40
0.0000000116
  9
$USRTIMER
 70
     1
  9
$ANGBASE
 50
0.0
  9
$ANGDIR
 70
     0
  9
$PDMODE
 70
     0
  9
$PDSIZE
 40
-1.0
  9
$PLINEWID
 40
0.0
  9
$SPLFRAME
 70
     0
  9
$SPLINETYPE
 70
     6
  9
$SPLINESEGS
 70
     8
  9
$HANDSEED
  5
5B1
  9
$SURFTAB1
 70
     6
  9
$SURFTAB2
 70
     6
  9
$SURFTYPE
 70
     6
  9
$SURFU
 70
     6
  9
$SURFV
 70
     6
  9
$UCSBASE
  2

  9
$UCSNAME
  2

  9
$UCSORG
 10
0.0
 20
0.0
 30
0.0
  9
$UCSXDIR
 10
1.0
 20
0.0
 30
0.0
  9
$UCSYDIR
 10
0.0
 20
1.0
 30
0.0
  9
$UCSORTHOREF
  2

  9
$UCSORTHOVIEW
 70
     0
  9
$UCSORGTOP
 10
0.0
 20
0.0
 30
0.0
  9
$UCSORGBOTTOM
 10
0.0
 20
0.0
 30
0.0
  9
$UCSORGLEFT
 10
0.0
 20
0.0
 30
0.0
  9
$UCSORGRIGHT
 10
0.0
 20
0.0
 30
0.0
  9
$UCSORGFRONT
 10
0.0
 20
0.0
 30
0.0
  9
$UCSORGBACK
 10
0.0
 20
0.0
 30
0.0
  9
$PUCSBASE
  2

  9
$PUCSNAME
  2

  9
$PUCSORG
 10
0.0
 20
0.0
 30
0.0
  9
$PUCSXDIR
 10
1.0
 20
0.0
 30
0.0
  9
$PUCSYDIR
 10
0.0
 20
1.0
 30
0.0
  9
$PUCSORTHOREF
  2

  9
$PUCSORTHOVIEW
 70
     0
  9
$PUCSORGTOP
 10
0.0
 20
0.0
 30
0.0
  9
$PUCSORGBOTTOM
 10
0.0
 20
0.0
 30
0.0
  9
$PUCSORGLEFT
 10
0.0
 20
0.0
 30
0.0
  9
$PUCSORGRIGHT
 10
0.0
 20
0.0
 30
0.0
  9
$PUCSORGFRONT
 10
0.0
 20
0.0
 30
0.0
  9
$PUCSORGBACK
 10
0.0
 20
0.0
 30
0.0
  9
$USERI1
 70
     0
  9
$USERI2
 70
     0
  9
$USERI3
 70
     0
  9
$USERI4
 70
     0
  9
$USERI5
 70
     0
  9
$USERR1
 40
0.0
  9
$USERR2
 40
0.0
  9
$USERR3
 40
0.0
  9
$USERR4
 40
0.0
  9
$USERR5
 40
0.0
  9
$WORLDVIEW
 70
     1
  9
$SHADEDGE
 70
     3
  9
$SHADEDIF
 70
    70
  9
$TILEMODE
 70
     1
  9
$MAXACTVP
 70
    64
  9
$PINSBASE
 10
0.0
 20
0.0
 30
0.0
  9
$PLIMCHECK
 70
     0
  9
$PEXTMIN
 10
-8.9960629921
 20
0.0
 30
0.0
  9
$PEXTMAX
 10
8.9173228346
 20
15.7480314961
 30
0.0
  9
$PLIMMIN
 10
-9.4881897756
 20
-0.4921260085
  9
$PLIMMAX
 10
12.1653545971
 20
16.2401582795
  9
$UNITMODE
 70
     0
  9
$VISRETAIN
 70
     1
  9
$PLINEGEN
 70
     0
  9
$PSLTSCALE
 70
     1
  9
$TREEDEPTH
 70
  3020
  9
$CMLSTYLE
  2
Standard
  9
$CMLJUST
 70
     0
  9
$CMLSCALE
 40
1.0
  9
$PROXYGRAPHICS
 70
     1
  9
$MEASUREMENT
 70
     0
  9
$CELWEIGHT
370
    -1
  9
$ENDCAPS
280
     0
  9
$JOINSTYLE
280
     0
  9
$LWDISPLAY
290
     1
  9
$INSUNITS
 70
     1
  9
$HYPERLINKBASE
  1

  9
$STYLESHEET
  1

  9
$XEDIT
290
     1
  9
$CEPSNTYPE
380
     0
  9
$PSTYLEMODE
290
     1
  9
$FINGERPRINTGUID
  2
{0642dcc6-354a-43a7-b866-85666bd239b3}
  9
$VERSIONGUID
  2
{FAEB1C32-E019-11D5-929B-00C0DF256EC4}
  9
$EXTNAMES
290
     1
  9
$PSVPSCALE
 40
0.0
  9
$OLESTARTUP
290
     0
  0
ENDSEC
  0
SECTION
  2
CLASSES
  0
CLASS
  1
ACDBDICTIONARYWDFLT
  2
AcDbDictionaryWithDefault
  3
ObjectDBX Classes
 90
        0
280
     0
281
     0
  0
CLASS
  1
VISUALSTYLE
  2
AcDbVisualStyle
  3
ObjectDBX Classes
 90
     4095
280
     0
281
     0
  0
CLASS
  1
MATERIAL
  2
AcDbMaterial
  3
ObjectDBX Classes
 90
     1153
280
     0
281
     0
  0
CLASS
  1
SCALE
  2
AcDbScale
  3
ObjectDBX Classes
 90
     1153
280
     0
281
     0
  0
CLASS
  1
TABLESTYLE
  2
AcDbTableStyle
  3
ObjectDBX Classes
 90
     4095
280
     0
281
     0
  0
CLASS
  1
MLEADERSTYLE
  2
AcDbMLeaderStyle
  3
ACDB_MLEADERSTYLE_CLASS
 90
     4095
280
     0
281
     0
  0
CLASS
  1
SUN
  2
AcDbSun
  3
SCENEOE
 90
     1153
280
     0
281
     0
  0
CLASS
  1
ACDBPLACEHOLDER
  2
AcDbPlaceHolder
  3
ObjectDBX Classes
 90
        0
280
     0
281
     0
  0
CLASS
  1
LAYOUT
  2
AcDbLayout
  3
ObjectDBX Classes
 90
        0
280
     0
281
     0
  0
ENDSEC
  0
SECTION
  2
TABLES
  0
TABLE
  2
VPORT
  5
8
330
0
100
AcDbSymbolTable
 70
     1
  0
VPORT
  5
29
330
8
100
AcDbSymbolTableRecord
100
AcDbViewportTableRecord
  2
*Active
 70
     0
 10
0.0
 20
0.0
 11
1.0
 21
1.0
 12
-19.5866141732
 22
7.874015748
 13
0.0
 23
0.0
 14
0.5
 24
0.5
 15
0.5
 25
0.5
 16
0.0
 26
0.0
 36
1.0
 17
0.0
 27
0.0
 37
0.0
 40
16.062992126
 41
3.975
 42
50.0
 43
0.0
 44
0.0
 50
0.0
 51
0.0
 71
     0
 72
   100
 73
     1
 74
     3
 75
     0
 76
     0
 77
     0
 78
     0
281
     0
 65
     1
110
0.0
120
0.0
130
0.0
111
1.0
121
0.0
131
0.0
112
0.0
122
1.0
132
0.0
 79
     0
146
0.0
  0
ENDTAB
  0
TABLE
  2
LTYPE
  5
5
330
0
100
AcDbSymbolTable
 70
     6
  0
LTYPE
  5
14
330
5
100
AcDbSymbolTableRecord
100
AcDbLinetypeTableRecord
  2
ByBlock
 70
     0
  3

 72
    65
 73
     0
 40
0.0
  0
LTYPE
  5
15
330
5
100
AcDbSymbolTableRecord
100
AcDbLinetypeTableRecord
  2
ByLayer
 70
     0
  3

 72
    65
 73
     0
 40
0.0
  0
LTYPE
  5
16
330
5
100
AcDbSymbolTableRecord
100
AcDbLinetypeTableRecord
  2
Continuous
 70
     0
  3
Solid line
 72
    65
 73
     0
 40
0.0
  0
LTYPE
  5
6E
330
5
100
AcDbSymbolTableRecord
100
AcDbLinetypeTableRecord
  2
HIDDEN
 70
     0
  3
Hidden __ __ __ __ __ __ __ __ __ __ __ __ __ __
 72
    65
 73
     2
 40
0.075
 49
0.05
 74
     0
 49
-0.025
 74
     0
  0
LTYPE
  5
6F
330
5
100
AcDbSymbolTableRecord
100
AcDbLinetypeTableRecord
  2
PHANTOM
 70
     0
  3
Phantom ______  __  __  ______  __  __  ______
 72
    65
 73
     6
 40
0.5
 49
0.25
 74
     0
 49
-0.05
 74
     0
 49
0.05
 74
     0
 49
-0.05
 74
     0
 49
0.05
 74
     0
 49
-0.05
 74
     0
  0
LTYPE
  5
70
330
5
100
AcDbSymbolTableRecord
100
AcDbLinetypeTableRecord
  2
CENTER
 70
     0
  3
Center ____ _ ____ _ ____ _ ____ _ ____ _ ____
 72
    65
 73
     4
 40
0.4
 49
0.25
 74
     0
 49
-0.05
 74
     0
 49
0.05
 74
     0
 49
-0.05
 74
     0
  0
LTYPE
  5
71
330
5
100
AcDbSymbolTableRecord
100
AcDbLinetypeTableRecord
  2
CENTERX2
 70
     0
  3
Center (2x) ________  __  ________  __  _____
 72
    65
 73
     4
 40
0.8
 49
0.5
 74
     0
 49
-0.1
 74
     0
 49
0.1
 74
     0
 49
-0.1
 74
     0
  0
LTYPE
  5
72
330
5
100
AcDbSymbolTableRecord
100
AcDbLinetypeTableRecord
  2
DOT2
 70
     0
  3
Dot (.5x) ........................................
 72
    65
 73
     2
 40
0.025
 49
0.0
 74
     0
 49
-0.025
 74
     0
  0
ENDTAB
  0
TABLE
  2
LAYER
  5
2
330
0
100
AcDbSymbolTable
 70
     1
  0
LAYER
  5
10
330
2
100
AcDbSymbolTableRecord
100
AcDbLayerTableRecord
  2
0
 70
     0
 62
     7
  6
Continuous
370
    -3
390
F
  0
ENDTAB
  0
TABLE
  2
STYLE
  5
3
330
0
100
AcDbSymbolTable
 70
     1
  0
STYLE
  5
11
330
3
100
AcDbSymbolTableRecord
100
AcDbTextStyleTableRecord
  2
Standard
 70
     0
 40
0.0
 41
1.0
 50
0.0
 71
     0
 42
0.1377952756
  3
txt
  4

  0
ENDTAB
  0
TABLE
  2
VIEW
  5
6
330
0
100
AcDbSymbolTable
 70
     0
  0
ENDTAB
  0
TABLE
  2
UCS
  5
7
330
0
100
AcDbSymbolTable
 70
     0
  0
ENDTAB
  0
TABLE
  2
APPID
  5
9
330
0
100
AcDbSymbolTable
 70
     1
  0
APPID
  5
12
330
9
100
AcDbSymbolTableRecord
100
AcDbRegAppTableRecord
  2
ACAD
 70
     0
  0
ENDTAB
  0
TABLE
  2
DIMSTYLE
  5
A
330
0
100
AcDbSymbolTable
 70
     1
100
AcDbDimStyleTable
  0
DIMSTYLE
105
27
330
A
100
AcDbSymbolTableRecord
100
AcDbDimStyleTableRecord
  2
Standard
 70
     0
178
     0
340
11
  0
ENDTAB
  0
TABLE
  2
BLOCK_RECORD
  5
1
330
0
100
AcDbSymbolTable
 70
     3
  0
BLOCK_RECORD
  5
1F
330
1
100
AcDbSymbolTableRecord
100
AcDbBlockTableRecord
  2
*Model_Space
340
22
  0
BLOCK_RECORD
  5
1B
330
1
100
AcDbSymbolTableRecord
100
AcDbBlockTableRecord
  2
*Paper_Space
340
1E
  0
BLOCK_RECORD
  5
23
330
1
100
AcDbSymbolTableRecord
100
AcDbBlockTableRecord
  2
*Paper_Space0
340
26
  0
BLOCK_RECORD
  5
1C0
330
1
100
AcDbSymbolTableRecord
100
AcDbBlockTableRecord
  2
*Paper_Space1
340
1C1
  0
BLOCK_RECORD
  5
339
330
1
100
AcDbSymbolTableRecord
100
AcDbBlockTableRecord
  2
*Paper_Space2
340
33A
  0
ENDTAB
  0
ENDSEC
  0
SECTION
  2
BLOCKS
  0
BLOCK
  5
20
330
1F
100
AcDbEntity
  8
0
100
AcDbBlockBegin
  2
*Model_Space
 70
     0
 10
0.0
 20
0.0
 30
0.0
  3
*Model_Space
  1

  0
ENDBLK
  5
21
330
1F
100
AcDbEntity
  8
0
100
AcDbBlockEnd
  0
BLOCK
  5
1C
330
1B
100
AcDbEntity
 67
     1
  8
0
100
AcDbBlockBegin
  2
*Paper_Space
 70
     0
 10
0.0
 20
0.0
 30
0.0
  3
*Paper_Space
  1

  0
ENDBLK
  5
1D
330
1B
100
AcDbEntity
 67
     1
  8
0
100
AcDbBlockEnd
  0
BLOCK
  5
24
330
23
100
AcDbEntity
  8
0
100
AcDbBlockBegin
  2
*Paper_Space0
 70
     0
 10
0.0
 20
0.0
 30
0.0
  3
*Paper_Space0
  1

  0
LINE
  5
1B1
330
23
100
AcDbEntity
  8
0
  6
Continuous
 62
     7
370
    25
100
AcDbLine
 10
-8.8616451353
 20
15.7086614173
 30
0.0
 11
-8.8616451353
 21
0.0393700787
 31
0.0
  0
LINE
  5
1B2
330
23
100
AcDbEntity
  8
0
  6
Continuous
 62
     7
370
    25
100
AcDbLine
 10
8.9960629921
 20
0.0
 30
0.0
 11
-8.9173228346
 21
0.0
 31
0.0
  0
LINE
  5
1B3
330
23
100
AcDbEntity
  8
0
  6
Continuous
 62
     7
370
    25
100
AcDbLine
 10
-8.9173228346
 20
15.7480314961
 30
0.0
 11
8.9960629921
 21
15.7480314961
 31
0.0
  0
LINE
  5
1B4
330
23
100
AcDbEntity
  8
0
  6
Continuous
 62
     7
370
    25
100
AcDbLine
 10
8.9960629921
 20
15.7480314961
 30
0.0
 11
8.9960629921
 21
0.0
 31
0.0
  0
LINE
  5
1B5
330
23
100
AcDbEntity
  8
0
  6
Continuous
 62
     7
370
    25
100
AcDbLine
 10
-8.9173228346
 20
0.0
 30
0.0
 11
-8.9173228346
 21
15.7480314961
 31
0.0
  0
LINE
  5
1B6
330
23
100
AcDbEntity
  8
0
  6
Continuous
 62
     7
370
    25
100
AcDbLine
 10
-8.8222750566
 20
15.7480314961
 30
0.0
 11
-8.8222750566
 21
0.0
 31
0.0
  0
LINE
  5
1B7
330
23
100
AcDbEntity
  8
0
  6
Continuous
 62
     7
370
    25
100
AcDbLine
 10
8.9566929134
 20
0.0
 30
0.0
 11
8.9566929134
 21
15.7480314961
 31
0.0
  0
LINE
  5
1B8
330
23
100
AcDbEntity
  8
0
  6
Continuous
 62
     7
370
    25
100
AcDbLine
 10
8.9960629921
 20
15.7086614173
 30
0.0
 11
-8.8616451353
 21
15.7086614173
 31
0.0
  0
LINE
  5
1B9
330
23
100
AcDbEntity
  8
0
  6
Continuous
 62
     8
370
    25
100
AcDbLine
 10
-8.9173228346
 20
0.0393700787
 30
0.0
 11
8.9960629921
 21
0.0393700787
 31
0.0
  0
ARC
  5
1BA
330
23
100
AcDbEntity
  8
0
  6
Continuous
 62
     7
370
    25
100
AcDbCircle
 10
-8.8222750566
 20
15.7086614173
 30
0.0
 40
0.0393700787401574
100
AcDbArc
 50
90.0
 51
180.0
  0
ARC
  5
1BB
330
23
100
AcDbEntity
  8
0
  6
Continuous
 62
     7
370
    25
100
AcDbCircle
 10
-8.8222750566
 20
0.0393700787
 30
0.0
 40
0.0393700787401592
100
AcDbArc
 50
180.0
 51
270.0
  0
ARC
  5
1BC
330
23
100
AcDbEntity
  8
0
  6
Continuous
 62
     7
370
    25
100
AcDbCircle
 10
-8.8779527559
 20
13.9437627116
 30
0.0
 40
0.0393700787401574
100
AcDbArc
 50
65.5301994793
 51
180.0
  0
ARC
  5
1BD
330
23
100
AcDbEntity
  8
0
  6
Continuous
 62
     7
370
    25
100
AcDbCircle
 10
-8.8779527559
 20
0.0393700787
 30
0.0
 40
0.0393700787401574
100
AcDbArc
 50
180.0
 51
315.0
  0
ARC
  5
1BE
330
23
100
AcDbEntity
  8
0
  6
Continuous
 62
     7
370
    25
100
AcDbCircle
 10
8.9566929134
 20
15.7086614173
 30
0.0
 40
0.0393700787401539
100
AcDbArc
 50
360.0
 51
90.0
  0
ARC
  5
1BF
330
23
100
AcDbEntity
  8
0
  6
Continuous
 62
     7
370
    25
100
AcDbCircle
 10
8.9566929134
 20
0.0393700787
 30
0.0
 40
0.0393700787401558
100
AcDbArc
 50
270.0
 51
0.0
  0
VIEWPORT
  5
5AB
330
23
100
AcDbEntity
  8
0
100
AcDbViewport
 10
0.0
 20
0.0
 30
0.0
 40
8.4
 41
6.4
 68
     1
 69
     1
 12
-19.5866141732
 22
7.874015748
 13
0.0
 23
0.0
 14
0.5
 24
0.5
 15
0.5
 25
0.5
 16
0.0
 26
0.0
 36
1.0
 17
0.0
 27
0.0
 37
0.0
 42
50.0
 43
0.0
 44
0.0
 45
48.6479190101
 50
0.0
 51
0.0
 72
   100
 90
   557152
  1

281
     0
 71
     1
 74
     0
110
0.0
120
0.0
130
0.0
111
1.0
121
0.0
131
0.0
112
0.0
122
1.0
132
0.0
 79
     0
146
0.0
  0
ENDBLK
  5
25
330
23
100
AcDbEntity
  8
0
100
AcDbBlockEnd
  0
BLOCK
  5
1C2
330
1C0
100
AcDbEntity
  8
0
100
AcDbBlockBegin
  2
*Paper_Space1
 70
     0
 10
0.0
 20
0.0
 30
0.0
  3
*Paper_Space1
  1

  0
LINE
  5
2B0
330
1C0
100
AcDbEntity
  8
0
  6
Continuous
 62
     7
370
    25
100
AcDbLine
 10
-27.4606299213
 20
-8.9173228346
 30
0.0
 11
-27.4606299213
 21
8.9960629921
 31
0.0
  0
LINE
  5
2B1
330
1C0
100
AcDbEntity
  8
0
  6
Continuous
 62
     7
370
    25
100
AcDbLine
 10
-19.5866141732
 20
-8.9173228346
 30
0.0
 11
-19.5866141732
 21
8.9960629921
 31
0.0
  0
LINE
  5
2B2
330
1C0
100
AcDbEntity
  8
0
  6
Continuous
 62
     7
370
    25
100
AcDbLine
 10
-11.7125984252
 20
8.9960629921
 30
0.0
 11
-27.4606299213
 21
8.9960629921
 31
0.0
  0
LINE
  5
2B3
330
1C0
100
AcDbEntity
  8
0
  6
Continuous
 62
     7
370
    25
100
AcDbLine
 10
-11.7125984252
 20
-8.9173228346
 30
0.0
 11
-27.4606299213
 21
-8.9173228346
 31
0.0
  0
LINE
  5
2B4
330
1C0
100
AcDbEntity
  8
0
  6
Continuous
 62
     7
370
    25
100
AcDbLine
 10
-10.1181102362
 20
-7.5
 30
0.0
 11
-10.1181102362
 21
7.5393700787
 31
0.0
  0
LINE
  5
2B5
330
1C0
100
AcDbEntity
  8
0
  6
Continuous
 62
     7
370
    25
100
AcDbLine
 10
-10.8267716535
 20
7.5393700787
 30
0.0
 11
-10.8267716535
 21
-7.5
 31
0.0
  0
LINE
  5
2B6
330
1C0
100
AcDbEntity
  8
0
  6
Continuous
 62
     7
370
    25
100
AcDbLine
 10
-50.0
 20
7.5393700787
 30
0.0
 11
-50.0
 21
-7.5
 31
0.0
  0
LINE
  5
2B7
330
1C0
100
AcDbEntity
  8
0
  6
Continuous
 62
     7
370
    25
100
AcDbLine
 10
-49.2913385827
 20
-7.5
 30
0.0
 11
-49.2913385827
 21
7.5393700787
 31
0.0
  0
LINE
  5
2B8
330
1C0
100
AcDbEntity
  8
0
  6
Continuous
 62
     7
370
    25
100
AcDbLine
 10
-11.7125984252
 20
-8.9173228346
 30
0.0
 11
-11.7125984252
 21
8.9960629921
 31
0.0
  0
LINE
  5
2B9
330
1C0
100
AcDbEntity
  8
0
  6
Continuous
 62
     7
370
    25
100
AcDbLine
 10
11.5388104897
 20
-8.9173228346
 30
0.0
 11
-11.5388104897
 21
-8.9173228346
 31
0.0
  0
LINE
  5
2BA
330
1C0
100
AcDbEntity
  8
0
  6
Continuous
 62
     7
370
    25
100
AcDbLine
 10
-11.5666493393
 20
-8.8501139063
 30
0.0
 11
11.5666493393
 21
-8.8501139063
 31
0.0
  0
LINE
  5
2BB
330
1C0
100
AcDbEntity
  8
0
  6
Continuous
 62
     7
370
    25
100
AcDbLine
 10
10.9251968504
 20
-8.2086614173
 30
0.0
 11
11.5666493393
 21
-8.8501139063
 31
0.0
  0
LINE
  5
2BC
330
1C0
100
AcDbEntity
  8
0
  6
Continuous
 62
     7
370
    25
100
AcDbLine
 10
-10.9251968504
 20
-8.2086614173
 30
0.0
 11
-11.5666493393
 21
-8.8501139063
 31
0.0
  0
LINE
  5
2BD
330
1C0
100
AcDbEntity
  8
0
  6
Continuous
 62
     7
370
    25
100
AcDbLine
 10
-27.6344178568
 20
-8.9173228346
 30
0.0
 11
-50.7120388361
 21
-8.9173228346
 31
0.0
  0
LINE
  5
2BE
330
1C0
100
AcDbEntity
  8
0
  6
Continuous
 62
     7
370
    25
100
AcDbLine
 10
-50.7398776858
 20
-8.8501139063
 30
0.0
 11
-27.6065790071
 21
-8.8501139063
 31
0.0
  0
LINE
  5
2BF
330
1C0
100
AcDbEntity
  8
0
  6
Continuous
 62
     7
370
    25
100
AcDbLine
 10
-28.2480314961
 20
-8.2086614173
 30
0.0
 11
-27.6065790071
 21
-8.8501139063
 31
0.0
  0
LINE
  5
2C0
330
1C0
100
AcDbEntity
  8
0
  6
Continuous
 62
     7
370
    25
100
AcDbLine
 10
-50.0984251969
 20
-8.2086614173
 30
0.0
 11
-50.7398776858
 21
-8.8501139063
 31
0.0
  0
LINE
  5
2C1
330
1C0
100
AcDbEntity
  8
0
  6
Continuous
 62
     7
370
    25
100
AcDbLine
 10
-11.6732283465
 20
-8.8222750566
 30
0.0
 11
-11.0433070866
 21
-8.1923537968
 31
0.0
  0
LINE
  5
2C2
330
1C0
100
AcDbEntity
  8
0
  6
Continuous
 62
     7
370
    25
100
AcDbLine
 10
-11.0433070866
 20
-8.1923537968
 30
0.0
 11
-11.015468237
 21
-8.2201926464
 31
0.0
  0
LINE
  5
2C3
330
1C0
100
AcDbEntity
  8
0
  6
Continuous
 62
     7
370
    25
100
AcDbLine
 10
-11.015468237
 20
-8.2201926464
 30
0.0
 11
-11.6453894968
 21
-8.8501139063
 31
0.0
  0
LINE
  5
2C4
330
1C0
100
AcDbEntity
  8
0
  6
Continuous
 62
     7
370
    25
100
AcDbLine
 10
-11.6453894968
 20
-8.8501139063
 30
0.0
 11
-11.6732283465
 21
-8.8222750566
 31
0.0
  0
LINE
  5
2C5
330
1C0
100
AcDbEntity
  8
0
  6
Continuous
 62
     7
370
    25
100
AcDbLine
 10
-11.7125984252
 20
-8.8222750566
 30
0.0
 11
-11.6732283465
 21
-8.8222750566
 31
0.0
  0
LINE
  5
2C6
330
1C0
100
AcDbEntity
  8
0
  6
Continuous
 62
     7
370
    25
100
AcDbLine
 10
-11.0433070866
 20
-8.1923537968
 30
0.0
 11
-11.0039370079
 21
-8.1923537968
 31
0.0
  0
LINE
  5
2C7
330
1C0
100
AcDbEntity
  8
0
  6
Continuous
 62
     7
370
    25
100
AcDbLine
 10
-11.6732283465
 20
8.9960629921
 30
0.0
 11
-11.6732283465
 21
-8.8222750566
 31
0.0
  0
LINE
  5
2C8
330
1C0
100
AcDbEntity
  8
0
  6
Continuous
 62
     7
370
    25
100
AcDbLine
 10
-11.0433070866
 20
-8.1923537968
 30
0.0
 11
-11.0433070866
 21
8.9960629921
 31
0.0
  0
LINE
  5
2C9
330
1C0
100
AcDbEntity
  8
0
  6
Continuous
 62
     7
370
    25
100
AcDbLine
 10
-11.0039370079
 20
8.9566929134
 30
0.0
 11
-11.0039370079
 21
-8.1923537968
 31
0.0
  0
LINE
  5
2CA
330
1C0
100
AcDbEntity
  8
0
  6
Continuous
 62
     7
370
    25
100
AcDbLine
 10
-11.6732283465
 20
8.9960629921
 30
0.0
 11
-11.0433070866
 21
8.9960629921
 31
0.0
  0
LINE
  5
2CB
330
1C0
100
AcDbEntity
  8
0
  6
Continuous
 62
     7
370
    25
100
AcDbLine
 10
-50.8464566929
 20
8.9960629921
 30
0.0
 11
-50.2165354331
 21
8.9960629921
 31
0.0
  0
LINE
  5
2CC
330
1C0
100
AcDbEntity
  8
0
  6
Continuous
 62
     7
370
    25
100
AcDbLine
 10
-50.2165354331
 20
-8.1923537968
 30
0.0
 11
-50.2165354331
 21
8.9960629921
 31
0.0
  0
LINE
  5
2CD
330
1C0
100
AcDbEntity
  8
0
  6
Continuous
 62
     7
370
    25
100
AcDbLine
 10
-50.8464566929
 20
8.9960629921
 30
0.0
 11
-50.8464566929
 21
-8.8222750566
 31
0.0
  0
LINE
  5
2CE
330
1C0
100
AcDbEntity
  8
0
  6
Continuous
 62
     7
370
    25
100
AcDbLine
 10
-50.8464566929
 20
-8.8222750566
 30
0.0
 11
-50.2165354331
 21
-8.1923537968
 31
0.0
  0
LINE
  5
2CF
330
1C0
100
AcDbEntity
  8
0
  6
Continuous
 62
     7
370
    25
100
AcDbLine
 10
-50.8858267717
 20
-8.8222750566
 30
0.0
 11
-50.8464566929
 21
-8.8222750566
 31
0.0
  0
LINE
  5
2D0
330
1C0
100
AcDbEntity
  8
0
  6
Continuous
 62
     7
370
    25
100
AcDbLine
 10
-50.8186178433
 20
-8.8501139063
 30
0.0
 11
-50.8464566929
 21
-8.8222750566
 31
0.0
  0
LINE
  5
2D1
330
1C0
100
AcDbEntity
  8
0
  6
Continuous
 62
     7
370
    25
100
AcDbLine
 10
-50.2165354331
 20
-8.1923537968
 30
0.0
 11
-50.1886965834
 21
-8.2201926464
 31
0.0
  0
LINE
  5
2D2
330
1C0
100
AcDbEntity
  8
0
  6
Continuous
 62
     7
370
    25
100
AcDbLine
 10
-50.2165354331
 20
-8.1923537968
 30
0.0
 11
-50.1771653543
 21
-8.1923537968
 31
0.0
  0
LINE
  5
2D3
330
1C0
100
AcDbEntity
  8
0
  6
Continuous
 62
     7
370
    25
100
AcDbLine
 10
-50.8858267717
 20
-8.8222750566
 30
0.0
 11
-50.8858267717
 21
8.9566929134
 31
0.0
  0
LINE
  5
2D4
330
1C0
100
AcDbEntity
  8
0
  6
Continuous
 62
     7
370
    25
100
AcDbLine
 10
-50.1771653543
 20
8.9566929134
 30
0.0
 11
-50.1771653543
 21
-8.1923537968
 31
0.0
  0
LINE
  5
2D5
330
1C0
100
AcDbEntity
  8
0
  6
Continuous
 62
     7
370
    25
100
AcDbLine
 10
-50.1886965834
 20
-8.2201926464
 30
0.0
 11
-50.8186178433
 21
-8.8501139063
 31
0.0
  0
LINE
  5
2D6
330
1C0
100
AcDbEntity
  8
0
  6
Continuous
 62
     7
370
    25
100
AcDbLine
 10
11.0433070866
 20
8.9960629921
 30
0.0
 11
11.0433070866
 21
-8.1923537968
 31
0.0
  0
LINE
  5
2D7
330
1C0
100
AcDbEntity
  8
0
  6
Continuous
 62
     7
370
    25
100
AcDbLine
 10
11.0433070866
 20
-8.1923537968
 30
0.0
 11
11.0039370079
 21
-8.1923537968
 31
0.0
  0
LINE
  5
2D8
330
1C0
100
AcDbEntity
  8
0
  6
Continuous
 62
     7
370
    25
100
AcDbLine
 10
11.0039370079
 20
-8.1923537968
 30
0.0
 11
11.0039370079
 21
8.9566929134
 31
0.0
  0
LINE
  5
2D9
330
1C0
100
AcDbEntity
  8
0
  6
Continuous
 62
     7
370
    25
100
AcDbLine
 10
11.7125984252
 20
8.9566929134
 30
0.0
 11
-11.7125984252
 21
8.9566929134
 31
0.0
  0
LINE
  5
2DA
330
1C0
100
AcDbEntity
  8
0
  6
Continuous
 62
     7
370
    25
100
AcDbLine
 10
11.0433070866
 20
8.9960629921
 30
0.0
 11
11.6732283465
 21
8.9960629921
 31
0.0
  0
LINE
  5
2DB
330
1C0
100
AcDbEntity
  8
0
  6
Continuous
 62
     7
370
    25
100
AcDbLine
 10
11.6732283465
 20
-8.8222750566
 30
0.0
 11
11.6732283465
 21
8.9960629921
 31
0.0
  0
LINE
  5
2DC
330
1C0
100
AcDbEntity
  8
0
  6
Continuous
 62
     7
370
    25
100
AcDbLine
 10
11.7125984252
 20
8.9566929134
 30
0.0
 11
11.7125984252
 21
-8.8222750566
 31
0.0
  0
LINE
  5
2DD
330
1C0
100
AcDbEntity
  8
0
  6
Continuous
 62
     7
370
    25
100
AcDbLine
 10
11.7125984252
 20
-8.8222750566
 30
0.0
 11
11.6732283465
 21
-8.8222750566
 31
0.0
  0
LINE
  5
2DE
330
1C0
100
AcDbEntity
  8
0
  6
Continuous
 62
     7
370
    25
100
AcDbLine
 10
11.6453894968
 20
-8.8501139063
 30
0.0
 11
11.015468237
 21
-8.2201926464
 31
0.0
  0
LINE
  5
2DF
330
1C0
100
AcDbEntity
  8
0
  6
Continuous
 62
     7
370
    25
100
AcDbLine
 10
11.015468237
 20
-8.2201926464
 30
0.0
 11
11.0433070866
 21
-8.1923537968
 31
0.0
  0
LINE
  5
2E0
330
1C0
100
AcDbEntity
  8
0
  6
Continuous
 62
     7
370
    25
100
AcDbLine
 10
11.0433070866
 20
-8.1923537968
 30
0.0
 11
11.6732283465
 21
-8.8222750566
 31
0.0
  0
LINE
  5
2E1
330
1C0
100
AcDbEntity
  8
0
  6
Continuous
 62
     7
370
    25
100
AcDbLine
 10
11.6732283465
 20
-8.8222750566
 30
0.0
 11
11.6453894968
 21
-8.8501139063
 31
0.0
  0
LINE
  5
2E2
330
1C0
100
AcDbEntity
  8
0
  6
Continuous
 62
     7
370
    25
100
AcDbLine
 10
-28.1299212598
 20
-8.1923537968
 30
0.0
 11
-28.1692913386
 21
-8.1923537968
 31
0.0
  0
LINE
  5
2E3
330
1C0
100
AcDbEntity
  8
0
  6
Continuous
 62
     7
370
    25
100
AcDbLine
 10
-28.1577601095
 20
-8.2201926464
 30
0.0
 11
-28.1299212598
 21
-8.1923537968
 31
0.0
  0
LINE
  5
2E4
330
1C0
100
AcDbEntity
  8
0
  6
Continuous
 62
     7
370
    25
100
AcDbLine
 10
-27.5
 20
-8.8222750566
 30
0.0
 11
-27.5278388497
 21
-8.8501139063
 31
0.0
  0
LINE
  5
2E5
330
1C0
100
AcDbEntity
  8
0
  6
Continuous
 62
     7
370
    25
100
AcDbLine
 10
-27.4606299213
 20
-8.8222750566
 30
0.0
 11
-27.5
 21
-8.8222750566
 31
0.0
  0
LINE
  5
2E6
330
1C0
100
AcDbEntity
  8
0
  6
Continuous
 62
     7
370
    25
100
AcDbLine
 10
-27.5
 20
-8.8222750566
 30
0.0
 11
-27.5
 21
8.9960629921
 31
0.0
  0
LINE
  5
2E7
330
1C0
100
AcDbEntity
  8
0
  6
Continuous
 62
     7
370
    25
100
AcDbLine
 10
-28.1299212598
 20
-8.1923537968
 30
0.0
 11
-27.5
 21
-8.8222750566
 31
0.0
  0
LINE
  5
2E8
330
1C0
100
AcDbEntity
  8
0
  6
Continuous
 62
     7
370
    25
100
AcDbLine
 10
-28.1299212598
 20
8.9960629921
 30
0.0
 11
-28.1299212598
 21
-8.1923537968
 31
0.0
  0
LINE
  5
2E9
330
1C0
100
AcDbEntity
  8
0
  6
Continuous
 62
     7
370
    25
100
AcDbLine
 10
-27.4606299213
 20
8.9566929134
 30
0.0
 11
-50.8858267717
 21
8.9566929134
 31
0.0
  0
LINE
  5
2EA
330
1C0
100
AcDbEntity
  8
0
  6
Continuous
 62
     7
370
    25
100
AcDbLine
 10
-28.1299212598
 20
8.9960629921
 30
0.0
 11
-27.5
 21
8.9960629921
 31
0.0
  0
LINE
  5
2EB
330
1C0
100
AcDbEntity
  8
0
  6
Continuous
 62
     7
370
    25
100
AcDbLine
 10
-28.1692913386
 20
-8.1923537968
 30
0.0
 11
-28.1692913386
 21
8.9566929134
 31
0.0
  0
LINE
  5
2EC
330
1C0
100
AcDbEntity
  8
0
  6
Continuous
 62
     7
370
    25
100
AcDbLine
 10
-27.5278388497
 20
-8.8501139063
 30
0.0
 11
-28.1577601095
 21
-8.2201926464
 31
0.0
  0
LINE
  5
2ED
330
1C0
100
AcDbEntity
  8
0
  6
Continuous
 62
     7
370
    25
100
AcDbLine
 10
-11.0039370079
 20
8.3267716535
 30
0.0
 11
11.0039370079
 21
8.3267716535
 31
0.0
  0
LINE
  5
2EE
330
1C0
100
AcDbEntity
  8
0
  6
Continuous
 62
     7
370
    25
100
AcDbLine
 10
10.9645669291
 20
8.2874015748
 30
0.0
 11
-10.9645669291
 21
8.2874015748
 31
0.0
  0
LINE
  5
2EF
330
1C0
100
AcDbEntity
  8
0
  6
Continuous
 62
     7
370
    25
100
AcDbLine
 10
-10.9645669291
 20
8.9960629921
 30
0.0
 11
10.9645669291
 21
8.9960629921
 31
0.0
  0
LINE
  5
2F0
330
1C0
100
AcDbEntity
  8
0
  6
Continuous
 62
     7
370
    25
100
AcDbLine
 10
-2.9527559055
 20
7.5393700787
 30
0.0
 11
-2.9527559055
 21
6.8307086614
 31
0.0
  0
LINE
  5
2F1
330
1C0
100
AcDbEntity
  8
0
  6
Continuous
 62
     7
370
    25
100
AcDbLine
 10
-10.1181102362
 20
6.8307086614
 30
0.0
 11
10.1181102362
 21
6.8307086614
 31
0.0
  0
LINE
  5
2F2
330
1C0
100
AcDbEntity
  8
0
  6
Continuous
 62
     7
370
    25
100
AcDbLine
 10
2.9527559055
 20
6.8307086614
 30
0.0
 11
2.9527559055
 21
7.5393700787
 31
0.0
  0
LINE
  5
2F3
330
1C0
100
AcDbEntity
  8
0
  6
Continuous
 62
     7
370
    25
100
AcDbLine
 10
10.8267716535
 20
7.5393700787
 30
0.0
 11
-10.8267716535
 21
7.5393700787
 31
0.0
  0
LINE
  5
2F4
330
1C0
100
AcDbEntity
  8
0
  6
Continuous
 62
     7
370
    25
100
AcDbLine
 10
-50.1771653543
 20
8.3267716535
 30
0.0
 11
-28.1692913386
 21
8.3267716535
 31
0.0
  0
LINE
  5
2F5
330
1C0
100
AcDbEntity
  8
0
  6
Continuous
 62
     7
370
    25
100
AcDbLine
 10
-28.2086614173
 20
8.2874015748
 30
0.0
 11
-50.1377952756
 21
8.2874015748
 31
0.0
  0
LINE
  5
2F6
330
1C0
100
AcDbEntity
  8
0
  6
Continuous
 62
     7
370
    25
100
AcDbLine
 10
-50.1377952756
 20
8.9960629921
 30
0.0
 11
-28.2086614173
 21
8.9960629921
 31
0.0
  0
LINE
  5
2F7
330
1C0
100
AcDbEntity
  8
0
  6
Continuous
 62
     7
370
    25
100
AcDbLine
 10
-42.125984252
 20
7.5393700787
 30
0.0
 11
-42.125984252
 21
6.8307086614
 31
0.0
  0
LINE
  5
2F8
330
1C0
100
AcDbEntity
  8
0
  6
Continuous
 62
     7
370
    25
100
AcDbLine
 10
-36.2204724409
 20
6.8307086614
 30
0.0
 11
-36.2204724409
 21
7.5393700787
 31
0.0
  0
LINE
  5
2F9
330
1C0
100
AcDbEntity
  8
0
  6
Continuous
 62
     7
370
    25
100
AcDbLine
 10
-49.2913385827
 20
6.8307086614
 30
0.0
 11
-29.0551181102
 21
6.8307086614
 31
0.0
  0
LINE
  5
2FA
330
1C0
100
AcDbEntity
  8
0
  6
Continuous
 62
     7
370
    25
100
AcDbLine
 10
-28.3464566929
 20
7.5393700787
 30
0.0
 11
-50.0
 21
7.5393700787
 31
0.0
  0
LINE
  5
2FB
330
1C0
100
AcDbEntity
  8
0
  6
Continuous
 62
     7
370
    25
100
AcDbLine
 10
10.8267716535
 20
-7.5
 30
0.0
 11
10.8267716535
 21
7.5393700787
 31
0.0
  0
LINE
  5
2FC
330
1C0
100
AcDbEntity
  8
0
  6
Continuous
 62
     7
370
    25
100
AcDbLine
 10
10.1181102362
 20
7.5393700787
 30
0.0
 11
10.1181102362
 21
-7.5
 31
0.0
  0
LINE
  5
2FD
330
1C0
100
AcDbEntity
  8
0
  6
Continuous
 62
     7
370
    25
100
AcDbLine
 10
-29.0551181102
 20
7.5393700787
 30
0.0
 11
-29.0551181102
 21
-7.5
 31
0.0
  0
LINE
  5
2FE
330
1C0
100
AcDbEntity
  8
0
  6
Continuous
 62
     7
370
    25
100
AcDbLine
 10
-28.3464566929
 20
-7.5
 30
0.0
 11
-28.3464566929
 21
7.5393700787
 31
0.0
  0
LINE
  5
2FF
330
1C0
100
AcDbEntity
  8
0
  6
Continuous
 62
     7
370
    25
100
AcDbLine
 10
11.0039370079
 20
-7.9330708661
 30
0.0
 11
-11.0039370079
 21
-7.9330708661
 31
0.0
  0
LINE
  5
300
330
1C0
100
AcDbEntity
  8
0
  6
Continuous
 62
     7
370
    25
100
AcDbLine
 10
-10.9645669291
 20
8.9960629921
 30
0.0
 11
-10.9645669291
 21
-8.2086614173
 31
0.0
  0
LINE
  5
301
330
1C0
100
AcDbEntity
  8
0
  6
Continuous
 62
     7
370
    25
100
AcDbLine
 10
-11.0039370079
 20
-8.1692913386
 30
0.0
 11
11.0039370079
 21
-8.1692913386
 31
0.0
  0
LINE
  5
302
330
1C0
100
AcDbEntity
  8
0
  6
Continuous
 62
     7
370
    25
100
AcDbLine
 10
10.9645669291
 20
-8.2086614173
 30
0.0
 11
-10.9645669291
 21
-8.2086614173
 31
0.0
  0
LINE
  5
303
330
1C0
100
AcDbEntity
  8
0
  6
Continuous
 62
     7
370
    25
100
AcDbLine
 10
-10.9645669291
 20
-7.8937007874
 30
0.0
 11
10.9645669291
 21
-7.8937007874
 31
0.0
  0
LINE
  5
304
330
1C0
100
AcDbEntity
  8
0
  6
Continuous
 62
     7
370
    25
100
AcDbLine
 10
-11.0039370079
 20
-7.8543307087
 30
0.0
 11
11.0039370079
 21
-7.8543307087
 31
0.0
  0
LINE
  5
305
330
1C0
100
AcDbEntity
  8
0
  6
Continuous
 62
     7
370
    25
100
AcDbLine
 10
11.0039370079
 20
-7.5393700787
 30
0.0
 11
-11.0039370079
 21
-7.5393700787
 31
0.0
  0
LINE
  5
306
330
1C0
100
AcDbEntity
  8
0
  6
Continuous
 62
     7
370
    25
100
AcDbLine
 10
-10.9645669291
 20
-7.5
 30
0.0
 11
10.9645669291
 21
-7.5
 31
0.0
  0
LINE
  5
307
330
1C0
100
AcDbEntity
  8
0
  6
Continuous
 62
     7
370
    25
100
AcDbLine
 10
10.9645669291
 20
-8.2086614173
 30
0.0
 11
10.9645669291
 21
8.9960629921
 31
0.0
  0
LINE
  5
308
330
1C0
100
AcDbEntity
  8
0
  6
Continuous
 62
     7
370
    25
100
AcDbLine
 10
-28.1692913386
 20
-7.9330708661
 30
0.0
 11
-50.1771653543
 21
-7.9330708661
 31
0.0
  0
LINE
  5
309
330
1C0
100
AcDbEntity
  8
0
  6
Continuous
 62
     7
370
    25
100
AcDbLine
 10
-50.1771653543
 20
-8.1692913386
 30
0.0
 11
-28.1692913386
 21
-8.1692913386
 31
0.0
  0
LINE
  5
30A
330
1C0
100
AcDbEntity
  8
0
  6
Continuous
 62
     7
370
    25
100
AcDbLine
 10
-28.2086614173
 20
-8.2086614173
 30
0.0
 11
-50.1377952756
 21
-8.2086614173
 31
0.0
  0
LINE
  5
30B
330
1C0
100
AcDbEntity
  8
0
  6
Continuous
 62
     7
370
    25
100
AcDbLine
 10
-50.1377952756
 20
-7.8937007874
 30
0.0
 11
-28.2086614173
 21
-7.8937007874
 31
0.0
  0
LINE
  5
30C
330
1C0
100
AcDbEntity
  8
0
  6
Continuous
 62
     7
370
    25
100
AcDbLine
 10
-50.1771653543
 20
-7.8543307087
 30
0.0
 11
-28.1692913386
 21
-7.8543307087
 31
0.0
  0
LINE
  5
30D
330
1C0
100
AcDbEntity
  8
0
  6
Continuous
 62
     7
370
    25
100
AcDbLine
 10
-28.1692913386
 20
-7.5393700787
 30
0.0
 11
-50.1771653543
 21
-7.5393700787
 31
0.0
  0
LINE
  5
30E
330
1C0
100
AcDbEntity
  8
0
  6
Continuous
 62
     7
370
    25
100
AcDbLine
 10
-50.1377952756
 20
8.9960629921
 30
0.0
 11
-50.1377952756
 21
-8.2086614173
 31
0.0
  0
LINE
  5
30F
330
1C0
100
AcDbEntity
  8
0
  6
Continuous
 62
     7
370
    25
100
AcDbLine
 10
-50.1377952756
 20
-7.5
 30
0.0
 11
-28.2086614173
 21
-7.5
 31
0.0
  0
LINE
  5
310
330
1C0
100
AcDbEntity
  8
0
  6
Continuous
 62
     7
370
    25
100
AcDbLine
 10
-28.2086614173
 20
-8.2086614173
 30
0.0
 11
-28.2086614173
 21
8.9960629921
 31
0.0
  0
ARC
  5
311
330
1C0
100
AcDbEntity
  8
0
  6
Continuous
 62
     7
370
    25
100
AcDbCircle
 10
11.5388104897
 20
-8.8779527559
 30
0.0
 40
0.0393700787401563
100
AcDbArc
 50
270.0
 51
45.0
  0
ARC
  5
312
330
1C0
100
AcDbEntity
  8
0
  6
Continuous
 62
     7
370
    25
100
AcDbCircle
 10
-11.5388104897
 20
-8.8779527559
 30
0.0
 40
0.0393700787401563
100
AcDbArc
 50
135.0
 51
270.0
  0
ARC
  5
313
330
1C0
100
AcDbEntity
  8
0
  6
Continuous
 62
     7
370
    25
100
AcDbCircle
 10
-50.7120388361
 20
-8.8779527559
 30
0.0
 40
0.0393700787401574
100
AcDbArc
 50
135.0
 51
270.0
  0
ARC
  5
314
330
1C0
100
AcDbEntity
  8
0
  6
Continuous
 62
     7
370
    25
100
AcDbCircle
 10
-27.6344178568
 20
-8.8779527559
 30
0.0
 40
0.0393700787401614
100
AcDbArc
 50
270.0
 51
45.0
  0
ARC
  5
315
330
1C0
100
AcDbEntity
  8
0
  6
Continuous
 62
     7
370
    25
100
AcDbCircle
 10
-11.6732283465
 20
-8.8222750566
 30
0.0
 40
0.0393700787401576
100
AcDbArc
 50
180.0
 51
315.0
  0
ARC
  5
316
330
1C0
100
AcDbEntity
  8
0
  6
Continuous
 62
     7
370
    25
100
AcDbCircle
 10
-11.0433070866
 20
-8.1923537968
 30
0.0
 40
0.0393700787401681
100
AcDbArc
 50
315.0
 51
360.0
  0
ARC
  5
317
330
1C0
100
AcDbEntity
  8
0
  6
Continuous
 62
     7
370
    25
100
AcDbCircle
 10
-11.6732283465
 20
8.9566929134
 30
0.0
 40
0.0393700787401574
100
AcDbArc
 50
90.0
 51
180.0
  0
ARC
  5
318
330
1C0
100
AcDbEntity
  8
0
  6
Continuous
 62
     7
370
    25
100
AcDbCircle
 10
-11.0433070866
 20
8.9566929134
 30
0.0
 40
0.0393700787401574
100
AcDbArc
 50
360.0
 51
90.0
  0
ARC
  5
319
330
1C0
100
AcDbEntity
  8
0
  6
Continuous
 62
     7
370
    25
100
AcDbCircle
 10
-50.2165354331
 20
8.9566929134
 30
0.0
 40
0.0393700787401503
100
AcDbArc
 50
360.0
 51
90.0
  0
ARC
  5
31A
330
1C0
100
AcDbEntity
  8
0
  6
Continuous
 62
     7
370
    25
100
AcDbCircle
 10
-50.8464566929
 20
-8.8222750566
 30
0.0
 40
0.0393700787401676
100
AcDbArc
 50
180.0
 51
315.0
  0
ARC
  5
31B
330
1C0
100
AcDbEntity
  8
0
  6
Continuous
 62
     7
370
    25
100
AcDbCircle
 10
-50.2165354331
 20
-8.1923537968
 30
0.0
 40
0.039370078740177
100
AcDbArc
 50
315.0
 51
360.0
  0
ARC
  5
31C
330
1C0
100
AcDbEntity
  8
0
  6
Continuous
 62
     7
370
    25
100
AcDbCircle
 10
-50.8464566929
 20
8.9566929134
 30
0.0
 40
0.0393700787401485
100
AcDbArc
 50
90.0
 51
180.0
  0
ARC
  5
31D
330
1C0
100
AcDbEntity
  8
0
  6
Continuous
 62
     7
370
    25
100
AcDbCircle
 10
11.0433070866
 20
8.9566929134
 30
0.0
 40
0.0393700787401574
100
AcDbArc
 50
90.0
 51
180.0
  0
ARC
  5
31E
330
1C0
100
AcDbEntity
  8
0
  6
Continuous
 62
     7
370
    25
100
AcDbCircle
 10
11.6732283465
 20
-8.8222750566
 30
0.0
 40
0.0393700787401601
100
AcDbArc
 50
225.0
 51
0.0
  0
ARC
  5
31F
330
1C0
100
AcDbEntity
  8
0
  6
Continuous
 62
     7
370
    25
100
AcDbCircle
 10
11.6732283465
 20
8.9566929134
 30
0.0
 40
0.0393700787401574
100
AcDbArc
 50
0.0
 51
90.0
  0
ARC
  5
320
330
1C0
100
AcDbEntity
  8
0
  6
Continuous
 62
     7
370
    25
100
AcDbCircle
 10
11.0433070866
 20
-8.1923537968
 30
0.0
 40
0.0393700787401739
100
AcDbArc
 50
180.0
 51
225.0
  0
ARC
  5
321
330
1C0
100
AcDbEntity
  8
0
  6
Continuous
 62
     7
370
    25
100
AcDbCircle
 10
-28.1299212598
 20
-8.1923537968
 30
0.0
 40
0.0393700787401805
100
AcDbArc
 50
180.0
 51
225.0
  0
ARC
  5
322
330
1C0
100
AcDbEntity
  8
0
  6
Continuous
 62
     7
370
    25
100
AcDbCircle
 10
-27.5
 20
-8.8222750566
 30
0.0
 40
0.0393700787401563
100
AcDbArc
 50
225.0
 51
0.0
  0
ARC
  5
323
330
1C0
100
AcDbEntity
  8
0
  6
Continuous
 62
     7
370
    25
100
AcDbCircle
 10
-27.5
 20
8.9566929134
 30
0.0
 40
0.0393700787401592
100
AcDbArc
 50
0.0
 51
90.0
  0
ARC
  5
324
330
1C0
100
AcDbEntity
  8
0
  6
Continuous
 62
     7
370
    25
100
AcDbCircle
 10
-28.1299212598
 20
8.9566929134
 30
0.0
 40
0.0393700787401556
100
AcDbArc
 50
90.0
 51
180.0
  0
ARC
  5
325
330
1C0
100
AcDbEntity
  8
0
  6
Continuous
 62
     7
370
    25
100
AcDbCircle
 10
10.9645669291
 20
8.3267716535
 30
0.0
 40
0.0393700787401574
100
AcDbArc
 50
270.0
 51
0.0
  0
ARC
  5
326
330
1C0
100
AcDbEntity
  8
0
  6
Continuous
 62
     7
370
    25
100
AcDbCircle
 10
-10.9645669291
 20
8.9566929134
 30
0.0
 40
0.0393700787401574
100
AcDbArc
 50
90.0
 51
180.0
  0
ARC
  5
327
330
1C0
100
AcDbEntity
  8
0
  6
Continuous
 62
     7
370
    25
100
AcDbCircle
 10
10.9645669291
 20
8.9566929134
 30
0.0
 40
0.0393700787401539
100
AcDbArc
 50
360.0
 51
90.0
  0
ARC
  5
328
330
1C0
100
AcDbEntity
  8
0
  6
Continuous
 62
     7
370
    25
100
AcDbCircle
 10
-10.9645669291
 20
8.3267716535
 30
0.0
 40
0.0393700787401592
100
AcDbArc
 50
180.0
 51
270.0
  0
ARC
  5
329
330
1C0
100
AcDbEntity
  8
0
  6
Continuous
 62
     7
370
    25
100
AcDbCircle
 10
-50.1377952756
 20
8.3267716535
 30
0.0
 40
0.0393700787401414
100
AcDbArc
 50
180.0
 51
270.0
  0
ARC
  5
32A
330
1C0
100
AcDbEntity
  8
0
  6
Continuous
 62
     7
370
    25
100
AcDbCircle
 10
-28.2086614173
 20
8.3267716535
 30
0.0
 40
0.0393700787401592
100
AcDbArc
 50
270.0
 51
0.0
  0
ARC
  5
32B
330
1C0
100
AcDbEntity
  8
0
  6
Continuous
 62
     7
370
    25
100
AcDbCircle
 10
-50.1377952756
 20
8.9566929134
 30
0.0
 40
0.039370078740145
100
AcDbArc
 50
90.0
 51
180.0
  0
ARC
  5
32C
330
1C0
100
AcDbEntity
  8
0
  6
Continuous
 62
     7
370
    25
100
AcDbCircle
 10
-28.2086614173
 20
8.9566929134
 30
0.0
 40
0.0393700787401556
100
AcDbArc
 50
360.0
 51
90.0
  0
ARC
  5
32D
330
1C0
100
AcDbEntity
  8
0
  6
Continuous
 62
     7
370
    25
100
AcDbCircle
 10
10.9645669291
 20
-7.9330708661
 30
0.0
 40
0.0393700787401574
100
AcDbArc
 50
360.0
 51
90.0
  0
ARC
  5
32E
330
1C0
100
AcDbEntity
  8
0
  6
Continuous
 62
     7
370
    25
100
AcDbCircle
 10
-10.9645669291
 20
-8.1692913386
 30
0.0
 40
0.039370078740161
100
AcDbArc
 50
180.0
 51
270.0
  0
ARC
  5
32F
330
1C0
100
AcDbEntity
  8
0
  6
Continuous
 62
     7
370
    25
100
AcDbCircle
 10
-10.9645669291
 20
-7.9330708661
 30
0.0
 40
0.0393700787401592
100
AcDbArc
 50
90.0
 51
180.0
  0
ARC
  5
330
330
1C0
100
AcDbEntity
  8
0
  6
Continuous
 62
     7
370
    25
100
AcDbCircle
 10
10.9645669291
 20
-8.1692913386
 30
0.0
 40
0.0393700787401574
100
AcDbArc
 50
270.0
 51
0.0
  0
ARC
  5
331
330
1C0
100
AcDbEntity
  8
0
  6
Continuous
 62
     7
370
    25
100
AcDbCircle
 10
-10.9645669291
 20
-7.5393700787
 30
0.0
 40
0.039370078740161
100
AcDbArc
 50
90.0
 51
180.0
  0
ARC
  5
332
330
1C0
100
AcDbEntity
  8
0
  6
Continuous
 62
     7
370
    25
100
AcDbCircle
 10
10.9645669291
 20
-7.5393700787
 30
0.0
 40
0.0393700787401574
100
AcDbArc
 50
0.0
 51
90.0
  0
ARC
  5
333
330
1C0
100
AcDbEntity
  8
0
  6
Continuous
 62
     7
370
    25
100
AcDbCircle
 10
-50.1377952756
 20
-7.9330708661
 30
0.0
 40
0.0393700787401423
100
AcDbArc
 50
90.0
 51
180.0
  0
ARC
  5
334
330
1C0
100
AcDbEntity
  8
0
  6
Continuous
 62
     7
370
    25
100
AcDbCircle
 10
-50.1377952756
 20
-8.1692913386
 30
0.0
 40
0.0393700787401485
100
AcDbArc
 50
180.0
 51
270.0
  0
ARC
  5
335
330
1C0
100
AcDbEntity
  8
0
  6
Continuous
 62
     7
370
    25
100
AcDbCircle
 10
-28.2086614173
 20
-8.1692913386
 30
0.0
 40
0.0393700787401592
100
AcDbArc
 50
270.0
 51
0.0
  0
ARC
  5
336
330
1C0
100
AcDbEntity
  8
0
  6
Continuous
 62
     7
370
    25
100
AcDbCircle
 10
-28.2086614173
 20
-7.9330708661
 30
0.0
 40
0.0393700787401556
100
AcDbArc
 50
360.0
 51
90.0
  0
ARC
  5
337
330
1C0
100
AcDbEntity
  8
0
  6
Continuous
 62
     7
370
    25
100
AcDbCircle
 10
-50.1377952756
 20
-7.5393700787
 30
0.0
 40
0.0393700787401423
100
AcDbArc
 50
90.0
 51
180.0
  0
ARC
  5
338
330
1C0
100
AcDbEntity
  8
0
  6
Continuous
 62
     7
370
    25
100
AcDbCircle
 10
-28.2086614173
 20
-7.5393700787
 30
0.0
 40
0.0393700787401592
100
AcDbArc
 50
0.0
 51
90.0
  0
VIEWPORT
  5
5AD
330
1C0
100
AcDbEntity
  8
0
100
AcDbViewport
 10
0.0
 20
0.0
 30
0.0
 40
8.4
 41
6.4
 68
     1
 69
     1
 12
-19.5866141732
 22
7.874015748
 13
0.0
 23
0.0
 14
0.5
 24
0.5
 15
0.5
 25
0.5
 16
0.0
 26
0.0
 36
1.0
 17
0.0
 27
0.0
 37
0.0
 42
50.0
 43
0.0
 44
0.0
 45
48.6479190101
 50
0.0
 51
0.0
 72
   100
 90
   557152
  1

281
     0
 71
     1
 74
     0
110
0.0
120
0.0
130
0.0
111
1.0
121
0.0
131
0.0
112
0.0
122
1.0
132
0.0
 79
     0
146
0.0
  0
ENDBLK
  5
1C3
330
1C0
100
AcDbEntity
  8
0
100
AcDbBlockEnd
  0
BLOCK
  5
33B
330
339
100
AcDbEntity
  8
0
100
AcDbBlockBegin
  2
*Paper_Space2
 70
     0
 10
0.0
 20
0.0
 30
0.0
  3
*Paper_Space2
  1

  0
LWPOLYLINE
  5
3B2
330
339
100
AcDbEntity
  8
0
  6
Continuous
 62
     7
370
    25
100
AcDbPolyline
 90
       14
 70
   128
 43
0.0
 10
-14.4646705905
 20
12.4557532186
 10
-14.4692326804
 20
12.4647080553
 10
-14.4727333096
 20
12.4738960197
 10
-14.4750577966
 20
12.4830161124
 10
-14.476129991
 20
12.4917695574
 10
-14.4759147674
 20
12.4998695902
 10
-14.4744191765
 20
12.5070508523
 10
-14.4716922143
 20
12.5130780841
 10
-14.4678232164
 20
12.5177538325
 10
-14.4629389321
 20
12.520924919
 10
-14.4571993713
 20
12.5224874583
 10
-14.4507925632
 20
12.5223902613
 10
-14.4439283959
 20
12.5206365121
 10
-14.4368317408
 20
12.517283664
  0
LWPOLYLINE
  5
3B4
330
339
100
AcDbEntity
  8
0
  6
Continuous
 62
     7
370
    25
100
AcDbPolyline
 90
       14
 70
   128
 43
0.0
 10
1.8536716977
 20
3.035374734
 10
1.8591457935
 20
3.038535804
 10
1.8653525629
 20
3.0421198066
 10
1.8720886708
 20
3.0460093291
 10
1.8791334411
 20
3.0500769501
 10
1.8862560859
 20
3.0541894136
 10
1.893223266
 20
3.0582119944
 10
1.8998067352
 20
3.0620129122
 10
1.9057908179
 20
3.065467648
 10
1.9109794744
 20
3.0684630242
 10
1.9152027234
 20
3.0709009117
 10
1.9183222104
 20
3.0727014448
 10
1.9202357405
 20
3.0738056376
 10
1.9208806261
 20
3.0741773168
  0
LWPOLYLINE
  5
3B6
330
339
100
AcDbEntity
  8
0
  6
Continuous
 62
     7
370
    25
100
AcDbPolyline
 90
        9
 70
   128
 43
0.0
 10
1.8536716977
 20
-8.3181293152
 10
1.8629516207
 20
-8.3221024748
 10
1.873829826
 20
-8.3243494425
 10
1.8853694899
 20
-8.3246767112
 10
1.8965768242
 20
-8.3230560965
 10
1.9064866609
 20
-8.3196271648
 10
1.9142455714
 20
-8.3146852133
 10
1.9191853637
 20
-8.3086558397
 10
1.9208806261
 20
-8.3020582894
  0
LWPOLYLINE
  5
3BB
330
339
100
AcDbEntity
  8
0
  6
Continuous
 62
     7
370
    25
100
AcDbPolyline
 90
       14
 70
   128
 43
0.0
 10
-42.1643259952
 20
28.4464239128
 10
-42.1688880852
 20
28.4553787495
 10
-42.1723887143
 20
28.4645667139
 10
-42.1747132014
 20
28.4736868066
 10
-42.1757853957
 20
28.4824402515
 10
-42.1755701721
 20
28.4905402844
 10
-42.1740745813
 20
28.4977215464
 10
-42.171347619
 20
28.5037487783
 10
-42.1674786212
 20
28.5084245267
 10
-42.1625943368
 20
28.5115956132
 10
-42.1568547761
 20
28.5131581525
 10
-42.1504479679
 20
28.5130609554
 10
-42.1435838006
 20
28.5113072063
 10
-42.1364871456
 20
28.5079543582
  0
LWPOLYLINE
  5
3BD
330
339
100
AcDbEntity
  8
0
  6
Continuous
 62
     7
370
    25
100
AcDbPolyline
 90
       14
 70
   128
 43
0.0
 10
-25.8459837071
 20
19.0260454282
 10
-25.8405096112
 20
19.0292064982
 10
-25.8343028419
 20
19.0327905007
 10
-25.827566734
 20
19.0366800233
 10
-25.8205219636
 20
19.0407476443
 10
-25.8133993188
 20
19.0448601077
 10
-25.8064321388
 20
19.0488826886
 10
-25.7998486696
 20
19.0526836063
 10
-25.7938645869
 20
19.0561383422
 10
-25.7886759303
 20
19.0591337184
 10
-25.7844526814
 20
19.0615716059
 10
-25.7813331943
 20
19.0633721389
 10
-25.7794196642
 20
19.0644763318
 10
-25.7787747787
 20
19.0648480109
  0
LWPOLYLINE
  5
3BF
330
339
100
AcDbEntity
  8
0
  6
Continuous
 62
     7
370
    25
100
AcDbPolyline
 90
        9
 70
   128
 43
0.0
 10
-25.8459837071
 20
7.672541379
 10
-25.8367037841
 20
7.6685682194
 10
-25.8258255788
 20
7.6663212516
 10
-25.8142859149
 20
7.665993983
 10
-25.8030785806
 20
7.6676145976
 10
-25.7931687439
 20
7.6710435294
 10
-25.7854098333
 20
7.6759854808
 10
-25.7804700411
 20
7.6820148545
 10
-25.7787747787
 20
7.6886124048
  0
LWPOLYLINE
  5
3D9
330
339
100
AcDbEntity
  8
0
  6
Continuous
 62
     7
370
    25
100
AcDbPolyline
 90
        9
 70
   128
 43
0.0
 10
2.0437672538
 20
4.4443445044
 10
2.0344873308
 20
4.4403713449
 10
2.0236091254
 20
4.4381243771
 10
2.0120694616
 20
4.4377971085
 10
2.0008621272
 20
4.4394177231
 10
1.9909522906
 20
4.4428466548
 10
1.98319338
 20
4.4477886063
 10
1.9782535877
 20
4.45381798
 10
1.9765583254
 20
4.4604155303
  0
LWPOLYLINE
  5
3DD
330
339
100
AcDbEntity
  8
0
  6
Continuous
 62
     7
370
    25
100
AcDbPolyline
 90
        9
 70
   128
 43
0.0
 10
2.0437672538
 20
-8.3502713668
 10
2.0344873308
 20
-8.3542445264
 10
2.0236091254
 20
-8.3564914942
 10
2.0120694616
 20
-8.3568187628
 10
2.0008621272
 20
-8.3551981482
 10
1.9909522906
 20
-8.3517692164
 10
1.98319338
 20
-8.346827265
 10
1.9782535877
 20
-8.3407978913
 10
1.9765583254
 20
-8.334200341
  0
LWPOLYLINE
  5
3F6
330
339
100
AcDbEntity
  8
0
  6
Continuous
 62
     7
370
    25
100
AcDbPolyline
 90
       13
 70
   128
 43
0.0
 10
2.7421266908
 20
7.9987435867
 10
2.7472127437
 20
7.8276214244
 10
2.7624461237
 20
7.6514607205
 10
2.7877526152
 20
7.4711197122
 10
2.8230089275
 20
7.2874770026
 10
2.8680432955
 20
7.1014272806
 10
2.9226363163
 20
6.9138769618
 10
2.9865220181
 20
6.7257397725
 10
3.0593891562
 20
6.5379322982
 10
3.1408827293
 20
6.3513695179
 10
3.2306057088
 20
6.1669603468
 10
3.3281209735
 20
5.9856032078
 10
3.4193404381
 20
5.8303202986
  0
LWPOLYLINE
  5
3F8
330
339
100
AcDbEntity
  8
0
  6
Continuous
 62
     7
370
    25
100
AcDbPolyline
 90
       13
 70
   128
 43
0.0
 10
3.9204397318
 20
6.1195987634
 10
3.8292202672
 20
6.2748816726
 10
3.7317050026
 20
6.4562388116
 10
3.6419820231
 20
6.6406479827
 10
3.56048845
 20
6.827210763
 10
3.4876213119
 20
7.0150182374
 10
3.4237356101
 20
7.2031554267
 10
3.3691425893
 20
7.3907057454
 10
3.3241082213
 20
7.5767554674
 10
3.2888519089
 20
7.760398177
 10
3.2635454174
 20
7.9407391854
 10
3.2483120375
 20
8.1168998893
 10
3.2432259846
 20
8.2880220515
  0
LWPOLYLINE
  5
400
330
339
100
AcDbEntity
  8
0
  6
Continuous
 62
     7
370
    25
100
AcDbPolyline
 90
       13
 70
   128
 43
0.0
 10
-24.9575287139
 20
23.9894142808
 10
-24.952442661
 20
23.8182921186
 10
-24.9372092811
 20
23.6421314147
 10
-24.9119027896
 20
23.4617904063
 10
-24.8766464772
 20
23.2781476967
 10
-24.8316121092
 20
23.0920979748
 10
-24.7770190884
 20
22.904547656
 10
-24.7131333866
 20
22.7164104667
 10
-24.6402662485
 20
22.5286029923
 10
-24.5587726754
 20
22.342040212
 10
-24.4690496959
 20
22.1576310409
 10
-24.3715344313
 20
21.976273902
 10
-24.2803149667
 20
21.8209909927
  0
LWPOLYLINE
  5
402
330
339
100
AcDbEntity
  8
0
  6
Continuous
 62
     7
370
    25
100
AcDbPolyline
 90
       13
 70
   128
 43
0.0
 10
-23.7792156729
 20
22.1102694575
 10
-23.8704351375
 20
22.2655523668
 10
-23.9679504022
 20
22.4469095058
 10
-24.0576733817
 20
22.6313186769
 10
-24.1391669548
 20
22.8178814572
 10
-24.2120340929
 20
23.0056889315
 10
-24.2759197947
 20
23.1938261208
 10
-24.3305128155
 20
23.3813764396
 10
-24.3755471835
 20
23.5674261616
 10
-24.4108034958
 20
23.7510688711
 10
-24.4361099873
 20
23.9314098795
 10
-24.4513433673
 20
24.1075705834
 10
-24.4564294202
 20
24.2786927456
  0
LWPOLYLINE
  5
428
330
339
100
AcDbEntity
  8
0
  6
Continuous
 62
     8
370
    25
100
AcDbPolyline
 90
        7
 70
   128
 43
0.0
 10
-14.4925094401
 20
13.9678059808
 10
-14.5039379707
 20
13.9687846349
 10
-14.514382284
 20
13.9716363163
 10
-14.5229429225
 20
13.97611544
 10
-14.5288826501
 20
13.981836267
 10
-14.5316899412
 20
13.9883061234
 10
-14.5318795189
 20
13.9905338435
  0
LWPOLYLINE
  5
42B
330
339
100
AcDbEntity
  8
0
  6
Continuous
 62
     8
370
    25
100
AcDbPolyline
 90
        7
 70
   128
 43
0.0
 10
-14.4925094401
 20
1.1731901095
 10
-14.5039379707
 20
1.1741687636
 10
-14.514382284
 20
1.177020445
 10
-14.5229429225
 20
1.1814995687
 10
-14.5288826501
 20
1.1872203957
 10
-14.5316899412
 20
1.1936902521
 10
-14.5318795189
 20
1.1959179722
  0
LWPOLYLINE
  5
436
330
339
100
AcDbEntity
  8
0
  6
Continuous
 62
     8
370
    25
100
AcDbPolyline
 90
        7
 70
   128
 43
0.0
 10
-42.1921648449
 20
29.958476675
 10
-42.2035933755
 20
29.9594553291
 10
-42.2140376887
 20
29.9623070105
 10
-42.2225983273
 20
29.9667861342
 10
-42.2285380548
 20
29.9725069611
 10
-42.2313453459
 20
29.9789768175
 10
-42.2315349236
 20
29.9812045376
  0
LWPOLYLINE
  5
43A
330
339
100
AcDbEntity
  8
0
  6
Continuous
 62
     8
370
    25
100
AcDbPolyline
 90
        7
 70
   128
 43
0.0
 10
-42.1921648449
 20
17.1638608037
 10
-42.2035933755
 20
17.1648394578
 10
-42.2140376887
 20
17.1676911392
 10
-42.2225983273
 20
17.1721702629
 10
-42.2285380548
 20
17.1778910899
 10
-42.2313453459
 20
17.1843609463
 10
-42.2315349236
 20
17.1865886664
  0
LINE
  5
484
330
339
100
AcDbEntity
  8
0
  6
Continuous
 62
     7
370
    25
100
AcDbLine
 10
-14.4565151804
 20
1.0842237833
 30
0.0
 11
1.8618271077
 21
-8.3361547013
 31
0.0
  0
LINE
  5
485
330
339
100
AcDbEntity
  8
0
  6
Continuous
 62
     7
370
    25
100
AcDbLine
 10
-14.4762018196
 20
12.4945558013
 30
0.0
 11
-14.4762018196
 21
1.1183201952
 31
0.0
  0
LINE
  5
486
330
339
100
AcDbEntity
  8
0
  6
Continuous
 62
     7
370
    25
100
AcDbLine
 10
-42.1561705852
 20
17.0748944774
 30
0.0
 11
-25.837828297
 21
7.6545159929
 31
0.0
  0
LINE
  5
487
330
339
100
AcDbEntity
  8
0
  6
Continuous
 62
     7
370
    25
100
AcDbLine
 10
-42.1758572243
 20
28.4852264955
 30
0.0
 11
-42.1758572243
 21
17.1089908893
 31
0.0
  0
LINE
  5
488
330
339
100
AcDbEntity
  8
0
  6
Continuous
 62
     7
370
    25
100
AcDbLine
 10
-14.5318795189
 20
13.9905338435
 30
0.0
 11
-14.5318795189
 21
1.1959179722
 31
0.0
  0
LINE
  5
489
330
339
100
AcDbEntity
  8
0
  6
Continuous
 62
     7
370
    25
100
AcDbLine
 10
-1.9405640657
 20
21.2820770906
 30
0.0
 11
-14.5121928798
 21
14.0246302554
 31
0.0
  0
LINE
  5
48A
330
339
100
AcDbEntity
  8
0
  6
Continuous
 62
     7
370
    25
100
AcDbLine
 10
-14.4925094401
 20
1.1565478935
 30
0.0
 11
-14.4762018196
 21
1.1565478935
 31
0.0
  0
LINE
  5
48B
330
339
100
AcDbEntity
  8
0
  6
Continuous
 62
     7
370
    25
100
AcDbLine
 10
-1.4360889529
 20
11.9290042127
 30
0.0
 11
-1.4360889529
 21
20.9908442656
 31
0.0
  0
LINE
  5
48C
330
339
100
AcDbEntity
  8
0
  6
Continuous
 62
     7
370
    25
100
AcDbLine
 10
-1.455775592
 20
21.0249406775
 30
0.0
 11
-1.9011971864
 21
21.2820770906
 31
0.0
  0
LINE
  5
48D
330
339
100
AcDbEntity
  8
0
  6
Continuous
 62
     7
370
    25
100
AcDbLine
 10
-42.2315349236
 20
29.9812045376
 30
0.0
 11
-42.2315349236
 21
17.1865886664
 31
0.0
  0
LINE
  5
48E
330
339
100
AcDbEntity
  8
0
  6
Continuous
 62
     7
370
    25
100
AcDbLine
 10
-29.6402194704
 20
37.2727477848
 30
0.0
 11
-42.2118482845
 21
30.0153009495
 31
0.0
  0
LINE
  5
48F
330
339
100
AcDbEntity
  8
0
  6
Continuous
 62
     7
370
    25
100
AcDbLine
 10
-42.1921648449
 20
17.1472185876
 30
0.0
 11
-42.1758572243
 21
17.1472185876
 31
0.0
  0
LINE
  5
490
330
339
100
AcDbEntity
  8
0
  6
Continuous
 62
     7
370
    25
100
AcDbLine
 10
-29.1357443576
 20
27.9196749069
 30
0.0
 11
-29.1357443576
 21
36.9815149597
 31
0.0
  0
LINE
  5
491
330
339
100
AcDbEntity
  8
0
  6
Continuous
 62
     7
370
    25
100
AcDbLine
 10
-29.1554309967
 20
37.0156113716
 30
0.0
 11
-29.6008525912
 21
37.2727477848
 31
0.0
  0
LINE
  5
492
330
339
100
AcDbEntity
  8
0
  6
Continuous
 62
     7
370
    25
100
AcDbLine
 10
14.1224521841
 20
12.0090951906
 30
0.0
 11
1.9962449645
 21
5.0087847685
 31
0.0
  0
LINE
  5
493
330
339
100
AcDbEntity
  8
0
  6
Continuous
 62
     7
370
    25
100
AcDbLine
 10
2.0356118437
 20
-8.3682967529
 30
0.0
 11
14.6072406578
 21
-1.1108499177
 31
0.0
  0
LINE
  5
494
330
339
100
AcDbEntity
  8
0
  6
Continuous
 62
     7
370
    25
100
AcDbLine
 10
14.6269272969
 20
-1.0767535057
 30
0.0
 11
14.6269272969
 21
11.7178623655
 31
0.0
  0
LINE
  5
495
330
339
100
AcDbEntity
  8
0
  6
Continuous
 62
     7
370
    25
100
AcDbLine
 10
14.6072406578
 20
11.7519587774
 30
0.0
 11
14.1618190633
 21
12.0090951906
 31
0.0
  0
LINE
  5
496
330
339
100
AcDbEntity
  8
0
  6
Continuous
 62
     7
370
    25
100
AcDbLine
 10
-13.5772032206
 20
27.9997658848
 30
0.0
 11
-25.7034104403
 21
20.9994554627
 31
0.0
  0
LINE
  5
497
330
339
100
AcDbEntity
  8
0
  6
Continuous
 62
     7
370
    25
100
AcDbLine
 10
-13.092414747
 20
27.7426294716
 30
0.0
 11
-13.5378363414
 21
27.9997658848
 31
0.0
  0
LINE
  5
498
330
339
100
AcDbEntity
  8
0
  6
Continuous
 62
     7
370
    25
100
AcDbLine
 10
6.2903039818
 20
7.4876922742
 30
0.0
 11
-1.4000978927
 21
11.9272667773
 31
0.0
  0
LINE
  5
499
330
339
100
AcDbEntity
  8
0
  6
Continuous
 62
     7
370
    25
100
AcDbLine
 10
-1.9045730055
 20
11.6360339523
 30
0.0
 11
-1.9045730055
 21
11.5491086373
 31
0.0
  0
LINE
  5
49A
330
339
100
AcDbEntity
  8
0
  6
Continuous
 62
     7
370
    25
100
AcDbLine
 10
-1.4394647719
 20
11.9272667773
 30
0.0
 11
-1.8848863664
 21
11.6701303642
 31
0.0
  0
LINE
  5
49B
330
339
100
AcDbEntity
  8
0
  6
Continuous
 62
     7
370
    25
100
AcDbLine
 10
-21.4093514229
 20
23.4783629684
 30
0.0
 11
-29.0997532974
 21
27.9179374715
 31
0.0
  0
LINE
  5
49C
330
339
100
AcDbEntity
  8
0
  6
Continuous
 62
     7
370
    25
100
AcDbLine
 10
-29.6042284102
 20
27.6267046464
 30
0.0
 11
-29.6042284102
 21
27.5397793314
 31
0.0
  0
LINE
  5
49D
330
339
100
AcDbEntity
  8
0
  6
Continuous
 62
     7
370
    25
100
AcDbLine
 10
-29.1391201767
 20
27.9179374715
 30
0.0
 11
-29.5845417711
 21
27.6608010583
 31
0.0
  0
LINE
  5
49E
330
339
100
AcDbEntity
  8
0
  6
Continuous
 62
     7
370
    25
100
AcDbLine
 10
1.9208806261
 20
-7.7916886421
 30
0.0
 11
1.9568748857
 21
-7.812467686
 31
0.0
  0
LINE
  5
49F
330
339
100
AcDbEntity
  8
0
  6
Continuous
 62
     7
370
    25
100
AcDbLine
 10
-25.7787747787
 20
8.198982052
 30
0.0
 11
-25.742780519
 21
8.1782030082
 31
0.0
  0
LINE
  5
4A0
330
339
100
AcDbEntity
  8
0
  6
Continuous
 62
     7
370
    25
100
AcDbLine
 10
2.1632748629
 20
5.1467671641
 30
0.0
 11
-13.3429643938
 21
14.0983285476
 31
0.0
  0
LINE
  5
4A1
330
339
100
AcDbEntity
  8
0
  6
Continuous
 62
     7
370
    25
100
AcDbLine
 10
1.9208806261
 20
1.8524941754
 30
0.0
 11
1.9568748857
 21
1.8317151316
 31
0.0
  0
LINE
  5
4A2
330
339
100
AcDbEntity
  8
0
  6
Continuous
 62
     7
370
    25
100
AcDbLine
 10
-13.5690510101
 20
13.9678059808
 30
0.0
 11
-13.5690510101
 21
12.0163245114
 31
0.0
  0
LINE
  5
4A3
330
339
100
AcDbEntity
  8
0
  6
Continuous
 62
     7
370
    25
100
AcDbLine
 10
-13.3823312731
 20
14.0983285476
 30
0.0
 11
-13.549364371
 21
14.0019023927
 31
0.0
  0
LINE
  5
4A4
330
339
100
AcDbEntity
  8
0
  6
Continuous
 62
     7
370
    25
100
AcDbLine
 10
-25.5363805418
 20
21.1374378582
 30
0.0
 11
-41.0426197986
 21
30.0889992418
 31
0.0
  0
LINE
  5
4A5
330
339
100
AcDbEntity
  8
0
  6
Continuous
 62
     7
370
    25
100
AcDbLine
 10
-25.7787747787
 20
17.8431648696
 30
0.0
 11
-25.742780519
 21
17.8223858258
 31
0.0
  0
LINE
  5
4A6
330
339
100
AcDbEntity
  8
0
  6
Continuous
 62
     7
370
    25
100
AcDbLine
 10
-41.2687064149
 20
29.958476675
 30
0.0
 11
-41.2687064149
 21
28.0069952055
 31
0.0
  0
LINE
  5
4A7
330
339
100
AcDbEntity
  8
0
  6
Continuous
 62
     7
370
    25
100
AcDbLine
 10
-41.0819866778
 20
30.0889992418
 30
0.0
 11
-41.2490197757
 21
29.9925730869
 31
0.0
  0
LINE
  5
4A8
330
339
100
AcDbEntity
  8
0
  6
Continuous
 62
     7
370
    25
100
AcDbLine
 10
-20.6007487432
 20
5.1267408282
 30
0.0
 11
-20.6007487432
 21
16.9569384177
 31
0.0
  0
LINE
  5
4A9
330
339
100
AcDbEntity
  8
0
  6
Continuous
 62
     7
370
    25
100
AcDbLine
 10
-20.6007487432
 20
16.9569384177
 30
0.0
 11
-25.2776754849
 21
19.6568707561
 31
0.0
  0
LINE
  5
4AA
330
339
100
AcDbEntity
  8
0
  6
Continuous
 62
     7
370
    25
100
AcDbLine
 10
-25.2776754849
 20
19.6568707561
 30
0.0
 11
-25.2776754849
 21
7.8266731665
 31
0.0
  0
LINE
  5
4AB
330
339
100
AcDbEntity
  8
0
  6
Continuous
 62
     7
370
    25
100
AcDbLine
 10
-25.2776754849
 20
7.8266731665
 30
0.0
 11
-20.6007487432
 21
5.1267408282
 31
0.0
  0
LINE
  5
4AC
330
339
100
AcDbEntity
  8
0
  6
Continuous
 62
     7
370
    25
100
AcDbLine
 10
-25.7230970794
 20
7.5694531628
 30
0.0
 11
-14.5875572182
 21
1.1410428335
 31
0.0
  0
LINE
  5
4AD
330
339
100
AcDbEntity
  8
0
  6
Continuous
 62
     7
370
    25
100
AcDbLine
 10
-25.7230970794
 20
20.9653590508
 30
0.0
 11
-25.7230970794
 21
7.5694531628
 31
0.0
  0
LINE
  5
4AE
330
339
100
AcDbEntity
  8
0
  6
Continuous
 62
     7
370
    25
100
AcDbLine
 10
-14.5875572182
 20
13.9999532569
 30
0.0
 11
-25.7230970794
 21
20.4283635862
 31
0.0
  0
LINE
  5
4AF
330
339
100
AcDbEntity
  8
0
  6
Continuous
 62
     7
370
    25
100
AcDbLine
 10
-20.1553271488
 20
4.3552479981
 30
0.0
 11
-20.1553271488
 21
17.2141584215
 31
0.0
  0
LINE
  5
4B0
330
339
100
AcDbEntity
  8
0
  6
Continuous
 62
     7
370
    25
100
AcDbLine
 10
-20.1553271488
 20
17.2141584215
 30
0.0
 11
-7.4886505567
 21
24.5264751711
 31
0.0
  0
LINE
  5
4B1
330
339
100
AcDbEntity
  8
0
  6
Continuous
 62
     7
370
    25
100
AcDbLine
 10
-25.7230970794
 20
20.4283635862
 30
0.0
 11
-13.0564204873
 21
27.7406803358
 31
0.0
  0
LINE
  5
4B2
330
339
100
AcDbEntity
  8
0
  6
Continuous
 62
     7
370
    25
100
AcDbLine
 10
-1.9208806261
 20
21.3122700064
 30
0.0
 11
-13.0564204873
 21
27.7406803358
 31
0.0
  0
LINE
  5
4B3
330
339
100
AcDbEntity
  8
0
  6
Continuous
 62
     7
370
    25
100
AcDbLine
 10
-25.2776754849
 20
7.8266731665
 30
0.0
 11
-20.6007487432
 21
10.5266055048
 31
0.0
  0
LINE
  5
4B4
330
339
100
AcDbEntity
  8
0
  6
Continuous
 62
     7
370
    25
100
AcDbLine
 10
-20.6007487432
 20
11.2990178314
 30
0.0
 11
-25.2776754849
 21
13.9989501698
 31
0.0
  0
LINE
  5
4B5
330
339
100
AcDbEntity
  8
0
  6
Continuous
 62
     7
370
    25
100
AcDbLine
 10
-20.6007487432
 20
10.7846614145
 30
0.0
 11
-25.2776754849
 21
13.4845937528
 31
0.0
  0
LINE
  5
4B6
330
339
100
AcDbEntity
  8
0
  6
Continuous
 62
     7
370
    25
100
AcDbLine
 10
-20.6007487432
 20
16.6988825081
 30
0.0
 11
-25.2776754849
 21
13.9989501698
 31
0.0
  0
LINE
  5
4B7
330
339
100
AcDbEntity
  8
0
  6
Continuous
 62
     7
370
    25
100
AcDbLine
 10
-2.324543946
 20
11.7915527007
 30
0.0
 11
-5.8358112043
 21
9.7645412586
 31
0.0
  0
LINE
  5
4B8
330
339
100
AcDbEntity
  8
0
  6
Continuous
 62
     7
370
    25
100
AcDbLine
 10
-1.8234446523
 20
11.5022742358
 30
0.0
 11
-2.324543946
 21
11.7915527007
 31
0.0
  0
LINE
  5
4B9
330
339
100
AcDbEntity
  8
0
  6
Continuous
 62
     7
370
    25
100
AcDbLine
 10
-5.3347119106
 20
9.4752627938
 30
0.0
 11
-1.8234446523
 21
11.5022742358
 31
0.0
  0
LINE
  5
4BA
330
339
100
AcDbEntity
  8
0
  6
Continuous
 62
     7
370
    25
100
AcDbLine
 10
-1.8234446523
 20
11.2129487513
 30
0.0
 11
-1.8234446523
 21
11.5022742358
 31
0.0
  0
LINE
  5
4BB
330
339
100
AcDbEntity
  8
0
  6
Continuous
 62
     7
370
    25
100
AcDbLine
 10
-30.0241993508
 20
27.7822233948
 30
0.0
 11
-33.5354666091
 21
25.7552119528
 31
0.0
  0
LINE
  5
4BC
330
339
100
AcDbEntity
  8
0
  6
Continuous
 62
     7
370
    25
100
AcDbLine
 10
-29.523100057
 20
27.49294493
 30
0.0
 11
-30.0241993508
 21
27.7822233948
 31
0.0
  0
LINE
  5
4BD
330
339
100
AcDbEntity
  8
0
  6
Continuous
 62
     7
370
    25
100
AcDbLine
 10
-33.0343673153
 20
25.4659334879
 30
0.0
 11
-29.523100057
 21
27.49294493
 31
0.0
  0
LINE
  5
4BE
330
339
100
AcDbEntity
  8
0
  6
Continuous
 62
     7
370
    25
100
AcDbLine
 10
-29.523100057
 20
27.2036194455
 30
0.0
 11
-29.523100057
 21
27.49294493
 31
0.0
  0
LINE
  5
4BF
330
339
100
AcDbEntity
  8
0
  6
Continuous
 62
     7
370
    25
100
AcDbLine
 10
-2.8566515697
 20
8.0447090092
 30
0.0
 11
-2.324543946
 21
8.3518882018
 31
0.0
  0
LINE
  5
4C0
330
339
100
AcDbEntity
  8
0
  6
Continuous
 62
     7
370
    25
100
AcDbLine
 10
-30.5563069744
 20
24.0353797033
 30
0.0
 11
-30.0241993508
 21
24.342558896
 31
0.0
  0
LINE
  5
4C1
330
339
100
AcDbEntity
  8
0
  6
Continuous
 62
     7
370
    25
100
AcDbLine
 10
-15.0329788126
 20
1.9125356636
 30
0.0
 11
-15.0329788126
 21
13.7427332531
 31
0.0
  0
LINE
  5
4C2
330
339
100
AcDbEntity
  8
0
  6
Continuous
 62
     7
370
    25
100
AcDbLine
 10
-15.0329788126
 20
13.7427332531
 30
0.0
 11
-19.7099055543
 21
16.4426655914
 31
0.0
  0
LINE
  5
4C3
330
339
100
AcDbEntity
  8
0
  6
Continuous
 62
     7
370
    25
100
AcDbLine
 10
-19.7099055543
 20
16.4426655914
 30
0.0
 11
-19.7099055543
 21
4.6124680019
 31
0.0
  0
LINE
  5
4C4
330
339
100
AcDbEntity
  8
0
  6
Continuous
 62
     7
370
    25
100
AcDbLine
 10
-19.7099055543
 20
4.6124680019
 30
0.0
 11
-15.0329788126
 21
1.9125356636
 31
0.0
  0
LINE
  5
4C5
330
339
100
AcDbEntity
  8
0
  6
Continuous
 62
     7
370
    25
100
AcDbLine
 10
-14.5875572182
 20
1.1410428335
 30
0.0
 11
-14.5875572182
 21
13.9999532569
 31
0.0
  0
LINE
  5
4C6
330
339
100
AcDbEntity
  8
0
  6
Continuous
 62
     7
370
    25
100
AcDbLine
 10
-14.5875572182
 20
1.1410428335
 30
0.0
 11
-14.5266035897
 21
1.1762306142
 31
0.0
  0
LINE
  5
4C7
330
339
100
AcDbEntity
  8
0
  6
Continuous
 62
     7
370
    25
100
AcDbLine
 10
-14.5875572182
 20
13.9999532569
 30
0.0
 11
-1.9208806261
 21
21.3122700064
 31
0.0
  0
LINE
  5
4C8
330
339
100
AcDbEntity
  8
0
  6
Continuous
 62
     7
370
    25
100
AcDbLine
 10
-1.9208806261
 20
21.2873507575
 30
0.0
 11
-1.9208806261
 21
21.3122700064
 31
0.0
  0
LINE
  5
4C9
330
339
100
AcDbEntity
  8
0
  6
Continuous
 62
     7
370
    25
100
AcDbLine
 10
-19.7099055543
 20
4.6124680019
 30
0.0
 11
-15.0329788126
 21
7.3124003402
 31
0.0
  0
LINE
  5
4CA
330
339
100
AcDbEntity
  8
0
  6
Continuous
 62
     7
370
    25
100
AcDbLine
 10
-15.0329788126
 20
13.4846773434
 30
0.0
 11
-19.7099055543
 21
10.7847450051
 31
0.0
  0
LINE
  5
4CB
330
339
100
AcDbEntity
  8
0
  6
Continuous
 62
     7
370
    25
100
AcDbLine
 10
-15.0329788126
 20
8.0848126668
 30
0.0
 11
-19.7099055543
 21
10.7847450051
 31
0.0
  0
LINE
  5
4CC
330
339
100
AcDbEntity
  8
0
  6
Continuous
 62
     7
370
    25
100
AcDbLine
 10
-15.0329788126
 20
7.5704562499
 30
0.0
 11
-19.7099055543
 21
10.2703885882
 31
0.0
  0
LINE
  5
4CD
330
339
100
AcDbEntity
  8
0
  6
Continuous
 62
     7
370
    25
100
AcDbLine
 10
1.8536716977
 20
3.035374734
 30
0.0
 11
-14.4646705905
 21
12.4557532186
 31
0.0
  0
LINE
  5
4CE
330
339
100
AcDbEntity
  8
0
  6
Continuous
 62
     7
370
    25
100
AcDbLine
 10
-14.4368317408
 20
12.517283664
 30
0.0
 11
1.9208806261
 21
3.0741773168
 31
0.0
  0
LINE
  5
4CF
330
339
100
AcDbEntity
  8
0
  6
Continuous
 62
     7
370
    25
100
AcDbLine
 10
1.9208806261
 20
3.0741773168
 30
0.0
 11
1.9208806261
 21
-8.3020582894
 31
0.0
  0
LINE
  5
4D0
330
339
100
AcDbEntity
  8
0
  6
Continuous
 62
     7
370
    25
100
AcDbLine
 10
1.8536716977
 20
-8.3181293152
 30
0.0
 11
1.8536716977
 21
3.035374734
 31
0.0
  0
LINE
  5
4D1
330
339
100
AcDbEntity
  8
0
  6
Continuous
 62
     7
370
    25
100
AcDbLine
 10
-14.4646705905
 20
1.1022491694
 30
0.0
 11
1.8536716977
 21
-8.3181293152
 31
0.0
  0
LINE
  5
4D2
330
339
100
AcDbEntity
  8
0
  6
Continuous
 62
     7
370
    25
100
AcDbLine
 10
-14.4646705905
 20
12.4557532186
 30
0.0
 11
-14.4646705905
 21
1.1022491694
 31
0.0
  0
LINE
  5
4D3
330
339
100
AcDbEntity
  8
0
  6
Continuous
 62
     7
370
    25
100
AcDbLine
 10
-25.8459837071
 20
19.0260454282
 30
0.0
 11
-42.1643259952
 21
28.4464239128
 31
0.0
  0
LINE
  5
4D4
330
339
100
AcDbEntity
  8
0
  6
Continuous
 62
     7
370
    25
100
AcDbLine
 10
-42.1364871456
 20
28.5079543582
 30
0.0
 11
-25.7787747787
 21
19.0648480109
 31
0.0
  0
LINE
  5
4D5
330
339
100
AcDbEntity
  8
0
  6
Continuous
 62
     7
370
    25
100
AcDbLine
 10
-25.7787747787
 20
19.0648480109
 30
0.0
 11
-25.7787747787
 21
7.6886124048
 31
0.0
  0
LINE
  5
4D6
330
339
100
AcDbEntity
  8
0
  6
Continuous
 62
     7
370
    25
100
AcDbLine
 10
-25.8459837071
 20
7.672541379
 30
0.0
 11
-25.8459837071
 21
19.0260454282
 31
0.0
  0
LINE
  5
4D7
330
339
100
AcDbEntity
  8
0
  6
Continuous
 62
     7
370
    25
100
AcDbLine
 10
-42.1643259952
 20
17.0929198635
 30
0.0
 11
-25.8459837071
 21
7.672541379
 31
0.0
  0
LINE
  5
4D8
330
339
100
AcDbEntity
  8
0
  6
Continuous
 62
     7
370
    25
100
AcDbLine
 10
-42.1643259952
 20
28.4464239128
 30
0.0
 11
-42.1643259952
 21
17.0929198635
 31
0.0
  0
LINE
  5
4D9
330
339
100
AcDbEntity
  8
0
  6
Continuous
 62
     7
370
    25
100
AcDbLine
 10
-14.4925094401
 20
14.0226811195
 30
0.0
 11
-13.6016662512
 21
14.0226811195
 31
0.0
  0
LINE
  5
4DA
330
339
100
AcDbEntity
  8
0
  6
Continuous
 62
     7
370
    25
100
AcDbLine
 10
-13.6016662512
 20
12.0351528893
 30
0.0
 11
-13.6016662512
 21
14.0226811195
 31
0.0
  0
LINE
  5
4DB
330
339
100
AcDbEntity
  8
0
  6
Continuous
 62
     7
370
    25
100
AcDbLine
 10
-13.6016662512
 20
13.9678059808
 30
0.0
 11
-14.4925094401
 21
13.9678059808
 31
0.0
  0
LINE
  5
4DC
330
339
100
AcDbEntity
  8
0
  6
Continuous
 62
     7
370
    25
100
AcDbLine
 10
-14.4925094401
 20
14.0226811195
 30
0.0
 11
-14.4925094401
 21
1.1565478935
 31
0.0
  0
LINE
  5
4DD
330
339
100
AcDbEntity
  8
0
  6
Continuous
 62
     7
370
    25
100
AcDbLine
 10
-1.9208806261
 20
21.2801279548
 30
0.0
 11
-14.4925094401
 21
14.0226811195
 31
0.0
  0
LINE
  5
4DE
330
339
100
AcDbEntity
  8
0
  6
Continuous
 62
     7
370
    25
100
AcDbLine
 10
-1.4754590316
 20
21.0229915416
 30
0.0
 11
-1.9208806261
 21
21.2801279548
 31
0.0
  0
LINE
  5
4DF
330
339
100
AcDbEntity
  8
0
  6
Continuous
 62
     7
370
    25
100
AcDbLine
 10
-13.6016662512
 20
14.0226811195
 30
0.0
 11
-1.4754590316
 21
21.0229915416
 31
0.0
  0
LINE
  5
4E0
330
339
100
AcDbEntity
  8
0
  6
Continuous
 62
     7
370
    25
100
AcDbLine
 10
-42.1921648449
 20
30.0133518137
 30
0.0
 11
-41.301321656
 21
30.0133518137
 31
0.0
  0
LINE
  5
4E1
330
339
100
AcDbEntity
  8
0
  6
Continuous
 62
     7
370
    25
100
AcDbLine
 10
-41.301321656
 20
28.0258235835
 30
0.0
 11
-41.301321656
 21
30.0133518137
 31
0.0
  0
LINE
  5
4E2
330
339
100
AcDbEntity
  8
0
  6
Continuous
 62
     7
370
    25
100
AcDbLine
 10
-41.301321656
 20
29.958476675
 30
0.0
 11
-42.1921648449
 21
29.958476675
 31
0.0
  0
LINE
  5
4E3
330
339
100
AcDbEntity
  8
0
  6
Continuous
 62
     7
370
    25
100
AcDbLine
 10
-42.1921648449
 20
30.0133518137
 30
0.0
 11
-42.1921648449
 21
17.1472185876
 31
0.0
  0
LINE
  5
4E4
330
339
100
AcDbEntity
  8
0
  6
Continuous
 62
     7
370
    25
100
AcDbLine
 10
-29.6205360308
 20
37.270798649
 30
0.0
 11
-42.1921648449
 21
30.0133518137
 31
0.0
  0
LINE
  5
4E5
330
339
100
AcDbEntity
  8
0
  6
Continuous
 62
     7
370
    25
100
AcDbLine
 10
-29.1751144364
 20
37.0136622358
 30
0.0
 11
-29.6205360308
 21
37.270798649
 31
0.0
  0
LINE
  5
4E6
330
339
100
AcDbEntity
  8
0
  6
Continuous
 62
     7
370
    25
100
AcDbLine
 10
-41.301321656
 20
30.0133518137
 30
0.0
 11
-29.1751144364
 21
37.0136622358
 31
0.0
  0
LINE
  5
4E7
330
339
100
AcDbEntity
  8
0
  6
Continuous
 62
     7
370
    25
100
AcDbLine
 10
2.0437672538
 20
4.4443445044
 30
0.0
 11
2.0437672538
 21
-8.3502713668
 31
0.0
  0
LINE
  5
4E8
330
339
100
AcDbEntity
  8
0
  6
Continuous
 62
     7
370
    25
100
AcDbLine
 10
1.9765583254
 20
-8.334200341
 30
0.0
 11
1.9765583254
 21
4.9746883566
 31
0.0
  0
LINE
  5
4E9
330
339
100
AcDbEntity
  8
0
  6
Continuous
 62
     7
370
    25
100
AcDbLine
 10
14.6153960678
 20
11.7017913397
 30
0.0
 11
2.0437672538
 21
4.4443445044
 31
0.0
  0
LINE
  5
4EA
330
339
100
AcDbEntity
  8
0
  6
Continuous
 62
     7
370
    25
100
AcDbLine
 10
2.0159284041
 20
4.4925628063
 30
0.0
 11
14.5875572182
 21
11.7500096416
 31
0.0
  0
LINE
  5
4EB
330
339
100
AcDbEntity
  8
0
  6
Continuous
 62
     7
370
    25
100
AcDbLine
 10
2.0159284041
 20
5.0068356327
 30
0.0
 11
2.0159284041
 21
4.4925628063
 31
0.0
  0
LINE
  5
4EC
330
339
100
AcDbEntity
  8
0
  6
Continuous
 62
     7
370
    25
100
AcDbLine
 10
14.6153960678
 20
-1.0928245316
 30
0.0
 11
14.6153960678
 21
11.7017913397
 31
0.0
  0
LINE
  5
4ED
330
339
100
AcDbEntity
  8
0
  6
Continuous
 62
     7
370
    25
100
AcDbLine
 10
2.0437672538
 20
-8.3502713668
 30
0.0
 11
14.6153960678
 21
-1.0928245316
 31
0.0
  0
LINE
  5
4EE
330
339
100
AcDbEntity
  8
0
  6
Continuous
 62
     7
370
    25
100
AcDbLine
 10
14.1421356237
 20
12.0071460548
 30
0.0
 11
2.0159284041
 21
5.0068356327
 31
0.0
  0
LINE
  5
4EF
330
339
100
AcDbEntity
  8
0
  6
Continuous
 62
     7
370
    25
100
AcDbLine
 10
14.5875572182
 20
11.7500096416
 30
0.0
 11
14.1421356237
 21
12.0071460548
 31
0.0
  0
LINE
  5
4F0
330
339
100
AcDbEntity
  8
0
  6
Continuous
 62
     7
370
    25
100
AcDbLine
 10
-25.6837270006
 20
20.4832335005
 30
0.0
 11
-13.1120981866
 21
27.7406803358
 31
0.0
  0
LINE
  5
4F1
330
339
100
AcDbEntity
  8
0
  6
Continuous
 62
     7
370
    25
100
AcDbLine
 10
-25.6837270006
 20
20.9975063268
 30
0.0
 11
-25.6837270006
 21
20.4832335005
 31
0.0
  0
LINE
  5
4F2
330
339
100
AcDbEntity
  8
0
  6
Continuous
 62
     7
370
    25
100
AcDbLine
 10
-13.557519781
 20
27.9978167489
 30
0.0
 11
-25.6837270006
 21
20.9975063268
 31
0.0
  0
LINE
  5
4F3
330
339
100
AcDbEntity
  8
0
  6
Continuous
 62
     7
370
    25
100
AcDbLine
 10
-13.1120981866
 20
27.7406803358
 30
0.0
 11
-13.557519781
 21
27.9978167489
 31
0.0
  0
LINE
  5
4F4
330
339
100
AcDbEntity
  8
0
  6
Continuous
 62
     7
370
    25
100
AcDbLine
 10
-1.4197813323
 20
11.9253176415
 30
0.0
 11
-1.8652029268
 21
11.6681812283
 31
0.0
  0
LINE
  5
4F5
330
339
100
AcDbEntity
  8
0
  6
Continuous
 62
     7
370
    25
100
AcDbLine
 10
-2.324543946
 20
8.3518882018
 30
0.0
 11
2.7313767462
 21
5.4331673129
 31
0.0
  0
LINE
  5
4F6
330
339
100
AcDbEntity
  8
0
  6
Continuous
 62
     7
370
    25
100
AcDbLine
 10
-2.324543946
 20
10.9236702865
 30
0.0
 11
-2.324543946
 21
8.3518882018
 31
0.0
  0
LINE
  5
4F7
330
339
100
AcDbEntity
  8
0
  6
Continuous
 62
     7
370
    25
100
AcDbLine
 10
-2.324543946
 20
10.9236702865
 30
0.0
 11
2.7421266908
 21
7.9987435867
 31
0.0
  0
LINE
  5
4F8
330
339
100
AcDbEntity
  8
0
  6
Continuous
 62
     7
370
    25
100
AcDbLine
 10
3.2432259846
 20
8.2880220515
 30
0.0
 11
2.7421266908
 21
7.9987435867
 31
0.0
  0
LINE
  5
4F9
330
339
100
AcDbEntity
  8
0
  6
Continuous
 62
     7
370
    25
100
AcDbLine
 10
-1.8234446523
 20
11.2129487513
 30
0.0
 11
-2.324543946
 21
10.9236702865
 31
0.0
  0
LINE
  5
4FA
330
339
100
AcDbEntity
  8
0
  6
Continuous
 62
     7
370
    25
100
AcDbLine
 10
3.2432259846
 20
8.2880220515
 30
0.0
 11
-1.8234446523
 21
11.2129487513
 31
0.0
  0
LINE
  5
4FB
330
339
100
AcDbEntity
  8
0
  6
Continuous
 62
     7
370
    25
100
AcDbLine
 10
-29.1194367371
 20
27.9159883356
 30
0.0
 11
-29.5648583315
 21
27.6588519225
 31
0.0
  0
LINE
  5
4FC
330
339
100
AcDbEntity
  8
0
  6
Continuous
 62
     7
370
    25
100
AcDbLine
 10
-30.0241993508
 20
24.342558896
 30
0.0
 11
-24.9682786585
 21
21.4238380071
 31
0.0
  0
LINE
  5
4FD
330
339
100
AcDbEntity
  8
0
  6
Continuous
 62
     7
370
    25
100
AcDbLine
 10
-30.0241993508
 20
26.9143409807
 30
0.0
 11
-30.0241993508
 21
24.342558896
 31
0.0
  0
LINE
  5
4FE
330
339
100
AcDbEntity
  8
0
  6
Continuous
 62
     7
370
    25
100
AcDbLine
 10
-30.0241993508
 20
26.9143409807
 30
0.0
 11
-24.9575287139
 21
23.9894142808
 31
0.0
  0
LINE
  5
4FF
330
339
100
AcDbEntity
  8
0
  6
Continuous
 62
     7
370
    25
100
AcDbLine
 10
-24.4564294202
 20
24.2786927456
 30
0.0
 11
-24.9575287139
 21
23.9894142808
 31
0.0
  0
LINE
  5
500
330
339
100
AcDbEntity
  8
0
  6
Continuous
 62
     7
370
    25
100
AcDbLine
 10
-29.523100057
 20
27.2036194455
 30
0.0
 11
-30.0241993508
 21
26.9143409807
 31
0.0
  0
LINE
  5
501
330
339
100
AcDbEntity
  8
0
  6
Continuous
 62
     7
370
    25
100
AcDbLine
 10
-24.4564294202
 20
24.2786927456
 30
0.0
 11
-29.523100057
 21
27.2036194455
 31
0.0
  0
LINE
  5
502
330
339
100
AcDbEntity
  8
0
  6
Continuous
 62
     7
370
    25
100
AcDbLine
 10
1.9487194757
 20
-7.7944422999
 30
0.0
 11
1.9487194757
 21
-7.2800858829
 31
0.0
  0
LINE
  5
503
330
339
100
AcDbEntity
  8
0
  6
Continuous
 62
     7
370
    25
100
AcDbLine
 10
1.9208806261
 20
-3.4357442669
 30
0.0
 11
1.9765583254
 21
-3.4036022153
 31
0.0
  0
LINE
  5
504
330
339
100
AcDbEntity
  8
0
  6
Continuous
 62
     7
370
    25
100
AcDbLine
 10
1.9765583254
 20
-2.8250452856
 30
0.0
 11
1.9208806261
 21
-2.8571873373
 31
0.0
  0
LINE
  5
505
330
339
100
AcDbEntity
  8
0
  6
Continuous
 62
     7
370
    25
100
AcDbLine
 10
1.9208806261
 20
-6.811208253
 30
0.0
 11
1.9765583254
 21
-6.7790662014
 31
0.0
  0
LINE
  5
506
330
339
100
AcDbEntity
  8
0
  6
Continuous
 62
     7
370
    25
100
AcDbLine
 10
-25.750935929
 20
8.1962283943
 30
0.0
 11
-25.750935929
 21
8.7105848112
 31
0.0
  0
LINE
  5
507
330
339
100
AcDbEntity
  8
0
  6
Continuous
 62
     7
370
    25
100
AcDbLine
 10
-25.7787747787
 20
9.1794624411
 30
0.0
 11
-25.7230970794
 21
9.2116044928
 31
0.0
  0
LINE
  5
508
330
339
100
AcDbEntity
  8
0
  6
Continuous
 62
     7
370
    25
100
AcDbLine
 10
-25.7787747787
 20
12.5549264273
 30
0.0
 11
-25.7230970794
 21
12.5870684789
 31
0.0
  0
LINE
  5
509
330
339
100
AcDbEntity
  8
0
  6
Continuous
 62
     7
370
    25
100
AcDbLine
 10
-25.7230970794
 20
13.1656254086
 30
0.0
 11
-25.7787747787
 21
13.1334833569
 31
0.0
  0
LINE
  5
50A
330
339
100
AcDbEntity
  8
0
  6
Continuous
 62
     7
370
    25
100
AcDbLine
 10
1.9487194757
 20
1.8497405177
 30
0.0
 11
1.9487194757
 21
5.0001735714
 31
0.0
  0
LINE
  5
50B
330
339
100
AcDbEntity
  8
0
  6
Continuous
 62
     7
370
    25
100
AcDbLine
 10
1.9765583254
 20
5.0483918733
 30
0.0
 11
2.1435914233
 21
5.1448180282
 31
0.0
  0
LINE
  5
50C
330
339
100
AcDbEntity
  8
0
  6
Continuous
 62
     7
370
    25
100
AcDbLine
 10
-13.5296809314
 20
13.9999532569
 30
0.0
 11
1.9765583254
 21
5.0483918733
 31
0.0
  0
LINE
  5
50D
330
339
100
AcDbEntity
  8
0
  6
Continuous
 62
     7
370
    25
100
AcDbLine
 10
1.9487194757
 20
5.0001735714
 30
0.0
 11
-13.557519781
 21
13.951734955
 31
0.0
  0
LINE
  5
50E
330
339
100
AcDbEntity
  8
0
  6
Continuous
 62
     7
370
    25
100
AcDbLine
 10
-13.3626478334
 20
14.0963794118
 30
0.0
 11
-13.5296809314
 21
13.9999532569
 31
0.0
  0
LINE
  5
50F
330
339
100
AcDbEntity
  8
0
  6
Continuous
 62
     7
370
    25
100
AcDbLine
 10
2.1435914233
 20
5.1448180282
 30
0.0
 11
-13.3626478334
 21
14.0963794118
 31
0.0
  0
LINE
  5
510
330
339
100
AcDbEntity
  8
0
  6
Continuous
 62
     7
370
    25
100
AcDbLine
 10
-25.750935929
 20
17.8404112118
 30
0.0
 11
-25.750935929
 21
20.9908442656
 31
0.0
  0
LINE
  5
511
330
339
100
AcDbEntity
  8
0
  6
Continuous
 62
     7
370
    25
100
AcDbLine
 10
-25.7230970794
 20
21.0390625674
 30
0.0
 11
-25.5560639815
 21
21.1354887224
 31
0.0
  0
LINE
  5
512
330
339
100
AcDbEntity
  8
0
  6
Continuous
 62
     7
370
    25
100
AcDbLine
 10
-41.2293363361
 20
29.990623951
 30
0.0
 11
-25.7230970794
 21
21.0390625674
 31
0.0
  0
LINE
  5
513
330
339
100
AcDbEntity
  8
0
  6
Continuous
 62
     7
370
    25
100
AcDbLine
 10
-25.750935929
 20
20.9908442656
 30
0.0
 11
-41.2571751858
 21
29.9424056491
 31
0.0
  0
LINE
  5
514
330
339
100
AcDbEntity
  8
0
  6
Continuous
 62
     7
370
    25
100
AcDbLine
 10
-41.0623032382
 20
30.087050106
 30
0.0
 11
-41.2293363361
 21
29.990623951
 31
0.0
  0
LINE
  5
515
330
339
100
AcDbEntity
  8
0
  6
Continuous
 62
     7
370
    25
100
AcDbLine
 10
-25.5560639815
 20
21.1354887224
 30
0.0
 11
-41.0623032382
 21
30.087050106
 31
0.0
  0
LINE
  5
516
330
339
100
AcDbEntity
  8
0
  6
Continuous
 62
     8
370
    25
100
AcDbLine
 10
-14.4925094401
 20
1.1731901095
 30
0.0
 11
-14.4762018196
 21
1.1731901095
 31
0.0
  0
LINE
  5
517
330
339
100
AcDbEntity
  8
0
  6
Continuous
 62
     8
370
    25
100
AcDbLine
 10
-1.447620182
 20
20.9747732397
 30
0.0
 11
-13.3524532327
 21
14.1022594051
 31
0.0
  0
LINE
  5
518
330
339
100
AcDbEntity
  8
0
  6
Continuous
 62
     8
370
    25
100
AcDbLine
 10
-13.5677098571
 20
13.9779944009
 30
0.0
 11
-13.5738274016
 21
13.9744628176
 31
0.0
  0
LINE
  5
519
330
339
100
AcDbEntity
  8
0
  6
Continuous
 62
     8
370
    25
100
AcDbLine
 10
-13.5738274016
 20
13.9744628176
 30
0.0
 11
-13.5738274016
 21
12.0190818635
 31
0.0
  0
LINE
  5
51A
330
339
100
AcDbEntity
  8
0
  6
Continuous
 62
     8
370
    25
100
AcDbLine
 10
-1.447620182
 20
11.9225587593
 30
0.0
 11
-1.447620182
 21
20.9747732397
 31
0.0
  0
LINE
  5
51B
330
339
100
AcDbEntity
  8
0
  6
Continuous
 62
     8
370
    25
100
AcDbLine
 10
-42.1921648449
 20
17.1638608037
 30
0.0
 11
-42.1758572243
 21
17.1638608037
 31
0.0
  0
LINE
  5
51C
330
339
100
AcDbEntity
  8
0
  6
Continuous
 62
     8
370
    25
100
AcDbLine
 10
-29.1472755867
 20
36.9654439339
 30
0.0
 11
-41.0521086375
 21
30.0929300993
 31
0.0
  0
LINE
  5
51D
330
339
100
AcDbEntity
  8
0
  6
Continuous
 62
     8
370
    25
100
AcDbLine
 10
-41.2673652619
 20
29.968665095
 30
0.0
 11
-41.2734828063
 21
29.9651335118
 31
0.0
  0
LINE
  5
51E
330
339
100
AcDbEntity
  8
0
  6
Continuous
 62
     8
370
    25
100
AcDbLine
 10
-41.2734828063
 20
29.9651335118
 30
0.0
 11
-41.2734828063
 21
28.0097525576
 31
0.0
  0
LINE
  5
51F
330
339
100
AcDbEntity
  8
0
  6
Continuous
 62
     8
370
    25
100
AcDbLine
 10
-29.1472755867
 20
27.9132294535
 30
0.0
 11
-29.1472755867
 21
36.9654439339
 31
0.0
  0
LINE
  5
520
330
339
100
AcDbEntity
  8
0
  6
Continuous
 62
     8
370
    25
100
AcDbLine
 10
5.7776702592
 20
7.1917551253
 30
0.0
 11
-1.8930417764
 21
11.6199629264
 31
0.0
  0
LINE
  5
521
330
339
100
AcDbEntity
  8
0
  6
Continuous
 62
     8
370
    25
100
AcDbLine
 10
-1.8652029268
 20
11.6681812283
 30
0.0
 11
5.8333524835
 21
7.2238997892
 31
0.0
  0
LINE
  5
522
330
339
100
AcDbEntity
  8
0
  6
Continuous
 62
     8
370
    25
100
AcDbLine
 10
-1.8930417764
 20
11.6199629264
 30
0.0
 11
-1.8930417764
 21
11.5424518004
 31
0.0
  0
LINE
  5
523
330
339
100
AcDbEntity
  8
0
  6
Continuous
 62
     8
370
    25
100
AcDbLine
 10
6.2787740779
 20
7.4810362024
 30
0.0
 11
-1.4197813323
 21
11.9253176415
 31
0.0
  0
LINE
  5
524
330
339
100
AcDbEntity
  8
0
  6
Continuous
 62
     8
370
    25
100
AcDbLine
 10
-21.9219851455
 20
23.1824258195
 30
0.0
 11
-29.5926971812
 21
27.6106336206
 31
0.0
  0
LINE
  5
525
330
339
100
AcDbEntity
  8
0
  6
Continuous
 62
     8
370
    25
100
AcDbLine
 10
-29.5648583315
 20
27.6588519225
 30
0.0
 11
-21.8663029213
 21
23.2145704833
 31
0.0
  0
LINE
  5
526
330
339
100
AcDbEntity
  8
0
  6
Continuous
 62
     8
370
    25
100
AcDbLine
 10
-29.5926971812
 20
27.6106336206
 30
0.0
 11
-29.5926971812
 21
27.5331224946
 31
0.0
  0
LINE
  5
527
330
339
100
AcDbEntity
  8
0
  6
Continuous
 62
     8
370
    25
100
AcDbLine
 10
-21.4208813268
 20
23.4717068965
 30
0.0
 11
-29.1194367371
 21
27.9159883356
 31
0.0
  0
LINE
  5
528
330
339
100
AcDbEntity
  8
0
  6
Continuous
 62
     8
370
    25
100
AcDbLine
 10
1.9487194757
 20
-7.2800858829
 30
0.0
 11
1.9208806261
 21
-7.2640148571
 31
0.0
  0
LINE
  5
529
330
339
100
AcDbEntity
  8
0
  6
Continuous
 62
     8
370
    25
100
AcDbLine
 10
1.9208806261
 20
-7.1997255294
 30
0.0
 11
1.9765583254
 21
-7.2318675811
 31
0.0
  0
LINE
  5
52A
330
339
100
AcDbEntity
  8
0
  6
Continuous
 62
     8
370
    25
100
AcDbLine
 10
1.9208806261
 20
-7.7783712741
 30
0.0
 11
1.9487194757
 21
-7.7944422999
 31
0.0
  0
LINE
  5
52B
330
339
100
AcDbEntity
  8
0
  6
Continuous
 62
     8
370
    25
100
AcDbLine
 10
-25.750935929
 20
8.7105848112
 30
0.0
 11
-25.7787747787
 21
8.726655837
 31
0.0
  0
LINE
  5
52C
330
339
100
AcDbEntity
  8
0
  6
Continuous
 62
     8
370
    25
100
AcDbLine
 10
-25.7787747787
 20
8.7909451647
 30
0.0
 11
-25.7230970794
 21
8.7588031131
 31
0.0
  0
LINE
  5
52D
330
339
100
AcDbEntity
  8
0
  6
Continuous
 62
     8
370
    25
100
AcDbLine
 10
-25.7787747787
 20
8.2122994201
 30
0.0
 11
-25.750935929
 21
8.1962283943
 31
0.0
  0
LINE
  5
52E
330
339
100
AcDbEntity
  8
0
  6
Continuous
 62
     8
370
    25
100
AcDbLine
 10
-13.557519781
 20
13.951734955
 30
0.0
 11
-13.557519781
 21
12.0096676745
 31
0.0
  0
LINE
  5
52F
330
339
100
AcDbEntity
  8
0
  6
Continuous
 62
     8
370
    25
100
AcDbLine
 10
1.9208806261
 20
1.8658115435
 30
0.0
 11
1.9487194757
 21
1.8497405177
 31
0.0
  0
LINE
  5
530
330
339
100
AcDbEntity
  8
0
  6
Continuous
 62
     8
370
    25
100
AcDbLine
 10
-41.2571751858
 20
29.9424056491
 30
0.0
 11
-41.2571751858
 21
28.0003383687
 31
0.0
  0
LINE
  5
531
330
339
100
AcDbEntity
  8
0
  6
Continuous
 62
     8
370
    25
100
AcDbLine
 10
-25.7787747787
 20
17.8564822377
 30
0.0
 11
-25.750935929
 21
17.8404112118
 31
0.0
  0
ARC
  5
532
330
339
100
AcDbEntity
  8
0
  6
Continuous
 62
     7
370
    25
100
AcDbCircle
 10
1.8815105473
 20
-8.3020582894
 30
0.0
 40
0.0393700787401598
100
AcDbArc
 50
240.0026882664
 51
0.0
  0
ARC
  5
533
330
339
100
AcDbEntity
  8
0
  6
Continuous
 62
     7
370
    25
100
AcDbCircle
 10
-14.4368317408
 20
1.1183201952
 30
0.0
 40
0.0393700787401598
100
AcDbArc
 50
180.0
 51
240.0026882663
  0
ARC
  5
534
330
339
100
AcDbEntity
  8
0
  6
Continuous
 62
     7
370
    25
100
AcDbCircle
 10
-25.8181448574
 20
7.6886124048
 30
0.0
 40
0.0393700787401592
100
AcDbArc
 50
240.0026882664
 51
0.0
  0
ARC
  5
535
330
339
100
AcDbEntity
  8
0
  6
Continuous
 62
     7
370
    25
100
AcDbCircle
 10
-42.1364871456
 20
17.1089908893
 30
0.0
 40
0.0393700787401627
100
AcDbArc
 50
180.0
 51
240.0026882664
  0
ARC
  5
536
330
339
100
AcDbEntity
  8
0
  6
Continuous
 62
     7
370
    25
100
AcDbCircle
 10
-14.4925094401
 20
13.9905338435
 30
0.0
 40
0.0393700787401681
100
AcDbArc
 50
119.9973117337
 51
180.0
  0
ARC
  5
537
330
339
100
AcDbEntity
  8
0
  6
Continuous
 62
     7
370
    25
100
AcDbCircle
 10
-14.4925094401
 20
1.1959179722
 30
0.0
 40
0.0393700787401556
100
AcDbArc
 50
180.0
 51
270.0
  0
ARC
  5
538
330
339
100
AcDbEntity
  8
0
  6
Continuous
 62
     7
370
    25
100
AcDbCircle
 10
-1.4754590316
 20
20.9908442656
 30
0.0
 40
0.039370078740141
100
AcDbArc
 50
360.0
 51
60.0026882664
  0
ARC
  5
539
330
339
100
AcDbEntity
  8
0
  6
Continuous
 62
     7
370
    25
100
AcDbCircle
 10
-1.9208806261
 20
21.2479806787
 30
0.0
 40
0.0393700787401658
100
AcDbArc
 50
60.0026882664
 51
119.9973117336
  0
ARC
  5
53A
330
339
100
AcDbEntity
  8
0
  6
Continuous
 62
     7
370
    25
100
AcDbCircle
 10
-42.1921648449
 20
29.9812045376
 30
0.0
 40
0.0393700787402421
100
AcDbArc
 50
119.9973117337
 51
179.9999999999
  0
ARC
  5
53B
330
339
100
AcDbEntity
  8
0
  6
Continuous
 62
     7
370
    25
100
AcDbCircle
 10
-42.1921648449
 20
17.1865886664
 30
0.0
 40
0.0393700787401556
100
AcDbArc
 50
180.0
 51
270.0
  0
ARC
  5
53C
330
339
100
AcDbEntity
  8
0
  6
Continuous
 62
     7
370
    25
100
AcDbCircle
 10
-29.1751144364
 20
36.9815149597
 30
0.0
 40
0.039370078740177
100
AcDbArc
 50
0.0
 51
60.0026882663
  0
ARC
  5
53D
330
339
100
AcDbEntity
  8
0
  6
Continuous
 62
     7
370
    25
100
AcDbCircle
 10
-29.6205360308
 20
37.2386513729
 30
0.0
 40
0.039370078740163
100
AcDbArc
 50
60.0026882664
 51
119.9973117337
  0
ARC
  5
53E
330
339
100
AcDbEntity
  8
0
  6
Continuous
 62
     7
370
    25
100
AcDbCircle
 10
2.0159284041
 20
4.9746883566
 30
0.0
 40
0.039370078740162
100
AcDbArc
 50
119.9973117337
 51
180.0
  0
ARC
  5
53F
330
339
100
AcDbEntity
  8
0
  6
Continuous
 62
     7
370
    25
100
AcDbCircle
 10
2.0159284041
 20
-8.334200341
 30
0.0
 40
0.0393700787401552
100
AcDbArc
 50
180.0
 51
299.9973117337
  0
ARC
  5
540
330
339
100
AcDbEntity
  8
0
  6
Continuous
 62
     7
370
    25
100
AcDbCircle
 10
14.5875572182
 20
11.7178623655
 30
0.0
 40
0.0393700787401539
100
AcDbArc
 50
360.0
 51
60.0026882664
  0
ARC
  5
541
330
339
100
AcDbEntity
  8
0
  6
Continuous
 62
     7
370
    25
100
AcDbCircle
 10
14.1421356237
 20
11.9749987787
 30
0.0
 40
0.0393700787401594
100
AcDbArc
 50
60.0026882664
 51
119.9973117336
  0
ARC
  5
542
330
339
100
AcDbEntity
  8
0
  6
Continuous
 62
     7
370
    25
100
AcDbCircle
 10
14.5875572182
 20
-1.0767535057
 30
0.0
 40
0.0393700787401823
100
AcDbArc
 50
299.9973117337
 51
360.0
  0
ARC
  5
543
330
339
100
AcDbEntity
  8
0
  6
Continuous
 62
     7
370
    25
100
AcDbCircle
 10
-25.6837270006
 20
20.9653590508
 30
0.0
 40
0.0393700787401418
100
AcDbArc
 50
119.9973117336
 51
180.0
  0
ARC
  5
544
330
339
100
AcDbEntity
  8
0
  6
Continuous
 62
     7
370
    25
100
AcDbCircle
 10
-13.1120981866
 20
27.7085330597
 30
0.0
 40
0.0393700787402183
100
AcDbArc
 50
30.0038964362
 51
60.0026882663
  0
ARC
  5
545
330
339
100
AcDbEntity
  8
0
  6
Continuous
 62
     7
370
    25
100
AcDbCircle
 10
-13.557519781
 20
27.9656694729
 30
0.0
 40
0.0393700787401652
100
AcDbArc
 50
60.0026882664
 51
119.9973117336
  0
ARC
  5
546
330
339
100
AcDbEntity
  8
0
  6
Continuous
 62
     7
370
    25
100
AcDbCircle
 10
-1.8652029268
 20
11.6360339523
 30
0.0
 40
0.0393700787401644
100
AcDbArc
 50
119.9973117337
 51
180.0
  0
ARC
  5
547
330
339
100
AcDbEntity
  8
0
  6
Continuous
 62
     7
370
    25
100
AcDbCircle
 10
-1.4197813323
 20
11.8931703654
 30
0.0
 40
0.0393700787401689
100
AcDbArc
 50
60.0026882664
 51
119.9973117336
  0
ARC
  5
548
330
339
100
AcDbEntity
  8
0
  6
Continuous
 62
     7
370
    25
100
AcDbCircle
 10
-29.5648583315
 20
27.6267046464
 30
0.0
 40
0.0393700787401722
100
AcDbArc
 50
119.9973117336
 51
180.0
  0
ARC
  5
549
330
339
100
AcDbEntity
  8
0
  6
Continuous
 62
     7
370
    25
100
AcDbCircle
 10
-29.1194367371
 20
27.8838410596
 30
0.0
 40
0.039370078740112
100
AcDbArc
 50
60.0026882663
 51
119.9973117337
  0
ARC
  5
54A
330
339
100
AcDbEntity
  8
0
  6
Continuous
 62
     7
370
    25
100
AcDbCircle
 10
1.9765583254
 20
-7.7783712741
 30
0.0
 40
0.0393700787401041
100
AcDbArc
 50
240.0026882663
 51
270.0
  0
ARC
  5
54B
330
339
100
AcDbEntity
  8
0
  6
Continuous
 62
     7
370
    25
100
AcDbCircle
 10
-25.7230970794
 20
8.2122994201
 30
0.0
 40
0.0393700787401788
100
AcDbArc
 50
240.0026882664
 51
270.0
  0
ARC
  5
54C
330
339
100
AcDbEntity
  8
0
  6
Continuous
 62
     7
370
    25
100
AcDbCircle
 10
2.1435914233
 20
5.1126707522
 30
0.0
 40
0.0393700787401519
100
AcDbArc
 50
5.5347458071
 51
60.0026882664
  0
ARC
  5
54D
330
339
100
AcDbEntity
  8
0
  6
Continuous
 62
     7
370
    25
100
AcDbCircle
 10
1.9765583254
 20
1.8658115435
 30
0.0
 40
0.0393700787400906
100
AcDbArc
 50
240.0026882663
 51
270.0
  0
ARC
  5
54E
330
339
100
AcDbEntity
  8
0
  6
Continuous
 62
     7
370
    25
100
AcDbCircle
 10
-13.5296809314
 20
13.9678059808
 30
0.0
 40
0.039370078740172
100
AcDbArc
 50
119.9973117337
 51
180.0
  0
ARC
  5
54F
330
339
100
AcDbEntity
  8
0
  6
Continuous
 62
     7
370
    25
100
AcDbCircle
 10
-13.3626478334
 20
14.0642321357
 30
0.0
 40
0.0393700787401483
100
AcDbArc
 50
60.0026882663
 51
119.9973117337
  0
ARC
  5
550
330
339
100
AcDbEntity
  8
0
  6
Continuous
 62
     7
370
    25
100
AcDbCircle
 10
-25.5560639815
 20
21.1033414463
 30
0.0
 40
0.0393700787401436
100
AcDbArc
 50
5.5347458071
 51
60.0026882664
  0
ARC
  5
551
330
339
100
AcDbEntity
  8
0
  6
Continuous
 62
     7
370
    25
100
AcDbCircle
 10
-25.7230970794
 20
17.8564822377
 30
0.0
 40
0.039370078740067
100
AcDbArc
 50
240.0026882663
 51
270.0
  0
ARC
  5
552
330
339
100
AcDbEntity
  8
0
  6
Continuous
 62
     7
370
    25
100
AcDbCircle
 10
-41.2293363361
 20
29.958476675
 30
0.0
 40
0.0393700787401722
100
AcDbArc
 50
119.9973117336
 51
180.0
  0
ARC
  5
553
330
339
100
AcDbEntity
  8
0
  6
Continuous
 62
     7
370
    25
100
AcDbCircle
 10
-41.0623032382
 20
30.0549028299
 30
0.0
 40
0.039370078740123
100
AcDbArc
 50
60.0026882663
 51
119.9973117337
  0
ARC
  5
554
330
339
100
AcDbEntity
  8
0
  6
Continuous
 62
     7
370
    25
100
AcDbCircle
 10
-13.600531986
 20
14.0246018556
 30
0.0
 40
0.0568071998465681
100
AcDbArc
 50
268.8559032542
 51
298.0402391154
  0
ARC
  5
555
330
339
100
AcDbEntity
  8
0
  6
Continuous
 62
     7
370
    25
100
AcDbCircle
 10
-13.6342689804
 20
13.9717123904
 30
0.0
 40
0.0605041262823866
100
AcDbArc
 50
2.6054784857
 51
57.39452166
  0
ARC
  5
556
330
339
100
AcDbEntity
  8
0
  6
Continuous
 62
     7
370
    25
100
AcDbCircle
 10
-1.5080617608
 20
20.9720228125
 30
0.0
 40
0.0605041262823581
100
AcDbArc
 50
2.6054784857
 51
57.39452166
  0
ARC
  5
557
330
339
100
AcDbEntity
  8
0
  6
Continuous
 62
     7
370
    25
100
AcDbCircle
 10
-41.3001873907
 20
30.0152725498
 30
0.0
 40
0.0568071998465435
100
AcDbArc
 50
268.8559032542
 51
298.0402391154
  0
ARC
  5
558
330
339
100
AcDbEntity
  8
0
  6
Continuous
 62
     7
370
    25
100
AcDbCircle
 10
-41.3339243851
 20
29.9623830846
 30
0.0
 40
0.0605041262823261
100
AcDbArc
 50
2.6054784856
 51
57.39452166
  0
ARC
  5
559
330
339
100
AcDbEntity
  8
0
  6
Continuous
 62
     7
370
    25
100
AcDbCircle
 10
-29.2077171655
 20
36.9626935067
 30
0.0
 40
0.0605041262823632
100
AcDbArc
 50
2.6054784856
 51
57.39452166
  0
ARC
  5
55A
330
339
100
AcDbEntity
  8
0
  6
Continuous
 62
     7
370
    25
100
AcDbCircle
 10
2.0126482751
 20
4.4563984268
 30
0.0
 40
0.0363128296283018
100
AcDbArc
 50
84.8174221345
 51
173.6486598634
  0
ARC
  5
55B
330
339
100
AcDbEntity
  8
0
  6
Continuous
 62
     7
370
    25
100
AcDbCircle
 10
1.983325675
 20
4.4415940772
 30
0.0
 40
0.0605041262823518
100
AcDbArc
 50
2.6054784856
 51
57.39452166
  0
ARC
  5
55C
330
339
100
AcDbEntity
  8
0
  6
Continuous
 62
     7
370
    25
100
AcDbCircle
 10
14.554954489
 20
11.6990409125
 30
0.0
 40
0.0605041262823397
100
AcDbArc
 50
2.6054784856
 51
57.39452166
  0
ARC
  5
55D
330
339
100
AcDbEntity
  8
0
  6
Continuous
 62
     7
370
    25
100
AcDbCircle
 10
2.0126482751
 20
4.9706712531
 30
0.0
 40
0.0363128296283026
100
AcDbArc
 50
84.8174221345
 51
173.6486598634
  0
ARC
  5
55E
330
339
100
AcDbEntity
  8
0
  6
Continuous
 62
     7
370
    25
100
AcDbCircle
 10
-25.6870071296
 20
20.4470691209
 30
0.0
 40
0.0363128296283057
100
AcDbArc
 50
84.8174221345
 51
173.6486598634
  0
ARC
  5
55F
330
339
100
AcDbEntity
  8
0
  6
Continuous
 62
     7
370
    25
100
AcDbCircle
 10
-25.6870071296
 20
20.9613419473
 30
0.0
 40
0.0363128296283054
100
AcDbArc
 50
84.8174221345
 51
173.6486598634
  0
ARC
  5
560
330
339
100
AcDbEntity
  8
0
  6
Continuous
 62
     7
370
    25
100
AcDbCircle
 10
-1.8326001976
 20
11.6172124992
 30
0.0
 40
0.0605041262823601
100
AcDbArc
 50
122.60547834
 51
177.3945215143
  0
ARC
  5
561
330
339
100
AcDbEntity
  8
0
  6
Continuous
 62
     7
370
    25
100
AcDbCircle
 10
-29.5322556024
 20
27.6078831933
 30
0.0
 40
0.0605041262823707
100
AcDbArc
 50
122.60547834
 51
177.3945215143
  0
ARC
  5
562
330
339
100
AcDbEntity
  8
0
  6
Continuous
 62
     7
370
    25
100
AcDbCircle
 10
2.0091610545
 20
-7.2828363102
 30
0.0
 40
0.0605041262823464
100
AcDbArc
 50
122.60547834
 51
177.3945215144
  0
ARC
  5
563
330
339
100
AcDbEntity
  8
0
  6
Continuous
 62
     7
370
    25
100
AcDbCircle
 10
-25.6904943502
 20
8.707834384
 30
0.0
 40
0.0605041262823745
100
AcDbArc
 50
122.60547834
 51
177.3945215143
  0
ARC
  5
564
330
339
100
AcDbEntity
  8
0
  6
Continuous
 62
     7
370
    25
100
AcDbCircle
 10
2.0091610545
 20
4.9974231441
 30
0.0
 40
0.0605041262823789
100
AcDbArc
 50
122.60547834
 51
177.3945215143
  0
ARC
  5
565
330
339
100
AcDbEntity
  8
0
  6
Continuous
 62
     7
370
    25
100
AcDbCircle
 10
-13.4970782022
 20
13.9489845277
 30
0.0
 40
0.0605041262823945
100
AcDbArc
 50
122.60547834
 51
177.3945215143
  0
ARC
  5
566
330
339
100
AcDbEntity
  8
0
  6
Continuous
 62
     7
370
    25
100
AcDbCircle
 10
-25.6904943502
 20
20.9880938383
 30
0.0
 40
0.0605041262823574
100
AcDbArc
 50
122.60547834
 51
177.3945215144
  0
ARC
  5
567
330
339
100
AcDbEntity
  8
0
  6
Continuous
 62
     7
370
    25
100
AcDbCircle
 10
-41.196733607
 20
29.9396552219
 30
0.0
 40
0.0605041262823517
100
AcDbArc
 50
122.60547834
 51
177.3945215144
  0
ARC
  5
568
330
339
100
AcDbEntity
  8
0
  6
Continuous
 62
     8
370
    25
100
AcDbCircle
 10
1.8729076949
 20
-8.3202837868
 30
0.0
 40
0.0193562738972928
100
AcDbArc
 50
173.6093872136
 51
235.078432393
  0
ARC
  5
569
330
339
100
AcDbEntity
  8
0
  6
Continuous
 62
     8
370
    25
100
AcDbCircle
 10
-14.4454345932
 20
1.1000946977
 30
0.0
 40
0.0193562738973002
100
AcDbArc
 50
173.6093872136
 51
235.078432393
  0
ARC
  5
56A
330
339
100
AcDbEntity
  8
0
  6
Continuous
 62
     8
370
    25
100
AcDbCircle
 10
-14.4569217618
 20
1.1199815207
 30
0.0
 40
0.0193515019933912
100
AcDbArc
 50
184.9249021695
 51
246.3952387881
  0
ARC
  5
56B
330
339
100
AcDbEntity
  8
0
  6
Continuous
 62
     8
370
    25
100
AcDbCircle
 10
-25.8267477098
 20
7.6703869073
 30
0.0
 40
0.0193562738973048
100
AcDbArc
 50
173.6093872137
 51
235.078432393
  0
ARC
  5
56C
330
339
100
AcDbEntity
  8
0
  6
Continuous
 62
     8
370
    25
100
AcDbCircle
 10
-42.145089998
 20
17.0907653919
 30
0.0
 40
0.0193562738972878
100
AcDbArc
 50
173.6093872136
 51
235.078432393
  0
ARC
  5
56D
330
339
100
AcDbEntity
  8
0
  6
Continuous
 62
     8
370
    25
100
AcDbCircle
 10
-42.1565771666
 20
17.1106522149
 30
0.0
 40
0.0193515019933902
100
AcDbArc
 50
184.9249021695
 51
246.3952387881
  0
ARC
  5
56E
330
339
100
AcDbEntity
  8
0
  6
Continuous
 62
     8
370
    25
100
AcDbCircle
 10
-14.5040417258
 20
14.0065834294
 30
0.0
 40
0.0198022533819607
100
AcDbArc
 50
54.3824225248
 51
114.3071190461
  0
ARC
  5
56F
330
339
100
AcDbEntity
  8
0
  6
Continuous
 62
     8
370
    25
100
AcDbCircle
 10
-1.9324129117
 20
21.2640302647
 30
0.0
 40
0.0198022533819591
100
AcDbArc
 50
54.3824225248
 51
114.3071190461
  0
ARC
  5
570
330
339
100
AcDbEntity
  8
0
  6
Continuous
 62
     8
370
    25
100
AcDbCircle
 10
-1.4557919868
 20
20.9928090836
 30
0.0
 40
0.0198007589958053
100
AcDbArc
 50
294.3746582936
 51
354.3052007488
  0
ARC
  5
571
330
339
100
AcDbEntity
  8
0
  6
Continuous
 62
     8
370
    25
100
AcDbCircle
 10
-1.463926746
 20
21.0068938515
 30
0.0
 40
0.019802253381959
100
AcDbArc
 50
65.6928809539
 51
125.6175774752
  0
ARC
  5
572
330
339
100
AcDbEntity
  8
0
  6
Continuous
 62
     8
370
    25
100
AcDbCircle
 10
-1.9093483404
 20
21.2640302647
 30
0.0
 40
0.0198022533819522
100
AcDbArc
 50
65.6928809539
 51
125.6175774752
  0
ARC
  5
573
330
339
100
AcDbEntity
  8
0
  6
Continuous
 62
     8
370
    25
100
AcDbCircle
 10
-42.2036971305
 20
29.9972541236
 30
0.0
 40
0.0198022533819151
100
AcDbArc
 50
54.3824225247
 51
114.3071190462
  0
ARC
  5
574
330
339
100
AcDbEntity
  8
0
  6
Continuous
 62
     8
370
    25
100
AcDbCircle
 10
-29.6320683164
 20
37.2547009588
 30
0.0
 40
0.0198022533819316
100
AcDbArc
 50
54.3824225247
 51
114.3071190461
  0
ARC
  5
575
330
339
100
AcDbEntity
  8
0
  6
Continuous
 62
     8
370
    25
100
AcDbCircle
 10
-29.1554473916
 20
36.9834797777
 30
0.0
 40
0.019800758995746
100
AcDbArc
 50
294.3746582935
 51
354.3052007489
  0
ARC
  5
576
330
339
100
AcDbEntity
  8
0
  6
Continuous
 62
     8
370
    25
100
AcDbCircle
 10
-29.1635821507
 20
36.9975645457
 30
0.0
 40
0.0198022533819975
100
AcDbArc
 50
65.692880954
 51
125.6175774751
  0
ARC
  5
577
330
339
100
AcDbEntity
  8
0
  6
Continuous
 62
     8
370
    25
100
AcDbCircle
 10
-29.6090037452
 20
37.2547009588
 30
0.0
 40
0.019802253381981
100
AcDbArc
 50
65.6928809539
 51
125.6175774752
  0
ARC
  5
578
330
339
100
AcDbEntity
  8
0
  6
Continuous
 62
     8
370
    25
100
AcDbCircle
 10
2.0043961185
 20
4.9907379425
 30
0.0
 40
0.0198022533819582
100
AcDbArc
 50
54.3824225248
 51
114.3071190461
  0
ARC
  5
579
330
339
100
AcDbEntity
  8
0
  6
Continuous
 62
     8
370
    25
100
AcDbCircle
 10
14.1306033381
 20
11.9910483646
 30
0.0
 40
0.0198022533819537
100
AcDbArc
 50
54.3824225248
 51
114.3071190461
  0
ARC
  5
57A
330
339
100
AcDbEntity
  8
0
  6
Continuous
 62
     8
370
    25
100
AcDbCircle
 10
2.0244758403
 20
-8.3524007659
 30
0.0
 40
0.0194085799186185
100
AcDbArc
 50
305.0133328702
 51
6.2988475232
  0
ARC
  5
57B
330
339
100
AcDbEntity
  8
0
  6
Continuous
 62
     8
370
    25
100
AcDbCircle
 10
14.5961046544
 20
-1.0949539307
 30
0.0
 40
0.0194085799118583
100
AcDbArc
 50
305.0133328584
 51
6.298847535
  0
ARC
  5
57C
330
339
100
AcDbEntity
  8
0
  6
Continuous
 62
     8
370
    25
100
AcDbCircle
 10
14.5990895038
 20
11.7339119515
 30
0.0
 40
0.0198022533819657
100
AcDbArc
 50
65.6928809539
 51
125.6175774752
  0
ARC
  5
57D
330
339
100
AcDbEntity
  8
0
  6
Continuous
 62
     8
370
    25
100
AcDbCircle
 10
14.607224263
 20
11.7198271835
 30
0.0
 40
0.0198007589958225
100
AcDbArc
 50
294.3746582936
 51
354.3052007488
  0
ARC
  5
57E
330
339
100
AcDbEntity
  8
0
  6
Continuous
 62
     8
370
    25
100
AcDbCircle
 10
14.607224263
 20
-1.0747886878
 30
0.0
 40
0.0198007589958208
100
AcDbArc
 50
294.3746582936
 51
354.3052007488
  0
ARC
  5
57F
330
339
100
AcDbEntity
  8
0
  6
Continuous
 62
     8
370
    25
100
AcDbCircle
 10
14.1536679094
 20
11.9910483646
 30
0.0
 40
0.0198022533819452
100
AcDbArc
 50
65.6928809539
 51
125.6175774752
  0
ARC
  5
580
330
339
100
AcDbEntity
  8
0
  6
Continuous
 62
     8
370
    25
100
AcDbCircle
 10
-25.7029864466
 20
20.4533440645
 30
0.0
 40
0.0202369808157372
100
AcDbArc
 50
186.4058275526
 51
244.9018361571
  0
ARC
  5
581
330
339
100
AcDbEntity
  8
0
  6
Continuous
 62
     8
370
    25
100
AcDbCircle
 10
-25.713786076
 20
20.4350440517
 30
0.0
 40
0.0567958712323989
100
AcDbArc
 50
28.8567998287
 51
58.0453714773
  0
ARC
  5
582
330
339
100
AcDbEntity
  8
0
  6
Continuous
 62
     8
370
    25
100
AcDbCircle
 10
-13.142157262
 20
27.692490887
 30
0.0
 40
0.0567958712324739
100
AcDbArc
 50
28.8567998288
 51
58.0453714773
  0
ARC
  5
583
330
339
100
AcDbEntity
  8
0
  6
Continuous
 62
     8
370
    25
100
AcDbCircle
 10
-25.6952592863
 20
20.9814086367
 30
0.0
 40
0.0198022533819556
100
AcDbArc
 50
54.3824225248
 51
114.3071190461
  0
ARC
  5
584
330
339
100
AcDbEntity
  8
0
  6
Continuous
 62
     8
370
    25
100
AcDbCircle
 10
-13.5690520666
 20
27.9817190588
 30
0.0
 40
0.0198022533819652
100
AcDbArc
 50
54.3824225248
 51
114.3071190461
  0
ARC
  5
585
330
339
100
AcDbEntity
  8
0
  6
Continuous
 62
     8
370
    25
100
AcDbCircle
 10
-13.1005659009
 20
27.7245826456
 30
0.0
 40
0.0198022533819576
100
AcDbArc
 50
65.6928809539
 51
125.6175774752
  0
ARC
  5
586
330
339
100
AcDbEntity
  8
0
  6
Continuous
 62
     8
370
    25
100
AcDbCircle
 10
-13.5459874954
 20
27.9817190588
 30
0.0
 40
0.0198022533819624
100
AcDbArc
 50
65.6928809539
 51
125.6175774752
  0
ARC
  5
587
330
339
100
AcDbEntity
  8
0
  6
Continuous
 62
     8
370
    25
100
AcDbCircle
 10
-1.4082490467
 20
11.9092199514
 30
0.0
 40
0.0198022533819815
100
AcDbArc
 50
65.6928809539
 51
125.6175774752
  0
ARC
  5
588
330
339
100
AcDbEntity
  8
0
  6
Continuous
 62
     8
370
    25
100
AcDbCircle
 10
-1.8848699715
 20
11.6379987702
 30
0.0
 40
0.0198007589958153
100
AcDbArc
 50
185.6947992512
 51
245.6253417064
  0
ARC
  5
589
330
339
100
AcDbEntity
  8
0
  6
Continuous
 62
     8
370
    25
100
AcDbCircle
 10
-1.8767352124
 20
11.6520835382
 30
0.0
 40
0.0198022533819594
100
AcDbArc
 50
54.3824225248
 51
114.3071190461
  0
ARC
  5
58A
330
339
100
AcDbEntity
  8
0
  6
Continuous
 62
     8
370
    25
100
AcDbCircle
 10
-1.4313136179
 20
11.9092199514
 30
0.0
 40
0.0198022533819589
100
AcDbArc
 50
54.3824225248
 51
114.3071190461
  0
ARC
  5
58B
330
339
100
AcDbEntity
  8
0
  6
Continuous
 62
     8
370
    25
100
AcDbCircle
 10
-29.1079044514
 20
27.8998906455
 30
0.0
 40
0.0198022533819844
100
AcDbArc
 50
65.6928809539
 51
125.6175774751
  0
ARC
  5
58C
330
339
100
AcDbEntity
  8
0
  6
Continuous
 62
     8
370
    25
100
AcDbCircle
 10
-29.5845253763
 20
27.6286694644
 30
0.0
 40
0.0198007589958115
100
AcDbArc
 50
185.6947992512
 51
245.6253417064
  0
ARC
  5
58D
330
339
100
AcDbEntity
  8
0
  6
Continuous
 62
     8
370
    25
100
AcDbCircle
 10
-29.5763906171
 20
27.6427542324
 30
0.0
 40
0.0198022533819601
100
AcDbArc
 50
54.3824225248
 51
114.3071190461
  0
ARC
  5
58E
330
339
100
AcDbEntity
  8
0
  6
Continuous
 62
     8
370
    25
100
AcDbCircle
 10
-29.1309690227
 20
27.8998906455
 30
0.0
 40
0.019802253381996
100
AcDbArc
 50
54.3824225249
 51
114.3071190461
  0
ARC
  5
58F
330
339
100
AcDbEntity
  8
0
  6
Continuous
 62
     8
370
    25
100
AcDbCircle
 10
1.9754240601
 20
-7.229946845
 30
0.0
 40
0.0568071998465276
100
AcDbArc
 50
241.9597608846
 51
271.1440967459
  0
ARC
  5
590
330
339
100
AcDbEntity
  8
0
  6
Continuous
 62
     8
370
    25
100
AcDbCircle
 10
1.9754240601
 20
-7.7443032619
 30
0.0
 40
0.0568071998465008
100
AcDbArc
 50
241.9597608846
 51
271.1440967458
  0
ARC
  5
591
330
339
100
AcDbEntity
  8
0
  6
Continuous
 62
     8
370
    25
100
AcDbCircle
 10
1.9680108892
 20
-7.796571699
 30
0.0
 40
0.0194085799196689
100
AcDbArc
 50
173.7011524786
 51
234.986667128
  0
ARC
  5
592
330
339
100
AcDbEntity
  8
0
  6
Continuous
 62
     8
370
    25
100
AcDbCircle
 10
-25.7242313447
 20
8.7607238492
 30
0.0
 40
0.0568071998464443
100
AcDbArc
 50
241.9597608846
 51
271.1440967459
  0
ARC
  5
593
330
339
100
AcDbEntity
  8
0
  6
Continuous
 62
     8
370
    25
100
AcDbCircle
 10
-25.7242313447
 20
8.2463674322
 30
0.0
 40
0.0568071998465261
100
AcDbArc
 50
241.9597608846
 51
271.1440967458
  0
ARC
  5
594
330
339
100
AcDbEntity
  8
0
  6
Continuous
 62
     8
370
    25
100
AcDbCircle
 10
-25.7316445156
 20
8.1940989952
 30
0.0
 40
0.0194085799256568
100
AcDbArc
 50
173.7011524891
 51
234.9866671175
  0
ARC
  5
595
330
339
100
AcDbEntity
  8
0
  6
Continuous
 62
     8
370
    25
100
AcDbCircle
 10
1.942682504
 20
4.9963853192
 30
0.0
 40
0.0620665202661232
100
AcDbArc
 50
15.0197433969
 51
56.9207443129
  0
ARC
  5
596
330
339
100
AcDbEntity
  8
0
  6
Continuous
 62
     8
370
    25
100
AcDbCircle
 10
1.9761633675
 20
5.0528853834
 30
0.0
 40
0.0594281274013971
100
AcDbArc
 50
242.4966996037
 51
275.1026363461
  0
ARC
  5
597
330
339
100
AcDbEntity
  8
0
  6
Continuous
 62
     8
370
    25
100
AcDbCircle
 10
1.9754240601
 20
1.8998795556
 30
0.0
 40
0.056807199846545
100
AcDbArc
 50
241.9597608846
 51
271.1440967458
  0
ARC
  5
598
330
339
100
AcDbEntity
  8
0
  6
Continuous
 62
     8
370
    25
100
AcDbCircle
 10
2.1106433861
 20
5.0934848129
 30
0.0
 40
0.06099731269045
100
AcDbArc
 50
14.6347164038
 51
57.305771306
  0
ARC
  5
599
330
339
100
AcDbEntity
  8
0
  6
Continuous
 62
     8
370
    25
100
AcDbCircle
 10
2.1551237089
 20
5.1287203381
 30
0.0
 40
0.0198022533819541
100
AcDbArc
 50
65.6928809539
 51
125.6175774752
  0
ARC
  5
59A
330
339
100
AcDbEntity
  8
0
  6
Continuous
 62
     8
370
    25
100
AcDbCircle
 10
-13.3511155478
 20
14.0802817217
 30
0.0
 40
0.019802253381958
100
AcDbArc
 50
65.6928809539
 51
125.6175774752
  0
ARC
  5
59B
330
339
100
AcDbEntity
  8
0
  6
Continuous
 62
     8
370
    25
100
AcDbCircle
 10
1.9674472535
 20
1.8473561071
 30
0.0
 40
0.0188789585191739
100
AcDbArc
 50
172.7441704361
 51
235.9436491705
  0
ARC
  5
59C
330
339
100
AcDbEntity
  8
0
  6
Continuous
 62
     8
370
    25
100
AcDbCircle
 10
-13.5493479761
 20
13.9697707988
 30
0.0
 40
0.0198007589958245
100
AcDbArc
 50
185.6947992512
 51
245.6253417064
  0
ARC
  5
59D
330
339
100
AcDbEntity
  8
0
  6
Continuous
 62
     8
370
    25
100
AcDbCircle
 10
-13.541213217
 20
13.9838555667
 30
0.0
 40
0.0198022533819544
100
AcDbArc
 50
54.3824225248
 51
114.3071190461
  0
ARC
  5
59E
330
339
100
AcDbEntity
  8
0
  6
Continuous
 62
     8
370
    25
100
AcDbCircle
 10
-13.3741801191
 20
14.0802817217
 30
0.0
 40
0.0198022533819459
100
AcDbArc
 50
54.3824225248
 51
114.3071190461
  0
ARC
  5
59F
330
339
100
AcDbEntity
  8
0
  6
Continuous
 62
     8
370
    25
100
AcDbCircle
 10
-25.7569729007
 20
20.9870560134
 30
0.0
 40
0.0620665202660871
100
AcDbArc
 50
15.0197433969
 51
56.9207443129
  0
ARC
  5
5A0
330
339
100
AcDbEntity
  8
0
  6
Continuous
 62
     8
370
    25
100
AcDbCircle
 10
-25.7234920372
 20
21.0435560776
 30
0.0
 40
0.0594281274009698
100
AcDbArc
 50
242.4966996036
 51
275.1026363446
  0
ARC
  5
5A1
330
339
100
AcDbEntity
  8
0
  6
Continuous
 62
     8
370
    25
100
AcDbCircle
 10
-25.7242313447
 20
17.8905502498
 30
0.0
 40
0.0568071998463665
100
AcDbArc
 50
241.9597608846
 51
271.1440967459
  0
ARC
  5
5A2
330
339
100
AcDbEntity
  8
0
  6
Continuous
 62
     8
370
    25
100
AcDbCircle
 10
-25.5890120187
 20
21.084155507
 30
0.0
 40
0.0609973126905576
100
AcDbArc
 50
14.6347164039
 51
57.305771306
  0
ARC
  5
5A3
330
339
100
AcDbEntity
  8
0
  6
Continuous
 62
     8
370
    25
100
AcDbCircle
 10
-25.5445316958
 20
21.1193910323
 30
0.0
 40
0.0198022533819857
100
AcDbArc
 50
65.6928809539
 51
125.6175774751
  0
ARC
  5
5A4
330
339
100
AcDbEntity
  8
0
  6
Continuous
 62
     8
370
    25
100
AcDbCircle
 10
-41.0507709526
 20
30.0709524158
 30
0.0
 40
0.0198022533819569
100
AcDbArc
 50
65.6928809539
 51
125.6175774752
  0
ARC
  5
5A5
330
339
100
AcDbEntity
  8
0
  6
Continuous
 62
     8
370
    25
100
AcDbCircle
 10
-25.7322081512
 20
17.8380268013
 30
0.0
 40
0.0188789585178525
100
AcDbArc
 50
172.7441704336
 51
235.943649173
  0
ARC
  5
5A6
330
339
100
AcDbEntity
  8
0
  6
Continuous
 62
     8
370
    25
100
AcDbCircle
 10
-41.2490033809
 20
29.9604414929
 30
0.0
 40
0.0198007589958847
100
AcDbArc
 50
185.6947992513
 51
245.6253417063
  0
ARC
  5
5A7
330
339
100
AcDbEntity
  8
0
  6
Continuous
 62
     8
370
    25
100
AcDbCircle
 10
-41.2408686217
 20
29.9745262609
 30
0.0
 40
0.0198022533819663
100
AcDbArc
 50
54.3824225248
 51
114.3071190461
  0
ARC
  5
5A8
330
339
100
AcDbEntity
  8
0
  6
Continuous
 62
     8
370
    25
100
AcDbCircle
 10
-41.0738355238
 20
30.0709524158
 30
0.0
 40
0.0198022533819893
100
AcDbArc
 50
54.3824225249
 51
114.3071190461
  0
VIEWPORT
  5
5AF
330
339
100
AcDbEntity
  8
0
100
AcDbViewport
 10
0.0
 20
0.0
 30
0.0
 40
8.4
 41
6.4
 68
     1
 69
     1
 12
-19.5866141732
 22
7.874015748
 13
0.0
 23
0.0
 14
0.5
 24
0.5
 15
0.5
 25
0.5
 16
0.0
 26
0.0
 36
1.0
 17
0.0
 27
0.0
 37
0.0
 42
50.0
 43
0.0
 44
0.0
 45
48.6479190101
 50
0.0
 51
0.0
 72
   100
 90
   557152
  1

281
     0
 71
     1
 74
     0
110
0.0
120
0.0
130
0.0
111
1.0
121
0.0
131
0.0
112
0.0
122
1.0
132
0.0
 79
     0
146
0.0
  0
ENDBLK
  5
33C
330
339
100
AcDbEntity
  8
0
100
AcDbBlockEnd
  0
ENDSEC
  0
SECTION
  2
ENTITIES
  0
LINE
  5
103
330
1F
100
AcDbEntity
  8
0
  6
Continuous
 62
     7
370
    25
100
AcDbLine
 10
-11.6732283465
 20
0.0
 30
0.0
 11
11.6732283465
 21
0.0
 31
0.0
  0
LINE
  5
104
330
1F
100
AcDbEntity
  8
0
  6
Continuous
 62
     7
370
    25
100
AcDbLine
 10
11.5781805684
 20
13.9831327904
 30
0.0
 11
-11.5781805684
 21
13.9831327904
 31
0.0
  0
LINE
  5
105
330
1F
100
AcDbEntity
  8
0
  6
Continuous
 62
     7
370
    25
100
AcDbLine
 10
-11.5781805684
 20
13.9831327904
 30
0.0
 11
-11.5781805684
 21
0.0393700787
 31
0.0
  0
LINE
  5
106
330
1F
100
AcDbEntity
  8
0
  6
Continuous
 62
     7
370
    25
100
AcDbLine
 10
11.5781805684
 20
0.0393700787
 30
0.0
 11
11.5781805684
 21
13.9831327904
 31
0.0
  0
LINE
  5
107
330
1F
100
AcDbEntity
  8
0
  6
Continuous
 62
     7
370
    25
100
AcDbLine
 10
-50.8464566929
 20
0.0
 30
0.0
 11
-27.5
 21
0.0
 31
0.0
  0
LINE
  5
108
330
1F
100
AcDbEntity
  8
0
  6
Continuous
 62
     7
370
    25
100
AcDbLine
 10
-27.595047778
 20
13.9831327904
 30
0.0
 11
-50.7514089149
 21
13.9831327904
 31
0.0
  0
LINE
  5
109
330
1F
100
AcDbEntity
  8
0
  6
Continuous
 62
     7
370
    25
100
AcDbLine
 10
-27.595047778
 20
0.0393700787
 30
0.0
 11
-27.595047778
 21
13.9831327904
 31
0.0
  0
LINE
  5
10A
330
1F
100
AcDbEntity
  8
0
  6
Continuous
 62
     7
370
    25
100
AcDbLine
 10
-50.7514089149
 20
13.9831327904
 30
0.0
 11
-50.7514089149
 21
0.0393700787
 31
0.0
  0
LINE
  5
10B
330
1F
100
AcDbEntity
  8
0
  6
Continuous
 62
     7
370
    25
100
AcDbLine
 10
-20.2165354331
 20
0.6299212598
 30
0.0
 11
-20.2165354331
 21
15.1181102362
 31
0.0
  0
LINE
  5
10C
330
1F
100
AcDbEntity
  8
0
  6
Continuous
 62
     7
370
    25
100
AcDbLine
 10
-20.2165354331
 20
15.1181102362
 30
0.0
 11
-26.8307086614
 21
15.1181102362
 31
0.0
  0
LINE
  5
10D
330
1F
100
AcDbEntity
  8
0
  6
Continuous
 62
     7
370
    25
100
AcDbLine
 10
-26.8307086614
 20
15.1181102362
 30
0.0
 11
-26.8307086614
 21
0.6299212598
 31
0.0
  0
LINE
  5
10E
330
1F
100
AcDbEntity
  8
0
  6
Continuous
 62
     7
370
    25
100
AcDbLine
 10
-26.8307086614
 20
0.6299212598
 30
0.0
 11
-20.2165354331
 21
0.6299212598
 31
0.0
  0
LINE
  5
10F
330
1F
100
AcDbEntity
  8
0
  6
Continuous
 62
     7
370
    25
100
AcDbLine
 10
-27.4606299213
 20
0.0
 30
0.0
 11
-11.7125984252
 21
0.0
 31
0.0
  0
LINE
  5
110
330
1F
100
AcDbEntity
  8
0
  6
Continuous
 62
     7
370
    25
100
AcDbLine
 10
-27.4606299213
 20
15.7480314961
 30
0.0
 11
-27.4606299213
 21
0.0
 31
0.0
  0
LINE
  5
111
330
1F
100
AcDbEntity
  8
0
  6
Continuous
 62
     7
370
    25
100
AcDbLine
 10
-11.7125984252
 20
15.7480314961
 30
0.0
 11
-27.4606299213
 21
15.7480314961
 31
0.0
  0
LINE
  5
112
330
1F
100
AcDbEntity
  8
0
  6
Continuous
 62
     7
370
    25
100
AcDbLine
 10
-19.5866141732
 20
15.7480314961
 30
0.0
 11
-19.5866141732
 21
0.0
 31
0.0
  0
LINE
  5
113
330
1F
100
AcDbEntity
  8
0
  6
Continuous
 62
     7
370
    25
100
AcDbLine
 10
-20.2165354331
 20
8.188976378
 30
0.0
 11
-26.8307086614
 21
8.188976378
 31
0.0
  0
LINE
  5
114
330
1F
100
AcDbEntity
  8
0
  6
Continuous
 62
     7
370
    25
100
AcDbLine
 10
-20.2165354331
 20
7.5590551181
 30
0.0
 11
-26.8307086614
 21
7.5590551181
 31
0.0
  0
LINE
  5
115
330
1F
100
AcDbEntity
  8
0
  6
Continuous
 62
     7
370
    25
100
AcDbLine
 10
-12.342519685
 20
0.6299212598
 30
0.0
 11
-12.342519685
 21
15.1181102362
 31
0.0
  0
LINE
  5
116
330
1F
100
AcDbEntity
  8
0
  6
Continuous
 62
     7
370
    25
100
AcDbLine
 10
-12.342519685
 20
15.1181102362
 30
0.0
 11
-18.9566929134
 21
15.1181102362
 31
0.0
  0
LINE
  5
117
330
1F
100
AcDbEntity
  8
0
  6
Continuous
 62
     7
370
    25
100
AcDbLine
 10
-18.9566929134
 20
15.1181102362
 30
0.0
 11
-18.9566929134
 21
0.6299212598
 31
0.0
  0
LINE
  5
118
330
1F
100
AcDbEntity
  8
0
  6
Continuous
 62
     7
370
    25
100
AcDbLine
 10
-18.9566929134
 20
0.6299212598
 30
0.0
 11
-12.342519685
 21
0.6299212598
 31
0.0
  0
LINE
  5
119
330
1F
100
AcDbEntity
  8
0
  6
Continuous
 62
     7
370
    25
100
AcDbLine
 10
-11.7125984252
 20
0.0
 30
0.0
 11
-11.7125984252
 21
15.7480314961
 31
0.0
  0
LINE
  5
11A
330
1F
100
AcDbEntity
  8
0
  6
Continuous
 62
     7
370
    25
100
AcDbLine
 10
-12.342519685
 20
7.5590551181
 30
0.0
 11
-18.9566929134
 21
7.5590551181
 31
0.0
  0
LINE
  5
11B
330
1F
100
AcDbEntity
  8
0
  6
Continuous
 62
     7
370
    25
100
AcDbLine
 10
-12.342519685
 20
8.188976378
 30
0.0
 11
-18.9566929134
 21
8.188976378
 31
0.0
  0
LINE
  5
11C
330
1F
100
AcDbEntity
  8
0
  6
Continuous
 62
     7
370
    25
100
AcDbLine
 10
11.5388104897
 20
13.9437627116
 30
0.0
 11
-11.5388104897
 21
13.9437627116
 31
0.0
  0
LINE
  5
11D
330
1F
100
AcDbEntity
  8
0
  6
Continuous
 62
     7
370
    25
100
AcDbLine
 10
-11.5388104897
 20
13.9437627116
 30
0.0
 11
-11.5781805684
 21
13.9831327904
 31
0.0
  0
LINE
  5
11E
330
1F
100
AcDbEntity
  8
0
  6
Continuous
 62
     7
370
    25
100
AcDbLine
 10
11.5388104897
 20
13.9437627116
 30
0.0
 11
11.5781805684
 21
13.9831327904
 31
0.0
  0
LINE
  5
11F
330
1F
100
AcDbEntity
  8
0
  6
Continuous
 62
     7
370
    25
100
AcDbLine
 10
-11.5388104897
 20
13.9437627116
 30
0.0
 11
-11.5388104897
 21
0.0
 31
0.0
  0
LINE
  5
120
330
1F
100
AcDbEntity
  8
0
  6
Continuous
 62
     7
370
    25
100
AcDbLine
 10
11.5388104897
 20
0.0
 30
0.0
 11
11.5388104897
 21
13.9437627116
 31
0.0
  0
LINE
  5
121
330
1F
100
AcDbEntity
  8
0
  6
Continuous
 62
     7
370
    25
100
AcDbLine
 10
-27.6344178568
 20
13.9437627116
 30
0.0
 11
-50.7120388361
 21
13.9437627116
 31
0.0
  0
LINE
  5
122
330
1F
100
AcDbEntity
  8
0
  6
Continuous
 62
     7
370
    25
100
AcDbLine
 10
-50.7120388361
 20
13.9437627116
 30
0.0
 11
-50.7514089149
 21
13.9831327904
 31
0.0
  0
LINE
  5
123
330
1F
100
AcDbEntity
  8
0
  6
Continuous
 62
     7
370
    25
100
AcDbLine
 10
-27.6344178568
 20
13.9437627116
 30
0.0
 11
-27.595047778
 21
13.9831327904
 31
0.0
  0
LINE
  5
124
330
1F
100
AcDbEntity
  8
0
  6
Continuous
 62
     7
370
    25
100
AcDbLine
 10
-27.6344178568
 20
0.0
 30
0.0
 11
-27.6344178568
 21
13.9437627116
 31
0.0
  0
LINE
  5
125
330
1F
100
AcDbEntity
  8
0
  6
Continuous
 62
     7
370
    25
100
AcDbLine
 10
-50.7120388361
 20
13.9437627116
 30
0.0
 11
-50.7120388361
 21
0.0
 31
0.0
  0
LINE
  5
126
330
1F
100
AcDbEntity
  8
0
  6
Continuous
 62
     7
370
    25
100
AcDbLine
 10
-11.6453894968
 20
15.7086614173
 30
0.0
 11
-11.6453894968
 21
0.0393700787
 31
0.0
  0
LINE
  5
127
330
1F
100
AcDbEntity
  8
0
  6
Continuous
 62
     7
370
    25
100
AcDbLine
 10
-11.6732283465
 20
15.7480314961
 30
0.0
 11
-11.0433070866
 21
15.7480314961
 31
0.0
  0
LINE
  5
128
330
1F
100
AcDbEntity
  8
0
  6
Continuous
 62
     7
370
    25
100
AcDbLine
 10
-11.0039370079
 20
15.7086614173
 30
0.0
 11
-11.0039370079
 21
13.9831327904
 31
0.0
  0
LINE
  5
129
330
1F
100
AcDbEntity
  8
0
  6
Continuous
 62
     7
370
    25
100
AcDbLine
 10
-50.8186178433
 20
15.7086614173
 30
0.0
 11
-50.8186178433
 21
0.0393700787
 31
0.0
  0
LINE
  5
12A
330
1F
100
AcDbEntity
  8
0
  6
Continuous
 62
     7
370
    25
100
AcDbLine
 10
-50.8858267717
 20
0.0393700787
 30
0.0
 11
-50.8858267717
 21
15.7086614173
 31
0.0
  0
LINE
  5
12B
330
1F
100
AcDbEntity
  8
0
  6
Continuous
 62
     7
370
    25
100
AcDbLine
 10
-50.8464566929
 20
15.7480314961
 30
0.0
 11
-50.2165354331
 21
15.7480314961
 31
0.0
  0
LINE
  5
12C
330
1F
100
AcDbEntity
  8
0
  6
Continuous
 62
     7
370
    25
100
AcDbLine
 10
-50.1771653543
 20
15.7086614173
 30
0.0
 11
-50.1771653543
 21
13.9831327904
 31
0.0
  0
LINE
  5
12D
330
1F
100
AcDbEntity
  8
0
  6
Continuous
 62
     7
370
    25
100
AcDbLine
 10
-11.7125984252
 20
0.0393700787
 30
0.0
 11
11.7125984252
 21
0.0393700787
 31
0.0
  0
LINE
  5
12E
330
1F
100
AcDbEntity
  8
0
  6
Continuous
 62
     7
370
    25
100
AcDbLine
 10
11.7125984252
 20
15.7086614173
 30
0.0
 11
11.7125984252
 21
0.0393700787
 31
0.0
  0
LINE
  5
12F
330
1F
100
AcDbEntity
  8
0
  6
Continuous
 62
     7
370
    25
100
AcDbLine
 10
11.6453894968
 20
0.0393700787
 30
0.0
 11
11.6453894968
 21
15.7086614173
 31
0.0
  0
LINE
  5
130
330
1F
100
AcDbEntity
  8
0
  6
Continuous
 62
     7
370
    25
100
AcDbLine
 10
11.0433070866
 20
15.7480314961
 30
0.0
 11
11.6732283465
 21
15.7480314961
 31
0.0
  0
LINE
  5
131
330
1F
100
AcDbEntity
  8
0
  6
Continuous
 62
     7
370
    25
100
AcDbLine
 10
11.0039370079
 20
13.9831327904
 30
0.0
 11
11.0039370079
 21
15.7086614173
 31
0.0
  0
LINE
  5
132
330
1F
100
AcDbEntity
  8
0
  6
Continuous
 62
     7
370
    25
100
AcDbLine
 10
-50.8858267717
 20
0.0393700787
 30
0.0
 11
-27.4606299213
 21
0.0393700787
 31
0.0
  0
LINE
  5
133
330
1F
100
AcDbEntity
  8
0
  6
Continuous
 62
     7
370
    25
100
AcDbLine
 10
-27.5278388497
 20
0.0393700787
 30
0.0
 11
-27.5278388497
 21
15.7086614173
 31
0.0
  0
LINE
  5
134
330
1F
100
AcDbEntity
  8
0
  6
Continuous
 62
     7
370
    25
100
AcDbLine
 10
-27.4606299213
 20
15.7086614173
 30
0.0
 11
-50.8858267717
 21
15.7086614173
 31
0.0
  0
LINE
  5
135
330
1F
100
AcDbEntity
  8
0
  6
Continuous
 62
     7
370
    25
100
AcDbLine
 10
-28.1299212598
 20
15.7480314961
 30
0.0
 11
-27.5
 21
15.7480314961
 31
0.0
  0
LINE
  5
136
330
1F
100
AcDbEntity
  8
0
  6
Continuous
 62
     7
370
    25
100
AcDbLine
 10
-28.1692913386
 20
13.9831327904
 30
0.0
 11
-28.1692913386
 21
15.7086614173
 31
0.0
  0
LINE
  5
137
330
1F
100
AcDbEntity
  8
0
  6
Continuous
 62
     7
370
    25
100
AcDbLine
 10
-10.9645669291
 20
15.7480314961
 30
0.0
 11
10.9645669291
 21
15.7480314961
 31
0.0
  0
LINE
  5
138
330
1F
100
AcDbEntity
  8
0
  6
Continuous
 62
     7
370
    25
100
AcDbLine
 10
10.9645669291
 20
13.9831327904
 30
0.0
 11
10.9645669291
 21
15.7480314961
 31
0.0
  0
LINE
  5
139
330
1F
100
AcDbEntity
  8
0
  6
Continuous
 62
     7
370
    25
100
AcDbLine
 10
11.7125984252
 20
15.7086614173
 30
0.0
 11
-11.7125984252
 21
15.7086614173
 31
0.0
  0
LINE
  5
13A
330
1F
100
AcDbEntity
  8
0
  6
Continuous
 62
     7
370
    25
100
AcDbLine
 10
-10.9645669291
 20
15.7480314961
 30
0.0
 11
-10.9645669291
 21
13.9831327904
 31
0.0
  0
LINE
  5
13B
330
1F
100
AcDbEntity
  8
0
  6
Continuous
 62
     7
370
    25
100
AcDbLine
 10
-50.1377952756
 20
15.7480314961
 30
0.0
 11
-50.1377952756
 21
13.9831327904
 31
0.0
  0
LINE
  5
13C
330
1F
100
AcDbEntity
  8
0
  6
Continuous
 62
     7
370
    25
100
AcDbLine
 10
-28.2086614173
 20
13.9831327904
 30
0.0
 11
-28.2086614173
 21
15.7480314961
 31
0.0
  0
LINE
  5
13D
330
1F
100
AcDbEntity
  8
0
  6
Continuous
 62
     7
370
    25
100
AcDbLine
 10
-50.1377952756
 20
15.7480314961
 30
0.0
 11
-28.2086614173
 21
15.7480314961
 31
0.0
  0
LINE
  5
13E
330
1F
100
AcDbEntity
  8
0
  6
Continuous
 62
     8
370
    25
100
AcDbLine
 10
-11.015468237
 20
13.9831327904
 30
0.0
 11
-11.015468237
 21
15.7086614173
 31
0.0
  0
LINE
  5
13F
330
1F
100
AcDbEntity
  8
0
  6
Continuous
 62
     8
370
    25
100
AcDbLine
 10
-50.1886965834
 20
13.9831327904
 30
0.0
 11
-50.1886965834
 21
15.7086614173
 31
0.0
  0
LINE
  5
140
330
1F
100
AcDbEntity
  8
0
  6
Continuous
 62
     8
370
    25
100
AcDbLine
 10
11.015468237
 20
15.7086614173
 30
0.0
 11
11.015468237
 21
13.9831327904
 31
0.0
  0
LINE
  5
141
330
1F
100
AcDbEntity
  8
0
  6
Continuous
 62
     8
370
    25
100
AcDbLine
 10
-28.1577601095
 20
15.7086614173
 30
0.0
 11
-28.1577601095
 21
13.9831327904
 31
0.0
  0
ARC
  5
142
330
1F
100
AcDbEntity
  8
0
  6
Continuous
 62
     7
370
    25
100
AcDbCircle
 10
-11.5388104897
 20
0.0393700787
 30
0.0
 40
0.0393700787401595
100
AcDbArc
 50
180.0
 51
270.0
  0
ARC
  5
143
330
1F
100
AcDbEntity
  8
0
  6
Continuous
 62
     7
370
    25
100
AcDbCircle
 10
11.5388104897
 20
0.0393700787
 30
0.0
 40
0.0393700787401598
100
AcDbArc
 50
270.0
 51
360.0
  0
ARC
  5
144
330
1F
100
AcDbEntity
  8
0
  6
Continuous
 62
     7
370
    25
100
AcDbCircle
 10
-50.7120388361
 20
0.0393700787
 30
0.0
 40
0.0393700787401485
100
AcDbArc
 50
180.0
 51
270.0
  0
ARC
  5
145
330
1F
100
AcDbEntity
  8
0
  6
Continuous
 62
     7
370
    25
100
AcDbCircle
 10
-27.6344178568
 20
0.0393700787
 30
0.0
 40
0.0393700787401533
100
AcDbArc
 50
270.0
 51
0.0
  0
ARC
  5
146
330
1F
100
AcDbEntity
  8
0
  6
Continuous
 62
     7
370
    25
100
AcDbCircle
 10
-11.6732283465
 20
0.0393700787
 30
0.0
 40
0.039370078740161
100
AcDbArc
 50
180.0
 51
270.0
  0
ARC
  5
147
330
1F
100
AcDbEntity
  8
0
  6
Continuous
 62
     7
370
    25
100
AcDbCircle
 10
-11.6801880589
 20
0.0344488189
 30
0.0
 40
0.0351448249436113
100
AcDbArc
 50
281.421753659
 51
8.0494669755
  0
ARC
  5
148
330
1F
100
AcDbEntity
  8
0
  6
Continuous
 62
     7
370
    25
100
AcDbCircle
 10
-11.6732283465
 20
15.7086614173
 30
0.0
 40
0.0393700787401627
100
AcDbArc
 50
90.0
 51
180.0
  0
ARC
  5
149
330
1F
100
AcDbEntity
  8
0
  6
Continuous
 62
     7
370
    25
100
AcDbCircle
 10
-11.6801880589
 20
15.7135826772
 30
0.0
 40
0.0351448249436182
100
AcDbArc
 50
351.9505330245
 51
78.578246341
  0
ARC
  5
14A
330
1F
100
AcDbEntity
  8
0
  6
Continuous
 62
     7
370
    25
100
AcDbCircle
 10
-11.050266799
 20
15.7135826772
 30
0.0
 40
0.0351448249436185
100
AcDbArc
 50
351.9505330245
 51
78.578246341
  0
ARC
  5
14B
330
1F
100
AcDbEntity
  8
0
  6
Continuous
 62
     7
370
    25
100
AcDbCircle
 10
-11.0433070866
 20
15.7086614173
 30
0.0
 40
0.0393700787401574
100
AcDbArc
 50
0.0
 51
90.0
  0
ARC
  5
14C
330
1F
100
AcDbEntity
  8
0
  6
Continuous
 62
     7
370
    25
100
AcDbCircle
 10
-50.8464566929
 20
15.7086614173
 30
0.0
 40
0.0393700787401485
100
AcDbArc
 50
90.0
 51
180.0
  0
ARC
  5
14D
330
1F
100
AcDbEntity
  8
0
  6
Continuous
 62
     7
370
    25
100
AcDbCircle
 10
-50.8534164053
 20
15.7135826772
 30
0.0
 40
0.0351448249436144
100
AcDbArc
 50
351.9505330245
 51
78.578246341
  0
ARC
  5
14E
330
1F
100
AcDbEntity
  8
0
  6
Continuous
 62
     7
370
    25
100
AcDbCircle
 10
-50.8464566929
 20
0.0393700787
 30
0.0
 40
0.0393700787401698
100
AcDbArc
 50
180.0
 51
270.0
  0
ARC
  5
14F
330
1F
100
AcDbEntity
  8
0
  6
Continuous
 62
     7
370
    25
100
AcDbCircle
 10
-50.8534164053
 20
0.0344488189
 30
0.0
 40
0.0351448249436031
100
AcDbArc
 50
281.421753659
 51
8.0494669756
  0
ARC
  5
150
330
1F
100
AcDbEntity
  8
0
  6
Continuous
 62
     7
370
    25
100
AcDbCircle
 10
-50.2234951455
 20
15.7135826772
 30
0.0
 40
0.0351448249436081
100
AcDbArc
 50
351.9505330245
 51
78.5782463411
  0
ARC
  5
151
330
1F
100
AcDbEntity
  8
0
  6
Continuous
 62
     7
370
    25
100
AcDbCircle
 10
-50.2165354331
 20
15.7086614173
 30
0.0
 40
0.0393700787401556
100
AcDbArc
 50
360.0
 51
90.0
  0
ARC
  5
152
330
1F
100
AcDbEntity
  8
0
  6
Continuous
 62
     7
370
    25
100
AcDbCircle
 10
11.6801880589
 20
0.0344488189
 30
0.0
 40
0.0351448249436107
100
AcDbArc
 50
171.9505330245
 51
258.578246341
  0
ARC
  5
153
330
1F
100
AcDbEntity
  8
0
  6
Continuous
 62
     7
370
    25
100
AcDbCircle
 10
11.6732283465
 20
0.0393700787
 30
0.0
 40
0.0393700787401577
100
AcDbArc
 50
270.0
 51
0.0
  0
ARC
  5
154
330
1F
100
AcDbEntity
  8
0
  6
Continuous
 62
     7
370
    25
100
AcDbCircle
 10
11.6801880589
 20
15.7135826772
 30
0.0
 40
0.0351448249436091
100
AcDbArc
 50
101.421753659
 51
188.0494669755
  0
ARC
  5
155
330
1F
100
AcDbEntity
  8
0
  6
Continuous
 62
     7
370
    25
100
AcDbCircle
 10
11.6732283465
 20
15.7086614173
 30
0.0
 40
0.0393700787401574
100
AcDbArc
 50
360.0
 51
90.0
  0
ARC
  5
156
330
1F
100
AcDbEntity
  8
0
  6
Continuous
 62
     7
370
    25
100
AcDbCircle
 10
11.050266799
 20
15.7135826772
 30
0.0
 40
0.0351448249436091
100
AcDbArc
 50
101.421753659
 51
188.0494669755
  0
ARC
  5
157
330
1F
100
AcDbEntity
  8
0
  6
Continuous
 62
     7
370
    25
100
AcDbCircle
 10
11.0433070866
 20
15.7086614173
 30
0.0
 40
0.0393700787401539
100
AcDbArc
 50
90.0
 51
180.0
  0
ARC
  5
158
330
1F
100
AcDbEntity
  8
0
  6
Continuous
 62
     7
370
    25
100
AcDbCircle
 10
-27.4930402876
 20
0.0344488189
 30
0.0
 40
0.035144824943611
100
AcDbArc
 50
171.9505330245
 51
258.578246341
  0
ARC
  5
159
330
1F
100
AcDbEntity
  8
0
  6
Continuous
 62
     7
370
    25
100
AcDbCircle
 10
-27.5
 20
0.0393700787
 30
0.0
 40
0.0393700787401596
100
AcDbArc
 50
270.0
 51
360.0
  0
ARC
  5
15A
330
1F
100
AcDbEntity
  8
0
  6
Continuous
 62
     7
370
    25
100
AcDbCircle
 10
-27.4930402876
 20
15.7135826772
 30
0.0
 40
0.0351448249436046
100
AcDbArc
 50
101.4217536589
 51
188.0494669755
  0
ARC
  5
15B
330
1F
100
AcDbEntity
  8
0
  6
Continuous
 62
     7
370
    25
100
AcDbCircle
 10
-27.5
 20
15.7086614173
 30
0.0
 40
0.0393700787401592
100
AcDbArc
 50
0.0
 51
90.0
  0
ARC
  5
15C
330
1F
100
AcDbEntity
  8
0
  6
Continuous
 62
     7
370
    25
100
AcDbCircle
 10
-28.1229615474
 20
15.7135826772
 30
0.0
 40
0.0351448249436203
100
AcDbArc
 50
101.421753659
 51
188.0494669755
  0
ARC
  5
15D
330
1F
100
AcDbEntity
  8
0
  6
Continuous
 62
     7
370
    25
100
AcDbCircle
 10
-28.1299212598
 20
15.7086614173
 30
0.0
 40
0.0393700787401556
100
AcDbArc
 50
90.0
 51
180.0
  0
ARC
  5
15E
330
1F
100
AcDbEntity
  8
0
  6
Continuous
 62
     7
370
    25
100
AcDbCircle
 10
10.9645669291
 20
15.7086614173
 30
0.0
 40
0.0393700787401539
100
AcDbArc
 50
360.0
 51
90.0
  0
ARC
  5
15F
330
1F
100
AcDbEntity
  8
0
  6
Continuous
 62
     7
370
    25
100
AcDbCircle
 10
-10.9645669291
 20
15.7086614173
 30
0.0
 40
0.0393700787401574
100
AcDbArc
 50
90.0
 51
180.0
  0
ARC
  5
160
330
1F
100
AcDbEntity
  8
0
  6
Continuous
 62
     7
370
    25
100
AcDbCircle
 10
-50.1377952756
 20
15.7086614173
 30
0.0
 40
0.0393700787401414
100
AcDbArc
 50
90.0
 51
180.0
  0
ARC
  5
161
330
1F
100
AcDbEntity
  8
0
  6
Continuous
 62
     7
370
    25
100
AcDbCircle
 10
-28.2086614173
 20
15.7086614173
 30
0.0
 40
0.0393700787401556
100
AcDbArc
 50
360.0
 51
90.0
  0
LINE
  5
182
330
1B
100
AcDbEntity
 67
     1
  8
0
  6
Continuous
 62
     7
370
    25
100
AcDbLine
 10
8.8616451353
 20
0.0393700787
 30
0.0
 11
8.8616451353
 21
15.7086614173
 31
0.0
  0
LINE
  5
183
330
1B
100
AcDbEntity
 67
     1
  8
0
  6
Continuous
 62
     7
370
    25
100
AcDbLine
 10
8.9173228346
 20
15.7480314961
 30
0.0
 11
8.9173228346
 21
0.0
 31
0.0
  0
LINE
  5
184
330
1B
100
AcDbEntity
 67
     1
  8
0
  6
Continuous
 62
     7
370
    25
100
AcDbLine
 10
8.9173228346
 20
0.0
 30
0.0
 11
-8.9960629921
 21
0.0
 31
0.0
  0
LINE
  5
185
330
1B
100
AcDbEntity
 67
     1
  8
0
  6
Continuous
 62
     7
370
    25
100
AcDbLine
 10
-8.9960629921
 20
15.7480314961
 30
0.0
 11
8.9173228346
 21
15.7480314961
 31
0.0
  0
LINE
  5
186
330
1B
100
AcDbEntity
 67
     1
  8
0
  6
Continuous
 62
     7
370
    25
100
AcDbLine
 10
-8.9960629921
 20
0.0
 30
0.0
 11
-8.9960629921
 21
15.7480314961
 31
0.0
  0
LINE
  5
187
330
1B
100
AcDbEntity
 67
     1
  8
0
  6
Continuous
 62
     7
370
    25
100
AcDbLine
 10
8.8222750566
 20
0.0
 30
0.0
 11
8.8222750566
 21
15.7480314961
 31
0.0
  0
LINE
  5
188
330
1B
100
AcDbEntity
 67
     1
  8
0
  6
Continuous
 62
     7
370
    25
100
AcDbLine
 10
-8.9566929134
 20
15.7480314961
 30
0.0
 11
-8.9566929134
 21
0.0
 31
0.0
  0
LINE
  5
189
330
1B
100
AcDbEntity
 67
     1
  8
0
  6
Continuous
 62
     7
370
    25
100
AcDbLine
 10
8.8616451353
 20
15.7086614173
 30
0.0
 11
-8.9960629921
 21
15.7086614173
 31
0.0
  0
LINE
  5
18A
330
1B
100
AcDbEntity
 67
     1
  8
0
  6
Continuous
 62
     8
370
    25
100
AcDbLine
 10
-8.9960629921
 20
0.0393700787
 30
0.0
 11
8.9173228346
 21
0.0393700787
 31
0.0
  0
ARC
  5
18B
330
1B
100
AcDbEntity
 67
     1
  8
0
  6
Continuous
 62
     7
370
    25
100
AcDbCircle
 10
8.8222750566
 20
15.7086614173
 30
0.0
 40
0.0393700787401539
100
AcDbArc
 50
360.0
 51
90.0
  0
ARC
  5
18C
330
1B
100
AcDbEntity
 67
     1
  8
0
  6
Continuous
 62
     7
370
    25
100
AcDbCircle
 10
8.8222750566
 20
0.0393700787
 30
0.0
 40
0.039370078740161
100
AcDbArc
 50
270.0
 51
360.0
  0
ARC
  5
18D
330
1B
100
AcDbEntity
 67
     1
  8
0
  6
Continuous
 62
     7
370
    25
100
AcDbCircle
 10
8.8779527559
 20
13.9437627116
 30
0.0
 40
0.0393700787401558
100
AcDbArc
 50
360.0
 51
114.4698005207
  0
ARC
  5
18E
330
1B
100
AcDbEntity
 67
     1
  8
0
  6
Continuous
 62
     7
370
    25
100
AcDbCircle
 10
8.8779527559
 20
0.0393700787
 30
0.0
 40
0.0393700787401578
100
AcDbArc
 50
225.0
 51
0.0
  0
ARC
  5
18F
330
1B
100
AcDbEntity
 67
     1
  8
0
  6
Continuous
 62
     7
370
    25
100
AcDbCircle
 10
-8.9566929134
 20
15.7086614173
 30
0.0
 40
0.0393700787401539
100
AcDbArc
 50
90.0
 51
180.0
  0
ARC
  5
190
330
1B
100
AcDbEntity
 67
     1
  8
0
  6
Continuous
 62
     7
370
    25
100
AcDbCircle
 10
-8.9566929134
 20
0.0393700787
 30
0.0
 40
0.0393700787401592
100
AcDbArc
 50
180.0
 51
270.0
  0
VIEWPORT
  5
5A9
330
1B
100
AcDbEntity
 67
     1
  8
0
100
AcDbViewport
 10
0.0
 20
0.0
 30
0.0
 40
8.4
 41
6.4
 68
     1
 69
     1
 12
-19.5866141732
 22
7.874015748
 13
0.0
 23
0.0
 14
0.5
 24
0.5
 15
0.5
 25
0.5
 16
0.0
 26
0.0
 36
1.0
 17
0.0
 27
0.0
 37
0.0
 42
50.0
 43
0.0
 44
0.0
 45
48.6479190101
 50
0.0
 51
0.0
 72
   100
 90
   557152
  1

281
     0
 71
     1
 74
     0
110
0.0
120
0.0
130
0.0
111
1.0
121
0.0
131
0.0
112
0.0
122
1.0
132
0.0
 79
     0
146
0.0
  0
ENDSEC
  0
SECTION
  2
OBJECTS
  0
DICTIONARY
  5
C
330
0
100
AcDbDictionary
281
     1
  3
ACAD_GROUP
350
D
  3
ACAD_LAYOUT
350
1A
  3
ACAD_MLINESTYLE
350
17
  3
ACAD_PLOTSETTINGS
350
19
  3
ACAD_PLOTSTYLENAME
350
E
  3
ACAD_SCALELIST
350
47
  0
DICTIONARY
  5
D
102
{ACAD_REACTORS
330
C
102
}
330
C
100
AcDbDictionary
281
     1
  0
DICTIONARY
  5
1A
102
{ACAD_REACTORS
330
C
102
}
330
C
100
AcDbDictionary
281
     1
  3
_Isometric
350
33A
  3
_Left
350
1E
  3
_Right
350
26
  3
_Top
350
1C1
  3
Model
350
22
  0
DICTIONARY
  5
17
102
{ACAD_REACTORS
330
C
102
}
330
C
100
AcDbDictionary
281
     1
  3
Standard
350
18
  0
DICTIONARY
  5
19
102
{ACAD_REACTORS
330
C
102
}
330
C
100
AcDbDictionary
281
     1
  0
ACDBDICTIONARYWDFLT
  5
E
102
{ACAD_REACTORS
330
C
102
}
330
C
100
AcDbDictionary
281
     1
  3
Normal
350
F
100
AcDbDictionaryWithDefault
340
F
  0
DICTIONARY
  5
47
102
{ACAD_REACTORS
330
C
102
}
330
C
100
AcDbDictionary
281
     1
  3
A0
350
48
  3
A1
350
49
  3
A2
350
4A
  3
A3
350
4B
  3
A4
350
4C
  3
A5
350
4D
  3
A6
350
4E
  3
A7
350
4F
  3
A8
350
50
  3
A9
350
51
  3
B0
350
52
  3
B1
350
53
  3
B2
350
54
  3
B3
350
55
  3
B4
350
56
  3
B5
350
57
  3
B6
350
58
  3
B7
350
59
  3
B8
350
5A
  3
B9
350
5B
  3
C0
350
5C
  3
C1
350
5D
  3
C2
350
5E
  3
C3
350
5F
  3
C4
350
60
  3
C5
350
61
  3
C6
350
62
  3
C7
350
63
  3
C8
350
64
  3
C9
350
65
  3
D0
350
66
  3
D1
350
67
  3
D2
350
68
  0
LAYOUT
  5
33A
102
{ACAD_REACTORS
330
1A
102
}
330
1A
100
AcDbPlotSettings
  1

  2
none_device
  4
Letter_(8.50_x_11.00_Inches)
  6

 40
6.35
 41
6.35
 42
6.35001
 43
6.35001
 44
215.9
 45
279.4
 46
0.0
 47
0.0
 48
0.0
 49
0.0
140
0.0
141
0.0
142
1.0
143
1.9685040339
 70
   688
 72
     0
 73
     1
 74
     1
  7

 75
     0
147
0.507999975
148
228.5
149
0.0
100
AcDbLayout
  1
_Isometric
 70
     1
 71
     4
 10
0.0
 20
0.0
 11
0.0
 21
0.0
 12
0.0
 22
0.0
 32
0.0
 14
0.0
 24
0.0
 34
0.0
 15
0.0
 25
0.0
 35
0.0
146
0.0
 13
0.0
 23
0.0
 33
0.0
 16
1.0
 26
0.0
 36
0.0
 17
0.0
 27
1.0
 37
0.0
 76
     0
330
339
331
5AF
  0
LAYOUT
  5
1E
102
{ACAD_REACTORS
330
1A
102
}
330
1A
100
AcDbPlotSettings
  1

  2
none_device
  4
Letter_(8.50_x_11.00_Inches)
  6

 40
6.35
 41
6.35
 42
6.35001
 43
6.35001
 44
215.9
 45
279.4
 46
0.0
 47
0.0
 48
0.0
 49
0.0
140
0.0
141
0.0
142
1.0
143
1.9685040339
 70
   688
 72
     0
 73
     1
 74
     1
  7

 75
     0
147
0.507999975
148
228.5
149
0.0
100
AcDbLayout
  1
_Left
 70
     1
 71
     1
 10
-9.4881897756
 20
-0.4921260085
 11
12.1653545971
 21
16.2401582795
 12
0.0
 22
0.0
 32
0.0
 14
-8.9960629921
 24
0.0
 34
0.0
 15
8.9173228346
 25
15.7480314961
 35
0.0
146
0.0
 13
0.0
 23
0.0
 33
0.0
 16
1.0
 26
0.0
 36
0.0
 17
0.0
 27
1.0
 37
0.0
 76
     0
330
1B
331
5A9
  0
LAYOUT
  5
26
102
{ACAD_REACTORS
330
1A
102
}
330
1A
100
AcDbPlotSettings
  1

  2
none_device
  4
Letter_(8.50_x_11.00_Inches)
  6

 40
6.35
 41
6.35
 42
6.35001
 43
6.35001
 44
215.9
 45
279.4
 46
0.0
 47
0.0
 48
0.0
 49
0.0
140
0.0
141
0.0
142
1.0
143
1.9685040339
 70
   688
 72
     0
 73
     1
 74
     1
  7

 75
     0
147
0.507999975
148
228.5
149
0.0
100
AcDbLayout
  1
_Right
 70
     1
 71
     2
 10
0.0
 20
0.0
 11
0.0
 21
0.0
 12
0.0
 22
0.0
 32
0.0
 14
0.0
 24
0.0
 34
0.0
 15
0.0
 25
0.0
 35
0.0
146
0.0
 13
0.0
 23
0.0
 33
0.0
 16
1.0
 26
0.0
 36
0.0
 17
0.0
 27
1.0
 37
0.0
 76
     0
330
23
331
5AB
  0
LAYOUT
  5
1C1
102
{ACAD_REACTORS
330
1A
102
}
330
1A
100
AcDbPlotSettings
  1

  2
none_device
  4
Letter_(8.50_x_11.00_Inches)
  6

 40
6.35
 41
6.35
 42
6.35001
 43
6.35001
 44
215.9
 45
279.4
 46
0.0
 47
0.0
 48
0.0
 49
0.0
140
0.0
141
0.0
142
1.0
143
1.9685040339
 70
   688
 72
     0
 73
     1
 74
     1
  7

 75
     0
147
0.507999975
148
228.5
149
0.0
100
AcDbLayout
  1
_Top
 70
     1
 71
     3
 10
0.0
 20
0.0
 11
0.0
 21
0.0
 12
0.0
 22
0.0
 32
0.0
 14
0.0
 24
0.0
 34
0.0
 15
0.0
 25
0.0
 35
0.0
146
0.0
 13
0.0
 23
0.0
 33
0.0
 16
1.0
 26
0.0
 36
0.0
 17
0.0
 27
1.0
 37
0.0
 76
     0
330
1C0
331
5AD
  0
LAYOUT
  5
22
102
{ACAD_REACTORS
330
1A
102
}
330
1A
100
AcDbPlotSettings
  1

  2
none_device
  4
ANSI_A_(11.00_x_8.50_Inches)
  6

 40
6.35
 41
19.05
 42
6.35000508
 43
19.05000254
 44
279.4
 45
215.9
 46
219.8981012336
 47
54.1067911828
 48
0.0
 49
0.0
140
0.0
141
0.0
142
0.1739660377
143
1.0
 70
  1696
 72
     0
 73
     0
 74
     0
  7

 75
     0
147
0.5913241897
148
-39.4088153714
149
0.0
100
AcDbLayout
  1
Model
 70
     1
 71
     0
 10
0.0
 20
0.0
 11
12.0
 21
9.0
 12
0.0
 22
0.0
 32
0.0
 14
-50.8858267717
 24
0.0
 34
0.0
 15
11.7125984252
 25
15.7480314961
 35
0.0
146
0.0
 13
0.0
 23
0.0
 33
0.0
 16
1.0
 26
0.0
 36
0.0
 17
0.0
 27
1.0
 37
0.0
 76
     0
330
1F
331
29
  0
MLINESTYLE
  5
18
102
{ACAD_REACTORS
330
17
102
}
330
17
100
AcDbMlineStyle
  2
Standard
 70
     0
  3

 62
   256
 51
90.0
 52
90.0
 71
     2
 49
0.5
 62
   256
  6
BYLAYER
 49
-0.5
 62
   256
  6
BYLAYER
  0
ACDBPLACEHOLDER
  5
F
102
{ACAD_REACTORS
330
E
102
}
330
E
  0
SCALE
  5
48
102
{ACAD_REACTORS
330
47
102
}
330
47
100
AcDbScale
 70
     0
300
1:1
140
1.0
141
1.0
290
     1
  0
SCALE
  5
49
102
{ACAD_REACTORS
330
47
102
}
330
47
100
AcDbScale
 70
     0
300
1:2
140
1.0
141
2.0
290
     0
  0
SCALE
  5
4A
102
{ACAD_REACTORS
330
47
102
}
330
47
100
AcDbScale
 70
     0
300
1:4
140
1.0
141
4.0
290
     0
  0
SCALE
  5
4B
102
{ACAD_REACTORS
330
47
102
}
330
47
100
AcDbScale
 70
     0
300
1:5
140
1.0
141
5.0
290
     0
  0
SCALE
  5
4C
102
{ACAD_REACTORS
330
47
102
}
330
47
100
AcDbScale
 70
     0
300
1:8
140
1.0
141
8.0
290
     0
  0
SCALE
  5
4D
102
{ACAD_REACTORS
330
47
102
}
330
47
100
AcDbScale
 70
     0
300
1:10
140
1.0
141
10.0
290
     0
  0
SCALE
  5
4E
102
{ACAD_REACTORS
330
47
102
}
330
47
100
AcDbScale
 70
     0
300
1:16
140
1.0
141
16.0
290
     0
  0
SCALE
  5
4F
102
{ACAD_REACTORS
330
47
102
}
330
47
100
AcDbScale
 70
     0
300
1:20
140
1.0
141
20.0
290
     0
  0
SCALE
  5
50
102
{ACAD_REACTORS
330
47
102
}
330
47
100
AcDbScale
 70
     0
300
1:30
140
1.0
141
30.0
290
     0
  0
SCALE
  5
51
102
{ACAD_REACTORS
330
47
102
}
330
47
100
AcDbScale
 70
     0
300
1:40
140
1.0
141
40.0
290
     0
  0
SCALE
  5
52
102
{ACAD_REACTORS
330
47
102
}
330
47
100
AcDbScale
 70
     0
300
1:50
140
1.0
141
50.0
290
     0
  0
SCALE
  5
53
102
{ACAD_REACTORS
330
47
102
}
330
47
100
AcDbScale
 70
     0
300
1:100
140
1.0
141
100.0
290
     0
  0
SCALE
  5
54
102
{ACAD_REACTORS
330
47
102
}
330
47
100
AcDbScale
 70
     0
300
2:1
140
2.0
141
1.0
290
     0
  0
SCALE
  5
55
102
{ACAD_REACTORS
330
47
102
}
330
47
100
AcDbScale
 70
     0
300
4:1
140
4.0
141
1.0
290
     0
  0
SCALE
  5
56
102
{ACAD_REACTORS
330
47
102
}
330
47
100
AcDbScale
 70
     0
300
8:1
140
8.0
141
1.0
290
     0
  0
SCALE
  5
57
102
{ACAD_REACTORS
330
47
102
}
330
47
100
AcDbScale
 70
     0
300
10:1
140
10.0
141
1.0
290
     0
  0
SCALE
  5
58
102
{ACAD_REACTORS
330
47
102
}
330
47
100
AcDbScale
 70
     0
300
100:1
140
100.0
141
1.0
290
     0
  0
SCALE
  5
59
102
{ACAD_REACTORS
330
47
102
}
330
47
100
AcDbScale
 70
     0
300
1/128" = 1'-0"
140
0.0078125
141
12.0
290
     0
  0
SCALE
  5
5A
102
{ACAD_REACTORS
330
47
102
}
330
47
100
AcDbScale
 70
     0
300
1/64" = 1'-0"
140
0.015625
141
12.0
290
     0
  0
SCALE
  5
5B
102
{ACAD_REACTORS
330
47
102
}
330
47
100
AcDbScale
 70
     0
300
1/32" = 1'-0"
140
0.03125
141
12.0
290
     0
  0
SCALE
  5
5C
102
{ACAD_REACTORS
330
47
102
}
330
47
100
AcDbScale
 70
     0
300
1/16" = 1'-0"
140
0.0625
141
12.0
290
     0
  0
SCALE
  5
5D
102
{ACAD_REACTORS
330
47
102
}
330
47
100
AcDbScale
 70
     0
300
3/32" = 1'-0"
140
0.09375
141
12.0
290
     0
  0
SCALE
  5
5E
102
{ACAD_REACTORS
330
47
102
}
330
47
100
AcDbScale
 70
     0
300
1/8" = 1'-0"
140
0.125
141
12.0
290
     0
  0
SCALE
  5
5F
102
{ACAD_REACTORS
330
47
102
}
330
47
100
AcDbScale
 70
     0
300
3/16" = 1'-0"
140
0.1875
141
12.0
290
     0
  0
SCALE
  5
60
102
{ACAD_REACTORS
330
47
102
}
330
47
100
AcDbScale
 70
     0
300
1/4" = 1'-0"
140
0.25
141
12.0
290
     0
  0
SCALE
  5
61
102
{ACAD_REACTORS
330
47
102
}
330
47
100
AcDbScale
 70
     0
300
3/8" = 1'-0"
140
0.375
141
12.0
290
     0
  0
SCALE
  5
62
102
{ACAD_REACTORS
330
47
102
}
330
47
100
AcDbScale
 70
     0
300
1/2" = 1'-0"
140
0.5
141
12.0
290
     0
  0
SCALE
  5
63
102
{ACAD_REACTORS
330
47
102
}
330
47
100
AcDbScale
 70
     0
300
3/4" = 1'-0"
140
0.75
141
12.0
290
     0
  0
SCALE
  5
64
102
{ACAD_REACTORS
330
47
102
}
330
47
100
AcDbScale
 70
     0
300
1" = 1'-0"
140
1.0
141
12.0
290
     0
  0
SCALE
  5
65
102
{ACAD_REACTORS
330
47
102
}
330
47
100
AcDbScale
 70
     0
300
1-1/2" = 1'-0"
140
1.5
141
12.0
290
     0
  0
SCALE
  5
66
102
{ACAD_REACTORS
330
47
102
}
330
47
100
AcDbScale
 70
     0
300
3" = 1'-0"
140
3.0
141
12.0
290
     0
  0
SCALE
  5
67
102
{ACAD_REACTORS
330
47
102
}
330
47
100
AcDbScale
 70
     0
300
6" = 1'-0"
140
6.0
141
12.0
290
     0
  0
SCALE
  5
68
102
{ACAD_REACTORS
330
47
102
}
330
47
100
AcDbScale
 70
     0
300
1'-0" = 1'-0"
140
12.0
141
12.0
290
     0
  0
ENDSEC
  0
EOF
