  0
SECTION
  2
HEADER
  9
$ACADVER
  1
AC1015
  9
$ACADMAINTVER
 70
     6
  9
$DWGCODEPAGE
  3
ANSI_1252
  9
$INSBASE
 10
0.0
 20
0.0
 30
0.0
  9
$EXTMIN
 10
-35.1377952756
 20
0.0
 30
0.0
  9
$EXTMAX
 10
19.5866141732
 20
15.7480314961
 30
0.0
  9
$LIMMIN
 10
0.0
 20
0.0
  9
$LIMMAX
 10
12.0
 20
9.0
  9
$ORTHOMODE
 70
     0
  9
$REGENMODE
 70
     1
  9
$FILLMODE
 70
     1
  9
$QTEXTMODE
 70
     0
  9
$MIRRTEXT
 70
     1
  9
$LTSCALE
 40
1.0
  9
$ATTMODE
 70
     1
  9
$TEXTSIZE
 40
0.1377952756
  9
$TRACEWID
 40
0.05
  9
$TEXTSTYLE
  7
Standard
  9
$CLAYER
  8
0
  9
$CELTYPE
  6
ByLayer
  9
$CECOLOR
 62
   256
  9
$CELTSCALE
 40
1.0
  9
$DISPSILH
 70
     0
  9
$DIMSCALE
 40
1.0
  9
$DIMASZ
 40
0.13
  9
$DIMEXO
 40
0.0393700787
  9
$DIMDLI
 40
0.38
  9
$DIMRND
 40
0.0
  9
$DIMDLE
 40
0.0
  9
$DIMEXE
 40
0.0393700787
  9
$DIMTP
 40
0.0
  9
$DIMTM
 40
0.0
  9
$DIMTXT
 40
0.1377952756
  9
$DIMCEN
 40
0.09
  9
$DIMTSZ
 40
0.0
  9
$DIMTOL
 70
     0
  9
$DIMLIM
 70
     0
  9
$DIMTIH
 70
     1
  9
$DIMTOH
 70
     1
  9
$DIMSE1
 70
     0
  9
$DIMSE2
 70
     0
  9
$DIMTAD
 70
     1
  9
$DIMZIN
 70
     1
  9
$DIMBLK
  1

  9
$DIMASO
 70
     1
  9
$DIMSHO
 70
     1
  9
$DIMPOST
  1

  9
$DIMAPOST
  1

  9
$DIMALT
 70
     0
  9
$DIMALTD
 70
     2
  9
$DIMALTF
 40
25.4
  9
$DIMLFAC
 40
1.0
  9
$DIMTOFL
 70
     0
  9
$DIMTVP
 40
0.0
  9
$DIMTIX
 70
     0
  9
$DIMSOXD
 70
     0
  9
$DIMSAH
 70
     0
  9
$DIMBLK1
  1

  9
$DIMBLK2
  1

  9
$DIMSTYLE
  2
Standard
  9
$DIMCLRD
 70
     0
  9
$DIMCLRE
 70
     0
  9
$DIMCLRT
 70
     0
  9
$DIMTFAC
 40
1.0
  9
$DIMGAP
 40
0.06
  9
$DIMJUST
 70
     0
  9
$DIMSD1
 70
     0
  9
$DIMSD2
 70
     0
  9
$DIMTOLJ
 70
     1
  9
$DIMTZIN
 70
     1
  9
$DIMALTZ
 70
     0
  9
$DIMALTTZ
 70
     0
  9
$DIMUPT
 70
     0
  9
$DIMDEC
 70
     2
  9
$DIMTDEC
 70
     2
  9
$DIMALTU
 70
     2
  9
$DIMALTTD
 70
     2
  9
$DIMTXSTY
  7
Standard
  9
$DIMAUNIT
 70
     0
  9
$DIMADEC
 70
     2
  9
$DIMALTRND
 40
0.0
  9
$DIMAZIN
 70
     0
  9
$DIMDSEP
 70
    46
  9
$DIMATFIT
 70
     3
  9
$DIMFRAC
 70
     0
  9
$DIMLDRBLK
  1

  9
$DIMLUNIT
 70
     2
  9
$DIMLWD
 70
    -2
  9
$DIMLWE
 70
    -2
  9
$DIMTMOVE
 70
     0
  9
$LUNITS
 70
     2
  9
$LUPREC
 70
     2
  9
$SKETCHINC
 40
0.1
  9
$FILLETRAD
 40
0.5
  9
$AUNITS
 70
     0
  9
$AUPREC
 70
     2
  9
$MENU
  1
.
  9
$ELEVATION
 40
0.0
  9
$PELEVATION
 40
0.0
  9
$THICKNESS
 40
0.0
  9
$LIMCHECK
 70
     0
  9
$CHAMFERA
 40
0.0
  9
$CHAMFERB
 40
0.0
  9
$CHAMFERC
 40
0.0
  9
$CHAMFERD
 40
0.0
  9
$SKPOLY
 70
     0
  9
$TDCREATE
 40
2460405.63227603
  9
$TDUCREATE
 40
2460405.590609363
  9
$TDUPDATE
 40
2460405.632309317
  9
$TDUUPDATE
 40
2460405.590642651
  9
$TDINDWG
 40
0.0000000116
  9
$TDUSRTIMER
 40
0.0000000116
  9
$USRTIMER
 70
     1
  9
$ANGBASE
 50
0.0
  9
$ANGDIR
 70
     0
  9
$PDMODE
 70
     0
  9
$PDSIZE
 40
-1.0
  9
$PLINEWID
 40
0.0
  9
$SPLFRAME
 70
     0
  9
$SPLINETYPE
 70
     6
  9
$SPLINESEGS
 70
     8
  9
$HANDSEED
  5
53F
  9
$SURFTAB1
 70
     6
  9
$SURFTAB2
 70
     6
  9
$SURFTYPE
 70
     6
  9
$SURFU
 70
     6
  9
$SURFV
 70
     6
  9
$UCSBASE
  2

  9
$UCSNAME
  2

  9
$UCSORG
 10
0.0
 20
0.0
 30
0.0
  9
$UCSXDIR
 10
1.0
 20
0.0
 30
0.0
  9
$UCSYDIR
 10
0.0
 20
1.0
 30
0.0
  9
$UCSORTHOREF
  2

  9
$UCSORTHOVIEW
 70
     0
  9
$UCSORGTOP
 10
0.0
 20
0.0
 30
0.0
  9
$UCSORGBOTTOM
 10
0.0
 20
0.0
 30
0.0
  9
$UCSORGLEFT
 10
0.0
 20
0.0
 30
0.0
  9
$UCSORGRIGHT
 10
0.0
 20
0.0
 30
0.0
  9
$UCSORGFRONT
 10
0.0
 20
0.0
 30
0.0
  9
$UCSORGBACK
 10
0.0
 20
0.0
 30
0.0
  9
$PUCSBASE
  2

  9
$PUCSNAME
  2

  9
$PUCSORG
 10
0.0
 20
0.0
 30
0.0
  9
$PUCSXDIR
 10
1.0
 20
0.0
 30
0.0
  9
$PUCSYDIR
 10
0.0
 20
1.0
 30
0.0
  9
$PUCSORTHOREF
  2

  9
$PUCSORTHOVIEW
 70
     0
  9
$PUCSORGTOP
 10
0.0
 20
0.0
 30
0.0
  9
$PUCSORGBOTTOM
 10
0.0
 20
0.0
 30
0.0
  9
$PUCSORGLEFT
 10
0.0
 20
0.0
 30
0.0
  9
$PUCSORGRIGHT
 10
0.0
 20
0.0
 30
0.0
  9
$PUCSORGFRONT
 10
0.0
 20
0.0
 30
0.0
  9
$PUCSORGBACK
 10
0.0
 20
0.0
 30
0.0
  9
$USERI1
 70
     0
  9
$USERI2
 70
     0
  9
$USERI3
 70
     0
  9
$USERI4
 70
     0
  9
$USERI5
 70
     0
  9
$USERR1
 40
0.0
  9
$USERR2
 40
0.0
  9
$USERR3
 40
0.0
  9
$USERR4
 40
0.0
  9
$USERR5
 40
0.0
  9
$WORLDVIEW
 70
     1
  9
$SHADEDGE
 70
     3
  9
$SHADEDIF
 70
    70
  9
$TILEMODE
 70
     1
  9
$MAXACTVP
 70
    64
  9
$PINSBASE
 10
0.0
 20
0.0
 30
0.0
  9
$PLIMCHECK
 70
     0
  9
$PEXTMIN
 10
-8.9960629921
 20
0.0
 30
0.0
  9
$PEXTMAX
 10
8.9173228346
 20
15.7480314961
 30
0.0
  9
$PLIMMIN
 10
-9.4881897756
 20
-0.4921260085
  9
$PLIMMAX
 10
12.1653545971
 20
16.2401582795
  9
$UNITMODE
 70
     0
  9
$VISRETAIN
 70
     1
  9
$PLINEGEN
 70
     0
  9
$PSLTSCALE
 70
     1
  9
$TREEDEPTH
 70
  3020
  9
$CMLSTYLE
  2
Standard
  9
$CMLJUST
 70
     0
  9
$CMLSCALE
 40
1.0
  9
$PROXYGRAPHICS
 70
     1
  9
$MEASUREMENT
 70
     0
  9
$CELWEIGHT
370
    -1
  9
$ENDCAPS
280
     0
  9
$JOINSTYLE
280
     0
  9
$LWDISPLAY
290
     1
  9
$INSUNITS
 70
     1
  9
$HYPERLINKBASE
  1

  9
$STYLESHEET
  1

  9
$XEDIT
290
     1
  9
$CEPSNTYPE
380
     0
  9
$PSTYLEMODE
290
     1
  9
$FINGERPRINTGUID
  2
{e0f41f5f-4644-464d-9a07-6771fad82560}
  9
$VERSIONGUID
  2
{FAEB1C32-E019-11D5-929B-00C0DF256EC4}
  9
$EXTNAMES
290
     1
  9
$PSVPSCALE
 40
0.0
  9
$OLESTARTUP
290
     0
  0
ENDSEC
  0
SECTION
  2
CLASSES
  0
CLASS
  1
ACDBDICTIONARYWDFLT
  2
AcDbDictionaryWithDefault
  3
ObjectDBX Classes
 90
        0
280
     0
281
     0
  0
CLASS
  1
VISUALSTYLE
  2
AcDbVisualStyle
  3
ObjectDBX Classes
 90
     4095
280
     0
281
     0
  0
CLASS
  1
MATERIAL
  2
AcDbMaterial
  3
ObjectDBX Classes
 90
     1153
280
     0
281
     0
  0
CLASS
  1
SCALE
  2
AcDbScale
  3
ObjectDBX Classes
 90
     1153
280
     0
281
     0
  0
CLASS
  1
TABLESTYLE
  2
AcDbTableStyle
  3
ObjectDBX Classes
 90
     4095
280
     0
281
     0
  0
CLASS
  1
MLEADERSTYLE
  2
AcDbMLeaderStyle
  3
ACDB_MLEADERSTYLE_CLASS
 90
     4095
280
     0
281
     0
  0
CLASS
  1
SUN
  2
AcDbSun
  3
SCENEOE
 90
     1153
280
     0
281
     0
  0
CLASS
  1
ACDBPLACEHOLDER
  2
AcDbPlaceHolder
  3
ObjectDBX Classes
 90
        0
280
     0
281
     0
  0
CLASS
  1
LAYOUT
  2
AcDbLayout
  3
ObjectDBX Classes
 90
        0
280
     0
281
     0
  0
ENDSEC
  0
SECTION
  2
TABLES
  0
TABLE
  2
VPORT
  5
8
330
0
100
AcDbSymbolTable
 70
     1
  0
VPORT
  5
29
330
8
100
AcDbSymbolTableRecord
100
AcDbViewportTableRecord
  2
*Active
 70
     0
 10
0.0
 20
0.0
 11
1.0
 21
1.0
 12
-7.7755905512
 22
7.874015748
 13
0.0
 23
0.0
 14
0.5
 24
0.5
 15
0.5
 25
0.5
 16
0.0
 26
0.0
 36
1.0
 17
0.0
 27
0.0
 37
0.0
 40
16.062992126
 41
3.475
 42
50.0
 43
0.0
 44
0.0
 50
0.0
 51
0.0
 71
     0
 72
   100
 73
     1
 74
     3
 75
     0
 76
     0
 77
     0
 78
     0
281
     0
 65
     1
110
0.0
120
0.0
130
0.0
111
1.0
121
0.0
131
0.0
112
0.0
122
1.0
132
0.0
 79
     0
146
0.0
  0
ENDTAB
  0
TABLE
  2
LTYPE
  5
5
330
0
100
AcDbSymbolTable
 70
     6
  0
LTYPE
  5
14
330
5
100
AcDbSymbolTableRecord
100
AcDbLinetypeTableRecord
  2
ByBlock
 70
     0
  3

 72
    65
 73
     0
 40
0.0
  0
LTYPE
  5
15
330
5
100
AcDbSymbolTableRecord
100
AcDbLinetypeTableRecord
  2
ByLayer
 70
     0
  3

 72
    65
 73
     0
 40
0.0
  0
LTYPE
  5
16
330
5
100
AcDbSymbolTableRecord
100
AcDbLinetypeTableRecord
  2
Continuous
 70
     0
  3
Solid line
 72
    65
 73
     0
 40
0.0
  0
LTYPE
  5
6E
330
5
100
AcDbSymbolTableRecord
100
AcDbLinetypeTableRecord
  2
HIDDEN
 70
     0
  3
Hidden __ __ __ __ __ __ __ __ __ __ __ __ __ __
 72
    65
 73
     2
 40
0.075
 49
0.05
 74
     0
 49
-0.025
 74
     0
  0
LTYPE
  5
6F
330
5
100
AcDbSymbolTableRecord
100
AcDbLinetypeTableRecord
  2
PHANTOM
 70
     0
  3
Phantom ______  __  __  ______  __  __  ______
 72
    65
 73
     6
 40
0.5
 49
0.25
 74
     0
 49
-0.05
 74
     0
 49
0.05
 74
     0
 49
-0.05
 74
     0
 49
0.05
 74
     0
 49
-0.05
 74
     0
  0
LTYPE
  5
70
330
5
100
AcDbSymbolTableRecord
100
AcDbLinetypeTableRecord
  2
CENTER
 70
     0
  3
Center ____ _ ____ _ ____ _ ____ _ ____ _ ____
 72
    65
 73
     4
 40
0.4
 49
0.25
 74
     0
 49
-0.05
 74
     0
 49
0.05
 74
     0
 49
-0.05
 74
     0
  0
LTYPE
  5
71
330
5
100
AcDbSymbolTableRecord
100
AcDbLinetypeTableRecord
  2
CENTERX2
 70
     0
  3
Center (2x) ________  __  ________  __  _____
 72
    65
 73
     4
 40
0.8
 49
0.5
 74
     0
 49
-0.1
 74
     0
 49
0.1
 74
     0
 49
-0.1
 74
     0
  0
LTYPE
  5
72
330
5
100
AcDbSymbolTableRecord
100
AcDbLinetypeTableRecord
  2
DOT2
 70
     0
  3
Dot (.5x) ........................................
 72
    65
 73
     2
 40
0.025
 49
0.0
 74
     0
 49
-0.025
 74
     0
  0
ENDTAB
  0
TABLE
  2
LAYER
  5
2
330
0
100
AcDbSymbolTable
 70
     1
  0
LAYER
  5
10
330
2
100
AcDbSymbolTableRecord
100
AcDbLayerTableRecord
  2
0
 70
     0
 62
     7
  6
Continuous
370
    -3
390
F
  0
ENDTAB
  0
TABLE
  2
STYLE
  5
3
330
0
100
AcDbSymbolTable
 70
     1
  0
STYLE
  5
11
330
3
100
AcDbSymbolTableRecord
100
AcDbTextStyleTableRecord
  2
Standard
 70
     0
 40
0.0
 41
1.0
 50
0.0
 71
     0
 42
0.1377952756
  3
txt
  4

  0
ENDTAB
  0
TABLE
  2
VIEW
  5
6
330
0
100
AcDbSymbolTable
 70
     0
  0
ENDTAB
  0
TABLE
  2
UCS
  5
7
330
0
100
AcDbSymbolTable
 70
     0
  0
ENDTAB
  0
TABLE
  2
APPID
  5
9
330
0
100
AcDbSymbolTable
 70
     1
  0
APPID
  5
12
330
9
100
AcDbSymbolTableRecord
100
AcDbRegAppTableRecord
  2
ACAD
 70
     0
  0
ENDTAB
  0
TABLE
  2
DIMSTYLE
  5
A
330
0
100
AcDbSymbolTable
 70
     1
100
AcDbDimStyleTable
  0
DIMSTYLE
105
27
330
A
100
AcDbSymbolTableRecord
100
AcDbDimStyleTableRecord
  2
Standard
 70
     0
178
     0
340
11
  0
ENDTAB
  0
TABLE
  2
BLOCK_RECORD
  5
1
330
0
100
AcDbSymbolTable
 70
     3
  0
BLOCK_RECORD
  5
1F
330
1
100
AcDbSymbolTableRecord
100
AcDbBlockTableRecord
  2
*Model_Space
340
22
  0
BLOCK_RECORD
  5
1B
330
1
100
AcDbSymbolTableRecord
100
AcDbBlockTableRecord
  2
*Paper_Space
340
1E
  0
BLOCK_RECORD
  5
23
330
1
100
AcDbSymbolTableRecord
100
AcDbBlockTableRecord
  2
*Paper_Space0
340
26
  0
BLOCK_RECORD
  5
185
330
1
100
AcDbSymbolTableRecord
100
AcDbBlockTableRecord
  2
*Paper_Space1
340
186
  0
BLOCK_RECORD
  5
2F8
330
1
100
AcDbSymbolTableRecord
100
AcDbBlockTableRecord
  2
*Paper_Space2
340
2F9
  0
ENDTAB
  0
ENDSEC
  0
SECTION
  2
BLOCKS
  0
BLOCK
  5
20
330
1F
100
AcDbEntity
  8
0
100
AcDbBlockBegin
  2
*Model_Space
 70
     0
 10
0.0
 20
0.0
 30
0.0
  3
*Model_Space
  1

  0
ENDBLK
  5
21
330
1F
100
AcDbEntity
  8
0
100
AcDbBlockEnd
  0
BLOCK
  5
1C
330
1B
100
AcDbEntity
 67
     1
  8
0
100
AcDbBlockBegin
  2
*Paper_Space
 70
     0
 10
0.0
 20
0.0
 30
0.0
  3
*Paper_Space
  1

  0
ENDBLK
  5
1D
330
1B
100
AcDbEntity
 67
     1
  8
0
100
AcDbBlockEnd
  0
BLOCK
  5
24
330
23
100
AcDbEntity
  8
0
100
AcDbBlockBegin
  2
*Paper_Space0
 70
     0
 10
0.0
 20
0.0
 30
0.0
  3
*Paper_Space0
  1

  0
LINE
  5
181
330
23
100
AcDbEntity
  8
0
  6
Continuous
 62
     7
370
    25
100
AcDbLine
 10
-8.9173228346
 20
0.0
 30
0.0
 11
8.9960629921
 21
0.0
 31
0.0
  0
LINE
  5
182
330
23
100
AcDbEntity
  8
0
  6
Continuous
 62
     7
370
    25
100
AcDbLine
 10
-8.9173228346
 20
0.0
 30
0.0
 11
-8.9173228346
 21
15.7480314961
 31
0.0
  0
LINE
  5
183
330
23
100
AcDbEntity
  8
0
  6
Continuous
 62
     7
370
    25
100
AcDbLine
 10
-8.9173228346
 20
15.7480314961
 30
0.0
 11
8.9960629921
 21
15.7480314961
 31
0.0
  0
LINE
  5
184
330
23
100
AcDbEntity
  8
0
  6
Continuous
 62
     7
370
    25
100
AcDbLine
 10
8.9960629921
 20
0.0
 30
0.0
 11
8.9960629921
 21
15.7480314961
 31
0.0
  0
VIEWPORT
  5
539
330
23
100
AcDbEntity
  8
0
100
AcDbViewport
 10
0.0
 20
0.0
 30
0.0
 40
8.4
 41
6.4
 68
     1
 69
     1
 12
-7.7755905512
 22
7.874015748
 13
0.0
 23
0.0
 14
0.5
 24
0.5
 15
0.5
 25
0.5
 16
0.0
 26
0.0
 36
1.0
 17
0.0
 27
0.0
 37
0.0
 42
50.0
 43
0.0
 44
0.0
 45
42.5286839145
 50
0.0
 51
0.0
 72
   100
 90
   557152
  1

281
     0
 71
     1
 74
     0
110
0.0
120
0.0
130
0.0
111
1.0
121
0.0
131
0.0
112
0.0
122
1.0
132
0.0
 79
     0
146
0.0
  0
ENDBLK
  5
25
330
23
100
AcDbEntity
  8
0
100
AcDbBlockEnd
  0
BLOCK
  5
187
330
185
100
AcDbEntity
  8
0
100
AcDbBlockBegin
  2
*Paper_Space1
 70
     0
 10
0.0
 20
0.0
 30
0.0
  3
*Paper_Space1
  1

  0
LINE
  5
272
330
185
100
AcDbEntity
  8
0
  6
Continuous
 62
     7
370
    25
100
AcDbLine
 10
-10.8267716535
 20
7.5393700787
 30
0.0
 11
-10.8267716535
 21
-7.5
 31
0.0
  0
LINE
  5
273
330
185
100
AcDbEntity
  8
0
  6
Continuous
 62
     7
370
    25
100
AcDbLine
 10
-10.1181102362
 20
-7.5
 30
0.0
 11
-10.1181102362
 21
7.5393700787
 31
0.0
  0
LINE
  5
274
330
185
100
AcDbEntity
  8
0
  6
Continuous
 62
     7
370
    25
100
AcDbLine
 10
-34.2519685039
 20
7.5393700787
 30
0.0
 11
-34.2519685039
 21
-7.5
 31
0.0
  0
LINE
  5
275
330
185
100
AcDbEntity
  8
0
  6
Continuous
 62
     7
370
    25
100
AcDbLine
 10
-33.5433070866
 20
-7.5
 30
0.0
 11
-33.5433070866
 21
7.5393700787
 31
0.0
  0
LINE
  5
276
330
185
100
AcDbEntity
  8
0
  6
Continuous
 62
     7
370
    25
100
AcDbLine
 10
19.5866141732
 20
8.9960629921
 30
0.0
 11
11.7125984252
 21
8.9960629921
 31
0.0
  0
LINE
  5
277
330
185
100
AcDbEntity
  8
0
  6
Continuous
 62
     7
370
    25
100
AcDbLine
 10
19.5866141732
 20
-8.9173228346
 30
0.0
 11
19.5866141732
 21
8.9960629921
 31
0.0
  0
LINE
  5
278
330
185
100
AcDbEntity
  8
0
  6
Continuous
 62
     7
370
    25
100
AcDbLine
 10
19.5866141732
 20
-8.9173228346
 30
0.0
 11
11.7125984252
 21
-8.9173228346
 31
0.0
  0
LINE
  5
279
330
185
100
AcDbEntity
  8
0
  6
Continuous
 62
     7
370
    25
100
AcDbLine
 10
11.7125984252
 20
-8.9173228346
 30
0.0
 11
11.7125984252
 21
8.9960629921
 31
0.0
  0
LINE
  5
27A
330
185
100
AcDbEntity
  8
0
  6
Continuous
 62
     7
370
    25
100
AcDbLine
 10
11.5388104897
 20
-8.9173228346
 30
0.0
 11
-11.5388104897
 21
-8.9173228346
 31
0.0
  0
LINE
  5
27B
330
185
100
AcDbEntity
  8
0
  6
Continuous
 62
     7
370
    25
100
AcDbLine
 10
-11.5666493393
 20
-8.8501139063
 30
0.0
 11
11.5666493393
 21
-8.8501139063
 31
0.0
  0
LINE
  5
27C
330
185
100
AcDbEntity
  8
0
  6
Continuous
 62
     7
370
    25
100
AcDbLine
 10
10.9251968504
 20
-8.2086614173
 30
0.0
 11
11.5666493393
 21
-8.8501139063
 31
0.0
  0
LINE
  5
27D
330
185
100
AcDbEntity
  8
0
  6
Continuous
 62
     7
370
    25
100
AcDbLine
 10
-10.9251968504
 20
-8.2086614173
 30
0.0
 11
-11.5666493393
 21
-8.8501139063
 31
0.0
  0
LINE
  5
27E
330
185
100
AcDbEntity
  8
0
  6
Continuous
 62
     7
370
    25
100
AcDbLine
 10
-11.8863863607
 20
-8.9173228346
 30
0.0
 11
-34.9640073401
 21
-8.9173228346
 31
0.0
  0
LINE
  5
27F
330
185
100
AcDbEntity
  8
0
  6
Continuous
 62
     7
370
    25
100
AcDbLine
 10
-34.9918461897
 20
-8.8501139063
 30
0.0
 11
-11.8585475111
 21
-8.8501139063
 31
0.0
  0
LINE
  5
280
330
185
100
AcDbEntity
  8
0
  6
Continuous
 62
     7
370
    25
100
AcDbLine
 10
-12.5
 20
-8.2086614173
 30
0.0
 11
-11.8585475111
 21
-8.8501139063
 31
0.0
  0
LINE
  5
281
330
185
100
AcDbEntity
  8
0
  6
Continuous
 62
     7
370
    25
100
AcDbLine
 10
-34.3503937008
 20
-8.2086614173
 30
0.0
 11
-34.9918461897
 21
-8.8501139063
 31
0.0
  0
LINE
  5
282
330
185
100
AcDbEntity
  8
0
  6
Continuous
 62
     7
370
    25
100
AcDbLine
 10
-11.6732283465
 20
-8.8222750566
 30
0.0
 11
-11.0433070866
 21
-8.1923537968
 31
0.0
  0
LINE
  5
283
330
185
100
AcDbEntity
  8
0
  6
Continuous
 62
     7
370
    25
100
AcDbLine
 10
-11.0433070866
 20
-8.1923537968
 30
0.0
 11
-11.015468237
 21
-8.2201926464
 31
0.0
  0
LINE
  5
284
330
185
100
AcDbEntity
  8
0
  6
Continuous
 62
     7
370
    25
100
AcDbLine
 10
-11.015468237
 20
-8.2201926464
 30
0.0
 11
-11.6453894968
 21
-8.8501139063
 31
0.0
  0
LINE
  5
285
330
185
100
AcDbEntity
  8
0
  6
Continuous
 62
     7
370
    25
100
AcDbLine
 10
-11.6453894968
 20
-8.8501139063
 30
0.0
 11
-11.6732283465
 21
-8.8222750566
 31
0.0
  0
LINE
  5
286
330
185
100
AcDbEntity
  8
0
  6
Continuous
 62
     7
370
    25
100
AcDbLine
 10
-11.6732283465
 20
-8.8222750566
 30
0.0
 11
-11.7519685039
 21
-8.8222750566
 31
0.0
  0
LINE
  5
287
330
185
100
AcDbEntity
  8
0
  6
Continuous
 62
     7
370
    25
100
AcDbLine
 10
-11.0433070866
 20
-8.1923537968
 30
0.0
 11
-11.0039370079
 21
-8.1923537968
 31
0.0
  0
LINE
  5
288
330
185
100
AcDbEntity
  8
0
  6
Continuous
 62
     7
370
    25
100
AcDbLine
 10
-11.7125984252
 20
-8.8222750566
 30
0.0
 11
-11.7125984252
 21
8.9566929134
 31
0.0
  0
LINE
  5
289
330
185
100
AcDbEntity
  8
0
  6
Continuous
 62
     7
370
    25
100
AcDbLine
 10
-11.6732283465
 20
8.9960629921
 30
0.0
 11
-11.6732283465
 21
-8.8222750566
 31
0.0
  0
LINE
  5
28A
330
185
100
AcDbEntity
  8
0
  6
Continuous
 62
     7
370
    25
100
AcDbLine
 10
-11.0433070866
 20
-8.1923537968
 30
0.0
 11
-11.0433070866
 21
8.9960629921
 31
0.0
  0
LINE
  5
28B
330
185
100
AcDbEntity
  8
0
  6
Continuous
 62
     7
370
    25
100
AcDbLine
 10
-11.0039370079
 20
8.9566929134
 30
0.0
 11
-11.0039370079
 21
-8.1923537968
 31
0.0
  0
LINE
  5
28C
330
185
100
AcDbEntity
  8
0
  6
Continuous
 62
     7
370
    25
100
AcDbLine
 10
-11.6732283465
 20
8.9960629921
 30
0.0
 11
-11.0433070866
 21
8.9960629921
 31
0.0
  0
LINE
  5
28D
330
185
100
AcDbEntity
  8
0
  6
Continuous
 62
     7
370
    25
100
AcDbLine
 10
-35.0984251969
 20
8.9960629921
 30
0.0
 11
-34.468503937
 21
8.9960629921
 31
0.0
  0
LINE
  5
28E
330
185
100
AcDbEntity
  8
0
  6
Continuous
 62
     7
370
    25
100
AcDbLine
 10
-34.468503937
 20
-8.1923537968
 30
0.0
 11
-34.468503937
 21
8.9960629921
 31
0.0
  0
LINE
  5
28F
330
185
100
AcDbEntity
  8
0
  6
Continuous
 62
     7
370
    25
100
AcDbLine
 10
-35.0984251969
 20
8.9960629921
 30
0.0
 11
-35.0984251969
 21
-8.8222750566
 31
0.0
  0
LINE
  5
290
330
185
100
AcDbEntity
  8
0
  6
Continuous
 62
     7
370
    25
100
AcDbLine
 10
-35.1377952756
 20
-8.8222750566
 30
0.0
 11
-35.1377952756
 21
8.9566929134
 31
0.0
  0
LINE
  5
291
330
185
100
AcDbEntity
  8
0
  6
Continuous
 62
     7
370
    25
100
AcDbLine
 10
-35.1377952756
 20
-8.8222750566
 30
0.0
 11
-35.0984251969
 21
-8.8222750566
 31
0.0
  0
LINE
  5
292
330
185
100
AcDbEntity
  8
0
  6
Continuous
 62
     7
370
    25
100
AcDbLine
 10
-34.4291338583
 20
8.9566929134
 30
0.0
 11
-34.4291338583
 21
-8.1923537968
 31
0.0
  0
LINE
  5
293
330
185
100
AcDbEntity
  8
0
  6
Continuous
 62
     7
370
    25
100
AcDbLine
 10
-34.468503937
 20
-8.1923537968
 30
0.0
 11
-34.4291338583
 21
-8.1923537968
 31
0.0
  0
LINE
  5
294
330
185
100
AcDbEntity
  8
0
  6
Continuous
 62
     7
370
    25
100
AcDbLine
 10
-35.0984251969
 20
-8.8222750566
 30
0.0
 11
-34.468503937
 21
-8.1923537968
 31
0.0
  0
LINE
  5
295
330
185
100
AcDbEntity
  8
0
  6
Continuous
 62
     7
370
    25
100
AcDbLine
 10
-34.468503937
 20
-8.1923537968
 30
0.0
 11
-34.4406650874
 21
-8.2201926464
 31
0.0
  0
LINE
  5
296
330
185
100
AcDbEntity
  8
0
  6
Continuous
 62
     7
370
    25
100
AcDbLine
 10
-34.4406650874
 20
-8.2201926464
 30
0.0
 11
-35.0705863472
 21
-8.8501139063
 31
0.0
  0
LINE
  5
297
330
185
100
AcDbEntity
  8
0
  6
Continuous
 62
     7
370
    25
100
AcDbLine
 10
-35.0705863472
 20
-8.8501139063
 30
0.0
 11
-35.0984251969
 21
-8.8222750566
 31
0.0
  0
LINE
  5
298
330
185
100
AcDbEntity
  8
0
  6
Continuous
 62
     7
370
    25
100
AcDbLine
 10
11.6732283465
 20
-8.8222750566
 30
0.0
 11
11.6453894968
 21
-8.8501139063
 31
0.0
  0
LINE
  5
299
330
185
100
AcDbEntity
  8
0
  6
Continuous
 62
     7
370
    25
100
AcDbLine
 10
11.7125984252
 20
-8.8222750566
 30
0.0
 11
11.6732283465
 21
-8.8222750566
 31
0.0
  0
LINE
  5
29A
330
185
100
AcDbEntity
  8
0
  6
Continuous
 62
     7
370
    25
100
AcDbLine
 10
11.6732283465
 20
-8.8222750566
 30
0.0
 11
11.6732283465
 21
8.9960629921
 31
0.0
  0
LINE
  5
29B
330
185
100
AcDbEntity
  8
0
  6
Continuous
 62
     7
370
    25
100
AcDbLine
 10
11.0433070866
 20
8.9960629921
 30
0.0
 11
11.0433070866
 21
-8.1923537968
 31
0.0
  0
LINE
  5
29C
330
185
100
AcDbEntity
  8
0
  6
Continuous
 62
     7
370
    25
100
AcDbLine
 10
11.0433070866
 20
-8.1923537968
 30
0.0
 11
11.0039370079
 21
-8.1923537968
 31
0.0
  0
LINE
  5
29D
330
185
100
AcDbEntity
  8
0
  6
Continuous
 62
     7
370
    25
100
AcDbLine
 10
11.015468237
 20
-8.2201926464
 30
0.0
 11
11.0433070866
 21
-8.1923537968
 31
0.0
  0
LINE
  5
29E
330
185
100
AcDbEntity
  8
0
  6
Continuous
 62
     7
370
    25
100
AcDbLine
 10
11.0433070866
 20
8.9960629921
 30
0.0
 11
11.6732283465
 21
8.9960629921
 31
0.0
  0
LINE
  5
29F
330
185
100
AcDbEntity
  8
0
  6
Continuous
 62
     7
370
    25
100
AcDbLine
 10
11.0039370079
 20
-8.1923537968
 30
0.0
 11
11.0039370079
 21
8.9566929134
 31
0.0
  0
LINE
  5
2A0
330
185
100
AcDbEntity
  8
0
  6
Continuous
 62
     7
370
    25
100
AcDbLine
 10
11.6453894968
 20
-8.8501139063
 30
0.0
 11
11.015468237
 21
-8.2201926464
 31
0.0
  0
LINE
  5
2A1
330
185
100
AcDbEntity
  8
0
  6
Continuous
 62
     7
370
    25
100
AcDbLine
 10
11.0433070866
 20
-8.1923537968
 30
0.0
 11
11.6732283465
 21
-8.8222750566
 31
0.0
  0
LINE
  5
2A2
330
185
100
AcDbEntity
  8
0
  6
Continuous
 62
     7
370
    25
100
AcDbLine
 10
-11.7519685039
 20
-8.8222750566
 30
0.0
 11
-11.7519685039
 21
8.9960629921
 31
0.0
  0
LINE
  5
2A3
330
185
100
AcDbEntity
  8
0
  6
Continuous
 62
     7
370
    25
100
AcDbLine
 10
-12.3818897638
 20
-8.1923537968
 30
0.0
 11
-12.4212598425
 21
-8.1923537968
 31
0.0
  0
LINE
  5
2A4
330
185
100
AcDbEntity
  8
0
  6
Continuous
 62
     7
370
    25
100
AcDbLine
 10
-12.4097286134
 20
-8.2201926464
 30
0.0
 11
-12.3818897638
 21
-8.1923537968
 31
0.0
  0
LINE
  5
2A5
330
185
100
AcDbEntity
  8
0
  6
Continuous
 62
     7
370
    25
100
AcDbLine
 10
-12.3818897638
 20
8.9960629921
 30
0.0
 11
-12.3818897638
 21
-8.1923537968
 31
0.0
  0
LINE
  5
2A6
330
185
100
AcDbEntity
  8
0
  6
Continuous
 62
     7
370
    25
100
AcDbLine
 10
-12.3818897638
 20
8.9960629921
 30
0.0
 11
-11.7519685039
 21
8.9960629921
 31
0.0
  0
LINE
  5
2A7
330
185
100
AcDbEntity
  8
0
  6
Continuous
 62
     7
370
    25
100
AcDbLine
 10
-11.7519685039
 20
-8.8222750566
 30
0.0
 11
-11.7798073536
 21
-8.8501139063
 31
0.0
  0
LINE
  5
2A8
330
185
100
AcDbEntity
  8
0
  6
Continuous
 62
     7
370
    25
100
AcDbLine
 10
-12.3818897638
 20
-8.1923537968
 30
0.0
 11
-11.7519685039
 21
-8.8222750566
 31
0.0
  0
LINE
  5
2A9
330
185
100
AcDbEntity
  8
0
  6
Continuous
 62
     7
370
    25
100
AcDbLine
 10
-12.4212598425
 20
-8.1923537968
 30
0.0
 11
-12.4212598425
 21
8.9566929134
 31
0.0
  0
LINE
  5
2AA
330
185
100
AcDbEntity
  8
0
  6
Continuous
 62
     7
370
    25
100
AcDbLine
 10
-11.7798073536
 20
-8.8501139063
 30
0.0
 11
-12.4097286134
 21
-8.2201926464
 31
0.0
  0
LINE
  5
2AB
330
185
100
AcDbEntity
  8
0
  6
Continuous
 62
     7
370
    25
100
AcDbLine
 10
11.7125984252
 20
8.9566929134
 30
0.0
 11
-35.1377952756
 21
8.9566929134
 31
0.0
  0
LINE
  5
2AC
330
185
100
AcDbEntity
  8
0
  6
Continuous
 62
     7
370
    25
100
AcDbLine
 10
-11.0039370079
 20
8.3267716535
 30
0.0
 11
11.0039370079
 21
8.3267716535
 31
0.0
  0
LINE
  5
2AD
330
185
100
AcDbEntity
  8
0
  6
Continuous
 62
     7
370
    25
100
AcDbLine
 10
-10.9645669291
 20
8.9960629921
 30
0.0
 11
10.9645669291
 21
8.9960629921
 31
0.0
  0
LINE
  5
2AE
330
185
100
AcDbEntity
  8
0
  6
Continuous
 62
     7
370
    25
100
AcDbLine
 10
10.9645669291
 20
8.2874015748
 30
0.0
 11
-10.9645669291
 21
8.2874015748
 31
0.0
  0
LINE
  5
2AF
330
185
100
AcDbEntity
  8
0
  6
Continuous
 62
     7
370
    25
100
AcDbLine
 10
-2.9527559055
 20
7.5393700787
 30
0.0
 11
-2.9527559055
 21
6.8307086614
 31
0.0
  0
LINE
  5
2B0
330
185
100
AcDbEntity
  8
0
  6
Continuous
 62
     7
370
    25
100
AcDbLine
 10
10.8267716535
 20
7.5393700787
 30
0.0
 11
-10.8267716535
 21
7.5393700787
 31
0.0
  0
LINE
  5
2B1
330
185
100
AcDbEntity
  8
0
  6
Continuous
 62
     7
370
    25
100
AcDbLine
 10
2.9527559055
 20
6.8307086614
 30
0.0
 11
2.9527559055
 21
7.5393700787
 31
0.0
  0
LINE
  5
2B2
330
185
100
AcDbEntity
  8
0
  6
Continuous
 62
     7
370
    25
100
AcDbLine
 10
-10.1181102362
 20
6.8307086614
 30
0.0
 11
10.1181102362
 21
6.8307086614
 31
0.0
  0
LINE
  5
2B3
330
185
100
AcDbEntity
  8
0
  6
Continuous
 62
     7
370
    25
100
AcDbLine
 10
-34.4291338583
 20
8.3267716535
 30
0.0
 11
-12.4212598425
 21
8.3267716535
 31
0.0
  0
LINE
  5
2B4
330
185
100
AcDbEntity
  8
0
  6
Continuous
 62
     7
370
    25
100
AcDbLine
 10
-12.4606299213
 20
8.2874015748
 30
0.0
 11
-34.3897637795
 21
8.2874015748
 31
0.0
  0
LINE
  5
2B5
330
185
100
AcDbEntity
  8
0
  6
Continuous
 62
     7
370
    25
100
AcDbLine
 10
-34.3897637795
 20
8.9960629921
 30
0.0
 11
-12.4606299213
 21
8.9960629921
 31
0.0
  0
LINE
  5
2B6
330
185
100
AcDbEntity
  8
0
  6
Continuous
 62
     7
370
    25
100
AcDbLine
 10
-20.4724409449
 20
6.8307086614
 30
0.0
 11
-20.4724409449
 21
7.5393700787
 31
0.0
  0
LINE
  5
2B7
330
185
100
AcDbEntity
  8
0
  6
Continuous
 62
     7
370
    25
100
AcDbLine
 10
-12.5984251969
 20
7.5393700787
 30
0.0
 11
-34.2519685039
 21
7.5393700787
 31
0.0
  0
LINE
  5
2B8
330
185
100
AcDbEntity
  8
0
  6
Continuous
 62
     7
370
    25
100
AcDbLine
 10
-33.5433070866
 20
6.8307086614
 30
0.0
 11
-13.3070866142
 21
6.8307086614
 31
0.0
  0
LINE
  5
2B9
330
185
100
AcDbEntity
  8
0
  6
Continuous
 62
     7
370
    25
100
AcDbLine
 10
-26.3779527559
 20
7.5393700787
 30
0.0
 11
-26.3779527559
 21
6.8307086614
 31
0.0
  0
LINE
  5
2BA
330
185
100
AcDbEntity
  8
0
  6
Continuous
 62
     7
370
    25
100
AcDbLine
 10
10.8267716535
 20
-7.5
 30
0.0
 11
10.8267716535
 21
7.5393700787
 31
0.0
  0
LINE
  5
2BB
330
185
100
AcDbEntity
  8
0
  6
Continuous
 62
     7
370
    25
100
AcDbLine
 10
10.1181102362
 20
7.5393700787
 30
0.0
 11
10.1181102362
 21
-7.5
 31
0.0
  0
LINE
  5
2BC
330
185
100
AcDbEntity
  8
0
  6
Continuous
 62
     7
370
    25
100
AcDbLine
 10
-12.5984251969
 20
-7.5
 30
0.0
 11
-12.5984251969
 21
7.5393700787
 31
0.0
  0
LINE
  5
2BD
330
185
100
AcDbEntity
  8
0
  6
Continuous
 62
     7
370
    25
100
AcDbLine
 10
-13.3070866142
 20
7.5393700787
 30
0.0
 11
-13.3070866142
 21
-7.5
 31
0.0
  0
LINE
  5
2BE
330
185
100
AcDbEntity
  8
0
  6
Continuous
 62
     7
370
    25
100
AcDbLine
 10
11.0039370079
 20
-7.9330708661
 30
0.0
 11
-11.0039370079
 21
-7.9330708661
 31
0.0
  0
LINE
  5
2BF
330
185
100
AcDbEntity
  8
0
  6
Continuous
 62
     7
370
    25
100
AcDbLine
 10
10.9645669291
 20
-8.2086614173
 30
0.0
 11
10.9645669291
 21
8.9960629921
 31
0.0
  0
LINE
  5
2C0
330
185
100
AcDbEntity
  8
0
  6
Continuous
 62
     7
370
    25
100
AcDbLine
 10
-11.0039370079
 20
-8.1692913386
 30
0.0
 11
11.0039370079
 21
-8.1692913386
 31
0.0
  0
LINE
  5
2C1
330
185
100
AcDbEntity
  8
0
  6
Continuous
 62
     7
370
    25
100
AcDbLine
 10
10.9645669291
 20
-8.2086614173
 30
0.0
 11
-10.9645669291
 21
-8.2086614173
 31
0.0
  0
LINE
  5
2C2
330
185
100
AcDbEntity
  8
0
  6
Continuous
 62
     7
370
    25
100
AcDbLine
 10
-10.9645669291
 20
-7.8937007874
 30
0.0
 11
10.9645669291
 21
-7.8937007874
 31
0.0
  0
LINE
  5
2C3
330
185
100
AcDbEntity
  8
0
  6
Continuous
 62
     7
370
    25
100
AcDbLine
 10
-11.0039370079
 20
-7.8543307087
 30
0.0
 11
11.0039370079
 21
-7.8543307087
 31
0.0
  0
LINE
  5
2C4
330
185
100
AcDbEntity
  8
0
  6
Continuous
 62
     7
370
    25
100
AcDbLine
 10
11.0039370079
 20
-7.5393700787
 30
0.0
 11
-11.0039370079
 21
-7.5393700787
 31
0.0
  0
LINE
  5
2C5
330
185
100
AcDbEntity
  8
0
  6
Continuous
 62
     7
370
    25
100
AcDbLine
 10
-10.9645669291
 20
-7.5
 30
0.0
 11
10.9645669291
 21
-7.5
 31
0.0
  0
LINE
  5
2C6
330
185
100
AcDbEntity
  8
0
  6
Continuous
 62
     7
370
    25
100
AcDbLine
 10
-10.9645669291
 20
8.9960629921
 30
0.0
 11
-10.9645669291
 21
-8.2086614173
 31
0.0
  0
LINE
  5
2C7
330
185
100
AcDbEntity
  8
0
  6
Continuous
 62
     7
370
    25
100
AcDbLine
 10
-12.4212598425
 20
-7.9330708661
 30
0.0
 11
-34.4291338583
 21
-7.9330708661
 31
0.0
  0
LINE
  5
2C8
330
185
100
AcDbEntity
  8
0
  6
Continuous
 62
     7
370
    25
100
AcDbLine
 10
-34.4291338583
 20
-8.1692913386
 30
0.0
 11
-12.4212598425
 21
-8.1692913386
 31
0.0
  0
LINE
  5
2C9
330
185
100
AcDbEntity
  8
0
  6
Continuous
 62
     7
370
    25
100
AcDbLine
 10
-12.4606299213
 20
-8.2086614173
 30
0.0
 11
-34.3897637795
 21
-8.2086614173
 31
0.0
  0
LINE
  5
2CA
330
185
100
AcDbEntity
  8
0
  6
Continuous
 62
     7
370
    25
100
AcDbLine
 10
-34.3897637795
 20
-7.8937007874
 30
0.0
 11
-12.4606299213
 21
-7.8937007874
 31
0.0
  0
LINE
  5
2CB
330
185
100
AcDbEntity
  8
0
  6
Continuous
 62
     7
370
    25
100
AcDbLine
 10
-34.4291338583
 20
-7.8543307087
 30
0.0
 11
-12.4212598425
 21
-7.8543307087
 31
0.0
  0
LINE
  5
2CC
330
185
100
AcDbEntity
  8
0
  6
Continuous
 62
     7
370
    25
100
AcDbLine
 10
-12.4212598425
 20
-7.5393700787
 30
0.0
 11
-34.4291338583
 21
-7.5393700787
 31
0.0
  0
LINE
  5
2CD
330
185
100
AcDbEntity
  8
0
  6
Continuous
 62
     7
370
    25
100
AcDbLine
 10
-34.3897637795
 20
8.9960629921
 30
0.0
 11
-34.3897637795
 21
-8.2086614173
 31
0.0
  0
LINE
  5
2CE
330
185
100
AcDbEntity
  8
0
  6
Continuous
 62
     7
370
    25
100
AcDbLine
 10
-34.3897637795
 20
-7.5
 30
0.0
 11
-12.4606299213
 21
-7.5
 31
0.0
  0
LINE
  5
2CF
330
185
100
AcDbEntity
  8
0
  6
Continuous
 62
     7
370
    25
100
AcDbLine
 10
-12.4606299213
 20
-8.2086614173
 30
0.0
 11
-12.4606299213
 21
8.9960629921
 31
0.0
  0
ARC
  5
2D0
330
185
100
AcDbEntity
  8
0
  6
Continuous
 62
     7
370
    25
100
AcDbCircle
 10
11.5388104897
 20
-8.8779527559
 30
0.0
 40
0.0393700787401563
100
AcDbArc
 50
270.0
 51
45.0
  0
ARC
  5
2D1
330
185
100
AcDbEntity
  8
0
  6
Continuous
 62
     7
370
    25
100
AcDbCircle
 10
-11.5388104897
 20
-8.8779527559
 30
0.0
 40
0.0393700787401563
100
AcDbArc
 50
135.0
 51
270.0
  0
ARC
  5
2D2
330
185
100
AcDbEntity
  8
0
  6
Continuous
 62
     7
370
    25
100
AcDbCircle
 10
-11.8863863607
 20
-8.8779527559
 30
0.0
 40
0.0393700787401592
100
AcDbArc
 50
270.0
 51
45.0
  0
ARC
  5
2D3
330
185
100
AcDbEntity
  8
0
  6
Continuous
 62
     7
370
    25
100
AcDbCircle
 10
-34.9640073401
 20
-8.8779527559
 30
0.0
 40
0.0393700787401592
100
AcDbArc
 50
135.0
 51
270.0
  0
ARC
  5
2D4
330
185
100
AcDbEntity
  8
0
  6
Continuous
 62
     7
370
    25
100
AcDbCircle
 10
-11.6732283465
 20
-8.8222750566
 30
0.0
 40
0.0393700787401576
100
AcDbArc
 50
180.0
 51
315.0
  0
ARC
  5
2D5
330
185
100
AcDbEntity
  8
0
  6
Continuous
 62
     7
370
    25
100
AcDbCircle
 10
-11.0433070866
 20
-8.1923537968
 30
0.0
 40
0.0393700787401681
100
AcDbArc
 50
315.0
 51
360.0
  0
ARC
  5
2D6
330
185
100
AcDbEntity
  8
0
  6
Continuous
 62
     7
370
    25
100
AcDbCircle
 10
-11.6732283465
 20
8.9566929134
 30
0.0
 40
0.0393700787401574
100
AcDbArc
 50
90.0
 51
180.0
  0
ARC
  5
2D7
330
185
100
AcDbEntity
  8
0
  6
Continuous
 62
     7
370
    25
100
AcDbCircle
 10
-11.0433070866
 20
8.9566929134
 30
0.0
 40
0.0393700787401574
100
AcDbArc
 50
360.0
 51
90.0
  0
ARC
  5
2D8
330
185
100
AcDbEntity
  8
0
  6
Continuous
 62
     7
370
    25
100
AcDbCircle
 10
-35.0984251969
 20
8.9566929134
 30
0.0
 40
0.0393700787401574
100
AcDbArc
 50
90.0
 51
180.0
  0
ARC
  5
2D9
330
185
100
AcDbEntity
  8
0
  6
Continuous
 62
     7
370
    25
100
AcDbCircle
 10
-34.468503937
 20
8.9566929134
 30
0.0
 40
0.0393700787401556
100
AcDbArc
 50
360.0
 51
90.0
  0
ARC
  5
2DA
330
185
100
AcDbEntity
  8
0
  6
Continuous
 62
     7
370
    25
100
AcDbCircle
 10
-34.468503937
 20
-8.1923537968
 30
0.0
 40
0.0393700787401915
100
AcDbArc
 50
315.0
 51
360.0
  0
ARC
  5
2DB
330
185
100
AcDbEntity
  8
0
  6
Continuous
 62
     7
370
    25
100
AcDbCircle
 10
-35.0984251969
 20
-8.8222750566
 30
0.0
 40
0.0393700787401639
100
AcDbArc
 50
180.0
 51
315.0
  0
ARC
  5
2DC
330
185
100
AcDbEntity
  8
0
  6
Continuous
 62
     7
370
    25
100
AcDbCircle
 10
11.6732283465
 20
-8.8222750566
 30
0.0
 40
0.0393700787401601
100
AcDbArc
 50
225.0
 51
0.0
  0
ARC
  5
2DD
330
185
100
AcDbEntity
  8
0
  6
Continuous
 62
     7
370
    25
100
AcDbCircle
 10
11.0433070866
 20
8.9566929134
 30
0.0
 40
0.0393700787401592
100
AcDbArc
 50
90.0
 51
180.0
  0
ARC
  5
2DE
330
185
100
AcDbEntity
  8
0
  6
Continuous
 62
     7
370
    25
100
AcDbCircle
 10
11.0433070866
 20
-8.1923537968
 30
0.0
 40
0.0393700787401789
100
AcDbArc
 50
180.0
 51
225.0
  0
ARC
  5
2DF
330
185
100
AcDbEntity
  8
0
  6
Continuous
 62
     7
370
    25
100
AcDbCircle
 10
11.6732283465
 20
8.9566929134
 30
0.0
 40
0.0393700787401592
100
AcDbArc
 50
0.0
 51
90.0
  0
ARC
  5
2E0
330
185
100
AcDbEntity
  8
0
  6
Continuous
 62
     7
370
    25
100
AcDbCircle
 10
-12.3818897638
 20
-8.1923537968
 30
0.0
 40
0.0393700787401805
100
AcDbArc
 50
180.0
 51
225.0
  0
ARC
  5
2E1
330
185
100
AcDbEntity
  8
0
  6
Continuous
 62
     7
370
    25
100
AcDbCircle
 10
-12.3818897638
 20
8.9566929134
 30
0.0
 40
0.0393700787401574
100
AcDbArc
 50
90.0
 51
180.0
  0
ARC
  5
2E2
330
185
100
AcDbEntity
  8
0
  6
Continuous
 62
     7
370
    25
100
AcDbCircle
 10
-11.7519685039
 20
-8.8222750566
 30
0.0
 40
0.0393700787401576
100
AcDbArc
 50
225.0
 51
0.0
  0
ARC
  5
2E3
330
185
100
AcDbEntity
  8
0
  6
Continuous
 62
     7
370
    25
100
AcDbCircle
 10
-11.7519685039
 20
8.9566929134
 30
0.0
 40
0.0393700787401556
100
AcDbArc
 50
360.0
 51
90.0
  0
ARC
  5
2E4
330
185
100
AcDbEntity
  8
0
  6
Continuous
 62
     7
370
    25
100
AcDbCircle
 10
10.9645669291
 20
8.9566929134
 30
0.0
 40
0.0393700787401539
100
AcDbArc
 50
360.0
 51
90.0
  0
ARC
  5
2E5
330
185
100
AcDbEntity
  8
0
  6
Continuous
 62
     7
370
    25
100
AcDbCircle
 10
-10.9645669291
 20
8.9566929134
 30
0.0
 40
0.0393700787401574
100
AcDbArc
 50
90.0
 51
180.0
  0
ARC
  5
2E6
330
185
100
AcDbEntity
  8
0
  6
Continuous
 62
     7
370
    25
100
AcDbCircle
 10
10.9645669291
 20
8.3267716535
 30
0.0
 40
0.0393700787401574
100
AcDbArc
 50
270.0
 51
0.0
  0
ARC
  5
2E7
330
185
100
AcDbEntity
  8
0
  6
Continuous
 62
     7
370
    25
100
AcDbCircle
 10
-10.9645669291
 20
8.3267716535
 30
0.0
 40
0.0393700787401592
100
AcDbArc
 50
180.0
 51
270.0
  0
ARC
  5
2E8
330
185
100
AcDbEntity
  8
0
  6
Continuous
 62
     7
370
    25
100
AcDbCircle
 10
-34.3897637795
 20
8.3267716535
 30
0.0
 40
0.0393700787401503
100
AcDbArc
 50
180.0
 51
270.0
  0
ARC
  5
2E9
330
185
100
AcDbEntity
  8
0
  6
Continuous
 62
     7
370
    25
100
AcDbCircle
 10
-34.3897637795
 20
8.9566929134
 30
0.0
 40
0.0393700787401627
100
AcDbArc
 50
90.0
 51
180.0
  0
ARC
  5
2EA
330
185
100
AcDbEntity
  8
0
  6
Continuous
 62
     7
370
    25
100
AcDbCircle
 10
-12.4606299213
 20
8.3267716535
 30
0.0
 40
0.0393700787401592
100
AcDbArc
 50
270.0
 51
0.0
  0
ARC
  5
2EB
330
185
100
AcDbEntity
  8
0
  6
Continuous
 62
     7
370
    25
100
AcDbCircle
 10
-12.4606299213
 20
8.9566929134
 30
0.0
 40
0.0393700787401556
100
AcDbArc
 50
360.0
 51
90.0
  0
ARC
  5
2EC
330
185
100
AcDbEntity
  8
0
  6
Continuous
 62
     7
370
    25
100
AcDbCircle
 10
-10.9645669291
 20
-7.9330708661
 30
0.0
 40
0.0393700787401592
100
AcDbArc
 50
90.0
 51
180.0
  0
ARC
  5
2ED
330
185
100
AcDbEntity
  8
0
  6
Continuous
 62
     7
370
    25
100
AcDbCircle
 10
10.9645669291
 20
-7.9330708661
 30
0.0
 40
0.0393700787401574
100
AcDbArc
 50
360.0
 51
90.0
  0
ARC
  5
2EE
330
185
100
AcDbEntity
  8
0
  6
Continuous
 62
     7
370
    25
100
AcDbCircle
 10
-10.9645669291
 20
-8.1692913386
 30
0.0
 40
0.039370078740161
100
AcDbArc
 50
180.0
 51
270.0
  0
ARC
  5
2EF
330
185
100
AcDbEntity
  8
0
  6
Continuous
 62
     7
370
    25
100
AcDbCircle
 10
10.9645669291
 20
-8.1692913386
 30
0.0
 40
0.0393700787401574
100
AcDbArc
 50
270.0
 51
0.0
  0
ARC
  5
2F0
330
185
100
AcDbEntity
  8
0
  6
Continuous
 62
     7
370
    25
100
AcDbCircle
 10
10.9645669291
 20
-7.5393700787
 30
0.0
 40
0.0393700787401574
100
AcDbArc
 50
0.0
 51
90.0
  0
ARC
  5
2F1
330
185
100
AcDbEntity
  8
0
  6
Continuous
 62
     7
370
    25
100
AcDbCircle
 10
-10.9645669291
 20
-7.5393700787
 30
0.0
 40
0.039370078740161
100
AcDbArc
 50
90.0
 51
180.0
  0
ARC
  5
2F2
330
185
100
AcDbEntity
  8
0
  6
Continuous
 62
     7
370
    25
100
AcDbCircle
 10
-34.3897637795
 20
-7.9330708661
 30
0.0
 40
0.0393700787401556
100
AcDbArc
 50
90.0
 51
180.0
  0
ARC
  5
2F3
330
185
100
AcDbEntity
  8
0
  6
Continuous
 62
     7
370
    25
100
AcDbCircle
 10
-34.3897637795
 20
-8.1692913386
 30
0.0
 40
0.0393700787401627
100
AcDbArc
 50
180.0
 51
270.0
  0
ARC
  5
2F4
330
185
100
AcDbEntity
  8
0
  6
Continuous
 62
     7
370
    25
100
AcDbCircle
 10
-12.4606299213
 20
-7.9330708661
 30
0.0
 40
0.0393700787401556
100
AcDbArc
 50
360.0
 51
90.0
  0
ARC
  5
2F5
330
185
100
AcDbEntity
  8
0
  6
Continuous
 62
     7
370
    25
100
AcDbCircle
 10
-12.4606299213
 20
-8.1692913386
 30
0.0
 40
0.0393700787401592
100
AcDbArc
 50
270.0
 51
0.0
  0
ARC
  5
2F6
330
185
100
AcDbEntity
  8
0
  6
Continuous
 62
     7
370
    25
100
AcDbCircle
 10
-34.3897637795
 20
-7.5393700787
 30
0.0
 40
0.0393700787401556
100
AcDbArc
 50
90.0
 51
180.0
  0
ARC
  5
2F7
330
185
100
AcDbEntity
  8
0
  6
Continuous
 62
     7
370
    25
100
AcDbCircle
 10
-12.4606299213
 20
-7.5393700787
 30
0.0
 40
0.0393700787401574
100
AcDbArc
 50
0.0
 51
90.0
  0
VIEWPORT
  5
53B
330
185
100
AcDbEntity
  8
0
100
AcDbViewport
 10
0.0
 20
0.0
 30
0.0
 40
8.4
 41
6.4
 68
     1
 69
     1
 12
-7.7755905512
 22
7.874015748
 13
0.0
 23
0.0
 14
0.5
 24
0.5
 15
0.5
 25
0.5
 16
0.0
 26
0.0
 36
1.0
 17
0.0
 27
0.0
 37
0.0
 42
50.0
 43
0.0
 44
0.0
 45
42.5286839145
 50
0.0
 51
0.0
 72
   100
 90
   557152
  1

281
     0
 71
     1
 74
     0
110
0.0
120
0.0
130
0.0
111
1.0
121
0.0
131
0.0
112
0.0
122
1.0
132
0.0
 79
     0
146
0.0
  0
ENDBLK
  5
188
330
185
100
AcDbEntity
  8
0
100
AcDbBlockEnd
  0
BLOCK
  5
2FA
330
2F8
100
AcDbEntity
  8
0
100
AcDbBlockBegin
  2
*Paper_Space2
 70
     0
 10
0.0
 20
0.0
 30
0.0
  3
*Paper_Space2
  1

  0
LWPOLYLINE
  5
35D
330
2F8
100
AcDbEntity
  8
0
  6
Continuous
 62
     7
370
    25
100
AcDbPolyline
 90
       14
 70
   128
 43
0.0
 10
-14.4646705905
 20
12.4557532186
 10
-14.4692326804
 20
12.4647080553
 10
-14.4727333096
 20
12.4738960197
 10
-14.4750577966
 20
12.4830161124
 10
-14.476129991
 20
12.4917695574
 10
-14.4759147674
 20
12.4998695902
 10
-14.4744191765
 20
12.5070508523
 10
-14.4716922143
 20
12.5130780841
 10
-14.4678232164
 20
12.5177538325
 10
-14.4629389321
 20
12.520924919
 10
-14.4571993713
 20
12.5224874583
 10
-14.4507925632
 20
12.5223902613
 10
-14.4439283959
 20
12.5206365121
 10
-14.4368317408
 20
12.517283664
  0
LWPOLYLINE
  5
35F
330
2F8
100
AcDbEntity
  8
0
  6
Continuous
 62
     7
370
    25
100
AcDbPolyline
 90
       14
 70
   128
 43
0.0
 10
1.8536716977
 20
3.035374734
 10
1.8591457935
 20
3.038535804
 10
1.8653525629
 20
3.0421198066
 10
1.8720886708
 20
3.0460093291
 10
1.8791334411
 20
3.0500769501
 10
1.8862560859
 20
3.0541894136
 10
1.893223266
 20
3.0582119944
 10
1.8998067352
 20
3.0620129122
 10
1.9057908179
 20
3.065467648
 10
1.9109794744
 20
3.0684630242
 10
1.9152027234
 20
3.0709009117
 10
1.9183222104
 20
3.0727014448
 10
1.9202357405
 20
3.0738056376
 10
1.9208806261
 20
3.0741773168
  0
LWPOLYLINE
  5
361
330
2F8
100
AcDbEntity
  8
0
  6
Continuous
 62
     7
370
    25
100
AcDbPolyline
 90
        9
 70
   128
 43
0.0
 10
1.8536716977
 20
-8.3181293152
 10
1.8629516207
 20
-8.3221024748
 10
1.873829826
 20
-8.3243494425
 10
1.8853694899
 20
-8.3246767112
 10
1.8965768242
 20
-8.3230560965
 10
1.9064866609
 20
-8.3196271648
 10
1.9142455714
 20
-8.3146852133
 10
1.9191853637
 20
-8.3086558397
 10
1.9208806261
 20
-8.3020582894
  0
LWPOLYLINE
  5
366
330
2F8
100
AcDbEntity
  8
0
  6
Continuous
 62
     7
370
    25
100
AcDbPolyline
 90
       14
 70
   128
 43
0.0
 10
-31.028786134
 20
22.0180135834
 10
-31.033348224
 20
22.0269684202
 10
-31.0368488531
 20
22.0361563846
 10
-31.0391733402
 20
22.0452764772
 10
-31.0402455345
 20
22.0540299222
 10
-31.0400303109
 20
22.062129955
 10
-31.0385347201
 20
22.0693112171
 10
-31.0358077578
 20
22.075338449
 10
-31.03193876
 20
22.0800141973
 10
-31.0270544756
 20
22.0831852839
 10
-31.0213149148
 20
22.0847478232
 10
-31.0149081067
 20
22.0846506261
 10
-31.0080439394
 20
22.082896877
 10
-31.0009472844
 20
22.0795440288
  0
LWPOLYLINE
  5
368
330
2F8
100
AcDbEntity
  8
0
  6
Continuous
 62
     7
370
    25
100
AcDbPolyline
 90
       14
 70
   128
 43
0.0
 10
-14.7104438459
 20
12.5976350989
 10
-14.70496975
 20
12.6007961689
 10
-14.6987629807
 20
12.6043801714
 10
-14.6920268728
 20
12.6082696939
 10
-14.6849821024
 20
12.6123373149
 10
-14.6778594576
 20
12.6164497784
 10
-14.6708922776
 20
12.6204723593
 10
-14.6643088083
 20
12.624273277
 10
-14.6583247256
 20
12.6277280129
 10
-14.6531360691
 20
12.6307233891
 10
-14.6489128202
 20
12.6331612766
 10
-14.6457933331
 20
12.6349618096
 10
-14.643879803
 20
12.6360660025
 10
-14.6432349175
 20
12.6364376816
  0
LWPOLYLINE
  5
36A
330
2F8
100
AcDbEntity
  8
0
  6
Continuous
 62
     7
370
    25
100
AcDbPolyline
 90
        9
 70
   128
 43
0.0
 10
-14.7104438459
 20
1.2441310497
 10
-14.7011639229
 20
1.2401578901
 10
-14.6902857176
 20
1.2379109223
 10
-14.6787460537
 20
1.2375836537
 10
-14.6675387194
 20
1.2392042683
 10
-14.6576288827
 20
1.2426332001
 10
-14.6498699721
 20
1.2475751515
 10
-14.6449301799
 20
1.2536045252
 10
-14.6432349175
 20
1.2602020755
  0
LWPOLYLINE
  5
399
330
2F8
100
AcDbEntity
  8
0
  6
Continuous
 62
     7
370
    25
100
AcDbPolyline
 90
       13
 70
   128
 43
0.0
 10
2.7421266908
 20
7.9987435867
 10
2.7472127437
 20
7.8276214244
 10
2.7624461237
 20
7.6514607205
 10
2.7877526152
 20
7.4711197122
 10
2.8230089275
 20
7.2874770026
 10
2.8680432955
 20
7.1014272806
 10
2.9226363163
 20
6.9138769618
 10
2.9865220181
 20
6.7257397725
 10
3.0593891562
 20
6.5379322982
 10
3.1408827293
 20
6.3513695179
 10
3.2306057088
 20
6.1669603468
 10
3.3281209735
 20
5.9856032078
 10
3.4193404381
 20
5.8303202986
  0
LWPOLYLINE
  5
39B
330
2F8
100
AcDbEntity
  8
0
  6
Continuous
 62
     7
370
    25
100
AcDbPolyline
 90
       13
 70
   128
 43
0.0
 10
3.9204397318
 20
6.1195987634
 10
3.8292202672
 20
6.2748816726
 10
3.7317050026
 20
6.4562388116
 10
3.6419820231
 20
6.6406479827
 10
3.56048845
 20
6.827210763
 10
3.4876213119
 20
7.0150182374
 10
3.4237356101
 20
7.2031554267
 10
3.3691425893
 20
7.3907057454
 10
3.3241082213
 20
7.5767554674
 10
3.2888519089
 20
7.760398177
 10
3.2635454174
 20
7.9407391854
 10
3.2483120375
 20
8.1168998893
 10
3.2432259846
 20
8.2880220515
  0
LWPOLYLINE
  5
3A3
330
2F8
100
AcDbEntity
  8
0
  6
Continuous
 62
     7
370
    25
100
AcDbPolyline
 90
       13
 70
   128
 43
0.0
 10
-13.8219888527
 20
17.5610039515
 10
-13.8169027998
 20
17.3898817893
 10
-13.8016694199
 20
17.2137210854
 10
-13.7763629284
 20
17.033380077
 10
-13.741106616
 20
16.8497373674
 10
-13.696072248
 20
16.6636876455
 10
-13.6414792272
 20
16.4761373267
 10
-13.5775935254
 20
16.2880001374
 10
-13.5047263873
 20
16.100192663
 10
-13.4232328142
 20
15.9136298827
 10
-13.3335098347
 20
15.7292207116
 10
-13.2359945701
 20
15.5478635727
 10
-13.1447751055
 20
15.3925806634
  0
LWPOLYLINE
  5
3A5
330
2F8
100
AcDbEntity
  8
0
  6
Continuous
 62
     7
370
    25
100
AcDbPolyline
 90
       13
 70
   128
 43
0.0
 10
-12.6436758117
 20
15.6818591282
 10
-12.7348952763
 20
15.8371420375
 10
-12.832410541
 20
16.0184991765
 10
-12.9221335205
 20
16.2029083475
 10
-13.0036270935
 20
16.3894711278
 10
-13.0764942317
 20
16.5772786022
 10
-13.1403799335
 20
16.7654157915
 10
-13.1949729542
 20
16.9529661103
 10
-13.2400073223
 20
17.1390158323
 10
-13.2752636346
 20
17.3226585418
 10
-13.3005701261
 20
17.5029995502
 10
-13.3158035061
 20
17.6791602541
 10
-13.320889559
 20
17.8502824163
  0
LWPOLYLINE
  5
3CB
330
2F8
100
AcDbEntity
  8
0
  6
Continuous
 62
     8
370
    25
100
AcDbPolyline
 90
        7
 70
   128
 43
0.0
 10
-14.4925094401
 20
13.9678059808
 10
-14.5039379707
 20
13.9687846349
 10
-14.514382284
 20
13.9716363163
 10
-14.5229429225
 20
13.97611544
 10
-14.5288826501
 20
13.981836267
 10
-14.5316899412
 20
13.9883061234
 10
-14.5318795189
 20
13.9905338435
  0
LWPOLYLINE
  5
3CE
330
2F8
100
AcDbEntity
  8
0
  6
Continuous
 62
     8
370
    25
100
AcDbPolyline
 90
        7
 70
   128
 43
0.0
 10
-14.4925094401
 20
1.1731901095
 10
-14.5039379707
 20
1.1741687636
 10
-14.514382284
 20
1.177020445
 10
-14.5229429225
 20
1.1814995687
 10
-14.5288826501
 20
1.1872203957
 10
-14.5316899412
 20
1.1936902521
 10
-14.5318795189
 20
1.1959179722
  0
LWPOLYLINE
  5
3D9
330
2F8
100
AcDbEntity
  8
0
  6
Continuous
 62
     8
370
    25
100
AcDbPolyline
 90
        7
 70
   128
 43
0.0
 10
-31.0566249837
 20
23.5300663456
 10
-31.0680535143
 20
23.5310449998
 10
-31.0784978275
 20
23.5338966812
 10
-31.0870584661
 20
23.5383758049
 10
-31.0929981936
 20
23.5440966318
 10
-31.0958054847
 20
23.5505664882
 10
-31.0959950624
 20
23.5527942083
  0
LWPOLYLINE
  5
3DC
330
2F8
100
AcDbEntity
  8
0
  6
Continuous
 62
     8
370
    25
100
AcDbPolyline
 90
        7
 70
   128
 43
0.0
 10
-31.0566249837
 20
10.7354504744
 10
-31.0680535143
 20
10.7364291285
 10
-31.0784978275
 20
10.7392808099
 10
-31.0870584661
 20
10.7437599336
 10
-31.0929981936
 20
10.7494807605
 10
-31.0958054847
 20
10.7559506169
 10
-31.0959950624
 20
10.758178337
  0
LWPOLYLINE
  5
3EB
330
2F8
100
AcDbEntity
  8
0
  6
Continuous
 62
     8
370
    25
100
AcDbPolyline
 90
        8
 70
   128
 43
0.0
 10
-14.5300122443
 20
14.0025147775
 10
-14.5405064181
 20
14.0003847419
 10
-14.552046082
 20
14.0000574733
 10
-14.5632534163
 20
14.001678088
 10
-14.573163253
 20
14.0051070197
 10
-14.5809221635
 20
14.0100489712
 10
-14.5858619558
 20
14.0160783448
 10
-14.5875572182
 20
14.0226758951
  0
LWPOLYLINE
  5
3ED
330
2F8
100
AcDbEntity
  8
0
  6
Continuous
 62
     8
370
    25
100
AcDbPolyline
 90
        8
 70
   128
 43
0.0
 10
-14.5318795189
 20
1.2073735841
 10
-14.5405064181
 20
1.2057688707
 10
-14.552046082
 20
1.205441602
 10
-14.5632534163
 20
1.2070622167
 10
-14.573163253
 20
1.2104911484
 10
-14.5809221635
 20
1.2154330999
 10
-14.5858619558
 20
1.2214624736
 10
-14.5875572182
 20
1.2280600238
  0
LINE
  5
427
330
2F8
100
AcDbEntity
  8
0
  6
Continuous
 62
     7
370
    25
100
AcDbLine
 10
-14.4565151804
 20
1.0842237833
 30
0.0
 11
1.8618271077
 21
-8.3361547013
 31
0.0
  0
LINE
  5
428
330
2F8
100
AcDbEntity
  8
0
  6
Continuous
 62
     7
370
    25
100
AcDbLine
 10
-14.4762018196
 20
12.4945558013
 30
0.0
 11
-14.4762018196
 21
1.1183201952
 31
0.0
  0
LINE
  5
429
330
2F8
100
AcDbEntity
  8
0
  6
Continuous
 62
     7
370
    25
100
AcDbLine
 10
-31.020630724
 20
10.6464841481
 30
0.0
 11
-14.7022884358
 21
1.2261056636
 31
0.0
  0
LINE
  5
42A
330
2F8
100
AcDbEntity
  8
0
  6
Continuous
 62
     7
370
    25
100
AcDbLine
 10
-31.0403173631
 20
22.0568161662
 30
0.0
 11
-31.0403173631
 21
10.68058056
 31
0.0
  0
LINE
  5
42B
330
2F8
100
AcDbEntity
  8
0
  6
Continuous
 62
     7
370
    25
100
AcDbLine
 10
-14.5318795189
 20
13.9905338435
 30
0.0
 11
-14.5318795189
 21
1.1959179722
 31
0.0
  0
LINE
  5
42C
330
2F8
100
AcDbEntity
  8
0
  6
Continuous
 62
     7
370
    25
100
AcDbLine
 10
-1.9405640657
 20
21.2820770906
 30
0.0
 11
-14.5121928798
 21
14.0246302554
 31
0.0
  0
LINE
  5
42D
330
2F8
100
AcDbEntity
  8
0
  6
Continuous
 62
     7
370
    25
100
AcDbLine
 10
-14.4925094401
 20
1.1565478935
 30
0.0
 11
-14.4762018196
 21
1.1565478935
 31
0.0
  0
LINE
  5
42E
330
2F8
100
AcDbEntity
  8
0
  6
Continuous
 62
     7
370
    25
100
AcDbLine
 10
-1.4360889529
 20
11.9290042127
 30
0.0
 11
-1.4360889529
 21
20.9908442656
 31
0.0
  0
LINE
  5
42F
330
2F8
100
AcDbEntity
  8
0
  6
Continuous
 62
     7
370
    25
100
AcDbLine
 10
-1.455775592
 20
21.0249406775
 30
0.0
 11
-1.9011971864
 21
21.2820770906
 31
0.0
  0
LINE
  5
430
330
2F8
100
AcDbEntity
  8
0
  6
Continuous
 62
     7
370
    25
100
AcDbLine
 10
-31.0959950624
 20
23.5527942083
 30
0.0
 11
-31.0959950624
 21
10.758178337
 31
0.0
  0
LINE
  5
431
330
2F8
100
AcDbEntity
  8
0
  6
Continuous
 62
     7
370
    25
100
AcDbLine
 10
-18.5046796092
 20
30.8443374555
 30
0.0
 11
-31.0763084233
 21
23.5868906202
 31
0.0
  0
LINE
  5
432
330
2F8
100
AcDbEntity
  8
0
  6
Continuous
 62
     7
370
    25
100
AcDbLine
 10
-31.0566249837
 20
10.7188082583
 30
0.0
 11
-31.0403173631
 21
10.7188082583
 31
0.0
  0
LINE
  5
433
330
2F8
100
AcDbEntity
  8
0
  6
Continuous
 62
     7
370
    25
100
AcDbLine
 10
-18.0002044964
 20
21.4912645776
 30
0.0
 11
-18.0002044964
 21
30.5531046304
 31
0.0
  0
LINE
  5
434
330
2F8
100
AcDbEntity
  8
0
  6
Continuous
 62
     7
370
    25
100
AcDbLine
 10
-18.0198911355
 20
30.5872010423
 30
0.0
 11
-18.46531273
 21
30.8443374555
 31
0.0
  0
LINE
  5
435
330
2F8
100
AcDbEntity
  8
0
  6
Continuous
 62
     7
370
    25
100
AcDbLine
 10
14.1224521841
 20
12.0090951906
 30
0.0
 11
1.9962449645
 21
5.0087847685
 31
0.0
  0
LINE
  5
436
330
2F8
100
AcDbEntity
  8
0
  6
Continuous
 62
     7
370
    25
100
AcDbLine
 10
14.6072406578
 20
11.7519587774
 30
0.0
 11
14.1618190633
 21
12.0090951906
 31
0.0
  0
LINE
  5
437
330
2F8
100
AcDbEntity
  8
0
  6
Continuous
 62
     7
370
    25
100
AcDbLine
 10
-2.4416633594
 20
21.5713555555
 30
0.0
 11
-14.5678705791
 21
14.5710451334
 31
0.0
  0
LINE
  5
438
330
2F8
100
AcDbEntity
  8
0
  6
Continuous
 62
     7
370
    25
100
AcDbLine
 10
-1.9568748857
 20
21.3142191423
 30
0.0
 11
-2.4022964802
 21
21.5713555555
 31
0.0
  0
LINE
  5
439
330
2F8
100
AcDbEntity
  8
0
  6
Continuous
 62
     7
370
    25
100
AcDbLine
 10
6.2903039818
 20
7.4876922742
 30
0.0
 11
-1.4000978927
 21
11.9272667773
 31
0.0
  0
LINE
  5
43A
330
2F8
100
AcDbEntity
  8
0
  6
Continuous
 62
     7
370
    25
100
AcDbLine
 10
-1.9045730055
 20
11.6360339523
 30
0.0
 11
-1.9045730055
 21
11.5491086373
 31
0.0
  0
LINE
  5
43B
330
2F8
100
AcDbEntity
  8
0
  6
Continuous
 62
     7
370
    25
100
AcDbLine
 10
-1.4394647719
 20
11.9272667773
 30
0.0
 11
-1.8848863664
 21
11.6701303642
 31
0.0
  0
LINE
  5
43C
330
2F8
100
AcDbEntity
  8
0
  6
Continuous
 62
     7
370
    25
100
AcDbLine
 10
-10.2738115617
 20
17.049952639
 30
0.0
 11
-17.9642134362
 21
21.4895271422
 31
0.0
  0
LINE
  5
43D
330
2F8
100
AcDbEntity
  8
0
  6
Continuous
 62
     7
370
    25
100
AcDbLine
 10
-18.468688549
 20
21.1982943171
 30
0.0
 11
-18.468688549
 21
21.1113690021
 31
0.0
  0
LINE
  5
43E
330
2F8
100
AcDbEntity
  8
0
  6
Continuous
 62
     7
370
    25
100
AcDbLine
 10
-18.0035803155
 20
21.4895271422
 30
0.0
 11
-18.4490019099
 21
21.232390729
 31
0.0
  0
LINE
  5
43F
330
2F8
100
AcDbEntity
  8
0
  6
Continuous
 62
     7
370
    25
100
AcDbLine
 10
1.9208806261
 20
-7.7916886421
 30
0.0
 11
1.9568748857
 21
-7.812467686
 31
0.0
  0
LINE
  5
440
330
2F8
100
AcDbEntity
  8
0
  6
Continuous
 62
     7
370
    25
100
AcDbLine
 10
-14.6432349175
 20
1.7705717227
 30
0.0
 11
-14.6072406578
 21
1.7497926789
 31
0.0
  0
LINE
  5
441
330
2F8
100
AcDbEntity
  8
0
  6
Continuous
 62
     7
370
    25
100
AcDbLine
 10
2.1632748629
 20
5.1467671641
 30
0.0
 11
-13.3429643938
 21
14.0983285476
 31
0.0
  0
LINE
  5
442
330
2F8
100
AcDbEntity
  8
0
  6
Continuous
 62
     7
370
    25
100
AcDbLine
 10
1.9208806261
 20
1.8524941754
 30
0.0
 11
1.9568748857
 21
1.8317151316
 31
0.0
  0
LINE
  5
443
330
2F8
100
AcDbEntity
  8
0
  6
Continuous
 62
     7
370
    25
100
AcDbLine
 10
-13.5690510101
 20
13.9678059808
 30
0.0
 11
-13.5690510101
 21
12.0163245114
 31
0.0
  0
LINE
  5
444
330
2F8
100
AcDbEntity
  8
0
  6
Continuous
 62
     7
370
    25
100
AcDbLine
 10
-13.3823312731
 20
14.0983285476
 30
0.0
 11
-13.549364371
 21
14.0019023927
 31
0.0
  0
LINE
  5
445
330
2F8
100
AcDbEntity
  8
0
  6
Continuous
 62
     7
370
    25
100
AcDbLine
 10
-14.4008406806
 20
14.7090275289
 30
0.0
 11
-29.9070799374
 21
23.6605889125
 31
0.0
  0
LINE
  5
446
330
2F8
100
AcDbEntity
  8
0
  6
Continuous
 62
     7
370
    25
100
AcDbLine
 10
-14.6432349175
 20
11.4147545403
 30
0.0
 11
-14.6072406578
 21
11.3939754964
 31
0.0
  0
LINE
  5
447
330
2F8
100
AcDbEntity
  8
0
  6
Continuous
 62
     7
370
    25
100
AcDbLine
 10
-30.1331665536
 20
23.5300663456
 30
0.0
 11
-30.1331665536
 21
21.5785848762
 31
0.0
  0
LINE
  5
448
330
2F8
100
AcDbEntity
  8
0
  6
Continuous
 62
     7
370
    25
100
AcDbLine
 10
-29.9464468166
 20
23.6605889125
 30
0.0
 11
-30.1134799145
 21
23.5641627575
 31
0.0
  0
LINE
  5
449
330
2F8
100
AcDbEntity
  8
0
  6
Continuous
 62
     7
370
    25
100
AcDbLine
 10
-2.324543946
 20
11.7915527007
 30
0.0
 11
-5.8358112043
 21
9.7645412586
 31
0.0
  0
LINE
  5
44A
330
2F8
100
AcDbEntity
  8
0
  6
Continuous
 62
     7
370
    25
100
AcDbLine
 10
-1.8234446523
 20
11.5022742358
 30
0.0
 11
-2.324543946
 21
11.7915527007
 31
0.0
  0
LINE
  5
44B
330
2F8
100
AcDbEntity
  8
0
  6
Continuous
 62
     7
370
    25
100
AcDbLine
 10
-5.3347119106
 20
9.4752627938
 30
0.0
 11
-1.8234446523
 21
11.5022742358
 31
0.0
  0
LINE
  5
44C
330
2F8
100
AcDbEntity
  8
0
  6
Continuous
 62
     7
370
    25
100
AcDbLine
 10
-1.8234446523
 20
11.2129487513
 30
0.0
 11
-1.8234446523
 21
11.5022742358
 31
0.0
  0
LINE
  5
44D
330
2F8
100
AcDbEntity
  8
0
  6
Continuous
 62
     7
370
    25
100
AcDbLine
 10
-18.8886594896
 20
21.3538130655
 30
0.0
 11
-22.3999267479
 21
19.3268016234
 31
0.0
  0
LINE
  5
44E
330
2F8
100
AcDbEntity
  8
0
  6
Continuous
 62
     7
370
    25
100
AcDbLine
 10
-18.3875601958
 20
21.0645346007
 30
0.0
 11
-18.8886594896
 21
21.3538130655
 31
0.0
  0
LINE
  5
44F
330
2F8
100
AcDbEntity
  8
0
  6
Continuous
 62
     7
370
    25
100
AcDbLine
 10
-21.8988274541
 20
19.0375231586
 30
0.0
 11
-18.3875601958
 21
21.0645346007
 31
0.0
  0
LINE
  5
450
330
2F8
100
AcDbEntity
  8
0
  6
Continuous
 62
     7
370
    25
100
AcDbLine
 10
-18.3875601958
 20
20.7752091162
 30
0.0
 11
-18.3875601958
 21
21.0645346007
 31
0.0
  0
LINE
  5
451
330
2F8
100
AcDbEntity
  8
0
  6
Continuous
 62
     7
370
    25
100
AcDbLine
 10
-2.8566515697
 20
8.0447090092
 30
0.0
 11
-2.324543946
 21
8.3518882018
 31
0.0
  0
LINE
  5
452
330
2F8
100
AcDbEntity
  8
0
  6
Continuous
 62
     7
370
    25
100
AcDbLine
 10
-19.4207671132
 20
17.606969374
 30
0.0
 11
-18.8886594896
 21
17.9141485667
 31
0.0
  0
LINE
  5
453
330
2F8
100
AcDbEntity
  8
0
  6
Continuous
 62
     7
370
    25
100
AcDbLine
 10
7.0989066615
 20
-10.8639298659
 30
0.0
 11
7.0989066615
 21
0.9662677236
 31
0.0
  0
LINE
  5
454
330
2F8
100
AcDbEntity
  8
0
  6
Continuous
 62
     7
370
    25
100
AcDbLine
 10
7.0989066615
 20
0.9662677236
 30
0.0
 11
2.4219799198
 21
3.6662000619
 31
0.0
  0
LINE
  5
455
330
2F8
100
AcDbEntity
  8
0
  6
Continuous
 62
     7
370
    25
100
AcDbLine
 10
2.4219799198
 20
3.6662000619
 30
0.0
 11
2.4219799198
 21
-8.1639975276
 31
0.0
  0
LINE
  5
456
330
2F8
100
AcDbEntity
  8
0
  6
Continuous
 62
     7
370
    25
100
AcDbLine
 10
2.4219799198
 20
-8.1639975276
 30
0.0
 11
7.0989066615
 21
-10.8639298659
 31
0.0
  0
LINE
  5
457
330
2F8
100
AcDbEntity
  8
0
  6
Continuous
 62
     7
370
    25
100
AcDbLine
 10
1.9765583254
 20
-8.4212175314
 30
0.0
 11
7.544328256
 21
-11.6354226961
 31
0.0
  0
LINE
  5
458
330
2F8
100
AcDbEntity
  8
0
  6
Continuous
 62
     7
370
    25
100
AcDbLine
 10
1.9765583254
 20
4.9746883566
 30
0.0
 11
1.9765583254
 21
-8.4212175314
 31
0.0
  0
LINE
  5
459
330
2F8
100
AcDbEntity
  8
0
  6
Continuous
 62
     7
370
    25
100
AcDbLine
 10
7.544328256
 20
1.2234877273
 30
0.0
 11
1.9765583254
 21
4.437692892
 31
0.0
  0
LINE
  5
45A
330
2F8
100
AcDbEntity
  8
0
  6
Continuous
 62
     7
370
    25
100
AcDbLine
 10
7.544328256
 20
-11.6354226961
 30
0.0
 11
7.544328256
 21
1.2234877273
 31
0.0
  0
LINE
  5
45B
330
2F8
100
AcDbEntity
  8
0
  6
Continuous
 62
     7
370
    25
100
AcDbLine
 10
7.544328256
 20
-11.6354226961
 30
0.0
 11
20.2110048481
 21
-4.3231059465
 31
0.0
  0
LINE
  5
45C
330
2F8
100
AcDbEntity
  8
0
  6
Continuous
 62
     7
370
    25
100
AcDbLine
 10
7.544328256
 20
1.2234877273
 30
0.0
 11
20.2110048481
 21
8.5358044769
 31
0.0
  0
LINE
  5
45D
330
2F8
100
AcDbEntity
  8
0
  6
Continuous
 62
     7
370
    25
100
AcDbLine
 10
20.2110048481
 20
-4.3231059465
 30
0.0
 11
20.2110048481
 21
8.5358044769
 31
0.0
  0
LINE
  5
45E
330
2F8
100
AcDbEntity
  8
0
  6
Continuous
 62
     7
370
    25
100
AcDbLine
 10
1.9765583254
 20
4.437692892
 30
0.0
 11
14.6432349175
 21
11.7500096416
 31
0.0
  0
LINE
  5
45F
330
2F8
100
AcDbEntity
  8
0
  6
Continuous
 62
     7
370
    25
100
AcDbLine
 10
20.2110048481
 20
8.5358044769
 30
0.0
 11
14.6432349175
 21
11.7500096416
 31
0.0
  0
LINE
  5
460
330
2F8
100
AcDbEntity
  8
0
  6
Continuous
 62
     7
370
    25
100
AcDbLine
 10
2.4219799198
 20
-8.1639975276
 30
0.0
 11
7.0989066615
 21
-5.4640651893
 31
0.0
  0
LINE
  5
461
330
2F8
100
AcDbEntity
  8
0
  6
Continuous
 62
     7
370
    25
100
AcDbLine
 10
7.0989066615
 20
0.7082118139
 30
0.0
 11
2.4219799198
 21
-1.9917205244
 31
0.0
  0
LINE
  5
462
330
2F8
100
AcDbEntity
  8
0
  6
Continuous
 62
     7
370
    25
100
AcDbLine
 10
7.0989066615
 20
-4.6916528627
 30
0.0
 11
2.4219799198
 21
-1.9917205244
 31
0.0
  0
LINE
  5
463
330
2F8
100
AcDbEntity
  8
0
  6
Continuous
 62
     7
370
    25
100
AcDbLine
 10
7.0989066615
 20
-5.2060092797
 30
0.0
 11
2.4219799198
 21
-2.5060769413
 31
0.0
  0
LINE
  5
464
330
2F8
100
AcDbEntity
  8
0
  6
Continuous
 62
     7
370
    25
100
AcDbLine
 10
1.8536716977
 20
3.035374734
 30
0.0
 11
-14.4646705905
 21
12.4557532186
 31
0.0
  0
LINE
  5
465
330
2F8
100
AcDbEntity
  8
0
  6
Continuous
 62
     7
370
    25
100
AcDbLine
 10
-14.4368317408
 20
12.517283664
 30
0.0
 11
1.9208806261
 21
3.0741773168
 31
0.0
  0
LINE
  5
466
330
2F8
100
AcDbEntity
  8
0
  6
Continuous
 62
     7
370
    25
100
AcDbLine
 10
1.9208806261
 20
3.0741773168
 30
0.0
 11
1.9208806261
 21
-8.3020582894
 31
0.0
  0
LINE
  5
467
330
2F8
100
AcDbEntity
  8
0
  6
Continuous
 62
     7
370
    25
100
AcDbLine
 10
1.8536716977
 20
-8.3181293152
 30
0.0
 11
1.8536716977
 21
3.035374734
 31
0.0
  0
LINE
  5
468
330
2F8
100
AcDbEntity
  8
0
  6
Continuous
 62
     7
370
    25
100
AcDbLine
 10
-14.4646705905
 20
1.1022491694
 30
0.0
 11
1.8536716977
 21
-8.3181293152
 31
0.0
  0
LINE
  5
469
330
2F8
100
AcDbEntity
  8
0
  6
Continuous
 62
     7
370
    25
100
AcDbLine
 10
-14.4646705905
 20
12.4557532186
 30
0.0
 11
-14.4646705905
 21
1.1022491694
 31
0.0
  0
LINE
  5
46A
330
2F8
100
AcDbEntity
  8
0
  6
Continuous
 62
     7
370
    25
100
AcDbLine
 10
-14.7104438459
 20
12.5976350989
 30
0.0
 11
-31.028786134
 21
22.0180135834
 31
0.0
  0
LINE
  5
46B
330
2F8
100
AcDbEntity
  8
0
  6
Continuous
 62
     7
370
    25
100
AcDbLine
 10
-31.0009472844
 20
22.0795440288
 30
0.0
 11
-14.6432349175
 21
12.6364376816
 31
0.0
  0
LINE
  5
46C
330
2F8
100
AcDbEntity
  8
0
  6
Continuous
 62
     7
370
    25
100
AcDbLine
 10
-14.6432349175
 20
12.6364376816
 30
0.0
 11
-14.6432349175
 21
1.2602020755
 31
0.0
  0
LINE
  5
46D
330
2F8
100
AcDbEntity
  8
0
  6
Continuous
 62
     7
370
    25
100
AcDbLine
 10
-14.7104438459
 20
1.2441310497
 30
0.0
 11
-14.7104438459
 21
12.5976350989
 31
0.0
  0
LINE
  5
46E
330
2F8
100
AcDbEntity
  8
0
  6
Continuous
 62
     7
370
    25
100
AcDbLine
 10
-31.028786134
 20
10.6645095342
 30
0.0
 11
-14.7104438459
 21
1.2441310497
 31
0.0
  0
LINE
  5
46F
330
2F8
100
AcDbEntity
  8
0
  6
Continuous
 62
     7
370
    25
100
AcDbLine
 10
-31.028786134
 20
22.0180135834
 30
0.0
 11
-31.028786134
 21
10.6645095342
 31
0.0
  0
LINE
  5
470
330
2F8
100
AcDbEntity
  8
0
  6
Continuous
 62
     7
370
    25
100
AcDbLine
 10
-14.4925094401
 20
14.0226811195
 30
0.0
 11
-13.6016662512
 21
14.0226811195
 31
0.0
  0
LINE
  5
471
330
2F8
100
AcDbEntity
  8
0
  6
Continuous
 62
     7
370
    25
100
AcDbLine
 10
-13.6016662512
 20
12.0351528893
 30
0.0
 11
-13.6016662512
 21
14.0226811195
 31
0.0
  0
LINE
  5
472
330
2F8
100
AcDbEntity
  8
0
  6
Continuous
 62
     7
370
    25
100
AcDbLine
 10
-13.6016662512
 20
13.9678059808
 30
0.0
 11
-14.4925094401
 21
13.9678059808
 31
0.0
  0
LINE
  5
473
330
2F8
100
AcDbEntity
  8
0
  6
Continuous
 62
     7
370
    25
100
AcDbLine
 10
-14.4925094401
 20
14.0226811195
 30
0.0
 11
-14.4925094401
 21
1.1565478935
 31
0.0
  0
LINE
  5
474
330
2F8
100
AcDbEntity
  8
0
  6
Continuous
 62
     7
370
    25
100
AcDbLine
 10
-1.9208806261
 20
21.2801279548
 30
0.0
 11
-14.4925094401
 21
14.0226811195
 31
0.0
  0
LINE
  5
475
330
2F8
100
AcDbEntity
  8
0
  6
Continuous
 62
     7
370
    25
100
AcDbLine
 10
-1.4754590316
 20
21.0229915416
 30
0.0
 11
-1.9208806261
 21
21.2801279548
 31
0.0
  0
LINE
  5
476
330
2F8
100
AcDbEntity
  8
0
  6
Continuous
 62
     7
370
    25
100
AcDbLine
 10
-13.6016662512
 20
14.0226811195
 30
0.0
 11
-1.4754590316
 21
21.0229915416
 31
0.0
  0
LINE
  5
477
330
2F8
100
AcDbEntity
  8
0
  6
Continuous
 62
     7
370
    25
100
AcDbLine
 10
-31.0566249837
 20
23.5849414844
 30
0.0
 11
-30.1657817948
 21
23.5849414844
 31
0.0
  0
LINE
  5
478
330
2F8
100
AcDbEntity
  8
0
  6
Continuous
 62
     7
370
    25
100
AcDbLine
 10
-30.1657817948
 20
21.5974132542
 30
0.0
 11
-30.1657817948
 21
23.5849414844
 31
0.0
  0
LINE
  5
479
330
2F8
100
AcDbEntity
  8
0
  6
Continuous
 62
     7
370
    25
100
AcDbLine
 10
-30.1657817948
 20
23.5300663456
 30
0.0
 11
-31.0566249837
 21
23.5300663456
 31
0.0
  0
LINE
  5
47A
330
2F8
100
AcDbEntity
  8
0
  6
Continuous
 62
     7
370
    25
100
AcDbLine
 10
-31.0566249837
 20
23.5849414844
 30
0.0
 11
-31.0566249837
 21
10.7188082583
 31
0.0
  0
LINE
  5
47B
330
2F8
100
AcDbEntity
  8
0
  6
Continuous
 62
     7
370
    25
100
AcDbLine
 10
-18.4849961696
 20
30.8423883196
 30
0.0
 11
-31.0566249837
 21
23.5849414844
 31
0.0
  0
LINE
  5
47C
330
2F8
100
AcDbEntity
  8
0
  6
Continuous
 62
     7
370
    25
100
AcDbLine
 10
-18.0395745752
 20
30.5852519065
 30
0.0
 11
-18.4849961696
 21
30.8423883196
 31
0.0
  0
LINE
  5
47D
330
2F8
100
AcDbEntity
  8
0
  6
Continuous
 62
     7
370
    25
100
AcDbLine
 10
-30.1657817948
 20
23.5849414844
 30
0.0
 11
-18.0395745752
 21
30.5852519065
 31
0.0
  0
LINE
  5
47E
330
2F8
100
AcDbEntity
  8
0
  6
Continuous
 62
     7
370
    25
100
AcDbLine
 10
2.0159284041
 20
4.4925628063
 30
0.0
 11
14.5875572182
 21
11.7500096416
 31
0.0
  0
LINE
  5
47F
330
2F8
100
AcDbEntity
  8
0
  6
Continuous
 62
     7
370
    25
100
AcDbLine
 10
2.0159284041
 20
5.0068356327
 30
0.0
 11
2.0159284041
 21
4.4925628063
 31
0.0
  0
LINE
  5
480
330
2F8
100
AcDbEntity
  8
0
  6
Continuous
 62
     7
370
    25
100
AcDbLine
 10
14.1421356237
 20
12.0071460548
 30
0.0
 11
2.0159284041
 21
5.0068356327
 31
0.0
  0
LINE
  5
481
330
2F8
100
AcDbEntity
  8
0
  6
Continuous
 62
     7
370
    25
100
AcDbLine
 10
14.5875572182
 20
11.7500096416
 30
0.0
 11
14.1421356237
 21
12.0071460548
 31
0.0
  0
LINE
  5
482
330
2F8
100
AcDbEntity
  8
0
  6
Continuous
 62
     7
370
    25
100
AcDbLine
 10
-14.5875572182
 20
1.2280600238
 30
0.0
 11
-14.5875572182
 21
14.5369487215
 31
0.0
  0
LINE
  5
483
330
2F8
100
AcDbEntity
  8
0
  6
Continuous
 62
     7
370
    25
100
AcDbLine
 10
-14.5481871394
 20
14.0548231712
 30
0.0
 11
-1.9765583254
 21
21.3122700064
 31
0.0
  0
LINE
  5
484
330
2F8
100
AcDbEntity
  8
0
  6
Continuous
 62
     7
370
    25
100
AcDbLine
 10
-14.5481871394
 20
14.5690959975
 30
0.0
 11
-14.5481871394
 21
14.0548231712
 31
0.0
  0
LINE
  5
485
330
2F8
100
AcDbEntity
  8
0
  6
Continuous
 62
     7
370
    25
100
AcDbLine
 10
-2.4219799198
 20
21.5694064196
 30
0.0
 11
-14.5481871394
 21
14.5690959975
 31
0.0
  0
LINE
  5
486
330
2F8
100
AcDbEntity
  8
0
  6
Continuous
 62
     7
370
    25
100
AcDbLine
 10
-1.9765583254
 20
21.3122700064
 30
0.0
 11
-2.4219799198
 21
21.5694064196
 31
0.0
  0
LINE
  5
487
330
2F8
100
AcDbEntity
  8
0
  6
Continuous
 62
     7
370
    25
100
AcDbLine
 10
-1.4197813323
 20
11.9253176415
 30
0.0
 11
-1.8652029268
 21
11.6681812283
 31
0.0
  0
LINE
  5
488
330
2F8
100
AcDbEntity
  8
0
  6
Continuous
 62
     7
370
    25
100
AcDbLine
 10
-2.324543946
 20
8.3518882018
 30
0.0
 11
2.7313767462
 21
5.4331673129
 31
0.0
  0
LINE
  5
489
330
2F8
100
AcDbEntity
  8
0
  6
Continuous
 62
     7
370
    25
100
AcDbLine
 10
-2.324543946
 20
10.9236702865
 30
0.0
 11
-2.324543946
 21
8.3518882018
 31
0.0
  0
LINE
  5
48A
330
2F8
100
AcDbEntity
  8
0
  6
Continuous
 62
     7
370
    25
100
AcDbLine
 10
-2.324543946
 20
10.9236702865
 30
0.0
 11
2.7421266908
 21
7.9987435867
 31
0.0
  0
LINE
  5
48B
330
2F8
100
AcDbEntity
  8
0
  6
Continuous
 62
     7
370
    25
100
AcDbLine
 10
3.2432259846
 20
8.2880220515
 30
0.0
 11
2.7421266908
 21
7.9987435867
 31
0.0
  0
LINE
  5
48C
330
2F8
100
AcDbEntity
  8
0
  6
Continuous
 62
     7
370
    25
100
AcDbLine
 10
-1.8234446523
 20
11.2129487513
 30
0.0
 11
-2.324543946
 21
10.9236702865
 31
0.0
  0
LINE
  5
48D
330
2F8
100
AcDbEntity
  8
0
  6
Continuous
 62
     7
370
    25
100
AcDbLine
 10
3.2432259846
 20
8.2880220515
 30
0.0
 11
-1.8234446523
 21
11.2129487513
 31
0.0
  0
LINE
  5
48E
330
2F8
100
AcDbEntity
  8
0
  6
Continuous
 62
     7
370
    25
100
AcDbLine
 10
-17.9838968758
 20
21.4875780063
 30
0.0
 11
-18.4293184703
 21
21.2304415932
 31
0.0
  0
LINE
  5
48F
330
2F8
100
AcDbEntity
  8
0
  6
Continuous
 62
     7
370
    25
100
AcDbLine
 10
-18.8886594896
 20
17.9141485667
 30
0.0
 11
-13.8327387973
 21
14.9954276777
 31
0.0
  0
LINE
  5
490
330
2F8
100
AcDbEntity
  8
0
  6
Continuous
 62
     7
370
    25
100
AcDbLine
 10
-18.8886594896
 20
20.4859306514
 30
0.0
 11
-18.8886594896
 21
17.9141485667
 31
0.0
  0
LINE
  5
491
330
2F8
100
AcDbEntity
  8
0
  6
Continuous
 62
     7
370
    25
100
AcDbLine
 10
-18.8886594896
 20
20.4859306514
 30
0.0
 11
-13.8219888527
 21
17.5610039515
 31
0.0
  0
LINE
  5
492
330
2F8
100
AcDbEntity
  8
0
  6
Continuous
 62
     7
370
    25
100
AcDbLine
 10
-13.320889559
 20
17.8502824163
 30
0.0
 11
-13.8219888527
 21
17.5610039515
 31
0.0
  0
LINE
  5
493
330
2F8
100
AcDbEntity
  8
0
  6
Continuous
 62
     7
370
    25
100
AcDbLine
 10
-18.3875601958
 20
20.7752091162
 30
0.0
 11
-18.8886594896
 21
20.4859306514
 31
0.0
  0
LINE
  5
494
330
2F8
100
AcDbEntity
  8
0
  6
Continuous
 62
     7
370
    25
100
AcDbLine
 10
-13.320889559
 20
17.8502824163
 30
0.0
 11
-18.3875601958
 21
20.7752091162
 31
0.0
  0
LINE
  5
495
330
2F8
100
AcDbEntity
  8
0
  6
Continuous
 62
     7
370
    25
100
AcDbLine
 10
1.9487194757
 20
-7.7944422999
 30
0.0
 11
1.9487194757
 21
-7.2800858829
 31
0.0
  0
LINE
  5
496
330
2F8
100
AcDbEntity
  8
0
  6
Continuous
 62
     7
370
    25
100
AcDbLine
 10
1.9208806261
 20
-6.811208253
 30
0.0
 11
1.9765583254
 21
-6.7790662014
 31
0.0
  0
LINE
  5
497
330
2F8
100
AcDbEntity
  8
0
  6
Continuous
 62
     7
370
    25
100
AcDbLine
 10
1.9208806261
 20
-3.4357442669
 30
0.0
 11
1.9765583254
 21
-3.4036022153
 31
0.0
  0
LINE
  5
498
330
2F8
100
AcDbEntity
  8
0
  6
Continuous
 62
     7
370
    25
100
AcDbLine
 10
1.9765583254
 20
-2.8250452856
 30
0.0
 11
1.9208806261
 21
-2.8571873373
 31
0.0
  0
LINE
  5
499
330
2F8
100
AcDbEntity
  8
0
  6
Continuous
 62
     7
370
    25
100
AcDbLine
 10
-14.6153960678
 20
1.767818065
 30
0.0
 11
-14.6153960678
 21
2.2821744819
 31
0.0
  0
LINE
  5
49A
330
2F8
100
AcDbEntity
  8
0
  6
Continuous
 62
     7
370
    25
100
AcDbLine
 10
-14.6432349175
 20
2.7510521118
 30
0.0
 11
-14.5875572182
 21
2.7831941635
 31
0.0
  0
LINE
  5
49B
330
2F8
100
AcDbEntity
  8
0
  6
Continuous
 62
     7
370
    25
100
AcDbLine
 10
-14.6432349175
 20
6.126516098
 30
0.0
 11
-14.5875572182
 21
6.1586581496
 31
0.0
  0
LINE
  5
49C
330
2F8
100
AcDbEntity
  8
0
  6
Continuous
 62
     7
370
    25
100
AcDbLine
 10
-14.5875572182
 20
6.7372150792
 30
0.0
 11
-14.6432349175
 21
6.7050730276
 31
0.0
  0
LINE
  5
49D
330
2F8
100
AcDbEntity
  8
0
  6
Continuous
 62
     7
370
    25
100
AcDbLine
 10
1.9487194757
 20
1.8497405177
 30
0.0
 11
1.9487194757
 21
5.0001735714
 31
0.0
  0
LINE
  5
49E
330
2F8
100
AcDbEntity
  8
0
  6
Continuous
 62
     7
370
    25
100
AcDbLine
 10
1.9765583254
 20
5.0483918733
 30
0.0
 11
2.1435914233
 21
5.1448180282
 31
0.0
  0
LINE
  5
49F
330
2F8
100
AcDbEntity
  8
0
  6
Continuous
 62
     7
370
    25
100
AcDbLine
 10
-13.5296809314
 20
13.9999532569
 30
0.0
 11
1.9765583254
 21
5.0483918733
 31
0.0
  0
LINE
  5
4A0
330
2F8
100
AcDbEntity
  8
0
  6
Continuous
 62
     7
370
    25
100
AcDbLine
 10
1.9487194757
 20
5.0001735714
 30
0.0
 11
-13.557519781
 21
13.951734955
 31
0.0
  0
LINE
  5
4A1
330
2F8
100
AcDbEntity
  8
0
  6
Continuous
 62
     7
370
    25
100
AcDbLine
 10
-13.3626478334
 20
14.0963794118
 30
0.0
 11
-13.5296809314
 21
13.9999532569
 31
0.0
  0
LINE
  5
4A2
330
2F8
100
AcDbEntity
  8
0
  6
Continuous
 62
     7
370
    25
100
AcDbLine
 10
2.1435914233
 20
5.1448180282
 30
0.0
 11
-13.3626478334
 21
14.0963794118
 31
0.0
  0
LINE
  5
4A3
330
2F8
100
AcDbEntity
  8
0
  6
Continuous
 62
     7
370
    25
100
AcDbLine
 10
-14.6153960678
 20
11.4120008825
 30
0.0
 11
-14.6153960678
 21
14.5624339363
 31
0.0
  0
LINE
  5
4A4
330
2F8
100
AcDbEntity
  8
0
  6
Continuous
 62
     7
370
    25
100
AcDbLine
 10
-14.5875572182
 20
14.6106522381
 30
0.0
 11
-14.4205241203
 21
14.7070783931
 31
0.0
  0
LINE
  5
4A5
330
2F8
100
AcDbEntity
  8
0
  6
Continuous
 62
     7
370
    25
100
AcDbLine
 10
-30.0937964749
 20
23.5622136217
 30
0.0
 11
-14.5875572182
 21
14.6106522381
 31
0.0
  0
LINE
  5
4A6
330
2F8
100
AcDbEntity
  8
0
  6
Continuous
 62
     7
370
    25
100
AcDbLine
 10
-14.6153960678
 20
14.5624339363
 30
0.0
 11
-30.1216353246
 21
23.5139953198
 31
0.0
  0
LINE
  5
4A7
330
2F8
100
AcDbEntity
  8
0
  6
Continuous
 62
     7
370
    25
100
AcDbLine
 10
-29.926763377
 20
23.6586397766
 30
0.0
 11
-30.0937964749
 21
23.5622136217
 31
0.0
  0
LINE
  5
4A8
330
2F8
100
AcDbEntity
  8
0
  6
Continuous
 62
     7
370
    25
100
AcDbLine
 10
-14.4205241203
 20
14.7070783931
 30
0.0
 11
-29.926763377
 21
23.6586397766
 31
0.0
  0
LINE
  5
4A9
330
2F8
100
AcDbEntity
  8
0
  6
Continuous
 62
     8
370
    25
100
AcDbLine
 10
-14.4925094401
 20
1.1731901095
 30
0.0
 11
-14.4762018196
 21
1.1731901095
 31
0.0
  0
LINE
  5
4AA
330
2F8
100
AcDbEntity
  8
0
  6
Continuous
 62
     8
370
    25
100
AcDbLine
 10
-1.447620182
 20
20.9747732397
 30
0.0
 11
-13.3524532327
 21
14.1022594051
 31
0.0
  0
LINE
  5
4AB
330
2F8
100
AcDbEntity
  8
0
  6
Continuous
 62
     8
370
    25
100
AcDbLine
 10
-13.5677098571
 20
13.9779944009
 30
0.0
 11
-13.5738274016
 21
13.9744628176
 31
0.0
  0
LINE
  5
4AC
330
2F8
100
AcDbEntity
  8
0
  6
Continuous
 62
     8
370
    25
100
AcDbLine
 10
-13.5738274016
 20
13.9744628176
 30
0.0
 11
-13.5738274016
 21
12.0190818635
 31
0.0
  0
LINE
  5
4AD
330
2F8
100
AcDbEntity
  8
0
  6
Continuous
 62
     8
370
    25
100
AcDbLine
 10
-1.447620182
 20
11.9225587593
 30
0.0
 11
-1.447620182
 21
20.9747732397
 31
0.0
  0
LINE
  5
4AE
330
2F8
100
AcDbEntity
  8
0
  6
Continuous
 62
     8
370
    25
100
AcDbLine
 10
-31.0566249837
 20
10.7354504744
 30
0.0
 11
-31.0403173631
 21
10.7354504744
 31
0.0
  0
LINE
  5
4AF
330
2F8
100
AcDbEntity
  8
0
  6
Continuous
 62
     8
370
    25
100
AcDbLine
 10
-18.0117357255
 20
30.5370336046
 30
0.0
 11
-29.9165687763
 21
23.66451977
 31
0.0
  0
LINE
  5
4B0
330
2F8
100
AcDbEntity
  8
0
  6
Continuous
 62
     8
370
    25
100
AcDbLine
 10
-30.1318254007
 20
23.5402547657
 30
0.0
 11
-30.1379429451
 21
23.5367231825
 31
0.0
  0
LINE
  5
4B1
330
2F8
100
AcDbEntity
  8
0
  6
Continuous
 62
     8
370
    25
100
AcDbLine
 10
-30.1379429451
 20
23.5367231825
 30
0.0
 11
-30.1379429451
 21
21.5813422283
 31
0.0
  0
LINE
  5
4B2
330
2F8
100
AcDbEntity
  8
0
  6
Continuous
 62
     8
370
    25
100
AcDbLine
 10
-18.0117357255
 20
21.4848191242
 30
0.0
 11
-18.0117357255
 21
30.5370336046
 31
0.0
  0
LINE
  5
4B3
330
2F8
100
AcDbEntity
  8
0
  6
Continuous
 62
     8
370
    25
100
AcDbLine
 10
5.7776702592
 20
7.1917551253
 30
0.0
 11
-1.8930417764
 21
11.6199629264
 31
0.0
  0
LINE
  5
4B4
330
2F8
100
AcDbEntity
  8
0
  6
Continuous
 62
     8
370
    25
100
AcDbLine
 10
-1.8652029268
 20
11.6681812283
 30
0.0
 11
5.8333524835
 21
7.2238997892
 31
0.0
  0
LINE
  5
4B5
330
2F8
100
AcDbEntity
  8
0
  6
Continuous
 62
     8
370
    25
100
AcDbLine
 10
-1.8930417764
 20
11.6199629264
 30
0.0
 11
-1.8930417764
 21
11.5424518004
 31
0.0
  0
LINE
  5
4B6
330
2F8
100
AcDbEntity
  8
0
  6
Continuous
 62
     8
370
    25
100
AcDbLine
 10
6.2787740779
 20
7.4810362024
 30
0.0
 11
-1.4197813323
 21
11.9253176415
 31
0.0
  0
LINE
  5
4B7
330
2F8
100
AcDbEntity
  8
0
  6
Continuous
 62
     8
370
    25
100
AcDbLine
 10
-10.7864452843
 20
16.7540154902
 30
0.0
 11
-18.4571573199
 21
21.1822232913
 31
0.0
  0
LINE
  5
4B8
330
2F8
100
AcDbEntity
  8
0
  6
Continuous
 62
     8
370
    25
100
AcDbLine
 10
-18.4293184703
 20
21.2304415932
 30
0.0
 11
-10.7307630601
 21
16.786160154
 31
0.0
  0
LINE
  5
4B9
330
2F8
100
AcDbEntity
  8
0
  6
Continuous
 62
     8
370
    25
100
AcDbLine
 10
-18.4571573199
 20
21.1822232913
 30
0.0
 11
-18.4571573199
 21
21.1047121653
 31
0.0
  0
LINE
  5
4BA
330
2F8
100
AcDbEntity
  8
0
  6
Continuous
 62
     8
370
    25
100
AcDbLine
 10
-10.2853414656
 20
17.0432965672
 30
0.0
 11
-17.9838968758
 21
21.4875780063
 31
0.0
  0
LINE
  5
4BB
330
2F8
100
AcDbEntity
  8
0
  6
Continuous
 62
     8
370
    25
100
AcDbLine
 10
1.9487194757
 20
-7.2800858829
 30
0.0
 11
1.9208806261
 21
-7.2640148571
 31
0.0
  0
LINE
  5
4BC
330
2F8
100
AcDbEntity
  8
0
  6
Continuous
 62
     8
370
    25
100
AcDbLine
 10
1.9208806261
 20
-7.1997255294
 30
0.0
 11
1.9765583254
 21
-7.2318675811
 31
0.0
  0
LINE
  5
4BD
330
2F8
100
AcDbEntity
  8
0
  6
Continuous
 62
     8
370
    25
100
AcDbLine
 10
1.9208806261
 20
-7.7783712741
 30
0.0
 11
1.9487194757
 21
-7.7944422999
 31
0.0
  0
LINE
  5
4BE
330
2F8
100
AcDbEntity
  8
0
  6
Continuous
 62
     8
370
    25
100
AcDbLine
 10
-14.6153960678
 20
2.2821744819
 30
0.0
 11
-14.6432349175
 21
2.2982455077
 31
0.0
  0
LINE
  5
4BF
330
2F8
100
AcDbEntity
  8
0
  6
Continuous
 62
     8
370
    25
100
AcDbLine
 10
-14.6432349175
 20
2.3625348354
 30
0.0
 11
-14.5875572182
 21
2.3303927838
 31
0.0
  0
LINE
  5
4C0
330
2F8
100
AcDbEntity
  8
0
  6
Continuous
 62
     8
370
    25
100
AcDbLine
 10
-14.6432349175
 20
1.7838890908
 30
0.0
 11
-14.6153960678
 21
1.767818065
 31
0.0
  0
LINE
  5
4C1
330
2F8
100
AcDbEntity
  8
0
  6
Continuous
 62
     8
370
    25
100
AcDbLine
 10
-13.557519781
 20
13.951734955
 30
0.0
 11
-13.557519781
 21
12.0096676745
 31
0.0
  0
LINE
  5
4C2
330
2F8
100
AcDbEntity
  8
0
  6
Continuous
 62
     8
370
    25
100
AcDbLine
 10
1.9208806261
 20
1.8658115435
 30
0.0
 11
1.9487194757
 21
1.8497405177
 31
0.0
  0
LINE
  5
4C3
330
2F8
100
AcDbEntity
  8
0
  6
Continuous
 62
     8
370
    25
100
AcDbLine
 10
-30.1216353246
 20
23.5139953198
 30
0.0
 11
-30.1216353246
 21
21.5719280394
 31
0.0
  0
LINE
  5
4C4
330
2F8
100
AcDbEntity
  8
0
  6
Continuous
 62
     8
370
    25
100
AcDbLine
 10
-14.6432349175
 20
11.4280719083
 30
0.0
 11
-14.6153960678
 21
11.4120008825
 31
0.0
  0
ARC
  5
4C5
330
2F8
100
AcDbEntity
  8
0
  6
Continuous
 62
     7
370
    25
100
AcDbCircle
 10
1.8815105473
 20
-8.3020582894
 30
0.0
 40
0.0393700787401625
100
AcDbArc
 50
240.0026882664
 51
360.0
  0
ARC
  5
4C6
330
2F8
100
AcDbEntity
  8
0
  6
Continuous
 62
     7
370
    25
100
AcDbCircle
 10
-14.4368317408
 20
1.1183201952
 30
0.0
 40
0.0393700787401559
100
AcDbArc
 50
180.0
 51
240.0026882664
  0
ARC
  5
4C7
330
2F8
100
AcDbEntity
  8
0
  6
Continuous
 62
     7
370
    25
100
AcDbCircle
 10
-14.6826049962
 20
1.2602020755
 30
0.0
 40
0.0393700787401611
100
AcDbArc
 50
240.0026882664
 51
360.0
  0
ARC
  5
4C8
330
2F8
100
AcDbEntity
  8
0
  6
Continuous
 62
     7
370
    25
100
AcDbCircle
 10
-31.0009472844
 20
10.68058056
 30
0.0
 40
0.0393700787401734
100
AcDbArc
 50
180.0
 51
240.0026882663
  0
ARC
  5
4C9
330
2F8
100
AcDbEntity
  8
0
  6
Continuous
 62
     7
370
    25
100
AcDbCircle
 10
-14.4925094401
 20
13.9905338435
 30
0.0
 40
0.0393700787401681
100
AcDbArc
 50
119.9973117337
 51
180.0
  0
ARC
  5
4CA
330
2F8
100
AcDbEntity
  8
0
  6
Continuous
 62
     7
370
    25
100
AcDbCircle
 10
-14.4925094401
 20
1.1959179722
 30
0.0
 40
0.0393700787401556
100
AcDbArc
 50
180.0
 51
270.0
  0
ARC
  5
4CB
330
2F8
100
AcDbEntity
  8
0
  6
Continuous
 62
     7
370
    25
100
AcDbCircle
 10
-1.4754590316
 20
20.9908442656
 30
0.0
 40
0.0393700787401461
100
AcDbArc
 50
360.0
 51
60.0026882664
  0
ARC
  5
4CC
330
2F8
100
AcDbEntity
  8
0
  6
Continuous
 62
     7
370
    25
100
AcDbCircle
 10
-1.9208806261
 20
21.2479806787
 30
0.0
 40
0.0393700787401691
100
AcDbArc
 50
60.0026882664
 51
119.9973117336
  0
ARC
  5
4CD
330
2F8
100
AcDbEntity
  8
0
  6
Continuous
 62
     7
370
    25
100
AcDbCircle
 10
-31.0566249837
 20
23.5527942083
 30
0.0
 40
0.0393700787401957
100
AcDbArc
 50
119.9973117337
 51
180.0
  0
ARC
  5
4CE
330
2F8
100
AcDbEntity
  8
0
  6
Continuous
 62
     7
370
    25
100
AcDbCircle
 10
-31.0566249837
 20
10.758178337
 30
0.0
 40
0.0393700787401627
100
AcDbArc
 50
180.0
 51
270.0
  0
ARC
  5
4CF
330
2F8
100
AcDbEntity
  8
0
  6
Continuous
 62
     7
370
    25
100
AcDbCircle
 10
-18.0395745752
 20
30.5531046304
 30
0.0
 40
0.0393700787401343
100
AcDbArc
 50
360.0
 51
60.0026882664
  0
ARC
  5
4D0
330
2F8
100
AcDbEntity
  8
0
  6
Continuous
 62
     7
370
    25
100
AcDbCircle
 10
-18.4849961696
 20
30.8102410436
 30
0.0
 40
0.0393700787401497
100
AcDbArc
 50
60.0026882663
 51
119.9973117336
  0
ARC
  5
4D1
330
2F8
100
AcDbEntity
  8
0
  6
Continuous
 62
     7
370
    25
100
AcDbCircle
 10
2.0159284041
 20
4.9746883566
 30
0.0
 40
0.0393700787401596
100
AcDbArc
 50
119.9973117337
 51
180.0
  0
ARC
  5
4D2
330
2F8
100
AcDbEntity
  8
0
  6
Continuous
 62
     7
370
    25
100
AcDbCircle
 10
14.5875572182
 20
11.7178623655
 30
0.0
 40
0.0393700787401371
100
AcDbArc
 50
30.0038964362
 51
60.0026882664
  0
ARC
  5
4D3
330
2F8
100
AcDbEntity
  8
0
  6
Continuous
 62
     7
370
    25
100
AcDbCircle
 10
14.1421356237
 20
11.9749987787
 30
0.0
 40
0.0393700787401678
100
AcDbArc
 50
60.0026882663
 51
119.9973117336
  0
ARC
  5
4D4
330
2F8
100
AcDbEntity
  8
0
  6
Continuous
 62
     7
370
    25
100
AcDbCircle
 10
-14.5481871394
 20
14.5369487215
 30
0.0
 40
0.0393700787401592
100
AcDbArc
 50
119.9973117336
 51
180.0
  0
ARC
  5
4D5
330
2F8
100
AcDbEntity
  8
0
  6
Continuous
 62
     7
370
    25
100
AcDbCircle
 10
-14.5481871394
 20
1.2280600238
 30
0.0
 40
0.0393700787401574
100
AcDbArc
 50
180.0
 51
294.7361038308
  0
ARC
  5
4D6
330
2F8
100
AcDbEntity
  8
0
  6
Continuous
 62
     7
370
    25
100
AcDbCircle
 10
-1.9765583254
 20
21.2801227304
 30
0.0
 40
0.0393700787401389
100
AcDbArc
 50
5.2692727015
 51
60.0026882664
  0
ARC
  5
4D7
330
2F8
100
AcDbEntity
  8
0
  6
Continuous
 62
     7
370
    25
100
AcDbCircle
 10
-2.4219799198
 20
21.5372591436
 30
0.0
 40
0.0393700787401768
100
AcDbArc
 50
60.0026882664
 51
119.9973117336
  0
ARC
  5
4D8
330
2F8
100
AcDbEntity
  8
0
  6
Continuous
 62
     7
370
    25
100
AcDbCircle
 10
-1.8652029268
 20
11.6360339523
 30
0.0
 40
0.0393700787401639
100
AcDbArc
 50
119.9973117337
 51
180.0
  0
ARC
  5
4D9
330
2F8
100
AcDbEntity
  8
0
  6
Continuous
 62
     7
370
    25
100
AcDbCircle
 10
-1.4197813323
 20
11.8931703654
 30
0.0
 40
0.0393700787401688
100
AcDbArc
 50
60.0026882664
 51
119.9973117336
  0
ARC
  5
4DA
330
2F8
100
AcDbEntity
  8
0
  6
Continuous
 62
     7
370
    25
100
AcDbCircle
 10
-18.4293184703
 20
21.1982943171
 30
0.0
 40
0.0393700787401599
100
AcDbArc
 50
119.9973117337
 51
180.0
  0
ARC
  5
4DB
330
2F8
100
AcDbEntity
  8
0
  6
Continuous
 62
     7
370
    25
100
AcDbCircle
 10
-17.9838968758
 20
21.4554307303
 30
0.0
 40
0.039370078740163
100
AcDbArc
 50
60.0026882663
 51
119.9973117336
  0
ARC
  5
4DC
330
2F8
100
AcDbEntity
  8
0
  6
Continuous
 62
     7
370
    25
100
AcDbCircle
 10
1.9765583254
 20
-7.7783712741
 30
0.0
 40
0.0393700787401476
100
AcDbArc
 50
240.0026882663
 51
270.0
  0
ARC
  5
4DD
330
2F8
100
AcDbEntity
  8
0
  6
Continuous
 62
     7
370
    25
100
AcDbCircle
 10
-14.5875572182
 20
1.7838890908
 30
0.0
 40
0.0393700787401602
100
AcDbArc
 50
240.0026882664
 51
270.0
  0
ARC
  5
4DE
330
2F8
100
AcDbEntity
  8
0
  6
Continuous
 62
     7
370
    25
100
AcDbCircle
 10
2.1435914233
 20
5.1126707522
 30
0.0
 40
0.0393700787401497
100
AcDbArc
 50
5.5347458071
 51
60.0026882664
  0
ARC
  5
4DF
330
2F8
100
AcDbEntity
  8
0
  6
Continuous
 62
     7
370
    25
100
AcDbCircle
 10
1.9765583254
 20
1.8658115435
 30
0.0
 40
0.039370078740103
100
AcDbArc
 50
240.0026882663
 51
270.0
  0
ARC
  5
4E0
330
2F8
100
AcDbEntity
  8
0
  6
Continuous
 62
     7
370
    25
100
AcDbCircle
 10
-13.5296809314
 20
13.9678059808
 30
0.0
 40
0.039370078740172
100
AcDbArc
 50
119.9973117337
 51
180.0
  0
ARC
  5
4E1
330
2F8
100
AcDbEntity
  8
0
  6
Continuous
 62
     7
370
    25
100
AcDbCircle
 10
-13.3626478334
 20
14.0642321357
 30
0.0
 40
0.0393700787401483
100
AcDbArc
 50
60.0026882663
 51
119.9973117337
  0
ARC
  5
4E2
330
2F8
100
AcDbEntity
  8
0
  6
Continuous
 62
     7
370
    25
100
AcDbCircle
 10
-14.4205241203
 20
14.674931117
 30
0.0
 40
0.0393700787401696
100
AcDbArc
 50
5.5347458071
 51
60.0026882663
  0
ARC
  5
4E3
330
2F8
100
AcDbEntity
  8
0
  6
Continuous
 62
     7
370
    25
100
AcDbCircle
 10
-14.5875572182
 20
11.4280719083
 30
0.0
 40
0.0393700787401841
100
AcDbArc
 50
240.0026882664
 51
270.0
  0
ARC
  5
4E4
330
2F8
100
AcDbEntity
  8
0
  6
Continuous
 62
     7
370
    25
100
AcDbCircle
 10
-30.0937964749
 20
23.5300663456
 30
0.0
 40
0.0393700787401841
100
AcDbArc
 50
119.9973117337
 51
180.0
  0
ARC
  5
4E5
330
2F8
100
AcDbEntity
  8
0
  6
Continuous
 62
     7
370
    25
100
AcDbCircle
 10
-29.926763377
 20
23.6264925006
 30
0.0
 40
0.0393700787401832
100
AcDbArc
 50
60.0026882664
 51
119.9973117336
  0
ARC
  5
4E6
330
2F8
100
AcDbEntity
  8
0
  6
Continuous
 62
     7
370
    25
100
AcDbCircle
 10
-13.600531986
 20
14.0246018556
 30
0.0
 40
0.0568071998465681
100
AcDbArc
 50
268.8559032542
 51
298.0402391154
  0
ARC
  5
4E7
330
2F8
100
AcDbEntity
  8
0
  6
Continuous
 62
     7
370
    25
100
AcDbCircle
 10
-13.6342689804
 20
13.9717123904
 30
0.0
 40
0.0605041262823866
100
AcDbArc
 50
2.6054784857
 51
57.39452166
  0
ARC
  5
4E8
330
2F8
100
AcDbEntity
  8
0
  6
Continuous
 62
     7
370
    25
100
AcDbCircle
 10
-1.5080617608
 20
20.9720228125
 30
0.0
 40
0.0605041262823625
100
AcDbArc
 50
2.6054784857
 51
57.39452166
  0
ARC
  5
4E9
330
2F8
100
AcDbEntity
  8
0
  6
Continuous
 62
     7
370
    25
100
AcDbCircle
 10
-30.1646475295
 20
23.5868622205
 30
0.0
 40
0.056807199846515
100
AcDbArc
 50
268.8559032542
 51
298.0402391154
  0
ARC
  5
4EA
330
2F8
100
AcDbEntity
  8
0
  6
Continuous
 62
     7
370
    25
100
AcDbCircle
 10
-30.1983845239
 20
23.5339727552
 30
0.0
 40
0.0605041262823457
100
AcDbArc
 50
2.6054784856
 51
57.39452166
  0
ARC
  5
4EB
330
2F8
100
AcDbEntity
  8
0
  6
Continuous
 62
     7
370
    25
100
AcDbCircle
 10
-18.0721773043
 20
30.5342831773
 30
0.0
 40
0.0605041262823272
100
AcDbArc
 50
2.6054784856
 51
57.39452166
  0
ARC
  5
4EC
330
2F8
100
AcDbEntity
  8
0
  6
Continuous
 62
     7
370
    25
100
AcDbCircle
 10
2.0126482751
 20
4.4563984268
 30
0.0
 40
0.0363128296283019
100
AcDbArc
 50
84.8174221345
 51
173.6486598634
  0
ARC
  5
4ED
330
2F8
100
AcDbEntity
  8
0
  6
Continuous
 62
     7
370
    25
100
AcDbCircle
 10
2.0126482751
 20
4.9706712531
 30
0.0
 40
0.0363128296283026
100
AcDbArc
 50
84.8174221345
 51
173.6486598634
  0
ARC
  5
4EE
330
2F8
100
AcDbEntity
  8
0
  6
Continuous
 62
     7
370
    25
100
AcDbCircle
 10
-14.5514672684
 20
14.0186587916
 30
0.0
 40
0.0363128296283016
100
AcDbArc
 50
84.8174221345
 51
173.6486598634
  0
ARC
  5
4EF
330
2F8
100
AcDbEntity
  8
0
  6
Continuous
 62
     7
370
    25
100
AcDbCircle
 10
-14.5514672684
 20
14.532931618
 30
0.0
 40
0.0363128296282996
100
AcDbArc
 50
84.8174221345
 51
173.6486598634
  0
ARC
  5
4F0
330
2F8
100
AcDbEntity
  8
0
  6
Continuous
 62
     7
370
    25
100
AcDbCircle
 10
-1.8326001976
 20
11.6172124992
 30
0.0
 40
0.0605041262823629
100
AcDbArc
 50
122.60547834
 51
177.3945215143
  0
ARC
  5
4F1
330
2F8
100
AcDbEntity
  8
0
  6
Continuous
 62
     7
370
    25
100
AcDbCircle
 10
-18.3967157412
 20
21.179472864
 30
0.0
 40
0.0605041262823415
100
AcDbArc
 50
122.60547834
 51
177.3945215144
  0
ARC
  5
4F2
330
2F8
100
AcDbEntity
  8
0
  6
Continuous
 62
     7
370
    25
100
AcDbCircle
 10
2.0091610545
 20
-7.2828363102
 30
0.0
 40
0.0605041262823678
100
AcDbArc
 50
122.60547834
 51
177.3945215143
  0
ARC
  5
4F3
330
2F8
100
AcDbEntity
  8
0
  6
Continuous
 62
     7
370
    25
100
AcDbCircle
 10
-14.554954489
 20
2.2794240547
 30
0.0
 40
0.0605041262823689
100
AcDbArc
 50
122.60547834
 51
177.3945215143
  0
ARC
  5
4F4
330
2F8
100
AcDbEntity
  8
0
  6
Continuous
 62
     7
370
    25
100
AcDbCircle
 10
2.0091610545
 20
4.9974231441
 30
0.0
 40
0.0605041262823677
100
AcDbArc
 50
122.60547834
 51
177.3945215143
  0
ARC
  5
4F5
330
2F8
100
AcDbEntity
  8
0
  6
Continuous
 62
     7
370
    25
100
AcDbCircle
 10
-13.4970782022
 20
13.9489845277
 30
0.0
 40
0.0605041262823945
100
AcDbArc
 50
122.60547834
 51
177.3945215143
  0
ARC
  5
4F6
330
2F8
100
AcDbEntity
  8
0
  6
Continuous
 62
     7
370
    25
100
AcDbCircle
 10
-14.554954489
 20
14.559683509
 30
0.0
 40
0.0605041262823643
100
AcDbArc
 50
122.60547834
 51
177.3945215143
  0
ARC
  5
4F7
330
2F8
100
AcDbEntity
  8
0
  6
Continuous
 62
     7
370
    25
100
AcDbCircle
 10
-30.0611937458
 20
23.5112448926
 30
0.0
 40
0.0605041262823745
100
AcDbArc
 50
122.60547834
 51
177.3945215143
  0
ARC
  5
4F8
330
2F8
100
AcDbEntity
  8
0
  6
Continuous
 62
     8
370
    25
100
AcDbCircle
 10
1.8729076949
 20
-8.3202837868
 30
0.0
 40
0.0193562738973083
100
AcDbArc
 50
173.6093872136
 51
235.078432393
  0
ARC
  5
4F9
330
2F8
100
AcDbEntity
  8
0
  6
Continuous
 62
     8
370
    25
100
AcDbCircle
 10
-14.4454345932
 20
1.1000946977
 30
0.0
 40
0.0193562738973002
100
AcDbArc
 50
173.6093872136
 51
235.078432393
  0
ARC
  5
4FA
330
2F8
100
AcDbEntity
  8
0
  6
Continuous
 62
     8
370
    25
100
AcDbCircle
 10
-14.4569217618
 20
1.1199815207
 30
0.0
 40
0.0193515019933918
100
AcDbArc
 50
184.9249021695
 51
246.3952387881
  0
ARC
  5
4FB
330
2F8
100
AcDbEntity
  8
0
  6
Continuous
 62
     8
370
    25
100
AcDbCircle
 10
-14.6912078486
 20
1.241976578
 30
0.0
 40
0.0193562738973035
100
AcDbArc
 50
173.6093872136
 51
235.078432393
  0
ARC
  5
4FC
330
2F8
100
AcDbEntity
  8
0
  6
Continuous
 62
     8
370
    25
100
AcDbCircle
 10
-31.0095501367
 20
10.6623550626
 30
0.0
 40
0.0193562738973136
100
AcDbArc
 50
173.6093872137
 51
235.078432393
  0
ARC
  5
4FD
330
2F8
100
AcDbEntity
  8
0
  6
Continuous
 62
     8
370
    25
100
AcDbCircle
 10
-31.0210373054
 20
10.6822418855
 30
0.0
 40
0.0193515019934008
100
AcDbArc
 50
184.9249021695
 51
246.3952387881
  0
ARC
  5
4FE
330
2F8
100
AcDbEntity
  8
0
  6
Continuous
 62
     8
370
    25
100
AcDbCircle
 10
-14.5040417258
 20
14.0065834294
 30
0.0
 40
0.0198022533819607
100
AcDbArc
 50
54.3824225248
 51
114.3071190461
  0
ARC
  5
4FF
330
2F8
100
AcDbEntity
  8
0
  6
Continuous
 62
     8
370
    25
100
AcDbCircle
 10
-1.9324129117
 20
21.2640302647
 30
0.0
 40
0.0198022533819522
100
AcDbArc
 50
54.3824225248
 51
114.3071190461
  0
ARC
  5
500
330
2F8
100
AcDbEntity
  8
0
  6
Continuous
 62
     8
370
    25
100
AcDbCircle
 10
-1.4557919868
 20
20.9928090836
 30
0.0
 40
0.0198007589958067
100
AcDbArc
 50
294.3746582936
 51
354.3052007488
  0
ARC
  5
501
330
2F8
100
AcDbEntity
  8
0
  6
Continuous
 62
     8
370
    25
100
AcDbCircle
 10
-1.463926746
 20
21.0068938515
 30
0.0
 40
0.0198022533819586
100
AcDbArc
 50
65.6928809539
 51
125.6175774752
  0
ARC
  5
502
330
2F8
100
AcDbEntity
  8
0
  6
Continuous
 62
     8
370
    25
100
AcDbCircle
 10
-1.9093483404
 20
21.2640302647
 30
0.0
 40
0.0198022533819587
100
AcDbArc
 50
65.6928809539
 51
125.6175774752
  0
ARC
  5
503
330
2F8
100
AcDbEntity
  8
0
  6
Continuous
 62
     8
370
    25
100
AcDbCircle
 10
-31.0681572693
 20
23.5688437943
 30
0.0
 40
0.0198022533819518
100
AcDbArc
 50
54.3824225248
 51
114.3071190461
  0
ARC
  5
504
330
2F8
100
AcDbEntity
  8
0
  6
Continuous
 62
     8
370
    25
100
AcDbCircle
 10
-18.4965284552
 20
30.8262906295
 30
0.0
 40
0.0198022533819547
100
AcDbArc
 50
54.3824225248
 51
114.3071190461
  0
ARC
  5
505
330
2F8
100
AcDbEntity
  8
0
  6
Continuous
 62
     8
370
    25
100
AcDbCircle
 10
-18.0199075304
 20
30.5550694484
 30
0.0
 40
0.0198007589958021
100
AcDbArc
 50
294.3746582935
 51
354.3052007488
  0
ARC
  5
506
330
2F8
100
AcDbEntity
  8
0
  6
Continuous
 62
     8
370
    25
100
AcDbCircle
 10
-18.0280422895
 20
30.5691542164
 30
0.0
 40
0.0198022533819731
100
AcDbArc
 50
65.6928809539
 51
125.6175774752
  0
ARC
  5
507
330
2F8
100
AcDbEntity
  8
0
  6
Continuous
 62
     8
370
    25
100
AcDbCircle
 10
-18.473463884
 20
30.8262906295
 30
0.0
 40
0.0198022533819613
100
AcDbArc
 50
65.6928809539
 51
125.6175774752
  0
ARC
  5
508
330
2F8
100
AcDbEntity
  8
0
  6
Continuous
 62
     8
370
    25
100
AcDbCircle
 10
1.9966689581
 20
4.4626733704
 30
0.0
 40
0.0202369808157267
100
AcDbArc
 50
186.4058275526
 51
244.9018361571
  0
ARC
  5
509
330
2F8
100
AcDbEntity
  8
0
  6
Continuous
 62
     8
370
    25
100
AcDbCircle
 10
1.9858693287
 20
4.4443733575
 30
0.0
 40
0.0567958712324506
100
AcDbArc
 50
28.8567998288
 51
58.0453714773
  0
ARC
  5
50A
330
2F8
100
AcDbEntity
  8
0
  6
Continuous
 62
     8
370
    25
100
AcDbCircle
 10
14.5574981428
 20
11.7018201928
 30
0.0
 40
0.0567958712324869
100
AcDbArc
 50
28.8567998288
 51
58.0453714773
  0
ARC
  5
50B
330
2F8
100
AcDbEntity
  8
0
  6
Continuous
 62
     8
370
    25
100
AcDbCircle
 10
2.0043961185
 20
4.9907379425
 30
0.0
 40
0.019802253381959
100
AcDbArc
 50
54.3824225248
 51
114.3071190461
  0
ARC
  5
50C
330
2F8
100
AcDbEntity
  8
0
  6
Continuous
 62
     8
370
    25
100
AcDbCircle
 10
14.1306033381
 20
11.9910483646
 30
0.0
 40
0.0198022533819641
100
AcDbArc
 50
54.3824225248
 51
114.3071190461
  0
ARC
  5
50D
330
2F8
100
AcDbEntity
  8
0
  6
Continuous
 62
     8
370
    25
100
AcDbCircle
 10
14.5990895038
 20
11.7339119515
 30
0.0
 40
0.0198022533819539
100
AcDbArc
 50
65.6928809539
 51
125.6175774752
  0
ARC
  5
50E
330
2F8
100
AcDbEntity
  8
0
  6
Continuous
 62
     8
370
    25
100
AcDbCircle
 10
14.1536679094
 20
11.9910483646
 30
0.0
 40
0.0198022533819413
100
AcDbArc
 50
65.6928809539
 51
125.6175774752
  0
ARC
  5
50F
330
2F8
100
AcDbEntity
  8
0
  6
Continuous
 62
     8
370
    25
100
AcDbCircle
 10
-14.5811426043
 20
14.0034539633
 30
0.0
 40
0.0610316162214418
100
AcDbArc
 50
12.8432761463
 51
57.3181546135
  0
ARC
  5
510
330
2F8
100
AcDbEntity
  8
0
  6
Continuous
 62
     8
370
    25
100
AcDbCircle
 10
-2.0095063626
 20
21.2609367911
 30
0.0
 40
0.0609973126904854
100
AcDbArc
 50
14.6347164038
 51
57.305771306
  0
ARC
  5
511
330
2F8
100
AcDbEntity
  8
0
  6
Continuous
 62
     8
370
    25
100
AcDbCircle
 10
-14.5597194251
 20
14.5529983074
 30
0.0
 40
0.0198022533819667
100
AcDbArc
 50
54.3824225248
 51
114.3071190461
  0
ARC
  5
512
330
2F8
100
AcDbEntity
  8
0
  6
Continuous
 62
     8
370
    25
100
AcDbCircle
 10
-2.4335122054
 20
21.5533087295
 30
0.0
 40
0.0198022533819603
100
AcDbArc
 50
54.3824225248
 51
114.3071190461
  0
ARC
  5
513
330
2F8
100
AcDbEntity
  8
0
  6
Continuous
 62
     8
370
    25
100
AcDbCircle
 10
-1.9650260397
 20
21.2961723163
 30
0.0
 40
0.0198022533819586
100
AcDbArc
 50
65.6928809539
 51
125.6175774752
  0
ARC
  5
514
330
2F8
100
AcDbEntity
  8
0
  6
Continuous
 62
     8
370
    25
100
AcDbCircle
 10
-2.4104476342
 20
21.5533087295
 30
0.0
 40
0.0198022533819637
100
AcDbArc
 50
65.6928809539
 51
125.6175774752
  0
ARC
  5
515
330
2F8
100
AcDbEntity
  8
0
  6
Continuous
 62
     8
370
    25
100
AcDbCircle
 10
-1.4082490467
 20
11.9092199514
 30
0.0
 40
0.0198022533819748
100
AcDbArc
 50
65.6928809539
 51
125.6175774752
  0
ARC
  5
516
330
2F8
100
AcDbEntity
  8
0
  6
Continuous
 62
     8
370
    25
100
AcDbCircle
 10
-1.8848699715
 20
11.6379987702
 30
0.0
 40
0.0198007589958144
100
AcDbArc
 50
185.6947992512
 51
245.6253417064
  0
ARC
  5
517
330
2F8
100
AcDbEntity
  8
0
  6
Continuous
 62
     8
370
    25
100
AcDbCircle
 10
-1.8767352124
 20
11.6520835382
 30
0.0
 40
0.0198022533819593
100
AcDbArc
 50
54.3824225248
 51
114.3071190461
  0
ARC
  5
518
330
2F8
100
AcDbEntity
  8
0
  6
Continuous
 62
     8
370
    25
100
AcDbCircle
 10
-1.4313136179
 20
11.9092199514
 30
0.0
 40
0.0198022533819639
100
AcDbArc
 50
54.3824225248
 51
114.3071190461
  0
ARC
  5
519
330
2F8
100
AcDbEntity
  8
0
  6
Continuous
 62
     8
370
    25
100
AcDbCircle
 10
-17.9723645902
 20
21.4714803162
 30
0.0
 40
0.0198022533819333
100
AcDbArc
 50
65.6928809539
 51
125.6175774752
  0
ARC
  5
51A
330
2F8
100
AcDbEntity
  8
0
  6
Continuous
 62
     8
370
    25
100
AcDbCircle
 10
-18.4489855151
 20
21.2002591351
 30
0.0
 40
0.01980075899582
100
AcDbArc
 50
185.6947992512
 51
245.6253417064
  0
ARC
  5
51B
330
2F8
100
AcDbEntity
  8
0
  6
Continuous
 62
     8
370
    25
100
AcDbCircle
 10
-18.4408507559
 20
21.214343903
 30
0.0
 40
0.0198022533819576
100
AcDbArc
 50
54.3824225248
 51
114.3071190461
  0
ARC
  5
51C
330
2F8
100
AcDbEntity
  8
0
  6
Continuous
 62
     8
370
    25
100
AcDbCircle
 10
-17.9954291615
 20
21.4714803162
 30
0.0
 40
0.0198022533819584
100
AcDbArc
 50
54.3824225248
 51
114.3071190461
  0
ARC
  5
51D
330
2F8
100
AcDbEntity
  8
0
  6
Continuous
 62
     8
370
    25
100
AcDbCircle
 10
1.9754240601
 20
-7.229946845
 30
0.0
 40
0.0568071998464859
100
AcDbArc
 50
241.9597608846
 51
271.1440967459
  0
ARC
  5
51E
330
2F8
100
AcDbEntity
  8
0
  6
Continuous
 62
     8
370
    25
100
AcDbCircle
 10
1.9754240601
 20
-7.7443032619
 30
0.0
 40
0.0568071998465543
100
AcDbArc
 50
241.9597608846
 51
271.1440967458
  0
ARC
  5
51F
330
2F8
100
AcDbEntity
  8
0
  6
Continuous
 62
     8
370
    25
100
AcDbCircle
 10
1.9680108892
 20
-7.796571699
 30
0.0
 40
0.0194085799256528
100
AcDbArc
 50
173.7011524891
 51
234.9866671175
  0
ARC
  5
520
330
2F8
100
AcDbEntity
  8
0
  6
Continuous
 62
     8
370
    25
100
AcDbCircle
 10
-14.5886914835
 20
2.3323135199
 30
0.0
 40
0.056807199846534
100
AcDbArc
 50
241.9597608846
 51
271.1440967458
  0
ARC
  5
521
330
2F8
100
AcDbEntity
  8
0
  6
Continuous
 62
     8
370
    25
100
AcDbCircle
 10
-14.5886914835
 20
1.8179571029
 30
0.0
 40
0.0568071998465727
100
AcDbArc
 50
241.9597608846
 51
271.1440967458
  0
ARC
  5
522
330
2F8
100
AcDbEntity
  8
0
  6
Continuous
 62
     8
370
    25
100
AcDbCircle
 10
-14.5961046543
 20
1.7656886659
 30
0.0
 40
0.0194085799279298
100
AcDbArc
 50
173.7011524931
 51
234.9866671135
  0
ARC
  5
523
330
2F8
100
AcDbEntity
  8
0
  6
Continuous
 62
     8
370
    25
100
AcDbCircle
 10
1.942682504
 20
4.9963853192
 30
0.0
 40
0.0620665202661276
100
AcDbArc
 50
15.0197433969
 51
56.9207443129
  0
ARC
  5
524
330
2F8
100
AcDbEntity
  8
0
  6
Continuous
 62
     8
370
    25
100
AcDbCircle
 10
1.9761633675
 20
5.0528853834
 30
0.0
 40
0.0594281274013848
100
AcDbArc
 50
242.4966996037
 51
275.1026363461
  0
ARC
  5
525
330
2F8
100
AcDbEntity
  8
0
  6
Continuous
 62
     8
370
    25
100
AcDbCircle
 10
1.9754240601
 20
1.8998795556
 30
0.0
 40
0.0568071998465472
100
AcDbArc
 50
241.9597608846
 51
271.1440967458
  0
ARC
  5
526
330
2F8
100
AcDbEntity
  8
0
  6
Continuous
 62
     8
370
    25
100
AcDbCircle
 10
2.1106433861
 20
5.0934848129
 30
0.0
 40
0.0609973126904627
100
AcDbArc
 50
14.6347164038
 51
57.305771306
  0
ARC
  5
527
330
2F8
100
AcDbEntity
  8
0
  6
Continuous
 62
     8
370
    25
100
AcDbCircle
 10
2.1551237089
 20
5.1287203381
 30
0.0
 40
0.0198022533819565
100
AcDbArc
 50
65.6928809539
 51
125.6175774752
  0
ARC
  5
528
330
2F8
100
AcDbEntity
  8
0
  6
Continuous
 62
     8
370
    25
100
AcDbCircle
 10
-13.3511155478
 20
14.0802817217
 30
0.0
 40
0.019802253381958
100
AcDbArc
 50
65.6928809539
 51
125.6175774752
  0
ARC
  5
529
330
2F8
100
AcDbEntity
  8
0
  6
Continuous
 62
     8
370
    25
100
AcDbCircle
 10
1.9674472535
 20
1.8473561071
 30
0.0
 40
0.0188789585196726
100
AcDbArc
 50
172.7441704371
 51
235.9436491696
  0
ARC
  5
52A
330
2F8
100
AcDbEntity
  8
0
  6
Continuous
 62
     8
370
    25
100
AcDbCircle
 10
-13.5493479761
 20
13.9697707988
 30
0.0
 40
0.0198007589958245
100
AcDbArc
 50
185.6947992512
 51
245.6253417064
  0
ARC
  5
52B
330
2F8
100
AcDbEntity
  8
0
  6
Continuous
 62
     8
370
    25
100
AcDbCircle
 10
-13.541213217
 20
13.9838555667
 30
0.0
 40
0.0198022533819544
100
AcDbArc
 50
54.3824225248
 51
114.3071190461
  0
ARC
  5
52C
330
2F8
100
AcDbEntity
  8
0
  6
Continuous
 62
     8
370
    25
100
AcDbCircle
 10
-13.3741801191
 20
14.0802817217
 30
0.0
 40
0.0198022533819459
100
AcDbArc
 50
54.3824225248
 51
114.3071190461
  0
ARC
  5
52D
330
2F8
100
AcDbEntity
  8
0
  6
Continuous
 62
     8
370
    25
100
AcDbCircle
 10
-14.6214330395
 20
14.5586456841
 30
0.0
 40
0.0620665202661026
100
AcDbArc
 50
15.0197433969
 51
56.9207443129
  0
ARC
  5
52E
330
2F8
100
AcDbEntity
  8
0
  6
Continuous
 62
     8
370
    25
100
AcDbCircle
 10
-14.587952176
 20
14.6151457483
 30
0.0
 40
0.0594281274010196
100
AcDbArc
 50
242.4966996036
 51
275.1026363445
  0
ARC
  5
52F
330
2F8
100
AcDbEntity
  8
0
  6
Continuous
 62
     8
370
    25
100
AcDbCircle
 10
-14.5886914835
 20
11.4621399205
 30
0.0
 40
0.0568071998465933
100
AcDbArc
 50
241.9597608846
 51
271.1440967458
  0
ARC
  5
530
330
2F8
100
AcDbEntity
  8
0
  6
Continuous
 62
     8
370
    25
100
AcDbCircle
 10
-14.4534721575
 20
14.6557451777
 30
0.0
 40
0.06099731269044
100
AcDbArc
 50
14.6347164038
 51
57.305771306
  0
ARC
  5
531
330
2F8
100
AcDbEntity
  8
0
  6
Continuous
 62
     8
370
    25
100
AcDbCircle
 10
-14.4089918346
 20
14.690980703
 30
0.0
 40
0.0198022533819659
100
AcDbArc
 50
65.6928809539
 51
125.6175774752
  0
ARC
  5
532
330
2F8
100
AcDbEntity
  8
0
  6
Continuous
 62
     8
370
    25
100
AcDbCircle
 10
-29.9152310914
 20
23.6425420865
 30
0.0
 40
0.019802253381975
100
AcDbArc
 50
65.6928809539
 51
125.6175774752
  0
ARC
  5
533
330
2F8
100
AcDbEntity
  8
0
  6
Continuous
 62
     8
370
    25
100
AcDbCircle
 10
-14.59666829
 20
11.4096164719
 30
0.0
 40
0.0188789585138732
100
AcDbArc
 50
172.7441704262
 51
235.9436491804
  0
ARC
  5
534
330
2F8
100
AcDbEntity
  8
0
  6
Continuous
 62
     8
370
    25
100
AcDbCircle
 10
-30.1134635197
 20
23.5320311636
 30
0.0
 40
0.019800758995831
100
AcDbArc
 50
185.6947992512
 51
245.6253417064
  0
ARC
  5
535
330
2F8
100
AcDbEntity
  8
0
  6
Continuous
 62
     8
370
    25
100
AcDbCircle
 10
-30.1053287605
 20
23.5461159316
 30
0.0
 40
0.0198022533819713
100
AcDbArc
 50
54.3824225248
 51
114.3071190461
  0
ARC
  5
536
330
2F8
100
AcDbEntity
  8
0
  6
Continuous
 62
     8
370
    25
100
AcDbCircle
 10
-29.9382956626
 20
23.6425420865
 30
0.0
 40
0.0198022533819828
100
AcDbArc
 50
54.3824225248
 51
114.3071190461
  0
VIEWPORT
  5
53D
330
2F8
100
AcDbEntity
  8
0
100
AcDbViewport
 10
0.0
 20
0.0
 30
0.0
 40
8.4
 41
6.4
 68
     1
 69
     1
 12
-7.7755905512
 22
7.874015748
 13
0.0
 23
0.0
 14
0.5
 24
0.5
 15
0.5
 25
0.5
 16
0.0
 26
0.0
 36
1.0
 17
0.0
 27
0.0
 37
0.0
 42
50.0
 43
0.0
 44
0.0
 45
42.5286839145
 50
0.0
 51
0.0
 72
   100
 90
   557152
  1

281
     0
 71
     1
 74
     0
110
0.0
120
0.0
130
0.0
111
1.0
121
0.0
131
0.0
112
0.0
122
1.0
132
0.0
 79
     0
146
0.0
  0
ENDBLK
  5
2FB
330
2F8
100
AcDbEntity
  8
0
100
AcDbBlockEnd
  0
ENDSEC
  0
SECTION
  2
ENTITIES
  0
LINE
  5
F8
330
1F
100
AcDbEntity
  8
0
  6
Continuous
 62
     7
370
    25
100
AcDbLine
 10
-11.6732283465
 20
0.0
 30
0.0
 11
11.6732283465
 21
0.0
 31
0.0
  0
LINE
  5
F9
330
1F
100
AcDbEntity
  8
0
  6
Continuous
 62
     7
370
    25
100
AcDbLine
 10
-11.5781805684
 20
13.9831327904
 30
0.0
 11
-11.5781805684
 21
0.0393700787
 31
0.0
  0
LINE
  5
FA
330
1F
100
AcDbEntity
  8
0
  6
Continuous
 62
     7
370
    25
100
AcDbLine
 10
11.5781805684
 20
0.0393700787
 30
0.0
 11
11.5781805684
 21
13.9831327904
 31
0.0
  0
LINE
  5
FB
330
1F
100
AcDbEntity
  8
0
  6
Continuous
 62
     7
370
    25
100
AcDbLine
 10
11.5781805684
 20
13.9831327904
 30
0.0
 11
-11.5781805684
 21
13.9831327904
 31
0.0
  0
LINE
  5
FC
330
1F
100
AcDbEntity
  8
0
  6
Continuous
 62
     7
370
    25
100
AcDbLine
 10
-35.0984251969
 20
0.0
 30
0.0
 11
-11.7519685039
 21
0.0
 31
0.0
  0
LINE
  5
FD
330
1F
100
AcDbEntity
  8
0
  6
Continuous
 62
     7
370
    25
100
AcDbLine
 10
-35.0033774188
 20
13.9831327904
 30
0.0
 11
-35.0033774188
 21
0.0393700787
 31
0.0
  0
LINE
  5
FE
330
1F
100
AcDbEntity
  8
0
  6
Continuous
 62
     7
370
    25
100
AcDbLine
 10
-11.847016282
 20
13.9831327904
 30
0.0
 11
-35.0033774188
 21
13.9831327904
 31
0.0
  0
LINE
  5
FF
330
1F
100
AcDbEntity
  8
0
  6
Continuous
 62
     7
370
    25
100
AcDbLine
 10
-11.847016282
 20
0.0393700787
 30
0.0
 11
-11.847016282
 21
13.9831327904
 31
0.0
  0
LINE
  5
100
330
1F
100
AcDbEntity
  8
0
  6
Continuous
 62
     7
370
    25
100
AcDbLine
 10
11.7125984252
 20
0.0
 30
0.0
 11
19.5866141732
 21
0.0
 31
0.0
  0
LINE
  5
101
330
1F
100
AcDbEntity
  8
0
  6
Continuous
 62
     7
370
    25
100
AcDbLine
 10
11.7125984252
 20
15.7480314961
 30
0.0
 11
11.7125984252
 21
0.0
 31
0.0
  0
LINE
  5
102
330
1F
100
AcDbEntity
  8
0
  6
Continuous
 62
     7
370
    25
100
AcDbLine
 10
19.5866141732
 20
15.7480314961
 30
0.0
 11
11.7125984252
 21
15.7480314961
 31
0.0
  0
LINE
  5
103
330
1F
100
AcDbEntity
  8
0
  6
Continuous
 62
     7
370
    25
100
AcDbLine
 10
18.9566929134
 20
15.1181102362
 30
0.0
 11
12.342519685
 21
15.1181102362
 31
0.0
  0
LINE
  5
104
330
1F
100
AcDbEntity
  8
0
  6
Continuous
 62
     7
370
    25
100
AcDbLine
 10
18.9566929134
 20
0.6299212598
 30
0.0
 11
18.9566929134
 21
15.1181102362
 31
0.0
  0
LINE
  5
105
330
1F
100
AcDbEntity
  8
0
  6
Continuous
 62
     7
370
    25
100
AcDbLine
 10
12.342519685
 20
0.6299212598
 30
0.0
 11
18.9566929134
 21
0.6299212598
 31
0.0
  0
LINE
  5
106
330
1F
100
AcDbEntity
  8
0
  6
Continuous
 62
     7
370
    25
100
AcDbLine
 10
12.342519685
 20
15.1181102362
 30
0.0
 11
12.342519685
 21
0.6299212598
 31
0.0
  0
LINE
  5
107
330
1F
100
AcDbEntity
  8
0
  6
Continuous
 62
     7
370
    25
100
AcDbLine
 10
19.5866141732
 20
0.0
 30
0.0
 11
19.5866141732
 21
15.7480314961
 31
0.0
  0
LINE
  5
108
330
1F
100
AcDbEntity
  8
0
  6
Continuous
 62
     7
370
    25
100
AcDbLine
 10
18.9566929134
 20
7.5590551181
 30
0.0
 11
12.342519685
 21
7.5590551181
 31
0.0
  0
LINE
  5
109
330
1F
100
AcDbEntity
  8
0
  6
Continuous
 62
     7
370
    25
100
AcDbLine
 10
18.9566929134
 20
8.188976378
 30
0.0
 11
12.342519685
 21
8.188976378
 31
0.0
  0
LINE
  5
10A
330
1F
100
AcDbEntity
  8
0
  6
Continuous
 62
     7
370
    25
100
AcDbLine
 10
-11.5388104897
 20
13.9437627116
 30
0.0
 11
-11.5781805684
 21
13.9831327904
 31
0.0
  0
LINE
  5
10B
330
1F
100
AcDbEntity
  8
0
  6
Continuous
 62
     7
370
    25
100
AcDbLine
 10
-11.5388104897
 20
13.9437627116
 30
0.0
 11
-11.5388104897
 21
0.0
 31
0.0
  0
LINE
  5
10C
330
1F
100
AcDbEntity
  8
0
  6
Continuous
 62
     7
370
    25
100
AcDbLine
 10
11.5388104897
 20
13.9437627116
 30
0.0
 11
11.5781805684
 21
13.9831327904
 31
0.0
  0
LINE
  5
10D
330
1F
100
AcDbEntity
  8
0
  6
Continuous
 62
     7
370
    25
100
AcDbLine
 10
11.5388104897
 20
0.0
 30
0.0
 11
11.5388104897
 21
13.9437627116
 31
0.0
  0
LINE
  5
10E
330
1F
100
AcDbEntity
  8
0
  6
Continuous
 62
     7
370
    25
100
AcDbLine
 10
11.5388104897
 20
13.9437627116
 30
0.0
 11
-11.5388104897
 21
13.9437627116
 31
0.0
  0
LINE
  5
10F
330
1F
100
AcDbEntity
  8
0
  6
Continuous
 62
     7
370
    25
100
AcDbLine
 10
-34.9640073401
 20
13.9437627116
 30
0.0
 11
-35.0033774188
 21
13.9831327904
 31
0.0
  0
LINE
  5
110
330
1F
100
AcDbEntity
  8
0
  6
Continuous
 62
     7
370
    25
100
AcDbLine
 10
-34.9640073401
 20
13.9437627116
 30
0.0
 11
-34.9640073401
 21
0.0
 31
0.0
  0
LINE
  5
111
330
1F
100
AcDbEntity
  8
0
  6
Continuous
 62
     7
370
    25
100
AcDbLine
 10
-11.8863863607
 20
13.9437627116
 30
0.0
 11
-34.9640073401
 21
13.9437627116
 31
0.0
  0
LINE
  5
112
330
1F
100
AcDbEntity
  8
0
  6
Continuous
 62
     7
370
    25
100
AcDbLine
 10
-11.8863863607
 20
0.0
 30
0.0
 11
-11.8863863607
 21
13.9437627116
 31
0.0
  0
LINE
  5
113
330
1F
100
AcDbEntity
  8
0
  6
Continuous
 62
     7
370
    25
100
AcDbLine
 10
-11.8863863607
 20
13.9437627116
 30
0.0
 11
-11.847016282
 21
13.9831327904
 31
0.0
  0
LINE
  5
114
330
1F
100
AcDbEntity
  8
0
  6
Continuous
 62
     7
370
    25
100
AcDbLine
 10
-11.6453894968
 20
15.7086614173
 30
0.0
 11
-11.6453894968
 21
0.0393700787
 31
0.0
  0
LINE
  5
115
330
1F
100
AcDbEntity
  8
0
  6
Continuous
 62
     7
370
    25
100
AcDbLine
 10
-11.7125984252
 20
0.0393700787
 30
0.0
 11
-11.7125984252
 21
15.7086614173
 31
0.0
  0
LINE
  5
116
330
1F
100
AcDbEntity
  8
0
  6
Continuous
 62
     7
370
    25
100
AcDbLine
 10
-11.6732283465
 20
15.7480314961
 30
0.0
 11
-11.0433070866
 21
15.7480314961
 31
0.0
  0
LINE
  5
117
330
1F
100
AcDbEntity
  8
0
  6
Continuous
 62
     7
370
    25
100
AcDbLine
 10
-11.0039370079
 20
15.7086614173
 30
0.0
 11
-11.0039370079
 21
13.9831327904
 31
0.0
  0
LINE
  5
118
330
1F
100
AcDbEntity
  8
0
  6
Continuous
 62
     7
370
    25
100
AcDbLine
 10
-35.0705863472
 20
15.7086614173
 30
0.0
 11
-35.0705863472
 21
0.0393700787
 31
0.0
  0
LINE
  5
119
330
1F
100
AcDbEntity
  8
0
  6
Continuous
 62
     7
370
    25
100
AcDbLine
 10
-35.1377952756
 20
0.0393700787
 30
0.0
 11
-35.1377952756
 21
15.7086614173
 31
0.0
  0
LINE
  5
11A
330
1F
100
AcDbEntity
  8
0
  6
Continuous
 62
     7
370
    25
100
AcDbLine
 10
-35.0984251969
 20
15.7480314961
 30
0.0
 11
-34.468503937
 21
15.7480314961
 31
0.0
  0
LINE
  5
11B
330
1F
100
AcDbEntity
  8
0
  6
Continuous
 62
     7
370
    25
100
AcDbLine
 10
-34.4291338583
 20
15.7086614173
 30
0.0
 11
-34.4291338583
 21
13.9831327904
 31
0.0
  0
LINE
  5
11C
330
1F
100
AcDbEntity
  8
0
  6
Continuous
 62
     7
370
    25
100
AcDbLine
 10
-35.1377952756
 20
0.0393700787
 30
0.0
 11
11.7125984252
 21
0.0393700787
 31
0.0
  0
LINE
  5
11D
330
1F
100
AcDbEntity
  8
0
  6
Continuous
 62
     7
370
    25
100
AcDbLine
 10
11.6453894968
 20
0.0393700787
 30
0.0
 11
11.6453894968
 21
15.7086614173
 31
0.0
  0
LINE
  5
11E
330
1F
100
AcDbEntity
  8
0
  6
Continuous
 62
     7
370
    25
100
AcDbLine
 10
11.0433070866
 20
15.7480314961
 30
0.0
 11
11.6732283465
 21
15.7480314961
 31
0.0
  0
LINE
  5
11F
330
1F
100
AcDbEntity
  8
0
  6
Continuous
 62
     7
370
    25
100
AcDbLine
 10
11.0039370079
 20
13.9831327904
 30
0.0
 11
11.0039370079
 21
15.7086614173
 31
0.0
  0
LINE
  5
120
330
1F
100
AcDbEntity
  8
0
  6
Continuous
 62
     7
370
    25
100
AcDbLine
 10
-11.7798073536
 20
0.0393700787
 30
0.0
 11
-11.7798073536
 21
15.7086614173
 31
0.0
  0
LINE
  5
121
330
1F
100
AcDbEntity
  8
0
  6
Continuous
 62
     7
370
    25
100
AcDbLine
 10
-12.3818897638
 20
15.7480314961
 30
0.0
 11
-11.7519685039
 21
15.7480314961
 31
0.0
  0
LINE
  5
122
330
1F
100
AcDbEntity
  8
0
  6
Continuous
 62
     7
370
    25
100
AcDbLine
 10
-12.4212598425
 20
13.9831327904
 30
0.0
 11
-12.4212598425
 21
15.7086614173
 31
0.0
  0
LINE
  5
123
330
1F
100
AcDbEntity
  8
0
  6
Continuous
 62
     7
370
    25
100
AcDbLine
 10
10.9645669291
 20
13.9831327904
 30
0.0
 11
10.9645669291
 21
15.7480314961
 31
0.0
  0
LINE
  5
124
330
1F
100
AcDbEntity
  8
0
  6
Continuous
 62
     7
370
    25
100
AcDbLine
 10
-10.9645669291
 20
15.7480314961
 30
0.0
 11
-10.9645669291
 21
13.9831327904
 31
0.0
  0
LINE
  5
125
330
1F
100
AcDbEntity
  8
0
  6
Continuous
 62
     7
370
    25
100
AcDbLine
 10
-10.9645669291
 20
15.7480314961
 30
0.0
 11
10.9645669291
 21
15.7480314961
 31
0.0
  0
LINE
  5
126
330
1F
100
AcDbEntity
  8
0
  6
Continuous
 62
     7
370
    25
100
AcDbLine
 10
-34.3897637795
 20
15.7480314961
 30
0.0
 11
-12.4606299213
 21
15.7480314961
 31
0.0
  0
LINE
  5
127
330
1F
100
AcDbEntity
  8
0
  6
Continuous
 62
     7
370
    25
100
AcDbLine
 10
-12.4606299213
 20
13.9831327904
 30
0.0
 11
-12.4606299213
 21
15.7480314961
 31
0.0
  0
LINE
  5
128
330
1F
100
AcDbEntity
  8
0
  6
Continuous
 62
     7
370
    25
100
AcDbLine
 10
11.7125984252
 20
15.7086614173
 30
0.0
 11
-35.1377952756
 21
15.7086614173
 31
0.0
  0
LINE
  5
129
330
1F
100
AcDbEntity
  8
0
  6
Continuous
 62
     7
370
    25
100
AcDbLine
 10
-34.3897637795
 20
15.7480314961
 30
0.0
 11
-34.3897637795
 21
13.9831327904
 31
0.0
  0
LINE
  5
12A
330
1F
100
AcDbEntity
  8
0
  6
Continuous
 62
     8
370
    25
100
AcDbLine
 10
-11.015468237
 20
13.9831327904
 30
0.0
 11
-11.015468237
 21
15.7086614173
 31
0.0
  0
LINE
  5
12B
330
1F
100
AcDbEntity
  8
0
  6
Continuous
 62
     8
370
    25
100
AcDbLine
 10
-34.4406650874
 20
13.9831327904
 30
0.0
 11
-34.4406650874
 21
15.7086614173
 31
0.0
  0
LINE
  5
12C
330
1F
100
AcDbEntity
  8
0
  6
Continuous
 62
     8
370
    25
100
AcDbLine
 10
11.015468237
 20
15.7086614173
 30
0.0
 11
11.015468237
 21
13.9831327904
 31
0.0
  0
LINE
  5
12D
330
1F
100
AcDbEntity
  8
0
  6
Continuous
 62
     8
370
    25
100
AcDbLine
 10
-12.4097286134
 20
15.7086614173
 30
0.0
 11
-12.4097286134
 21
13.9831327904
 31
0.0
  0
ARC
  5
12E
330
1F
100
AcDbEntity
  8
0
  6
Continuous
 62
     7
370
    25
100
AcDbCircle
 10
11.5388104897
 20
0.0393700787
 30
0.0
 40
0.0393700787401595
100
AcDbArc
 50
270.0
 51
360.0
  0
ARC
  5
12F
330
1F
100
AcDbEntity
  8
0
  6
Continuous
 62
     7
370
    25
100
AcDbCircle
 10
-11.5388104897
 20
0.0393700787
 30
0.0
 40
0.0393700787401595
100
AcDbArc
 50
180.0
 51
270.0
  0
ARC
  5
130
330
1F
100
AcDbEntity
  8
0
  6
Continuous
 62
     7
370
    25
100
AcDbCircle
 10
-34.9640073401
 20
0.0393700787
 30
0.0
 40
0.0393700787401556
100
AcDbArc
 50
180.0
 51
270.0
  0
ARC
  5
131
330
1F
100
AcDbEntity
  8
0
  6
Continuous
 62
     7
370
    25
100
AcDbCircle
 10
-11.8863863607
 20
0.0393700787
 30
0.0
 40
0.0393700787401595
100
AcDbArc
 50
270.0
 51
360.0
  0
ARC
  5
132
330
1F
100
AcDbEntity
  8
0
  6
Continuous
 62
     7
370
    25
100
AcDbCircle
 10
-11.6732283465
 20
0.0393700787
 30
0.0
 40
0.039370078740161
100
AcDbArc
 50
180.0
 51
270.0
  0
ARC
  5
133
330
1F
100
AcDbEntity
  8
0
  6
Continuous
 62
     7
370
    25
100
AcDbCircle
 10
-11.6801880589
 20
0.0344488189
 30
0.0
 40
0.0351448249436113
100
AcDbArc
 50
281.421753659
 51
8.0494669755
  0
ARC
  5
134
330
1F
100
AcDbEntity
  8
0
  6
Continuous
 62
     7
370
    25
100
AcDbCircle
 10
-11.6732283465
 20
15.7086614173
 30
0.0
 40
0.0393700787401627
100
AcDbArc
 50
90.0
 51
180.0
  0
ARC
  5
135
330
1F
100
AcDbEntity
  8
0
  6
Continuous
 62
     7
370
    25
100
AcDbCircle
 10
-11.6801880589
 20
15.7135826772
 30
0.0
 40
0.0351448249436182
100
AcDbArc
 50
351.9505330245
 51
78.578246341
  0
ARC
  5
136
330
1F
100
AcDbEntity
  8
0
  6
Continuous
 62
     7
370
    25
100
AcDbCircle
 10
-11.050266799
 20
15.7135826772
 30
0.0
 40
0.0351448249436185
100
AcDbArc
 50
351.9505330245
 51
78.578246341
  0
ARC
  5
137
330
1F
100
AcDbEntity
  8
0
  6
Continuous
 62
     7
370
    25
100
AcDbCircle
 10
-11.0433070866
 20
15.7086614173
 30
0.0
 40
0.0393700787401574
100
AcDbArc
 50
0.0
 51
90.0
  0
ARC
  5
138
330
1F
100
AcDbEntity
  8
0
  6
Continuous
 62
     7
370
    25
100
AcDbCircle
 10
-35.0984251969
 20
0.0393700787
 30
0.0
 40
0.039370078740158
100
AcDbArc
 50
180.0
 51
270.0
  0
ARC
  5
139
330
1F
100
AcDbEntity
  8
0
  6
Continuous
 62
     7
370
    25
100
AcDbCircle
 10
-35.1053849093
 20
0.0344488189
 30
0.0
 40
0.0351448249436207
100
AcDbArc
 50
281.421753659
 51
8.0494669755
  0
ARC
  5
13A
330
1F
100
AcDbEntity
  8
0
  6
Continuous
 62
     7
370
    25
100
AcDbCircle
 10
-35.0984251969
 20
15.7086614173
 30
0.0
 40
0.0393700787401574
100
AcDbArc
 50
90.0
 51
180.0
  0
ARC
  5
13B
330
1F
100
AcDbEntity
  8
0
  6
Continuous
 62
     7
370
    25
100
AcDbCircle
 10
-35.1053849093
 20
15.7135826772
 30
0.0
 40
0.035144824943621
100
AcDbArc
 50
351.9505330245
 51
78.578246341
  0
ARC
  5
13C
330
1F
100
AcDbEntity
  8
0
  6
Continuous
 62
     7
370
    25
100
AcDbCircle
 10
-34.4754636494
 20
15.7135826772
 30
0.0
 40
0.0351448249436266
100
AcDbArc
 50
351.9505330245
 51
78.578246341
  0
ARC
  5
13D
330
1F
100
AcDbEntity
  8
0
  6
Continuous
 62
     7
370
    25
100
AcDbCircle
 10
-34.468503937
 20
15.7086614173
 30
0.0
 40
0.0393700787401556
100
AcDbArc
 50
360.0
 51
90.0
  0
ARC
  5
13E
330
1F
100
AcDbEntity
  8
0
  6
Continuous
 62
     7
370
    25
100
AcDbCircle
 10
11.6801880589
 20
0.0344488189
 30
0.0
 40
0.0351448249436125
100
AcDbArc
 50
171.9505330245
 51
258.578246341
  0
ARC
  5
13F
330
1F
100
AcDbEntity
  8
0
  6
Continuous
 62
     7
370
    25
100
AcDbCircle
 10
11.6732283465
 20
0.0393700787
 30
0.0
 40
0.0393700787401592
100
AcDbArc
 50
270.0
 51
0.0
  0
ARC
  5
140
330
1F
100
AcDbEntity
  8
0
  6
Continuous
 62
     7
370
    25
100
AcDbCircle
 10
11.6801880589
 20
15.7135826772
 30
0.0
 40
0.0351448249436154
100
AcDbArc
 50
101.421753659
 51
188.0494669755
  0
ARC
  5
141
330
1F
100
AcDbEntity
  8
0
  6
Continuous
 62
     7
370
    25
100
AcDbCircle
 10
11.6732283465
 20
15.7086614173
 30
0.0
 40
0.0393700787401574
100
AcDbArc
 50
0.0
 51
90.0
  0
ARC
  5
142
330
1F
100
AcDbEntity
  8
0
  6
Continuous
 62
     7
370
    25
100
AcDbCircle
 10
11.050266799
 20
15.7135826772
 30
0.0
 40
0.0351448249436154
100
AcDbArc
 50
101.421753659
 51
188.0494669755
  0
ARC
  5
143
330
1F
100
AcDbEntity
  8
0
  6
Continuous
 62
     7
370
    25
100
AcDbCircle
 10
11.0433070866
 20
15.7086614173
 30
0.0
 40
0.0393700787401574
100
AcDbArc
 50
90.0
 51
180.0
  0
ARC
  5
144
330
1F
100
AcDbEntity
  8
0
  6
Continuous
 62
     7
370
    25
100
AcDbCircle
 10
-11.7450087915
 20
0.0344488189
 30
0.0
 40
0.0351448249436139
100
AcDbArc
 50
171.9505330245
 51
258.578246341
  0
ARC
  5
145
330
1F
100
AcDbEntity
  8
0
  6
Continuous
 62
     7
370
    25
100
AcDbCircle
 10
-11.7519685039
 20
0.0393700787
 30
0.0
 40
0.0393700787401558
100
AcDbArc
 50
270.0
 51
0.0
  0
ARC
  5
146
330
1F
100
AcDbEntity
  8
0
  6
Continuous
 62
     7
370
    25
100
AcDbCircle
 10
-11.7450087915
 20
15.7135826772
 30
0.0
 40
0.0351448249436158
100
AcDbArc
 50
101.421753659
 51
188.0494669755
  0
ARC
  5
147
330
1F
100
AcDbEntity
  8
0
  6
Continuous
 62
     7
370
    25
100
AcDbCircle
 10
-11.7519685039
 20
15.7086614173
 30
0.0
 40
0.0393700787401539
100
AcDbArc
 50
360.0
 51
90.0
  0
ARC
  5
148
330
1F
100
AcDbEntity
  8
0
  6
Continuous
 62
     7
370
    25
100
AcDbCircle
 10
-12.3749300514
 20
15.7135826772
 30
0.0
 40
0.0351448249436154
100
AcDbArc
 50
101.421753659
 51
188.0494669755
  0
ARC
  5
149
330
1F
100
AcDbEntity
  8
0
  6
Continuous
 62
     7
370
    25
100
AcDbCircle
 10
-12.3818897638
 20
15.7086614173
 30
0.0
 40
0.0393700787401574
100
AcDbArc
 50
90.0
 51
180.0
  0
ARC
  5
14A
330
1F
100
AcDbEntity
  8
0
  6
Continuous
 62
     7
370
    25
100
AcDbCircle
 10
10.9645669291
 20
15.7086614173
 30
0.0
 40
0.0393700787401539
100
AcDbArc
 50
360.0
 51
90.0
  0
ARC
  5
14B
330
1F
100
AcDbEntity
  8
0
  6
Continuous
 62
     7
370
    25
100
AcDbCircle
 10
-10.9645669291
 20
15.7086614173
 30
0.0
 40
0.0393700787401574
100
AcDbArc
 50
90.0
 51
180.0
  0
ARC
  5
14C
330
1F
100
AcDbEntity
  8
0
  6
Continuous
 62
     7
370
    25
100
AcDbCircle
 10
-12.4606299213
 20
15.7086614173
 30
0.0
 40
0.0393700787401539
100
AcDbArc
 50
360.0
 51
90.0
  0
ARC
  5
14D
330
1F
100
AcDbEntity
  8
0
  6
Continuous
 62
     7
370
    25
100
AcDbCircle
 10
-34.3897637795
 20
15.7086614173
 30
0.0
 40
0.0393700787401503
100
AcDbArc
 50
90.0
 51
180.0
  0
LINE
  5
16E
330
1B
100
AcDbEntity
 67
     1
  8
0
  6
Continuous
 62
     7
370
    25
100
AcDbLine
 10
8.8616451353
 20
0.0393700787
 30
0.0
 11
8.8616451353
 21
15.7086614173
 31
0.0
  0
LINE
  5
16F
330
1B
100
AcDbEntity
 67
     1
  8
0
  6
Continuous
 62
     7
370
    25
100
AcDbLine
 10
-8.9960629921
 20
15.7480314961
 30
0.0
 11
8.9173228346
 21
15.7480314961
 31
0.0
  0
LINE
  5
170
330
1B
100
AcDbEntity
 67
     1
  8
0
  6
Continuous
 62
     7
370
    25
100
AcDbLine
 10
8.9173228346
 20
15.7480314961
 30
0.0
 11
8.9173228346
 21
0.0
 31
0.0
  0
LINE
  5
171
330
1B
100
AcDbEntity
 67
     1
  8
0
  6
Continuous
 62
     7
370
    25
100
AcDbLine
 10
8.9173228346
 20
0.0
 30
0.0
 11
-8.9960629921
 21
0.0
 31
0.0
  0
LINE
  5
172
330
1B
100
AcDbEntity
 67
     1
  8
0
  6
Continuous
 62
     7
370
    25
100
AcDbLine
 10
-8.9960629921
 20
0.0
 30
0.0
 11
-8.9960629921
 21
15.7480314961
 31
0.0
  0
LINE
  5
173
330
1B
100
AcDbEntity
 67
     1
  8
0
  6
Continuous
 62
     7
370
    25
100
AcDbLine
 10
8.8222750566
 20
0.0
 30
0.0
 11
8.8222750566
 21
15.7480314961
 31
0.0
  0
LINE
  5
174
330
1B
100
AcDbEntity
 67
     1
  8
0
  6
Continuous
 62
     7
370
    25
100
AcDbLine
 10
8.8616451353
 20
15.7086614173
 30
0.0
 11
-8.9960629921
 21
15.7086614173
 31
0.0
  0
LINE
  5
175
330
1B
100
AcDbEntity
 67
     1
  8
0
  6
Continuous
 62
     7
370
    25
100
AcDbLine
 10
-8.9566929134
 20
15.7480314961
 30
0.0
 11
-8.9566929134
 21
0.0
 31
0.0
  0
LINE
  5
176
330
1B
100
AcDbEntity
 67
     1
  8
0
  6
Continuous
 62
     8
370
    25
100
AcDbLine
 10
-8.9960629921
 20
0.0393700787
 30
0.0
 11
8.9173228346
 21
0.0393700787
 31
0.0
  0
ARC
  5
177
330
1B
100
AcDbEntity
 67
     1
  8
0
  6
Continuous
 62
     7
370
    25
100
AcDbCircle
 10
8.8222750566
 20
0.0393700787
 30
0.0
 40
0.039370078740161
100
AcDbArc
 50
270.0
 51
360.0
  0
ARC
  5
178
330
1B
100
AcDbEntity
 67
     1
  8
0
  6
Continuous
 62
     7
370
    25
100
AcDbCircle
 10
8.8222750566
 20
15.7086614173
 30
0.0
 40
0.0393700787401539
100
AcDbArc
 50
360.0
 51
90.0
  0
ARC
  5
179
330
1B
100
AcDbEntity
 67
     1
  8
0
  6
Continuous
 62
     7
370
    25
100
AcDbCircle
 10
8.8779527559
 20
0.0393700787
 30
0.0
 40
0.0393700787401578
100
AcDbArc
 50
225.0
 51
0.0
  0
ARC
  5
17A
330
1B
100
AcDbEntity
 67
     1
  8
0
  6
Continuous
 62
     7
370
    25
100
AcDbCircle
 10
8.8779527559
 20
13.9437627116
 30
0.0
 40
0.0393700787401575
100
AcDbArc
 50
360.0
 51
114.4698005207
  0
ARC
  5
17B
330
1B
100
AcDbEntity
 67
     1
  8
0
  6
Continuous
 62
     7
370
    25
100
AcDbCircle
 10
-8.9566929134
 20
0.0393700787
 30
0.0
 40
0.0393700787401592
100
AcDbArc
 50
180.0
 51
270.0
  0
ARC
  5
17C
330
1B
100
AcDbEntity
 67
     1
  8
0
  6
Continuous
 62
     7
370
    25
100
AcDbCircle
 10
-8.9566929134
 20
15.7086614173
 30
0.0
 40
0.0393700787401539
100
AcDbArc
 50
90.0
 51
180.0
  0
VIEWPORT
  5
537
330
1B
100
AcDbEntity
 67
     1
  8
0
100
AcDbViewport
 10
0.0
 20
0.0
 30
0.0
 40
8.4
 41
6.4
 68
     1
 69
     1
 12
-7.7755905512
 22
7.874015748
 13
0.0
 23
0.0
 14
0.5
 24
0.5
 15
0.5
 25
0.5
 16
0.0
 26
0.0
 36
1.0
 17
0.0
 27
0.0
 37
0.0
 42
50.0
 43
0.0
 44
0.0
 45
42.5286839145
 50
0.0
 51
0.0
 72
   100
 90
   557152
  1

281
     0
 71
     1
 74
     0
110
0.0
120
0.0
130
0.0
111
1.0
121
0.0
131
0.0
112
0.0
122
1.0
132
0.0
 79
     0
146
0.0
  0
ENDSEC
  0
SECTION
  2
OBJECTS
  0
DICTIONARY
  5
C
330
0
100
AcDbDictionary
281
     1
  3
ACAD_GROUP
350
D
  3
ACAD_LAYOUT
350
1A
  3
ACAD_MLINESTYLE
350
17
  3
ACAD_PLOTSETTINGS
350
19
  3
ACAD_PLOTSTYLENAME
350
E
  3
ACAD_SCALELIST
350
47
  0
DICTIONARY
  5
D
102
{ACAD_REACTORS
330
C
102
}
330
C
100
AcDbDictionary
281
     1
  0
DICTIONARY
  5
1A
102
{ACAD_REACTORS
330
C
102
}
330
C
100
AcDbDictionary
281
     1
  3
_Isometric
350
2F9
  3
_Left
350
1E
  3
_Right
350
26
  3
_Top
350
186
  3
Model
350
22
  0
DICTIONARY
  5
17
102
{ACAD_REACTORS
330
C
102
}
330
C
100
AcDbDictionary
281
     1
  3
Standard
350
18
  0
DICTIONARY
  5
19
102
{ACAD_REACTORS
330
C
102
}
330
C
100
AcDbDictionary
281
     1
  0
ACDBDICTIONARYWDFLT
  5
E
102
{ACAD_REACTORS
330
C
102
}
330
C
100
AcDbDictionary
281
     1
  3
Normal
350
F
100
AcDbDictionaryWithDefault
340
F
  0
DICTIONARY
  5
47
102
{ACAD_REACTORS
330
C
102
}
330
C
100
AcDbDictionary
281
     1
  3
A0
350
48
  3
A1
350
49
  3
A2
350
4A
  3
A3
350
4B
  3
A4
350
4C
  3
A5
350
4D
  3
A6
350
4E
  3
A7
350
4F
  3
A8
350
50
  3
A9
350
51
  3
B0
350
52
  3
B1
350
53
  3
B2
350
54
  3
B3
350
55
  3
B4
350
56
  3
B5
350
57
  3
B6
350
58
  3
B7
350
59
  3
B8
350
5A
  3
B9
350
5B
  3
C0
350
5C
  3
C1
350
5D
  3
C2
350
5E
  3
C3
350
5F
  3
C4
350
60
  3
C5
350
61
  3
C6
350
62
  3
C7
350
63
  3
C8
350
64
  3
C9
350
65
  3
D0
350
66
  3
D1
350
67
  3
D2
350
68
  0
LAYOUT
  5
2F9
102
{ACAD_REACTORS
330
1A
102
}
330
1A
100
AcDbPlotSettings
  1

  2
none_device
  4
Letter_(8.50_x_11.00_Inches)
  6

 40
6.35
 41
6.35
 42
6.35001
 43
6.35001
 44
215.9
 45
279.4
 46
0.0
 47
0.0
 48
0.0
 49
0.0
140
0.0
141
0.0
142
1.0
143
1.9685040339
 70
   688
 72
     0
 73
     1
 74
     1
  7

 75
     0
147
0.507999975
148
228.5
149
0.0
100
AcDbLayout
  1
_Isometric
 70
     1
 71
     4
 10
0.0
 20
0.0
 11
0.0
 21
0.0
 12
0.0
 22
0.0
 32
0.0
 14
0.0
 24
0.0
 34
0.0
 15
0.0
 25
0.0
 35
0.0
146
0.0
 13
0.0
 23
0.0
 33
0.0
 16
1.0
 26
0.0
 36
0.0
 17
0.0
 27
1.0
 37
0.0
 76
     0
330
2F8
331
53D
  0
LAYOUT
  5
1E
102
{ACAD_REACTORS
330
1A
102
}
330
1A
100
AcDbPlotSettings
  1

  2
none_device
  4
Letter_(8.50_x_11.00_Inches)
  6

 40
6.35
 41
6.35
 42
6.35001
 43
6.35001
 44
215.9
 45
279.4
 46
0.0
 47
0.0
 48
0.0
 49
0.0
140
0.0
141
0.0
142
1.0
143
1.9685040339
 70
   688
 72
     0
 73
     1
 74
     1
  7

 75
     0
147
0.507999975
148
228.5
149
0.0
100
AcDbLayout
  1
_Left
 70
     1
 71
     1
 10
-9.4881897756
 20
-0.4921260085
 11
12.1653545971
 21
16.2401582795
 12
0.0
 22
0.0
 32
0.0
 14
-8.9960629921
 24
0.0
 34
0.0
 15
8.9173228346
 25
15.7480314961
 35
0.0
146
0.0
 13
0.0
 23
0.0
 33
0.0
 16
1.0
 26
0.0
 36
0.0
 17
0.0
 27
1.0
 37
0.0
 76
     0
330
1B
331
537
  0
LAYOUT
  5
26
102
{ACAD_REACTORS
330
1A
102
}
330
1A
100
AcDbPlotSettings
  1

  2
none_device
  4
Letter_(8.50_x_11.00_Inches)
  6

 40
6.35
 41
6.35
 42
6.35001
 43
6.35001
 44
215.9
 45
279.4
 46
0.0
 47
0.0
 48
0.0
 49
0.0
140
0.0
141
0.0
142
1.0
143
1.9685040339
 70
   688
 72
     0
 73
     1
 74
     1
  7

 75
     0
147
0.507999975
148
228.5
149
0.0
100
AcDbLayout
  1
_Right
 70
     1
 71
     2
 10
0.0
 20
0.0
 11
0.0
 21
0.0
 12
0.0
 22
0.0
 32
0.0
 14
0.0
 24
0.0
 34
0.0
 15
0.0
 25
0.0
 35
0.0
146
0.0
 13
0.0
 23
0.0
 33
0.0
 16
1.0
 26
0.0
 36
0.0
 17
0.0
 27
1.0
 37
0.0
 76
     0
330
23
331
539
  0
LAYOUT
  5
186
102
{ACAD_REACTORS
330
1A
102
}
330
1A
100
AcDbPlotSettings
  1

  2
none_device
  4
Letter_(8.50_x_11.00_Inches)
  6

 40
6.35
 41
6.35
 42
6.35001
 43
6.35001
 44
215.9
 45
279.4
 46
0.0
 47
0.0
 48
0.0
 49
0.0
140
0.0
141
0.0
142
1.0
143
1.9685040339
 70
   688
 72
     0
 73
     1
 74
     1
  7

 75
     0
147
0.507999975
148
228.5
149
0.0
100
AcDbLayout
  1
_Top
 70
     1
 71
     3
 10
0.0
 20
0.0
 11
0.0
 21
0.0
 12
0.0
 22
0.0
 32
0.0
 14
0.0
 24
0.0
 34
0.0
 15
0.0
 25
0.0
 35
0.0
146
0.0
 13
0.0
 23
0.0
 33
0.0
 16
1.0
 26
0.0
 36
0.0
 17
0.0
 27
1.0
 37
0.0
 76
     0
330
185
331
53B
  0
LAYOUT
  5
22
102
{ACAD_REACTORS
330
1A
102
}
330
1A
100
AcDbPlotSettings
  1

  2
none_device
  4
ANSI_A_(11.00_x_8.50_Inches)
  6

 40
6.35
 41
19.05
 42
6.35000508
 43
19.05000254
 44
279.4
 45
215.9
 46
172.6519291147
 47
49.1005742696
 48
0.0
 49
0.0
140
0.0
141
0.0
142
0.1989971223
143
1.0
 70
  1696
 72
     0
 73
     0
 74
     0
  7

 75
     0
147
0.5913241897
148
-39.4088153714
149
0.0
100
AcDbLayout
  1
Model
 70
     1
 71
     0
 10
0.0
 20
0.0
 11
12.0
 21
9.0
 12
0.0
 22
0.0
 32
0.0
 14
-35.1377952756
 24
0.0
 34
0.0
 15
19.5866141732
 25
15.7480314961
 35
0.0
146
0.0
 13
0.0
 23
0.0
 33
0.0
 16
1.0
 26
0.0
 36
0.0
 17
0.0
 27
1.0
 37
0.0
 76
     0
330
1F
331
29
  0
MLINESTYLE
  5
18
102
{ACAD_REACTORS
330
17
102
}
330
17
100
AcDbMlineStyle
  2
Standard
 70
     0
  3

 62
   256
 51
90.0
 52
90.0
 71
     2
 49
0.5
 62
   256
  6
BYLAYER
 49
-0.5
 62
   256
  6
BYLAYER
  0
ACDBPLACEHOLDER
  5
F
102
{ACAD_REACTORS
330
E
102
}
330
E
  0
SCALE
  5
48
102
{ACAD_REACTORS
330
47
102
}
330
47
100
AcDbScale
 70
     0
300
1:1
140
1.0
141
1.0
290
     1
  0
SCALE
  5
49
102
{ACAD_REACTORS
330
47
102
}
330
47
100
AcDbScale
 70
     0
300
1:2
140
1.0
141
2.0
290
     0
  0
SCALE
  5
4A
102
{ACAD_REACTORS
330
47
102
}
330
47
100
AcDbScale
 70
     0
300
1:4
140
1.0
141
4.0
290
     0
  0
SCALE
  5
4B
102
{ACAD_REACTORS
330
47
102
}
330
47
100
AcDbScale
 70
     0
300
1:5
140
1.0
141
5.0
290
     0
  0
SCALE
  5
4C
102
{ACAD_REACTORS
330
47
102
}
330
47
100
AcDbScale
 70
     0
300
1:8
140
1.0
141
8.0
290
     0
  0
SCALE
  5
4D
102
{ACAD_REACTORS
330
47
102
}
330
47
100
AcDbScale
 70
     0
300
1:10
140
1.0
141
10.0
290
     0
  0
SCALE
  5
4E
102
{ACAD_REACTORS
330
47
102
}
330
47
100
AcDbScale
 70
     0
300
1:16
140
1.0
141
16.0
290
     0
  0
SCALE
  5
4F
102
{ACAD_REACTORS
330
47
102
}
330
47
100
AcDbScale
 70
     0
300
1:20
140
1.0
141
20.0
290
     0
  0
SCALE
  5
50
102
{ACAD_REACTORS
330
47
102
}
330
47
100
AcDbScale
 70
     0
300
1:30
140
1.0
141
30.0
290
     0
  0
SCALE
  5
51
102
{ACAD_REACTORS
330
47
102
}
330
47
100
AcDbScale
 70
     0
300
1:40
140
1.0
141
40.0
290
     0
  0
SCALE
  5
52
102
{ACAD_REACTORS
330
47
102
}
330
47
100
AcDbScale
 70
     0
300
1:50
140
1.0
141
50.0
290
     0
  0
SCALE
  5
53
102
{ACAD_REACTORS
330
47
102
}
330
47
100
AcDbScale
 70
     0
300
1:100
140
1.0
141
100.0
290
     0
  0
SCALE
  5
54
102
{ACAD_REACTORS
330
47
102
}
330
47
100
AcDbScale
 70
     0
300
2:1
140
2.0
141
1.0
290
     0
  0
SCALE
  5
55
102
{ACAD_REACTORS
330
47
102
}
330
47
100
AcDbScale
 70
     0
300
4:1
140
4.0
141
1.0
290
     0
  0
SCALE
  5
56
102
{ACAD_REACTORS
330
47
102
}
330
47
100
AcDbScale
 70
     0
300
8:1
140
8.0
141
1.0
290
     0
  0
SCALE
  5
57
102
{ACAD_REACTORS
330
47
102
}
330
47
100
AcDbScale
 70
     0
300
10:1
140
10.0
141
1.0
290
     0
  0
SCALE
  5
58
102
{ACAD_REACTORS
330
47
102
}
330
47
100
AcDbScale
 70
     0
300
100:1
140
100.0
141
1.0
290
     0
  0
SCALE
  5
59
102
{ACAD_REACTORS
330
47
102
}
330
47
100
AcDbScale
 70
     0
300
1/128" = 1'-0"
140
0.0078125
141
12.0
290
     0
  0
SCALE
  5
5A
102
{ACAD_REACTORS
330
47
102
}
330
47
100
AcDbScale
 70
     0
300
1/64" = 1'-0"
140
0.015625
141
12.0
290
     0
  0
SCALE
  5
5B
102
{ACAD_REACTORS
330
47
102
}
330
47
100
AcDbScale
 70
     0
300
1/32" = 1'-0"
140
0.03125
141
12.0
290
     0
  0
SCALE
  5
5C
102
{ACAD_REACTORS
330
47
102
}
330
47
100
AcDbScale
 70
     0
300
1/16" = 1'-0"
140
0.0625
141
12.0
290
     0
  0
SCALE
  5
5D
102
{ACAD_REACTORS
330
47
102
}
330
47
100
AcDbScale
 70
     0
300
3/32" = 1'-0"
140
0.09375
141
12.0
290
     0
  0
SCALE
  5
5E
102
{ACAD_REACTORS
330
47
102
}
330
47
100
AcDbScale
 70
     0
300
1/8" = 1'-0"
140
0.125
141
12.0
290
     0
  0
SCALE
  5
5F
102
{ACAD_REACTORS
330
47
102
}
330
47
100
AcDbScale
 70
     0
300
3/16" = 1'-0"
140
0.1875
141
12.0
290
     0
  0
SCALE
  5
60
102
{ACAD_REACTORS
330
47
102
}
330
47
100
AcDbScale
 70
     0
300
1/4" = 1'-0"
140
0.25
141
12.0
290
     0
  0
SCALE
  5
61
102
{ACAD_REACTORS
330
47
102
}
330
47
100
AcDbScale
 70
     0
300
3/8" = 1'-0"
140
0.375
141
12.0
290
     0
  0
SCALE
  5
62
102
{ACAD_REACTORS
330
47
102
}
330
47
100
AcDbScale
 70
     0
300
1/2" = 1'-0"
140
0.5
141
12.0
290
     0
  0
SCALE
  5
63
102
{ACAD_REACTORS
330
47
102
}
330
47
100
AcDbScale
 70
     0
300
3/4" = 1'-0"
140
0.75
141
12.0
290
     0
  0
SCALE
  5
64
102
{ACAD_REACTORS
330
47
102
}
330
47
100
AcDbScale
 70
     0
300
1" = 1'-0"
140
1.0
141
12.0
290
     0
  0
SCALE
  5
65
102
{ACAD_REACTORS
330
47
102
}
330
47
100
AcDbScale
 70
     0
300
1-1/2" = 1'-0"
140
1.5
141
12.0
290
     0
  0
SCALE
  5
66
102
{ACAD_REACTORS
330
47
102
}
330
47
100
AcDbScale
 70
     0
300
3" = 1'-0"
140
3.0
141
12.0
290
     0
  0
SCALE
  5
67
102
{ACAD_REACTORS
330
47
102
}
330
47
100
AcDbScale
 70
     0
300
6" = 1'-0"
140
6.0
141
12.0
290
     0
  0
SCALE
  5
68
102
{ACAD_REACTORS
330
47
102
}
330
47
100
AcDbScale
 70
     0
300
1'-0" = 1'-0"
140
12.0
141
12.0
290
     0
  0
ENDSEC
  0
EOF
