  0
SECTION
  2
HEADER
  9
$ACADVER
  1
AC1015
  9
$ACADMAINTVER
 70
     6
  9
$DWGCODEPAGE
  3
ANSI_1252
  9
$INSBASE
 10
0.0
 20
0.0
 30
0.0
  9
$EXTMIN
 10
-11.6633858268
 20
0.0
 30
0.0
  9
$EXTMAX
 10
35.3838582677
 20
20.8661417323
 30
0.0
  9
$LIMMIN
 10
0.0
 20
0.0
  9
$LIMMAX
 10
12.0
 20
9.0
  9
$ORTHOMODE
 70
     0
  9
$REGENMODE
 70
     1
  9
$FILLMODE
 70
     1
  9
$QTEXTMODE
 70
     0
  9
$MIRRTEXT
 70
     1
  9
$LTSCALE
 40
1.0
  9
$ATTMODE
 70
     1
  9
$TEXTSIZE
 40
0.1377952756
  9
$TRACEWID
 40
0.05
  9
$TEXTSTYLE
  7
Standard
  9
$CLAYER
  8
0
  9
$CELTYPE
  6
ByLayer
  9
$CECOLOR
 62
   256
  9
$CELTSCALE
 40
1.0
  9
$DISPSILH
 70
     0
  9
$DIMSCALE
 40
1.0
  9
$DIMASZ
 40
0.13
  9
$DIMEXO
 40
0.0393700787
  9
$DIMDLI
 40
0.38
  9
$DIMRND
 40
0.0
  9
$DIMDLE
 40
0.0
  9
$DIMEXE
 40
0.0393700787
  9
$DIMTP
 40
0.0
  9
$DIMTM
 40
0.0
  9
$DIMTXT
 40
0.1377952756
  9
$DIMCEN
 40
0.09
  9
$DIMTSZ
 40
0.0
  9
$DIMTOL
 70
     0
  9
$DIMLIM
 70
     0
  9
$DIMTIH
 70
     1
  9
$DIMTOH
 70
     1
  9
$DIMSE1
 70
     0
  9
$DIMSE2
 70
     0
  9
$DIMTAD
 70
     1
  9
$DIMZIN
 70
     1
  9
$DIMBLK
  1

  9
$DIMASO
 70
     1
  9
$DIMSHO
 70
     1
  9
$DIMPOST
  1

  9
$DIMAPOST
  1

  9
$DIMALT
 70
     0
  9
$DIMALTD
 70
     2
  9
$DIMALTF
 40
25.4
  9
$DIMLFAC
 40
1.0
  9
$DIMTOFL
 70
     0
  9
$DIMTVP
 40
0.0
  9
$DIMTIX
 70
     0
  9
$DIMSOXD
 70
     0
  9
$DIMSAH
 70
     0
  9
$DIMBLK1
  1

  9
$DIMBLK2
  1

  9
$DIMSTYLE
  2
Standard
  9
$DIMCLRD
 70
     0
  9
$DIMCLRE
 70
     0
  9
$DIMCLRT
 70
     0
  9
$DIMTFAC
 40
1.0
  9
$DIMGAP
 40
0.06
  9
$DIMJUST
 70
     0
  9
$DIMSD1
 70
     0
  9
$DIMSD2
 70
     0
  9
$DIMTOLJ
 70
     1
  9
$DIMTZIN
 70
     1
  9
$DIMALTZ
 70
     0
  9
$DIMALTTZ
 70
     0
  9
$DIMUPT
 70
     0
  9
$DIMDEC
 70
     2
  9
$DIMTDEC
 70
     2
  9
$DIMALTU
 70
     2
  9
$DIMALTTD
 70
     2
  9
$DIMTXSTY
  7
Standard
  9
$DIMAUNIT
 70
     0
  9
$DIMADEC
 70
     2
  9
$DIMALTRND
 40
0.0
  9
$DIMAZIN
 70
     0
  9
$DIMDSEP
 70
    46
  9
$DIMATFIT
 70
     3
  9
$DIMFRAC
 70
     0
  9
$DIMLDRBLK
  1

  9
$DIMLUNIT
 70
     2
  9
$DIMLWD
 70
    -2
  9
$DIMLWE
 70
    -2
  9
$DIMTMOVE
 70
     0
  9
$LUNITS
 70
     2
  9
$LUPREC
 70
     2
  9
$SKETCHINC
 40
0.1
  9
$FILLETRAD
 40
0.5
  9
$AUNITS
 70
     0
  9
$AUPREC
 70
     2
  9
$MENU
  1
.
  9
$ELEVATION
 40
0.0
  9
$PELEVATION
 40
0.0
  9
$THICKNESS
 40
0.0
  9
$LIMCHECK
 70
     0
  9
$CHAMFERA
 40
0.0
  9
$CHAMFERB
 40
0.0
  9
$CHAMFERC
 40
0.0
  9
$CHAMFERD
 40
0.0
  9
$SKPOLY
 70
     0
  9
$TDCREATE
 40
2459914.602258055
  9
$TDUCREATE
 40
2459914.602258055
  9
$TDUPDATE
 40
2459914.602378808
  9
$TDUUPDATE
 40
2459914.602378808
  9
$TDINDWG
 40
0.0000000116
  9
$TDUSRTIMER
 40
0.0000000116
  9
$USRTIMER
 70
     1
  9
$ANGBASE
 50
0.0
  9
$ANGDIR
 70
     0
  9
$PDMODE
 70
     0
  9
$PDSIZE
 40
-1.0
  9
$PLINEWID
 40
0.0
  9
$SPLFRAME
 70
     0
  9
$SPLINETYPE
 70
     6
  9
$SPLINESEGS
 70
     8
  9
$HANDSEED
  5
3E3
  9
$SURFTAB1
 70
     6
  9
$SURFTAB2
 70
     6
  9
$SURFTYPE
 70
     6
  9
$SURFU
 70
     6
  9
$SURFV
 70
     6
  9
$UCSBASE
  2

  9
$UCSNAME
  2

  9
$UCSORG
 10
0.0
 20
0.0
 30
0.0
  9
$UCSXDIR
 10
1.0
 20
0.0
 30
0.0
  9
$UCSYDIR
 10
0.0
 20
1.0
 30
0.0
  9
$UCSORTHOREF
  2

  9
$UCSORTHOVIEW
 70
     0
  9
$UCSORGTOP
 10
0.0
 20
0.0
 30
0.0
  9
$UCSORGBOTTOM
 10
0.0
 20
0.0
 30
0.0
  9
$UCSORGLEFT
 10
0.0
 20
0.0
 30
0.0
  9
$UCSORGRIGHT
 10
0.0
 20
0.0
 30
0.0
  9
$UCSORGFRONT
 10
0.0
 20
0.0
 30
0.0
  9
$UCSORGBACK
 10
0.0
 20
0.0
 30
0.0
  9
$PUCSBASE
  2

  9
$PUCSNAME
  2

  9
$PUCSORG
 10
0.0
 20
0.0
 30
0.0
  9
$PUCSXDIR
 10
1.0
 20
0.0
 30
0.0
  9
$PUCSYDIR
 10
0.0
 20
1.0
 30
0.0
  9
$PUCSORTHOREF
  2

  9
$PUCSORTHOVIEW
 70
     0
  9
$PUCSORGTOP
 10
0.0
 20
0.0
 30
0.0
  9
$PUCSORGBOTTOM
 10
0.0
 20
0.0
 30
0.0
  9
$PUCSORGLEFT
 10
0.0
 20
0.0
 30
0.0
  9
$PUCSORGRIGHT
 10
0.0
 20
0.0
 30
0.0
  9
$PUCSORGFRONT
 10
0.0
 20
0.0
 30
0.0
  9
$PUCSORGBACK
 10
0.0
 20
0.0
 30
0.0
  9
$USERI1
 70
     0
  9
$USERI2
 70
     0
  9
$USERI3
 70
     0
  9
$USERI4
 70
     0
  9
$USERI5
 70
     0
  9
$USERR1
 40
0.0
  9
$USERR2
 40
0.0
  9
$USERR3
 40
0.0
  9
$USERR4
 40
0.0
  9
$USERR5
 40
0.0
  9
$WORLDVIEW
 70
     1
  9
$SHADEDGE
 70
     3
  9
$SHADEDIF
 70
    70
  9
$TILEMODE
 70
     1
  9
$MAXACTVP
 70
    64
  9
$PINSBASE
 10
0.0
 20
0.0
 30
0.0
  9
$PLIMCHECK
 70
     0
  9
$PEXTMIN
 10
-35.3838582677
 20
0.0
 30
0.0
  9
$PEXTMAX
 10
11.6633858268
 20
20.8661417323
 30
0.0
  9
$PLIMMIN
 10
-36.5040325522
 20
-1.1201725204
  9
$PLIMMAX
 10
12.7835583472
 20
36.9656931746
  9
$UNITMODE
 70
     0
  9
$VISRETAIN
 70
     1
  9
$PLINEGEN
 70
     0
  9
$PSLTSCALE
 70
     1
  9
$TREEDEPTH
 70
  3020
  9
$CMLSTYLE
  2
Standard
  9
$CMLJUST
 70
     0
  9
$CMLSCALE
 40
1.0
  9
$PROXYGRAPHICS
 70
     1
  9
$MEASUREMENT
 70
     0
  9
$CELWEIGHT
370
    -1
  9
$ENDCAPS
280
     0
  9
$JOINSTYLE
280
     0
  9
$LWDISPLAY
290
     1
  9
$INSUNITS
 70
     1
  9
$HYPERLINKBASE
  1

  9
$STYLESHEET
  1

  9
$XEDIT
290
     1
  9
$CEPSNTYPE
380
     0
  9
$PSTYLEMODE
290
     1
  9
$FINGERPRINTGUID
  2
{ba105a72-24ff-42a4-bbfb-45f46c748934}
  9
$VERSIONGUID
  2
{FAEB1C32-E019-11D5-929B-00C0DF256EC4}
  9
$EXTNAMES
290
     1
  9
$PSVPSCALE
 40
0.0
  9
$OLESTARTUP
290
     0
  0
ENDSEC
  0
SECTION
  2
CLASSES
  0
CLASS
  1
ACDBDICTIONARYWDFLT
  2
AcDbDictionaryWithDefault
  3
ObjectDBX Classes
 90
        0
280
     0
281
     0
  0
CLASS
  1
VISUALSTYLE
  2
AcDbVisualStyle
  3
ObjectDBX Classes
 90
     4095
280
     0
281
     0
  0
CLASS
  1
MATERIAL
  2
AcDbMaterial
  3
ObjectDBX Classes
 90
     1153
280
     0
281
     0
  0
CLASS
  1
SCALE
  2
AcDbScale
  3
ObjectDBX Classes
 90
     1153
280
     0
281
     0
  0
CLASS
  1
TABLESTYLE
  2
AcDbTableStyle
  3
ObjectDBX Classes
 90
     4095
280
     0
281
     0
  0
CLASS
  1
MLEADERSTYLE
  2
AcDbMLeaderStyle
  3
ACDB_MLEADERSTYLE_CLASS
 90
     4095
280
     0
281
     0
  0
CLASS
  1
SUN
  2
AcDbSun
  3
SCENEOE
 90
     1153
280
     0
281
     0
  0
CLASS
  1
ACDBPLACEHOLDER
  2
AcDbPlaceHolder
  3
ObjectDBX Classes
 90
        0
280
     0
281
     0
  0
CLASS
  1
LAYOUT
  2
AcDbLayout
  3
ObjectDBX Classes
 90
        0
280
     0
281
     0
  0
ENDSEC
  0
SECTION
  2
TABLES
  0
TABLE
  2
VPORT
  5
8
330
0
100
AcDbSymbolTable
 70
     1
  0
VPORT
  5
29
330
8
100
AcDbSymbolTableRecord
100
AcDbViewportTableRecord
  2
*Active
 70
     0
 10
0.0
 20
0.0
 11
1.0
 21
1.0
 12
11.8602362205
 22
10.4330708661
 13
0.0
 23
0.0
 14
0.5
 24
0.5
 15
0.5
 25
0.5
 16
0.0
 26
0.0
 36
1.0
 17
0.0
 27
0.0
 37
0.0
 40
21.2834645669
 41
2.2547169811
 42
50.0
 43
0.0
 44
0.0
 50
0.0
 51
0.0
 71
     0
 72
   100
 73
     1
 74
     3
 75
     0
 76
     0
 77
     0
 78
     0
281
     0
 65
     1
110
0.0
120
0.0
130
0.0
111
1.0
121
0.0
131
0.0
112
0.0
122
1.0
132
0.0
 79
     0
146
0.0
  0
ENDTAB
  0
TABLE
  2
LTYPE
  5
5
330
0
100
AcDbSymbolTable
 70
     6
  0
LTYPE
  5
14
330
5
100
AcDbSymbolTableRecord
100
AcDbLinetypeTableRecord
  2
ByBlock
 70
     0
  3

 72
    65
 73
     0
 40
0.0
  0
LTYPE
  5
15
330
5
100
AcDbSymbolTableRecord
100
AcDbLinetypeTableRecord
  2
ByLayer
 70
     0
  3

 72
    65
 73
     0
 40
0.0
  0
LTYPE
  5
16
330
5
100
AcDbSymbolTableRecord
100
AcDbLinetypeTableRecord
  2
Continuous
 70
     0
  3
Solid line
 72
    65
 73
     0
 40
0.0
  0
LTYPE
  5
6E
330
5
100
AcDbSymbolTableRecord
100
AcDbLinetypeTableRecord
  2
HIDDEN
 70
     0
  3
Hidden __ __ __ __ __ __ __ __ __ __ __ __ __ __
 72
    65
 73
     2
 40
0.075
 49
0.05
 74
     0
 49
-0.025
 74
     0
  0
LTYPE
  5
6F
330
5
100
AcDbSymbolTableRecord
100
AcDbLinetypeTableRecord
  2
PHANTOM
 70
     0
  3
Phantom ______  __  __  ______  __  __  ______
 72
    65
 73
     6
 40
0.5
 49
0.25
 74
     0
 49
-0.05
 74
     0
 49
0.05
 74
     0
 49
-0.05
 74
     0
 49
0.05
 74
     0
 49
-0.05
 74
     0
  0
LTYPE
  5
70
330
5
100
AcDbSymbolTableRecord
100
AcDbLinetypeTableRecord
  2
CENTER
 70
     0
  3
Center ____ _ ____ _ ____ _ ____ _ ____ _ ____
 72
    65
 73
     4
 40
0.4
 49
0.25
 74
     0
 49
-0.05
 74
     0
 49
0.05
 74
     0
 49
-0.05
 74
     0
  0
LTYPE
  5
71
330
5
100
AcDbSymbolTableRecord
100
AcDbLinetypeTableRecord
  2
CENTERX2
 70
     0
  3
Center (2x) ________  __  ________  __  _____
 72
    65
 73
     4
 40
0.8
 49
0.5
 74
     0
 49
-0.1
 74
     0
 49
0.1
 74
     0
 49
-0.1
 74
     0
  0
LTYPE
  5
72
330
5
100
AcDbSymbolTableRecord
100
AcDbLinetypeTableRecord
  2
DOT2
 70
     0
  3
Dot (.5x) ........................................
 72
    65
 73
     2
 40
0.025
 49
0.0
 74
     0
 49
-0.025
 74
     0
  0
ENDTAB
  0
TABLE
  2
LAYER
  5
2
330
0
100
AcDbSymbolTable
 70
     1
  0
LAYER
  5
10
330
2
100
AcDbSymbolTableRecord
100
AcDbLayerTableRecord
  2
0
 70
     0
 62
     7
  6
Continuous
370
    -3
390
F
  0
ENDTAB
  0
TABLE
  2
STYLE
  5
3
330
0
100
AcDbSymbolTable
 70
     1
  0
STYLE
  5
11
330
3
100
AcDbSymbolTableRecord
100
AcDbTextStyleTableRecord
  2
Standard
 70
     0
 40
0.0
 41
1.0
 50
0.0
 71
     0
 42
0.1377952756
  3
txt
  4

  0
ENDTAB
  0
TABLE
  2
VIEW
  5
6
330
0
100
AcDbSymbolTable
 70
     0
  0
ENDTAB
  0
TABLE
  2
UCS
  5
7
330
0
100
AcDbSymbolTable
 70
     0
  0
ENDTAB
  0
TABLE
  2
APPID
  5
9
330
0
100
AcDbSymbolTable
 70
     1
  0
APPID
  5
12
330
9
100
AcDbSymbolTableRecord
100
AcDbRegAppTableRecord
  2
ACAD
 70
     0
  0
ENDTAB
  0
TABLE
  2
DIMSTYLE
  5
A
330
0
100
AcDbSymbolTable
 70
     1
100
AcDbDimStyleTable
  0
DIMSTYLE
105
27
330
A
100
AcDbSymbolTableRecord
100
AcDbDimStyleTableRecord
  2
Standard
 70
     0
178
     0
340
11
  0
ENDTAB
  0
TABLE
  2
BLOCK_RECORD
  5
1
330
0
100
AcDbSymbolTable
 70
     2
  0
BLOCK_RECORD
  5
1F
330
1
100
AcDbSymbolTableRecord
100
AcDbBlockTableRecord
  2
*Model_Space
340
22
  0
BLOCK_RECORD
  5
1B
330
1
100
AcDbSymbolTableRecord
100
AcDbBlockTableRecord
  2
*Paper_Space
340
1E
  0
BLOCK_RECORD
  5
23
330
1
100
AcDbSymbolTableRecord
100
AcDbBlockTableRecord
  2
*Paper_Space0
340
26
  0
BLOCK_RECORD
  5
2B4
330
1
100
AcDbSymbolTableRecord
100
AcDbBlockTableRecord
  2
*Paper_Space1
340
2B5
  0
ENDTAB
  0
ENDSEC
  0
SECTION
  2
BLOCKS
  0
BLOCK
  5
20
330
1F
100
AcDbEntity
  8
0
100
AcDbBlockBegin
  2
*Model_Space
 70
     0
 10
0.0
 20
0.0
 30
0.0
  3
*Model_Space
  1

  0
ENDBLK
  5
21
330
1F
100
AcDbEntity
  8
0
100
AcDbBlockEnd
  0
BLOCK
  5
1C
330
1B
100
AcDbEntity
 67
     1
  8
0
100
AcDbBlockBegin
  2
*Paper_Space
 70
     0
 10
0.0
 20
0.0
 30
0.0
  3
*Paper_Space
  1

  0
ENDBLK
  5
1D
330
1B
100
AcDbEntity
 67
     1
  8
0
100
AcDbBlockEnd
  0
BLOCK
  5
24
330
23
100
AcDbEntity
  8
0
100
AcDbBlockBegin
  2
*Paper_Space0
 70
     0
 10
0.0
 20
0.0
 30
0.0
  3
*Paper_Space0
  1

  0
LINE
  5
2A1
330
23
100
AcDbEntity
  8
0
  6
Continuous
 62
     7
370
    25
100
AcDbLine
 10
8.8616451353
 20
0.0393700787
 30
0.0
 11
8.8616451353
 21
20.8267716535
 31
0.0
  0
LINE
  5
2A2
330
23
100
AcDbEntity
  8
0
  6
Continuous
 62
     7
370
    25
100
AcDbLine
 10
8.9173228346
 20
20.8661417323
 30
0.0
 11
8.9173228346
 21
0.0
 31
0.0
  0
LINE
  5
2A3
330
23
100
AcDbEntity
  8
0
  6
Continuous
 62
     7
370
    25
100
AcDbLine
 10
-8.9566929134
 20
20.8661417323
 30
0.0
 11
8.9173228346
 21
20.8661417323
 31
0.0
  0
LINE
  5
2A4
330
23
100
AcDbEntity
  8
0
  6
Continuous
 62
     7
370
    25
100
AcDbLine
 10
-8.9566929134
 20
20.8661417323
 30
0.0
 11
-8.9566929134
 21
0.0
 31
0.0
  0
LINE
  5
2A5
330
23
100
AcDbEntity
  8
0
  6
Continuous
 62
     7
370
    25
100
AcDbLine
 10
-8.9960629921
 20
0.0393700787
 30
0.0
 11
8.8616451353
 21
0.0393700787
 31
0.0
  0
LINE
  5
2A6
330
23
100
AcDbEntity
  8
0
  6
Continuous
 62
     7
370
    25
100
AcDbLine
 10
8.8222750566
 20
0.0
 30
0.0
 11
8.8222750566
 21
20.8661417323
 31
0.0
  0
LINE
  5
2A7
330
23
100
AcDbEntity
  8
0
  6
Continuous
 62
     7
370
    25
100
AcDbLine
 10
8.8616451353
 20
20.8267716535
 30
0.0
 11
-8.9960629921
 21
20.8267716535
 31
0.0
  0
LINE
  5
2A8
330
23
100
AcDbEntity
  8
0
  6
Continuous
 62
     7
370
    25
100
AcDbLine
 10
-8.9960629921
 20
0.0393700787
 30
0.0
 11
-8.9960629921
 21
20.8267716535
 31
0.0
  0
LINE
  5
2A9
330
23
100
AcDbEntity
  8
0
  6
Continuous
 62
     7
370
    25
100
AcDbLine
 10
8.8779527559
 20
0.0
 30
0.0
 11
-8.9566929134
 21
0.0
 31
0.0
  0
LINE
  5
2AA
330
23
100
AcDbEntity
  8
0
  6
Continuous
 62
     7
370
    25
100
AcDbLine
 10
8.8779527559
 20
10.461023622
 30
0.0
 11
8.8616451353
 21
10.461023622
 31
0.0
  0
LINE
  5
2AB
330
23
100
AcDbEntity
  8
0
  6
Continuous
 62
     8
370
    25
100
AcDbLine
 10
8.8501139063
 20
0.0
 30
0.0
 11
8.8501139063
 21
0.0115312291
 31
0.0
  0
ARC
  5
2AC
330
23
100
AcDbEntity
  8
0
  6
Continuous
 62
     7
370
    25
100
AcDbCircle
 10
8.8222750566
 20
20.8267716535
 30
0.0
 40
0.0393700787401539
100
AcDbArc
 50
360.0
 51
90.0
  0
ARC
  5
2AD
330
23
100
AcDbEntity
  8
0
  6
Continuous
 62
     7
370
    25
100
AcDbCircle
 10
8.8222750566
 20
0.0393700787
 30
0.0
 40
0.0393700787401592
100
AcDbArc
 50
270.0
 51
360.0
  0
ARC
  5
2AE
330
23
100
AcDbEntity
  8
0
  6
Continuous
 62
     7
370
    25
100
AcDbCircle
 10
-8.9566929134
 20
20.8267716535
 30
0.0
 40
0.0393700787401681
100
AcDbArc
 50
90.0
 51
180.0
  0
ARC
  5
2AF
330
23
100
AcDbEntity
  8
0
  6
Continuous
 62
     7
370
    25
100
AcDbCircle
 10
-8.9566929134
 20
0.0393700787
 30
0.0
 40
0.0393700787401592
100
AcDbArc
 50
180.0
 51
270.0
  0
ARC
  5
2B0
330
23
100
AcDbEntity
  8
0
  6
Continuous
 62
     7
370
    25
100
AcDbCircle
 10
8.8779527559
 20
8.6057396235
 30
0.0
 40
0.0393700787401592
100
AcDbArc
 50
0.0
 51
114.4698005207
  0
ARC
  5
2B1
330
23
100
AcDbEntity
  8
0
  6
Continuous
 62
     7
370
    25
100
AcDbCircle
 10
8.8779527559
 20
0.0393700787
 30
0.0
 40
0.0393700787401574
100
AcDbArc
 50
270.0
 51
0.0
  0
ARC
  5
2B2
330
23
100
AcDbEntity
  8
0
  6
Continuous
 62
     7
370
    25
100
AcDbCircle
 10
8.8779527559
 20
10.5003937008
 30
0.0
 40
0.0393700787401574
100
AcDbArc
 50
270.0
 51
0.0
  0
ARC
  5
2B3
330
23
100
AcDbEntity
  8
0
  6
Continuous
 62
     7
370
    25
100
AcDbCircle
 10
8.8779527559
 20
19.0667632456
 30
0.0
 40
0.0393700787401556
100
AcDbArc
 50
360.0
 51
114.4698005207
  0
VIEWPORT
  5
3DF
330
23
100
AcDbEntity
  8
0
100
AcDbViewport
 10
0.0
 20
0.0
 30
0.0
 40
8.4
 41
6.4
 68
     1
 69
     1
 12
11.8602362205
 22
10.4330708661
 13
0.0
 23
0.0
 14
0.5
 24
0.5
 15
0.5
 25
0.5
 16
0.0
 26
0.0
 36
1.0
 17
0.0
 27
0.0
 37
0.0
 42
50.0
 43
0.0
 44
0.0
 45
36.5624296963
 50
0.0
 51
0.0
 72
   100
 90
   557152
  1

281
     0
 71
     1
 74
     0
110
0.0
120
0.0
130
0.0
111
1.0
121
0.0
131
0.0
112
0.0
122
1.0
132
0.0
 79
     0
146
0.0
  0
ENDBLK
  5
25
330
23
100
AcDbEntity
  8
0
100
AcDbBlockEnd
  0
BLOCK
  5
2B6
330
2B4
100
AcDbEntity
  8
0
100
AcDbBlockBegin
  2
*Paper_Space1
 70
     0
 10
0.0
 20
0.0
 30
0.0
  3
*Paper_Space1
  1

  0
LINE
  5
362
330
2B4
100
AcDbEntity
  8
0
  6
Continuous
 62
     7
370
    25
100
AcDbLine
 10
26.6929133858
 20
7.5393700787
 30
0.0
 11
20.5511811024
 21
7.5393700787
 31
0.0
  0
LINE
  5
363
330
2B4
100
AcDbEntity
  8
0
  6
Continuous
 62
     7
370
    25
100
AcDbLine
 10
26.5748031496
 20
6.8307086614
 30
0.0
 11
26.5748031496
 21
7.5393700787
 31
0.0
  0
LINE
  5
364
330
2B4
100
AcDbEntity
  8
0
  6
Continuous
 62
     7
370
    25
100
AcDbLine
 10
20.5511811024
 20
6.8307086614
 30
0.0
 11
26.6929133858
 21
6.8307086614
 31
0.0
  0
LINE
  5
365
330
2B4
100
AcDbEntity
  8
0
  6
Continuous
 62
     7
370
    25
100
AcDbLine
 10
20.6692913386
 20
7.5393700787
 30
0.0
 11
20.6692913386
 21
6.8307086614
 31
0.0
  0
LINE
  5
366
330
2B4
100
AcDbEntity
  8
0
  6
Continuous
 62
     7
370
    25
100
AcDbLine
 10
12.5688976378
 20
-8.2086614173
 30
0.0
 11
12.5688976378
 21
8.6023622047
 31
0.0
  0
LINE
  5
367
330
2B4
100
AcDbEntity
  8
0
  6
Continuous
 62
     7
370
    25
100
AcDbLine
 10
11.8602362205
 20
8.6023622047
 30
0.0
 11
11.8602362205
 21
-8.9173228346
 31
0.0
  0
LINE
  5
368
330
2B4
100
AcDbEntity
  8
0
  6
Continuous
 62
     7
370
    25
100
AcDbLine
 10
12.5688976378
 20
-8.2086614173
 30
0.0
 11
11.8602362205
 21
-8.9173228346
 31
0.0
  0
LINE
  5
369
330
2B4
100
AcDbEntity
  8
0
  6
Continuous
 62
     7
370
    25
100
AcDbLine
 10
11.1515748031
 20
-6.8307086614
 30
0.0
 11
12.5688976378
 21
-6.8307086614
 31
0.0
  0
LINE
  5
36A
330
2B4
100
AcDbEntity
  8
0
  6
Continuous
 62
     7
370
    25
100
AcDbLine
 10
34.6751968504
 20
8.6023622047
 30
0.0
 11
-10.9547244094
 21
8.6023622047
 31
0.0
  0
LINE
  5
36B
330
2B4
100
AcDbEntity
  8
0
  6
Continuous
 62
     7
370
    25
100
AcDbLine
 10
11.1515748031
 20
-8.2086614173
 30
0.0
 11
11.8602362205
 21
-8.9173228346
 31
0.0
  0
LINE
  5
36C
330
2B4
100
AcDbEntity
  8
0
  6
Continuous
 62
     7
370
    25
100
AcDbLine
 10
11.1515748031
 20
8.6023622047
 30
0.0
 11
11.1515748031
 21
-8.2086614173
 31
0.0
  0
LINE
  5
36D
330
2B4
100
AcDbEntity
  8
0
  6
Continuous
 62
     7
370
    25
100
AcDbLine
 10
12.5688976378
 20
-8.2086614173
 30
0.0
 11
34.6751968504
 21
-8.2086614173
 31
0.0
  0
LINE
  5
36E
330
2B4
100
AcDbEntity
  8
0
  6
Continuous
 62
     7
370
    25
100
AcDbLine
 10
34.6751968504
 20
-8.0905511811
 30
0.0
 11
12.5688976378
 21
-8.0905511811
 31
0.0
  0
LINE
  5
36F
330
2B4
100
AcDbEntity
  8
0
  6
Continuous
 62
     7
370
    25
100
AcDbLine
 10
34.6751968504
 20
8.9566929134
 30
0.0
 11
34.6751968504
 21
-8.2086614173
 31
0.0
  0
LINE
  5
370
330
2B4
100
AcDbEntity
  8
0
  6
Continuous
 62
     7
370
    25
100
AcDbLine
 10
12.5688976378
 20
-7.5
 30
0.0
 11
34.6751968504
 21
-7.5
 31
0.0
  0
LINE
  5
371
330
2B4
100
AcDbEntity
  8
0
  6
Continuous
 62
     7
370
    25
100
AcDbLine
 10
34.6751968504
 20
7.8937007874
 30
0.0
 11
12.5688976378
 21
7.8937007874
 31
0.0
  0
LINE
  5
372
330
2B4
100
AcDbEntity
  8
0
  6
Continuous
 62
     7
370
    25
100
AcDbLine
 10
11.1515748031
 20
-8.0905511811
 30
0.0
 11
-10.9547244094
 21
-8.0905511811
 31
0.0
  0
LINE
  5
373
330
2B4
100
AcDbEntity
  8
0
  6
Continuous
 62
     7
370
    25
100
AcDbLine
 10
-10.9547244094
 20
8.9566929134
 30
0.0
 11
-10.9547244094
 21
-8.2086614173
 31
0.0
  0
LINE
  5
374
330
2B4
100
AcDbEntity
  8
0
  6
Continuous
 62
     7
370
    25
100
AcDbLine
 10
-10.9547244094
 20
-7.5
 30
0.0
 11
11.1515748031
 21
-7.5
 31
0.0
  0
LINE
  5
375
330
2B4
100
AcDbEntity
  8
0
  6
Continuous
 62
     7
370
    25
100
AcDbLine
 10
11.1515748031
 20
-8.2086614173
 30
0.0
 11
-10.9547244094
 21
-8.2086614173
 31
0.0
  0
LINE
  5
376
330
2B4
100
AcDbEntity
  8
0
  6
Continuous
 62
     7
370
    25
100
AcDbLine
 10
-10.9547244094
 20
7.8937007874
 30
0.0
 11
11.1515748031
 21
7.8937007874
 31
0.0
  0
LINE
  5
377
330
2B4
100
AcDbEntity
  8
0
  6
Continuous
 62
     7
370
    25
100
AcDbLine
 10
-10.9940944882
 20
-8.1923537968
 30
0.0
 11
-10.9940944882
 21
8.9960629921
 31
0.0
  0
LINE
  5
378
330
2B4
100
AcDbEntity
  8
0
  6
Continuous
 62
     7
370
    25
100
AcDbLine
 10
-11.624015748
 20
-8.8222750566
 30
0.0
 11
-10.9940944882
 21
-8.1923537968
 31
0.0
  0
LINE
  5
379
330
2B4
100
AcDbEntity
  8
0
  6
Continuous
 62
     7
370
    25
100
AcDbLine
 10
-11.624015748
 20
8.9960629921
 30
0.0
 11
-11.624015748
 21
-8.8222750566
 31
0.0
  0
LINE
  5
37A
330
2B4
100
AcDbEntity
  8
0
  6
Continuous
 62
     7
370
    25
100
AcDbLine
 10
-10.9547244094
 20
8.9566929134
 30
0.0
 11
-11.6633858268
 21
8.9566929134
 31
0.0
  0
LINE
  5
37B
330
2B4
100
AcDbEntity
  8
0
  6
Continuous
 62
     7
370
    25
100
AcDbLine
 10
-11.624015748
 20
-8.8222750566
 30
0.0
 11
-11.6633858268
 21
-8.8222750566
 31
0.0
  0
LINE
  5
37C
330
2B4
100
AcDbEntity
  8
0
  6
Continuous
 62
     7
370
    25
100
AcDbLine
 10
-11.6633858268
 20
-8.8222750566
 30
0.0
 11
-11.6633858268
 21
8.9566929134
 31
0.0
  0
LINE
  5
37D
330
2B4
100
AcDbEntity
  8
0
  6
Continuous
 62
     7
370
    25
100
AcDbLine
 10
-11.624015748
 20
-8.8222750566
 30
0.0
 11
-11.5961768984
 21
-8.8501139063
 31
0.0
  0
LINE
  5
37E
330
2B4
100
AcDbEntity
  8
0
  6
Continuous
 62
     7
370
    25
100
AcDbLine
 10
-11.624015748
 20
8.9960629921
 30
0.0
 11
-10.9940944882
 21
8.9960629921
 31
0.0
  0
LINE
  5
37F
330
2B4
100
AcDbEntity
  8
0
  6
Continuous
 62
     7
370
    25
100
AcDbLine
 10
-10.9940944882
 20
-8.1923537968
 30
0.0
 11
-10.9662556385
 21
-8.2201926464
 31
0.0
  0
LINE
  5
380
330
2B4
100
AcDbEntity
  8
0
  6
Continuous
 62
     7
370
    25
100
AcDbLine
 10
-10.9662556385
 20
-8.2201926464
 30
0.0
 11
-11.5961768984
 21
-8.8501139063
 31
0.0
  0
LINE
  5
381
330
2B4
100
AcDbEntity
  8
0
  6
Continuous
 62
     7
370
    25
100
AcDbLine
 10
-10.9547244094
 20
-8.1923537968
 30
0.0
 11
-10.9940944882
 21
-8.1923537968
 31
0.0
  0
LINE
  5
382
330
2B4
100
AcDbEntity
  8
0
  6
Continuous
 62
     7
370
    25
100
AcDbLine
 10
35.344488189
 20
8.9960629921
 30
0.0
 11
35.344488189
 21
-8.8222750566
 31
0.0
  0
LINE
  5
383
330
2B4
100
AcDbEntity
  8
0
  6
Continuous
 62
     7
370
    25
100
AcDbLine
 10
35.344488189
 20
-8.8222750566
 30
0.0
 11
34.7145669291
 21
-8.1923537968
 31
0.0
  0
LINE
  5
384
330
2B4
100
AcDbEntity
  8
0
  6
Continuous
 62
     7
370
    25
100
AcDbLine
 10
34.7145669291
 20
-8.1923537968
 30
0.0
 11
34.7145669291
 21
8.9960629921
 31
0.0
  0
LINE
  5
385
330
2B4
100
AcDbEntity
  8
0
  6
Continuous
 62
     7
370
    25
100
AcDbLine
 10
34.6751968504
 20
8.9566929134
 30
0.0
 11
35.3838582677
 21
8.9566929134
 31
0.0
  0
LINE
  5
386
330
2B4
100
AcDbEntity
  8
0
  6
Continuous
 62
     7
370
    25
100
AcDbLine
 10
35.3838582677
 20
-8.8222750566
 30
0.0
 11
35.3838582677
 21
8.9566929134
 31
0.0
  0
LINE
  5
387
330
2B4
100
AcDbEntity
  8
0
  6
Continuous
 62
     7
370
    25
100
AcDbLine
 10
35.344488189
 20
-8.8222750566
 30
0.0
 11
35.3838582677
 21
-8.8222750566
 31
0.0
  0
LINE
  5
388
330
2B4
100
AcDbEntity
  8
0
  6
Continuous
 62
     7
370
    25
100
AcDbLine
 10
35.344488189
 20
8.9960629921
 30
0.0
 11
34.7145669291
 21
8.9960629921
 31
0.0
  0
LINE
  5
389
330
2B4
100
AcDbEntity
  8
0
  6
Continuous
 62
     7
370
    25
100
AcDbLine
 10
34.6751968504
 20
-8.1923537968
 30
0.0
 11
34.7145669291
 21
-8.1923537968
 31
0.0
  0
LINE
  5
38A
330
2B4
100
AcDbEntity
  8
0
  6
Continuous
 62
     7
370
    25
100
AcDbLine
 10
34.7145669291
 20
-8.1923537968
 30
0.0
 11
34.6867280795
 21
-8.2201926464
 31
0.0
  0
LINE
  5
38B
330
2B4
100
AcDbEntity
  8
0
  6
Continuous
 62
     7
370
    25
100
AcDbLine
 10
35.344488189
 20
-8.8222750566
 30
0.0
 11
35.3166493393
 21
-8.8501139063
 31
0.0
  0
LINE
  5
38C
330
2B4
100
AcDbEntity
  8
0
  6
Continuous
 62
     7
370
    25
100
AcDbLine
 10
34.6867280795
 20
-8.2201926464
 30
0.0
 11
35.3166493393
 21
-8.8501139063
 31
0.0
  0
LINE
  5
38D
330
2B4
100
AcDbEntity
  8
0
  6
Continuous
 62
     7
370
    25
100
AcDbLine
 10
3.0511811024
 20
6.8307086614
 30
0.0
 11
3.0511811024
 21
7.5393700787
 31
0.0
  0
LINE
  5
38E
330
2B4
100
AcDbEntity
  8
0
  6
Continuous
 62
     7
370
    25
100
AcDbLine
 10
-2.8543307087
 20
7.5393700787
 30
0.0
 11
-2.8543307087
 21
6.8307086614
 31
0.0
  0
LINE
  5
38F
330
2B4
100
AcDbEntity
  8
0
  6
Continuous
 62
     7
370
    25
100
AcDbLine
 10
3.1692913386
 20
7.5393700787
 30
0.0
 11
-2.9724409449
 21
7.5393700787
 31
0.0
  0
LINE
  5
390
330
2B4
100
AcDbEntity
  8
0
  6
Continuous
 62
     7
370
    25
100
AcDbLine
 10
-2.9724409449
 20
6.8307086614
 30
0.0
 11
3.1692913386
 21
6.8307086614
 31
0.0
  0
LINE
  5
391
330
2B4
100
AcDbEntity
  8
0
  6
Continuous
 62
     7
370
    25
100
AcDbLine
 10
35.1608577338
 20
-8.9173228346
 30
0.0
 11
12.0832367544
 21
-8.9173228346
 31
0.0
  0
LINE
  5
392
330
2B4
100
AcDbEntity
  8
0
  6
Continuous
 62
     7
370
    25
100
AcDbLine
 10
12.0553979048
 20
-8.8501139063
 30
0.0
 11
35.1886965834
 21
-8.8501139063
 31
0.0
  0
LINE
  5
393
330
2B4
100
AcDbEntity
  8
0
  6
Continuous
 62
     7
370
    25
100
AcDbLine
 10
34.5472440945
 20
-8.2086614173
 30
0.0
 11
35.1886965834
 21
-8.8501139063
 31
0.0
  0
LINE
  5
394
330
2B4
100
AcDbEntity
  8
0
  6
Continuous
 62
     7
370
    25
100
AcDbLine
 10
12.6968503937
 20
-8.2086614173
 30
0.0
 11
12.0553979048
 21
-8.8501139063
 31
0.0
  0
LINE
  5
395
330
2B4
100
AcDbEntity
  8
0
  6
Continuous
 62
     7
370
    25
100
AcDbLine
 10
12.7952755906
 20
7.5393700787
 30
0.0
 11
12.7952755906
 21
-7.5
 31
0.0
  0
LINE
  5
396
330
2B4
100
AcDbEntity
  8
0
  6
Continuous
 62
     7
370
    25
100
AcDbLine
 10
20.4724409449
 20
7.5393700787
 30
0.0
 11
12.7952755906
 21
7.5393700787
 31
0.0
  0
LINE
  5
397
330
2B4
100
AcDbEntity
  8
0
  6
Continuous
 62
     7
370
    25
100
AcDbLine
 10
13.5039370079
 20
-7.5
 30
0.0
 11
13.5039370079
 21
7.5393700787
 31
0.0
  0
LINE
  5
398
330
2B4
100
AcDbEntity
  8
0
  6
Continuous
 62
     7
370
    25
100
AcDbLine
 10
33.7401574803
 20
7.5393700787
 30
0.0
 11
33.7401574803
 21
-7.5
 31
0.0
  0
LINE
  5
399
330
2B4
100
AcDbEntity
  8
0
  6
Continuous
 62
     7
370
    25
100
AcDbLine
 10
34.4488188976
 20
-7.5
 30
0.0
 11
34.4488188976
 21
7.5393700787
 31
0.0
  0
LINE
  5
39A
330
2B4
100
AcDbEntity
  8
0
  6
Continuous
 62
     7
370
    25
100
AcDbLine
 10
34.4488188976
 20
7.5393700787
 30
0.0
 11
26.7716535433
 21
7.5393700787
 31
0.0
  0
LINE
  5
39B
330
2B4
100
AcDbEntity
  8
0
  6
Continuous
 62
     7
370
    25
100
AcDbLine
 10
26.7716535433
 20
6.8307086614
 30
0.0
 11
26.7716535433
 21
7.5393700787
 31
0.0
  0
LINE
  5
39C
330
2B4
100
AcDbEntity
  8
0
  6
Continuous
 62
     7
370
    25
100
AcDbLine
 10
26.7716535433
 20
6.8307086614
 30
0.0
 11
33.7401574803
 21
6.8307086614
 31
0.0
  0
LINE
  5
39D
330
2B4
100
AcDbEntity
  8
0
  6
Continuous
 62
     7
370
    25
100
AcDbLine
 10
13.5039370079
 20
6.8307086614
 30
0.0
 11
20.4724409449
 21
6.8307086614
 31
0.0
  0
LINE
  5
39E
330
2B4
100
AcDbEntity
  8
0
  6
Continuous
 62
     7
370
    25
100
AcDbLine
 10
20.4724409449
 20
7.5393700787
 30
0.0
 11
20.4724409449
 21
6.8307086614
 31
0.0
  0
LINE
  5
39F
330
2B4
100
AcDbEntity
  8
0
  6
Continuous
 62
     7
370
    25
100
AcDbLine
 10
26.7716535433
 20
6.7519685039
 30
0.0
 11
26.7716535433
 21
-0.7283464567
 31
0.0
  0
LINE
  5
3A0
330
2B4
100
AcDbEntity
  8
0
  6
Continuous
 62
     7
370
    25
100
AcDbLine
 10
24.0157480315
 20
-3.4842519685
 30
0.0
 11
23.2283464567
 21
-3.4842519685
 31
0.0
  0
LINE
  5
3A1
330
2B4
100
AcDbEntity
  8
0
  6
Continuous
 62
     7
370
    25
100
AcDbLine
 10
20.4724409449
 20
-0.7283464567
 30
0.0
 11
20.4724409449
 21
6.7519685039
 31
0.0
  0
LINE
  5
3A2
330
2B4
100
AcDbEntity
  8
0
  6
Continuous
 62
     7
370
    25
100
AcDbLine
 10
20.4724409449
 20
6.7519685039
 30
0.0
 11
19.6850393701
 21
6.7519685039
 31
0.0
  0
LINE
  5
3A3
330
2B4
100
AcDbEntity
  8
0
  6
Continuous
 62
     7
370
    25
100
AcDbLine
 10
19.6850393701
 20
6.8307086614
 30
0.0
 11
19.6850393701
 21
6.7519685039
 31
0.0
  0
LINE
  5
3A4
330
2B4
100
AcDbEntity
  8
0
  6
Continuous
 62
     7
370
    25
100
AcDbLine
 10
20.5511811024
 20
7.6181102362
 30
0.0
 11
19.7637795276
 21
7.6181102362
 31
0.0
  0
LINE
  5
3A5
330
2B4
100
AcDbEntity
  8
0
  6
Continuous
 62
     7
370
    25
100
AcDbLine
 10
20.5511811024
 20
-0.7283464567
 30
0.0
 11
20.5511811024
 21
7.6181102362
 31
0.0
  0
LINE
  5
3A6
330
2B4
100
AcDbEntity
  8
0
  6
Continuous
 62
     7
370
    25
100
AcDbLine
 10
26.6929133858
 20
7.6181102362
 30
0.0
 11
26.6929133858
 21
-0.7283464567
 31
0.0
  0
LINE
  5
3A7
330
2B4
100
AcDbEntity
  8
0
  6
Continuous
 62
     7
370
    25
100
AcDbLine
 10
26.7716535433
 20
6.7519685039
 30
0.0
 11
27.5590551181
 21
6.7519685039
 31
0.0
  0
LINE
  5
3A8
330
2B4
100
AcDbEntity
  8
0
  6
Continuous
 62
     7
370
    25
100
AcDbLine
 10
27.5590551181
 20
6.8307086614
 30
0.0
 11
27.5590551181
 21
6.7519685039
 31
0.0
  0
LINE
  5
3A9
330
2B4
100
AcDbEntity
  8
0
  6
Continuous
 62
     7
370
    25
100
AcDbLine
 10
27.4803149606
 20
7.5393700787
 30
0.0
 11
27.4803149606
 21
7.6181102362
 31
0.0
  0
LINE
  5
3AA
330
2B4
100
AcDbEntity
  8
0
  6
Continuous
 62
     7
370
    25
100
AcDbLine
 10
24.0157480315
 20
-3.405511811
 30
0.0
 11
23.2283464567
 21
-3.405511811
 31
0.0
  0
LINE
  5
3AB
330
2B4
100
AcDbEntity
  8
0
  6
Continuous
 62
     7
370
    25
100
AcDbLine
 10
26.6929133858
 20
7.6181102362
 30
0.0
 11
27.4803149606
 21
7.6181102362
 31
0.0
  0
LINE
  5
3AC
330
2B4
100
AcDbEntity
  8
0
  6
Continuous
 62
     7
370
    25
100
AcDbLine
 10
19.7637795276
 20
7.5393700787
 30
0.0
 11
19.7637795276
 21
7.6181102362
 31
0.0
  0
LINE
  5
3AD
330
2B4
100
AcDbEntity
  8
0
  6
Continuous
 62
     7
370
    25
100
AcDbLine
 10
11.6372356865
 20
-8.9173228346
 30
0.0
 11
-11.4403852928
 21
-8.9173228346
 31
0.0
  0
LINE
  5
3AE
330
2B4
100
AcDbEntity
  8
0
  6
Continuous
 62
     7
370
    25
100
AcDbLine
 10
-11.4682241425
 20
-8.8501139063
 30
0.0
 11
11.6650745362
 21
-8.8501139063
 31
0.0
  0
LINE
  5
3AF
330
2B4
100
AcDbEntity
  8
0
  6
Continuous
 62
     7
370
    25
100
AcDbLine
 10
11.0236220472
 20
-8.2086614173
 30
0.0
 11
11.6650745362
 21
-8.8501139063
 31
0.0
  0
LINE
  5
3B0
330
2B4
100
AcDbEntity
  8
0
  6
Continuous
 62
     7
370
    25
100
AcDbLine
 10
-10.8267716535
 20
-8.2086614173
 30
0.0
 11
-11.4682241425
 21
-8.8501139063
 31
0.0
  0
LINE
  5
3B1
330
2B4
100
AcDbEntity
  8
0
  6
Continuous
 62
     7
370
    25
100
AcDbLine
 10
-10.7283464567
 20
7.5393700787
 30
0.0
 11
-10.7283464567
 21
-7.5
 31
0.0
  0
LINE
  5
3B2
330
2B4
100
AcDbEntity
  8
0
  6
Continuous
 62
     7
370
    25
100
AcDbLine
 10
-3.0511811024
 20
7.5393700787
 30
0.0
 11
-10.7283464567
 21
7.5393700787
 31
0.0
  0
LINE
  5
3B3
330
2B4
100
AcDbEntity
  8
0
  6
Continuous
 62
     7
370
    25
100
AcDbLine
 10
-10.0196850394
 20
-7.5
 30
0.0
 11
-10.0196850394
 21
7.5393700787
 31
0.0
  0
LINE
  5
3B4
330
2B4
100
AcDbEntity
  8
0
  6
Continuous
 62
     7
370
    25
100
AcDbLine
 10
10.2165354331
 20
7.5393700787
 30
0.0
 11
10.2165354331
 21
-7.5
 31
0.0
  0
LINE
  5
3B5
330
2B4
100
AcDbEntity
  8
0
  6
Continuous
 62
     7
370
    25
100
AcDbLine
 10
10.9251968504
 20
7.5393700787
 30
0.0
 11
3.2480314961
 21
7.5393700787
 31
0.0
  0
LINE
  5
3B6
330
2B4
100
AcDbEntity
  8
0
  6
Continuous
 62
     7
370
    25
100
AcDbLine
 10
10.9251968504
 20
-7.5
 30
0.0
 11
10.9251968504
 21
7.5393700787
 31
0.0
  0
LINE
  5
3B7
330
2B4
100
AcDbEntity
  8
0
  6
Continuous
 62
     7
370
    25
100
AcDbLine
 10
3.2480314961
 20
6.8307086614
 30
0.0
 11
3.2480314961
 21
7.5393700787
 31
0.0
  0
LINE
  5
3B8
330
2B4
100
AcDbEntity
  8
0
  6
Continuous
 62
     7
370
    25
100
AcDbLine
 10
3.2480314961
 20
6.8307086614
 30
0.0
 11
10.2165354331
 21
6.8307086614
 31
0.0
  0
LINE
  5
3B9
330
2B4
100
AcDbEntity
  8
0
  6
Continuous
 62
     7
370
    25
100
AcDbLine
 10
-10.0196850394
 20
6.8307086614
 30
0.0
 11
-3.0511811024
 21
6.8307086614
 31
0.0
  0
LINE
  5
3BA
330
2B4
100
AcDbEntity
  8
0
  6
Continuous
 62
     7
370
    25
100
AcDbLine
 10
-3.0511811024
 20
7.5393700787
 30
0.0
 11
-3.0511811024
 21
6.8307086614
 31
0.0
  0
LINE
  5
3BB
330
2B4
100
AcDbEntity
  8
0
  6
Continuous
 62
     7
370
    25
100
AcDbLine
 10
0.4921259843
 20
-3.405511811
 30
0.0
 11
-0.2952755906
 21
-3.405511811
 31
0.0
  0
LINE
  5
3BC
330
2B4
100
AcDbEntity
  8
0
  6
Continuous
 62
     7
370
    25
100
AcDbLine
 10
3.1692913386
 20
7.6181102362
 30
0.0
 11
3.1692913386
 21
-0.7283464567
 31
0.0
  0
LINE
  5
3BD
330
2B4
100
AcDbEntity
  8
0
  6
Continuous
 62
     7
370
    25
100
AcDbLine
 10
3.9566929134
 20
7.5393700787
 30
0.0
 11
3.9566929134
 21
7.6181102362
 31
0.0
  0
LINE
  5
3BE
330
2B4
100
AcDbEntity
  8
0
  6
Continuous
 62
     7
370
    25
100
AcDbLine
 10
4.0354330709
 20
6.8307086614
 30
0.0
 11
4.0354330709
 21
6.7519685039
 31
0.0
  0
LINE
  5
3BF
330
2B4
100
AcDbEntity
  8
0
  6
Continuous
 62
     7
370
    25
100
AcDbLine
 10
3.2480314961
 20
6.7519685039
 30
0.0
 11
3.2480314961
 21
-0.7283464567
 31
0.0
  0
LINE
  5
3C0
330
2B4
100
AcDbEntity
  8
0
  6
Continuous
 62
     7
370
    25
100
AcDbLine
 10
-2.9724409449
 20
7.6181102362
 30
0.0
 11
-3.7598425197
 21
7.6181102362
 31
0.0
  0
LINE
  5
3C1
330
2B4
100
AcDbEntity
  8
0
  6
Continuous
 62
     7
370
    25
100
AcDbLine
 10
3.2480314961
 20
6.7519685039
 30
0.0
 11
4.0354330709
 21
6.7519685039
 31
0.0
  0
LINE
  5
3C2
330
2B4
100
AcDbEntity
  8
0
  6
Continuous
 62
     7
370
    25
100
AcDbLine
 10
-3.0511811024
 20
6.7519685039
 30
0.0
 11
-3.8385826772
 21
6.7519685039
 31
0.0
  0
LINE
  5
3C3
330
2B4
100
AcDbEntity
  8
0
  6
Continuous
 62
     7
370
    25
100
AcDbLine
 10
0.4921259843
 20
-3.4842519685
 30
0.0
 11
-0.2952755906
 21
-3.4842519685
 31
0.0
  0
LINE
  5
3C4
330
2B4
100
AcDbEntity
  8
0
  6
Continuous
 62
     7
370
    25
100
AcDbLine
 10
-3.0511811024
 20
-0.7283464567
 30
0.0
 11
-3.0511811024
 21
6.7519685039
 31
0.0
  0
LINE
  5
3C5
330
2B4
100
AcDbEntity
  8
0
  6
Continuous
 62
     7
370
    25
100
AcDbLine
 10
-2.9724409449
 20
-0.7283464567
 30
0.0
 11
-2.9724409449
 21
7.6181102362
 31
0.0
  0
LINE
  5
3C6
330
2B4
100
AcDbEntity
  8
0
  6
Continuous
 62
     7
370
    25
100
AcDbLine
 10
3.1692913386
 20
7.6181102362
 30
0.0
 11
3.9566929134
 21
7.6181102362
 31
0.0
  0
LINE
  5
3C7
330
2B4
100
AcDbEntity
  8
0
  6
Continuous
 62
     7
370
    25
100
AcDbLine
 10
-3.8385826772
 20
6.8307086614
 30
0.0
 11
-3.8385826772
 21
6.7519685039
 31
0.0
  0
LINE
  5
3C8
330
2B4
100
AcDbEntity
  8
0
  6
Continuous
 62
     7
370
    25
100
AcDbLine
 10
-3.7598425197
 20
7.5393700787
 30
0.0
 11
-3.7598425197
 21
7.6181102362
 31
0.0
  0
ARC
  5
3C9
330
2B4
100
AcDbEntity
  8
0
  6
Continuous
 62
     7
370
    25
100
AcDbCircle
 10
-10.9940944882
 20
8.9566929134
 30
0.0
 40
0.039370078740161
100
AcDbArc
 50
0.0
 51
90.0
  0
ARC
  5
3CA
330
2B4
100
AcDbEntity
  8
0
  6
Continuous
 62
     7
370
    25
100
AcDbCircle
 10
-11.624015748
 20
-8.8222750566
 30
0.0
 40
0.0393700787401576
100
AcDbArc
 50
180.0
 51
315.0
  0
ARC
  5
3CB
330
2B4
100
AcDbEntity
  8
0
  6
Continuous
 62
     7
370
    25
100
AcDbCircle
 10
-11.624015748
 20
8.9566929134
 30
0.0
 40
0.0393700787401574
100
AcDbArc
 50
90.0
 51
180.0
  0
ARC
  5
3CC
330
2B4
100
AcDbEntity
  8
0
  6
Continuous
 62
     7
370
    25
100
AcDbCircle
 10
-10.9940944882
 20
-8.1923537968
 30
0.0
 40
0.0393700787401576
100
AcDbArc
 50
315.0
 51
0.0
  0
ARC
  5
3CD
330
2B4
100
AcDbEntity
  8
0
  6
Continuous
 62
     7
370
    25
100
AcDbCircle
 10
34.7145669291
 20
8.9566929134
 30
0.0
 40
0.0393700787401556
100
AcDbArc
 50
90.0
 51
180.0
  0
ARC
  5
3CE
330
2B4
100
AcDbEntity
  8
0
  6
Continuous
 62
     7
370
    25
100
AcDbCircle
 10
34.7145669291
 20
-8.1923537968
 30
0.0
 40
0.0393700787402054
100
AcDbArc
 50
180.0
 51
225.0
  0
ARC
  5
3CF
330
2B4
100
AcDbEntity
  8
0
  6
Continuous
 62
     7
370
    25
100
AcDbCircle
 10
35.344488189
 20
-8.8222750566
 30
0.0
 40
0.0393700787401627
100
AcDbArc
 50
225.0
 51
360.0
  0
ARC
  5
3D0
330
2B4
100
AcDbEntity
  8
0
  6
Continuous
 62
     7
370
    25
100
AcDbCircle
 10
35.344488189
 20
8.9566929134
 30
0.0
 40
0.0393700787401627
100
AcDbArc
 50
0.0
 51
90.0
  0
ARC
  5
3D1
330
2B4
100
AcDbEntity
  8
0
  6
Continuous
 62
     7
370
    25
100
AcDbCircle
 10
12.0832367544
 20
-8.8779527559
 30
0.0
 40
0.0393700787401563
100
AcDbArc
 50
135.0
 51
270.0
  0
ARC
  5
3D2
330
2B4
100
AcDbEntity
  8
0
  6
Continuous
 62
     7
370
    25
100
AcDbCircle
 10
35.1608577338
 20
-8.8779527559
 30
0.0
 40
0.0393700787401563
100
AcDbArc
 50
270.0
 51
45.0
  0
ARC
  5
3D3
330
2B4
100
AcDbEntity
  8
0
  6
Continuous
 62
     7
370
    25
100
AcDbCircle
 10
24.0157480315
 20
-0.7283464567
 30
0.0
 40
2.755905511811022
100
AcDbArc
 50
270.0
 51
0.0
  0
ARC
  5
3D4
330
2B4
100
AcDbEntity
  8
0
  6
Continuous
 62
     7
370
    25
100
AcDbCircle
 10
23.2283464567
 20
-0.7283464567
 30
0.0
 40
2.755905511811033
100
AcDbArc
 50
180.0
 51
270.0
  0
ARC
  5
3D5
330
2B4
100
AcDbEntity
  8
0
  6
Continuous
 62
     7
370
    25
100
AcDbCircle
 10
24.0157480315
 20
-0.7283464567
 30
0.0
 40
2.677165354330715
100
AcDbArc
 50
270.0
 51
0.0
  0
ARC
  5
3D6
330
2B4
100
AcDbEntity
  8
0
  6
Continuous
 62
     7
370
    25
100
AcDbCircle
 10
23.2283464567
 20
-0.7283464567
 30
0.0
 40
2.677165354330708
100
AcDbArc
 50
180.0
 51
270.0
  0
ARC
  5
3D7
330
2B4
100
AcDbEntity
  8
0
  6
Continuous
 62
     7
370
    25
100
AcDbCircle
 10
-11.4403852928
 20
-8.8779527559
 30
0.0
 40
0.0393700787401576
100
AcDbArc
 50
135.0
 51
270.0
  0
ARC
  5
3D8
330
2B4
100
AcDbEntity
  8
0
  6
Continuous
 62
     7
370
    25
100
AcDbCircle
 10
11.6372356865
 20
-8.8779527559
 30
0.0
 40
0.0393700787401592
100
AcDbArc
 50
270.0
 51
45.0
  0
ARC
  5
3D9
330
2B4
100
AcDbEntity
  8
0
  6
Continuous
 62
     7
370
    25
100
AcDbCircle
 10
0.4921259843
 20
-0.7283464567
 30
0.0
 40
2.677165354330713
100
AcDbArc
 50
270.0
 51
0.0
  0
ARC
  5
3DA
330
2B4
100
AcDbEntity
  8
0
  6
Continuous
 62
     7
370
    25
100
AcDbCircle
 10
-0.2952755906
 20
-0.7283464567
 30
0.0
 40
2.755905511811032
100
AcDbArc
 50
180.0
 51
270.0
  0
ARC
  5
3DB
330
2B4
100
AcDbEntity
  8
0
  6
Continuous
 62
     7
370
    25
100
AcDbCircle
 10
-0.2952755906
 20
-0.7283464567
 30
0.0
 40
2.677165354330711
100
AcDbArc
 50
180.0
 51
270.0
  0
ARC
  5
3DC
330
2B4
100
AcDbEntity
  8
0
  6
Continuous
 62
     7
370
    25
100
AcDbCircle
 10
0.4921259843
 20
-0.7283464567
 30
0.0
 40
2.755905511811024
100
AcDbArc
 50
270.0
 51
0.0
  0
VIEWPORT
  5
3E1
330
2B4
100
AcDbEntity
  8
0
100
AcDbViewport
 10
0.0
 20
0.0
 30
0.0
 40
8.4
 41
6.4
 68
     1
 69
     1
 12
11.8602362205
 22
10.4330708661
 13
0.0
 23
0.0
 14
0.5
 24
0.5
 15
0.5
 25
0.5
 16
0.0
 26
0.0
 36
1.0
 17
0.0
 27
0.0
 37
0.0
 42
50.0
 43
0.0
 44
0.0
 45
36.5624296963
 50
0.0
 51
0.0
 72
   100
 90
   557152
  1

281
     0
 71
     1
 74
     0
110
0.0
120
0.0
130
0.0
111
1.0
121
0.0
131
0.0
112
0.0
122
1.0
132
0.0
 79
     0
146
0.0
  0
ENDBLK
  5
2B7
330
2B4
100
AcDbEntity
  8
0
100
AcDbBlockEnd
  0
ENDSEC
  0
SECTION
  2
ENTITIES
  0
LINE
  5
D9
330
1F
100
AcDbEntity
  8
0
  6
Continuous
 62
     7
370
    25
100
AcDbLine
 10
12.0438666757
 20
8.6451097023
 30
0.0
 11
12.0438666757
 21
0.0
 31
0.0
  0
LINE
  5
DA
330
1F
100
AcDbEntity
  8
0
  6
Continuous
 62
     7
370
    25
100
AcDbLine
 10
35.2002278125
 20
0.0
 30
0.0
 11
35.2002278125
 21
8.6451097023
 31
0.0
  0
LINE
  5
DB
330
1F
100
AcDbEntity
  8
0
  6
Continuous
 62
     7
370
    25
100
AcDbLine
 10
35.2002278125
 20
8.6451097023
 30
0.0
 11
12.0438666757
 21
8.6451097023
 31
0.0
  0
LINE
  5
DC
330
1F
100
AcDbEntity
  8
0
  6
Continuous
 62
     7
370
    25
100
AcDbLine
 10
11.6766057653
 20
8.6451097023
 30
0.0
 11
-11.4797553716
 21
8.6451097023
 31
0.0
  0
LINE
  5
DD
330
1F
100
AcDbEntity
  8
0
  6
Continuous
 62
     7
370
    25
100
AcDbLine
 10
-11.4797553716
 20
8.6451097023
 30
0.0
 11
-11.4797553716
 21
0.0
 31
0.0
  0
LINE
  5
DE
330
1F
100
AcDbEntity
  8
0
  6
Continuous
 62
     7
370
    25
100
AcDbLine
 10
11.6766057653
 20
0.0
 30
0.0
 11
11.6766057653
 21
8.6451097023
 31
0.0
  0
LINE
  5
DF
330
1F
100
AcDbEntity
  8
0
  6
Continuous
 62
     7
370
    25
100
AcDbLine
 10
35.2002278125
 20
19.1061333243
 30
0.0
 11
12.0438666757
 21
19.1061333243
 31
0.0
  0
LINE
  5
E0
330
1F
100
AcDbEntity
  8
0
  6
Continuous
 62
     7
370
    25
100
AcDbLine
 10
12.0438666757
 20
19.1061333243
 30
0.0
 11
12.0438666757
 21
10.461023622
 31
0.0
  0
LINE
  5
E1
330
1F
100
AcDbEntity
  8
0
  6
Continuous
 62
     7
370
    25
100
AcDbLine
 10
35.2002278125
 20
10.461023622
 30
0.0
 11
35.2002278125
 21
19.1061333243
 31
0.0
  0
LINE
  5
E2
330
1F
100
AcDbEntity
  8
0
  6
Continuous
 62
     7
370
    25
100
AcDbLine
 10
11.6766057653
 20
10.461023622
 30
0.0
 11
11.6766057653
 21
19.1061333243
 31
0.0
  0
LINE
  5
E3
330
1F
100
AcDbEntity
  8
0
  6
Continuous
 62
     7
370
    25
100
AcDbLine
 10
11.6766057653
 20
19.1061333243
 30
0.0
 11
-11.4797553716
 21
19.1061333243
 31
0.0
  0
LINE
  5
E4
330
1F
100
AcDbEntity
  8
0
  6
Continuous
 62
     7
370
    25
100
AcDbLine
 10
-11.4797553716
 20
19.1061333243
 30
0.0
 11
-11.4797553716
 21
10.461023622
 31
0.0
  0
LINE
  5
E5
330
1F
100
AcDbEntity
  8
0
  6
Continuous
 62
     7
370
    25
100
AcDbLine
 10
35.1608577338
 20
0.0393700787
 30
0.0
 11
35.1608577338
 21
8.6057396235
 31
0.0
  0
LINE
  5
E6
330
1F
100
AcDbEntity
  8
0
  6
Continuous
 62
     7
370
    25
100
AcDbLine
 10
12.0832367544
 20
0.0393700787
 30
0.0
 11
35.1608577338
 21
0.0393700787
 31
0.0
  0
LINE
  5
E7
330
1F
100
AcDbEntity
  8
0
  6
Continuous
 62
     7
370
    25
100
AcDbLine
 10
12.0832367544
 20
8.6057396235
 30
0.0
 11
12.0832367544
 21
0.0393700787
 31
0.0
  0
LINE
  5
E8
330
1F
100
AcDbEntity
  8
0
  6
Continuous
 62
     7
370
    25
100
AcDbLine
 10
35.1608577338
 20
8.6057396235
 30
0.0
 11
12.0832367544
 21
8.6057396235
 31
0.0
  0
LINE
  5
E9
330
1F
100
AcDbEntity
  8
0
  6
Continuous
 62
     7
370
    25
100
AcDbLine
 10
12.0438666757
 20
0.0
 30
0.0
 11
12.0832367544
 21
0.0393700787
 31
0.0
  0
LINE
  5
EA
330
1F
100
AcDbEntity
  8
0
  6
Continuous
 62
     7
370
    25
100
AcDbLine
 10
12.0832367544
 20
8.6057396235
 30
0.0
 11
12.0438666757
 21
8.6451097023
 31
0.0
  0
LINE
  5
EB
330
1F
100
AcDbEntity
  8
0
  6
Continuous
 62
     7
370
    25
100
AcDbLine
 10
35.2002278125
 20
0.0
 30
0.0
 11
35.1608577338
 21
0.0393700787
 31
0.0
  0
LINE
  5
EC
330
1F
100
AcDbEntity
  8
0
  6
Continuous
 62
     7
370
    25
100
AcDbLine
 10
35.1608577338
 20
8.6057396235
 30
0.0
 11
35.2002278125
 21
8.6451097023
 31
0.0
  0
LINE
  5
ED
330
1F
100
AcDbEntity
  8
0
  6
Continuous
 62
     7
370
    25
100
AcDbLine
 10
12.5688976378
 20
8.6451097023
 30
0.0
 11
12.5688976378
 21
10.461023622
 31
0.0
  0
LINE
  5
EE
330
1F
100
AcDbEntity
  8
0
  6
Continuous
 62
     7
370
    25
100
AcDbLine
 10
12.5688976378
 20
19.1061333243
 30
0.0
 11
12.5688976378
 21
20.8661417323
 31
0.0
  0
LINE
  5
EF
330
1F
100
AcDbEntity
  8
0
  6
Continuous
 62
     7
370
    25
100
AcDbLine
 10
11.8602362205
 20
20.8661417323
 30
0.0
 11
11.8602362205
 21
0.0
 31
0.0
  0
LINE
  5
F0
330
1F
100
AcDbEntity
  8
0
  6
Continuous
 62
     7
370
    25
100
AcDbLine
 10
-10.9547244094
 20
20.8661417323
 30
0.0
 11
34.6751968504
 21
20.8661417323
 31
0.0
  0
LINE
  5
F1
330
1F
100
AcDbEntity
  8
0
  6
Continuous
 62
     7
370
    25
100
AcDbLine
 10
11.1515748031
 20
8.6451097023
 30
0.0
 11
11.1515748031
 21
10.461023622
 31
0.0
  0
LINE
  5
F2
330
1F
100
AcDbEntity
  8
0
  6
Continuous
 62
     7
370
    25
100
AcDbLine
 10
11.1515748031
 20
19.1061333243
 30
0.0
 11
11.1515748031
 21
20.8661417323
 31
0.0
  0
LINE
  5
F3
330
1F
100
AcDbEntity
  8
0
  6
Continuous
 62
     7
370
    25
100
AcDbLine
 10
34.6751968504
 20
20.8661417323
 30
0.0
 11
34.6751968504
 21
19.1061333243
 31
0.0
  0
LINE
  5
F4
330
1F
100
AcDbEntity
  8
0
  6
Continuous
 62
     7
370
    25
100
AcDbLine
 10
34.6751968504
 20
10.461023622
 30
0.0
 11
34.6751968504
 21
8.6451097023
 31
0.0
  0
LINE
  5
F5
330
1F
100
AcDbEntity
  8
0
  6
Continuous
 62
     7
370
    25
100
AcDbLine
 10
-10.9547244094
 20
20.8661417323
 30
0.0
 11
-10.9547244094
 21
19.1061333243
 31
0.0
  0
LINE
  5
F6
330
1F
100
AcDbEntity
  8
0
  6
Continuous
 62
     7
370
    25
100
AcDbLine
 10
-10.9547244094
 20
10.461023622
 30
0.0
 11
-10.9547244094
 21
8.6451097023
 31
0.0
  0
LINE
  5
F7
330
1F
100
AcDbEntity
  8
0
  6
Continuous
 62
     7
370
    25
100
AcDbLine
 10
-11.6633858268
 20
0.0393700787
 30
0.0
 11
-11.4797553716
 21
0.0393700787
 31
0.0
  0
LINE
  5
F8
330
1F
100
AcDbEntity
  8
0
  6
Continuous
 62
     7
370
    25
100
AcDbLine
 10
-11.5961768984
 20
20.8267716535
 30
0.0
 11
-11.5961768984
 21
0.0393700787
 31
0.0
  0
LINE
  5
F9
330
1F
100
AcDbEntity
  8
0
  6
Continuous
 62
     7
370
    25
100
AcDbLine
 10
-11.6633858268
 20
0.0393700787
 30
0.0
 11
-11.6633858268
 21
20.8267716535
 31
0.0
  0
LINE
  5
FA
330
1F
100
AcDbEntity
  8
0
  6
Continuous
 62
     7
370
    25
100
AcDbLine
 10
-10.9547244094
 20
20.8267716535
 30
0.0
 11
-11.6633858268
 21
20.8267716535
 31
0.0
  0
LINE
  5
FB
330
1F
100
AcDbEntity
  8
0
  6
Continuous
 62
     7
370
    25
100
AcDbLine
 10
35.344488189
 20
0.0
 30
0.0
 11
-11.624015748
 21
0.0
 31
0.0
  0
LINE
  5
FC
330
1F
100
AcDbEntity
  8
0
  6
Continuous
 62
     7
370
    25
100
AcDbLine
 10
-11.624015748
 20
20.8661417323
 30
0.0
 11
-10.9940944882
 21
20.8661417323
 31
0.0
  0
LINE
  5
FD
330
1F
100
AcDbEntity
  8
0
  6
Continuous
 62
     7
370
    25
100
AcDbLine
 10
35.3838582677
 20
0.0393700787
 30
0.0
 11
35.2002278125
 21
0.0393700787
 31
0.0
  0
LINE
  5
FE
330
1F
100
AcDbEntity
  8
0
  6
Continuous
 62
     7
370
    25
100
AcDbLine
 10
35.3838582677
 20
0.0393700787
 30
0.0
 11
35.3838582677
 21
20.8267716535
 31
0.0
  0
LINE
  5
FF
330
1F
100
AcDbEntity
  8
0
  6
Continuous
 62
     7
370
    25
100
AcDbLine
 10
35.3166493393
 20
20.8267716535
 30
0.0
 11
35.3166493393
 21
0.0393700787
 31
0.0
  0
LINE
  5
100
330
1F
100
AcDbEntity
  8
0
  6
Continuous
 62
     7
370
    25
100
AcDbLine
 10
34.6751968504
 20
20.8267716535
 30
0.0
 11
35.3838582677
 21
20.8267716535
 31
0.0
  0
LINE
  5
101
330
1F
100
AcDbEntity
  8
0
  6
Continuous
 62
     7
370
    25
100
AcDbLine
 10
35.344488189
 20
20.8661417323
 30
0.0
 11
34.7145669291
 21
20.8661417323
 31
0.0
  0
LINE
  5
102
330
1F
100
AcDbEntity
  8
0
  6
Continuous
 62
     7
370
    25
100
AcDbLine
 10
11.6372356865
 20
8.6057396235
 30
0.0
 11
-11.4403852928
 21
8.6057396235
 31
0.0
  0
LINE
  5
103
330
1F
100
AcDbEntity
  8
0
  6
Continuous
 62
     7
370
    25
100
AcDbLine
 10
-11.4403852928
 20
8.6057396235
 30
0.0
 11
-11.4797553716
 21
8.6451097023
 31
0.0
  0
LINE
  5
104
330
1F
100
AcDbEntity
  8
0
  6
Continuous
 62
     7
370
    25
100
AcDbLine
 10
11.6372356865
 20
8.6057396235
 30
0.0
 11
11.6766057653
 21
8.6451097023
 31
0.0
  0
LINE
  5
105
330
1F
100
AcDbEntity
  8
0
  6
Continuous
 62
     7
370
    25
100
AcDbLine
 10
11.6372356865
 20
0.0393700787
 30
0.0
 11
11.6372356865
 21
8.6057396235
 31
0.0
  0
LINE
  5
106
330
1F
100
AcDbEntity
  8
0
  6
Continuous
 62
     7
370
    25
100
AcDbLine
 10
-11.4403852928
 20
0.0393700787
 30
0.0
 11
11.6372356865
 21
0.0393700787
 31
0.0
  0
LINE
  5
107
330
1F
100
AcDbEntity
  8
0
  6
Continuous
 62
     7
370
    25
100
AcDbLine
 10
-11.4403852928
 20
8.6057396235
 30
0.0
 11
-11.4403852928
 21
0.0393700787
 31
0.0
  0
LINE
  5
108
330
1F
100
AcDbEntity
  8
0
  6
Continuous
 62
     7
370
    25
100
AcDbLine
 10
-11.4797553716
 20
0.0
 30
0.0
 11
-11.4403852928
 21
0.0393700787
 31
0.0
  0
LINE
  5
109
330
1F
100
AcDbEntity
  8
0
  6
Continuous
 62
     7
370
    25
100
AcDbLine
 10
11.6766057653
 20
0.0
 30
0.0
 11
11.6372356865
 21
0.0393700787
 31
0.0
  0
LINE
  5
10A
330
1F
100
AcDbEntity
  8
0
  6
Continuous
 62
     7
370
    25
100
AcDbLine
 10
35.1608577338
 20
19.0667632456
 30
0.0
 11
12.0832367544
 21
19.0667632456
 31
0.0
  0
LINE
  5
10B
330
1F
100
AcDbEntity
  8
0
  6
Continuous
 62
     7
370
    25
100
AcDbLine
 10
12.0832367544
 20
19.0667632456
 30
0.0
 11
12.0438666757
 21
19.1061333243
 31
0.0
  0
LINE
  5
10C
330
1F
100
AcDbEntity
  8
0
  6
Continuous
 62
     7
370
    25
100
AcDbLine
 10
35.1608577338
 20
19.0667632456
 30
0.0
 11
35.2002278125
 21
19.1061333243
 31
0.0
  0
LINE
  5
10D
330
1F
100
AcDbEntity
  8
0
  6
Continuous
 62
     7
370
    25
100
AcDbLine
 10
12.0832367544
 20
19.0667632456
 30
0.0
 11
12.0832367544
 21
10.5003937008
 31
0.0
  0
LINE
  5
10E
330
1F
100
AcDbEntity
  8
0
  6
Continuous
 62
     7
370
    25
100
AcDbLine
 10
12.0438666757
 20
10.461023622
 30
0.0
 11
12.0832367544
 21
10.5003937008
 31
0.0
  0
LINE
  5
10F
330
1F
100
AcDbEntity
  8
0
  6
Continuous
 62
     7
370
    25
100
AcDbLine
 10
35.1608577338
 20
10.5003937008
 30
0.0
 11
35.1608577338
 21
19.0667632456
 31
0.0
  0
LINE
  5
110
330
1F
100
AcDbEntity
  8
0
  6
Continuous
 62
     7
370
    25
100
AcDbLine
 10
12.0832367544
 20
10.5003937008
 30
0.0
 11
35.1608577338
 21
10.5003937008
 31
0.0
  0
LINE
  5
111
330
1F
100
AcDbEntity
  8
0
  6
Continuous
 62
     7
370
    25
100
AcDbLine
 10
35.2002278125
 20
10.461023622
 30
0.0
 11
12.0438666757
 21
10.461023622
 31
0.0
  0
LINE
  5
112
330
1F
100
AcDbEntity
  8
0
  6
Continuous
 62
     7
370
    25
100
AcDbLine
 10
35.2002278125
 20
10.461023622
 30
0.0
 11
35.1608577338
 21
10.5003937008
 31
0.0
  0
LINE
  5
113
330
1F
100
AcDbEntity
  8
0
  6
Continuous
 62
     7
370
    25
100
AcDbLine
 10
11.6766057653
 20
10.461023622
 30
0.0
 11
-11.4797553716
 21
10.461023622
 31
0.0
  0
LINE
  5
114
330
1F
100
AcDbEntity
  8
0
  6
Continuous
 62
     7
370
    25
100
AcDbLine
 10
-11.4797553716
 20
10.461023622
 30
0.0
 11
-11.4403852928
 21
10.5003937008
 31
0.0
  0
LINE
  5
115
330
1F
100
AcDbEntity
  8
0
  6
Continuous
 62
     7
370
    25
100
AcDbLine
 10
-11.4403852928
 20
10.5003937008
 30
0.0
 11
11.6372356865
 21
10.5003937008
 31
0.0
  0
LINE
  5
116
330
1F
100
AcDbEntity
  8
0
  6
Continuous
 62
     7
370
    25
100
AcDbLine
 10
11.6766057653
 20
10.461023622
 30
0.0
 11
11.6372356865
 21
10.5003937008
 31
0.0
  0
LINE
  5
117
330
1F
100
AcDbEntity
  8
0
  6
Continuous
 62
     7
370
    25
100
AcDbLine
 10
11.6372356865
 20
10.5003937008
 30
0.0
 11
11.6372356865
 21
19.0667632456
 31
0.0
  0
LINE
  5
118
330
1F
100
AcDbEntity
  8
0
  6
Continuous
 62
     7
370
    25
100
AcDbLine
 10
-11.4403852928
 20
19.0667632456
 30
0.0
 11
-11.4403852928
 21
10.5003937008
 31
0.0
  0
LINE
  5
119
330
1F
100
AcDbEntity
  8
0
  6
Continuous
 62
     7
370
    25
100
AcDbLine
 10
11.6372356865
 20
19.0667632456
 30
0.0
 11
-11.4403852928
 21
19.0667632456
 31
0.0
  0
LINE
  5
11A
330
1F
100
AcDbEntity
  8
0
  6
Continuous
 62
     7
370
    25
100
AcDbLine
 10
11.6372356865
 20
19.0667632456
 30
0.0
 11
11.6766057653
 21
19.1061333243
 31
0.0
  0
LINE
  5
11B
330
1F
100
AcDbEntity
  8
0
  6
Continuous
 62
     7
370
    25
100
AcDbLine
 10
-11.4403852928
 20
19.0667632456
 30
0.0
 11
-11.4797553716
 21
19.1061333243
 31
0.0
  0
LINE
  5
11C
330
1F
100
AcDbEntity
  8
0
  6
Continuous
 62
     8
370
    25
100
AcDbLine
 10
-10.9662556385
 20
8.6451097023
 30
0.0
 11
-10.9662556385
 21
10.461023622
 31
0.0
  0
LINE
  5
11D
330
1F
100
AcDbEntity
  8
0
  6
Continuous
 62
     8
370
    25
100
AcDbLine
 10
-10.9662556385
 20
19.1061333243
 30
0.0
 11
-10.9662556385
 21
20.8267716535
 31
0.0
  0
LINE
  5
11E
330
1F
100
AcDbEntity
  8
0
  6
Continuous
 62
     8
370
    25
100
AcDbLine
 10
34.6867280795
 20
8.6451097023
 30
0.0
 11
34.6867280795
 21
10.461023622
 31
0.0
  0
LINE
  5
11F
330
1F
100
AcDbEntity
  8
0
  6
Continuous
 62
     8
370
    25
100
AcDbLine
 10
34.6867280795
 20
19.1061333243
 30
0.0
 11
34.6867280795
 21
20.8267716535
 31
0.0
  0
ARC
  5
120
330
1F
100
AcDbEntity
  8
0
  6
Continuous
 62
     7
370
    25
100
AcDbCircle
 10
-11.6309754604
 20
0.0344488189
 30
0.0
 40
0.0351448249436137
100
AcDbArc
 50
281.421753659
 51
8.0494669755
  0
ARC
  5
121
330
1F
100
AcDbEntity
  8
0
  6
Continuous
 62
     7
370
    25
100
AcDbCircle
 10
-11.624015748
 20
0.0393700787
 30
0.0
 40
0.0393700787401574
100
AcDbArc
 50
180.0
 51
270.0
  0
ARC
  5
122
330
1F
100
AcDbEntity
  8
0
  6
Continuous
 62
     7
370
    25
100
AcDbCircle
 10
-11.624015748
 20
20.8267716535
 30
0.0
 40
0.0393700787401574
100
AcDbArc
 50
90.0
 51
180.0
  0
ARC
  5
123
330
1F
100
AcDbEntity
  8
0
  6
Continuous
 62
     7
370
    25
100
AcDbCircle
 10
-11.6309754604
 20
20.8316929134
 30
0.0
 40
0.0351448249436151
100
AcDbArc
 50
351.9505330245
 51
78.578246341
  0
ARC
  5
124
330
1F
100
AcDbEntity
  8
0
  6
Continuous
 62
     7
370
    25
100
AcDbCircle
 10
-11.0010542006
 20
20.8316929134
 30
0.0
 40
0.0351448249436125
100
AcDbArc
 50
351.9505330245
 51
78.578246341
  0
ARC
  5
125
330
1F
100
AcDbEntity
  8
0
  6
Continuous
 62
     7
370
    25
100
AcDbCircle
 10
-10.9940944882
 20
20.8267716535
 30
0.0
 40
0.0393700787401592
100
AcDbArc
 50
0.0
 51
90.0
  0
ARC
  5
126
330
1F
100
AcDbEntity
  8
0
  6
Continuous
 62
     7
370
    25
100
AcDbCircle
 10
35.344488189
 20
0.0393700787
 30
0.0
 40
0.0393700787401627
100
AcDbArc
 50
270.0
 51
360.0
  0
ARC
  5
127
330
1F
100
AcDbEntity
  8
0
  6
Continuous
 62
     7
370
    25
100
AcDbCircle
 10
35.3514479014
 20
0.0344488189
 30
0.0
 40
0.0351448249436013
100
AcDbArc
 50
171.9505330244
 51
258.5782463411
  0
ARC
  5
128
330
1F
100
AcDbEntity
  8
0
  6
Continuous
 62
     7
370
    25
100
AcDbCircle
 10
35.344488189
 20
20.8267716535
 30
0.0
 40
0.0393700787401627
100
AcDbArc
 50
0.0
 51
90.0
  0
ARC
  5
129
330
1F
100
AcDbEntity
  8
0
  6
Continuous
 62
     7
370
    25
100
AcDbCircle
 10
35.3514479014
 20
20.8316929134
 30
0.0
 40
0.0351448249436196
100
AcDbArc
 50
101.421753659
 51
188.0494669755
  0
ARC
  5
12A
330
1F
100
AcDbEntity
  8
0
  6
Continuous
 62
     7
370
    25
100
AcDbCircle
 10
34.7215266415
 20
20.8316929134
 30
0.0
 40
0.0351448249436203
100
AcDbArc
 50
101.421753659
 51
188.0494669755
  0
ARC
  5
12B
330
1F
100
AcDbEntity
  8
0
  6
Continuous
 62
     7
370
    25
100
AcDbCircle
 10
34.7145669291
 20
20.8267716535
 30
0.0
 40
0.0393700787401521
100
AcDbArc
 50
90.0
 51
180.0
  0
LWPOLYLINE
  5
142
330
1B
100
AcDbEntity
 67
     1
  8
0
  6
Continuous
 62
     7
370
    25
100
AcDbPolyline
 90
        3
 70
   128
 43
0.0
 10
-26.5748031496
 20
5.0393700787
 10
-26.5676103846
 20
4.8333962389
 10
-26.5484387298
 20
4.6456692913
  0
LWPOLYLINE
  5
143
330
1B
100
AcDbEntity
 67
     1
  8
0
  6
Continuous
 62
     7
370
    25
100
AcDbPolyline
 90
        3
 70
   128
 43
0.0
 10
-20.6956557584
 20
4.6456692913
 10
-20.6764841036
 20
4.8333962389
 10
-20.6692913386
 20
5.0393700787
  0
LWPOLYLINE
  5
1A2
330
1B
100
AcDbEntity
 67
     1
  8
0
  6
Continuous
 62
     7
370
    25
100
AcDbPolyline
 90
        3
 70
   128
 43
0.0
 10
-3.0511811024
 20
5.0393700787
 10
-3.0439883374
 20
4.8333962389
 10
-3.0248166825
 20
4.6456692913
  0
LWPOLYLINE
  5
1A3
330
1B
100
AcDbEntity
 67
     1
  8
0
  6
Continuous
 62
     7
370
    25
100
AcDbPolyline
 90
        3
 70
   128
 43
0.0
 10
2.8279662888
 20
4.6456692913
 10
2.8471379437
 20
4.8333962389
 10
2.8543307087
 20
5.0393700787
  0
LINE
  5
202
330
1B
100
AcDbEntity
 67
     1
  8
0
  6
Continuous
 62
     7
370
    25
100
AcDbLine
 10
-35.2002278125
 20
8.6451097023
 30
0.0
 11
-35.2002278125
 21
0.0393700787
 31
0.0
  0
LINE
  5
203
330
1B
100
AcDbEntity
 67
     1
  8
0
  6
Continuous
 62
     7
370
    25
100
AcDbLine
 10
-34.7145669291
 20
8.6451097023
 30
0.0
 11
-35.2002278125
 21
8.6451097023
 31
0.0
  0
LINE
  5
204
330
1B
100
AcDbEntity
 67
     1
  8
0
  6
Continuous
 62
     7
370
    25
100
AcDbLine
 10
11.4797553716
 20
8.6451097023
 30
0.0
 11
10.9940944882
 21
8.6451097023
 31
0.0
  0
LINE
  5
205
330
1B
100
AcDbEntity
 67
     1
  8
0
  6
Continuous
 62
     7
370
    25
100
AcDbLine
 10
11.4797553716
 20
0.0393700787
 30
0.0
 11
11.4797553716
 21
8.6451097023
 31
0.0
  0
LINE
  5
206
330
1B
100
AcDbEntity
 67
     1
  8
0
  6
Continuous
 62
     7
370
    25
100
AcDbLine
 10
-35.2002278125
 20
19.1061333243
 30
0.0
 11
-35.2002278125
 21
10.461023622
 31
0.0
  0
LINE
  5
207
330
1B
100
AcDbEntity
 67
     1
  8
0
  6
Continuous
 62
     7
370
    25
100
AcDbLine
 10
-34.7145669291
 20
19.1061333243
 30
0.0
 11
-35.2002278125
 21
19.1061333243
 31
0.0
  0
LINE
  5
208
330
1B
100
AcDbEntity
 67
     1
  8
0
  6
Continuous
 62
     7
370
    25
100
AcDbLine
 10
11.4797553716
 20
19.1061333243
 30
0.0
 11
10.9940944882
 21
19.1061333243
 31
0.0
  0
LINE
  5
209
330
1B
100
AcDbEntity
 67
     1
  8
0
  6
Continuous
 62
     7
370
    25
100
AcDbLine
 10
11.4797553716
 20
10.461023622
 30
0.0
 11
11.4797553716
 21
19.1061333243
 31
0.0
  0
LINE
  5
20A
330
1B
100
AcDbEntity
 67
     1
  8
0
  6
Continuous
 62
     7
370
    25
100
AcDbLine
 10
-34.7145669291
 20
8.1594488189
 30
0.0
 11
-35.2002278125
 21
8.6451097023
 31
0.0
  0
LINE
  5
20B
330
1B
100
AcDbEntity
 67
     1
  8
0
  6
Continuous
 62
     7
370
    25
100
AcDbLine
 10
-34.5472440945
 20
7.4803149606
 30
0.0
 11
-34.5472440945
 21
4.6456692913
 31
0.0
  0
LINE
  5
20C
330
1B
100
AcDbEntity
 67
     1
  8
0
  6
Continuous
 62
     7
370
    25
100
AcDbLine
 10
-12.6968503937
 20
4.6456692913
 30
0.0
 11
-12.6968503937
 21
7.4803149606
 31
0.0
  0
LINE
  5
20D
330
1B
100
AcDbEntity
 67
     1
  8
0
  6
Continuous
 62
     7
370
    25
100
AcDbLine
 10
-13.5039370079
 20
4.6456692913
 30
0.0
 11
-13.5039370079
 21
5.3937007874
 31
0.0
  0
LINE
  5
20E
330
1B
100
AcDbEntity
 67
     1
  8
0
  6
Continuous
 62
     7
370
    25
100
AcDbLine
 10
-13.5039370079
 20
5.3937007874
 30
0.0
 11
-12.7952755906
 21
5.3937007874
 31
0.0
  0
LINE
  5
20F
330
1B
100
AcDbEntity
 67
     1
  8
0
  6
Continuous
 62
     7
370
    25
100
AcDbLine
 10
-12.7952755906
 20
4.6456692913
 30
0.0
 11
-12.7952755906
 21
5.3937007874
 31
0.0
  0
LINE
  5
210
330
1B
100
AcDbEntity
 67
     1
  8
0
  6
Continuous
 62
     7
370
    25
100
AcDbLine
 10
-33.7401574803
 20
4.6456692913
 30
0.0
 11
-33.7401574803
 21
5.3937007874
 31
0.0
  0
LINE
  5
211
330
1B
100
AcDbEntity
 67
     1
  8
0
  6
Continuous
 62
     7
370
    25
100
AcDbLine
 10
-34.4488188976
 20
5.3937007874
 30
0.0
 11
-33.7401574803
 21
5.3937007874
 31
0.0
  0
LINE
  5
212
330
1B
100
AcDbEntity
 67
     1
  8
0
  6
Continuous
 62
     7
370
    25
100
AcDbLine
 10
-34.4488188976
 20
4.6456692913
 30
0.0
 11
-34.4488188976
 21
5.3937007874
 31
0.0
  0
LINE
  5
213
330
1B
100
AcDbEntity
 67
     1
  8
0
  6
Continuous
 62
     7
370
    25
100
AcDbLine
 10
-33.7401574803
 20
5.0393700787
 30
0.0
 11
-26.5748031496
 21
5.0393700787
 31
0.0
  0
LINE
  5
214
330
1B
100
AcDbEntity
 67
     1
  8
0
  6
Continuous
 62
     7
370
    25
100
AcDbLine
 10
-20.6692913386
 20
5.0393700787
 30
0.0
 11
-13.5039370079
 21
5.0393700787
 31
0.0
  0
LINE
  5
215
330
1B
100
AcDbEntity
 67
     1
  8
0
  6
Continuous
 62
     7
370
    25
100
AcDbLine
 10
-12.5688976378
 20
20.8661417323
 30
0.0
 11
-12.5688976378
 21
0.0
 31
0.0
  0
LINE
  5
216
330
1B
100
AcDbEntity
 67
     1
  8
0
  6
Continuous
 62
     7
370
    25
100
AcDbLine
 10
-11.1515748031
 20
14.9606299213
 30
0.0
 11
-12.5688976378
 21
14.9606299213
 31
0.0
  0
LINE
  5
217
330
1B
100
AcDbEntity
 67
     1
  8
0
  6
Continuous
 62
     7
370
    25
100
AcDbLine
 10
-11.8602362205
 20
20.8661417323
 30
0.0
 11
-11.8602362205
 21
0.0
 31
0.0
  0
LINE
  5
218
330
1B
100
AcDbEntity
 67
     1
  8
0
  6
Continuous
 62
     7
370
    25
100
AcDbLine
 10
-34.6751968504
 20
20.8661417323
 30
0.0
 11
10.9547244094
 21
20.8661417323
 31
0.0
  0
LINE
  5
219
330
1B
100
AcDbEntity
 67
     1
  8
0
  6
Continuous
 62
     7
370
    25
100
AcDbLine
 10
-11.1515748031
 20
20.8661417323
 30
0.0
 11
-11.1515748031
 21
0.0
 31
0.0
  0
LINE
  5
21A
330
1B
100
AcDbEntity
 67
     1
  8
0
  6
Continuous
 62
     7
370
    25
100
AcDbLine
 10
-12.5688976378
 20
20.2755905512
 30
0.0
 11
-34.6751968504
 21
20.2755905512
 31
0.0
  0
LINE
  5
21B
330
1B
100
AcDbEntity
 67
     1
  8
0
  6
Continuous
 62
     7
370
    25
100
AcDbLine
 10
-34.6751968504
 20
17.7165354331
 30
0.0
 11
-12.5688976378
 21
17.7165354331
 31
0.0
  0
LINE
  5
21C
330
1B
100
AcDbEntity
 67
     1
  8
0
  6
Continuous
 62
     7
370
    25
100
AcDbLine
 10
-12.5688976378
 20
10.6299212598
 30
0.0
 11
-34.6751968504
 21
10.6299212598
 31
0.0
  0
LINE
  5
21D
330
1B
100
AcDbEntity
 67
     1
  8
0
  6
Continuous
 62
     7
370
    25
100
AcDbLine
 10
-34.6751968504
 20
7.4803149606
 30
0.0
 11
-12.5688976378
 21
7.4803149606
 31
0.0
  0
LINE
  5
21E
330
1B
100
AcDbEntity
 67
     1
  8
0
  6
Continuous
 62
     7
370
    25
100
AcDbLine
 10
-12.5688976378
 20
0.7086614173
 30
0.0
 11
-34.6751968504
 21
0.7086614173
 31
0.0
  0
LINE
  5
21F
330
1B
100
AcDbEntity
 67
     1
  8
0
  6
Continuous
 62
     7
370
    25
100
AcDbLine
 10
-34.6751968504
 20
4.6456692913
 30
0.0
 11
-12.5688976378
 21
4.6456692913
 31
0.0
  0
LINE
  5
220
330
1B
100
AcDbEntity
 67
     1
  8
0
  6
Continuous
 62
     7
370
    25
100
AcDbLine
 10
-34.6751968504
 20
0.0
 30
0.0
 11
-34.6751968504
 21
20.8661417323
 31
0.0
  0
LINE
  5
221
330
1B
100
AcDbEntity
 67
     1
  8
0
  6
Continuous
 62
     7
370
    25
100
AcDbLine
 10
10.9547244094
 20
20.2755905512
 30
0.0
 11
-11.1515748031
 21
20.2755905512
 31
0.0
  0
LINE
  5
222
330
1B
100
AcDbEntity
 67
     1
  8
0
  6
Continuous
 62
     7
370
    25
100
AcDbLine
 10
10.9547244094
 20
17.7165354331
 30
0.0
 11
-11.1515748031
 21
17.7165354331
 31
0.0
  0
LINE
  5
223
330
1B
100
AcDbEntity
 67
     1
  8
0
  6
Continuous
 62
     7
370
    25
100
AcDbLine
 10
10.9547244094
 20
7.4803149606
 30
0.0
 11
-11.1515748031
 21
7.4803149606
 31
0.0
  0
LINE
  5
224
330
1B
100
AcDbEntity
 67
     1
  8
0
  6
Continuous
 62
     7
370
    25
100
AcDbLine
 10
-11.1515748031
 20
10.6299212598
 30
0.0
 11
10.9547244094
 21
10.6299212598
 31
0.0
  0
LINE
  5
225
330
1B
100
AcDbEntity
 67
     1
  8
0
  6
Continuous
 62
     7
370
    25
100
AcDbLine
 10
10.9547244094
 20
0.0
 30
0.0
 11
10.9547244094
 21
20.8661417323
 31
0.0
  0
LINE
  5
226
330
1B
100
AcDbEntity
 67
     1
  8
0
  6
Continuous
 62
     7
370
    25
100
AcDbLine
 10
-11.1515748031
 20
0.7086614173
 30
0.0
 11
10.9547244094
 21
0.7086614173
 31
0.0
  0
LINE
  5
227
330
1B
100
AcDbEntity
 67
     1
  8
0
  6
Continuous
 62
     7
370
    25
100
AcDbLine
 10
10.9547244094
 20
4.6456692913
 30
0.0
 11
-11.1515748031
 21
4.6456692913
 31
0.0
  0
LINE
  5
228
330
1B
100
AcDbEntity
 67
     1
  8
0
  6
Continuous
 62
     7
370
    25
100
AcDbLine
 10
11.624015748
 20
0.0
 30
0.0
 11
11.624015748
 21
20.8661417323
 31
0.0
  0
LINE
  5
229
330
1B
100
AcDbEntity
 67
     1
  8
0
  6
Continuous
 62
     7
370
    25
100
AcDbLine
 10
11.6633858268
 20
20.8267716535
 30
0.0
 11
10.9547244094
 21
20.8267716535
 31
0.0
  0
LINE
  5
22A
330
1B
100
AcDbEntity
 67
     1
  8
0
  6
Continuous
 62
     7
370
    25
100
AcDbLine
 10
11.6633858268
 20
20.8267716535
 30
0.0
 11
11.6633858268
 21
0.0393700787
 31
0.0
  0
LINE
  5
22B
330
1B
100
AcDbEntity
 67
     1
  8
0
  6
Continuous
 62
     7
370
    25
100
AcDbLine
 10
10.9547244094
 20
0.0393700787
 30
0.0
 11
11.6633858268
 21
0.0393700787
 31
0.0
  0
LINE
  5
22C
330
1B
100
AcDbEntity
 67
     1
  8
0
  6
Continuous
 62
     7
370
    25
100
AcDbLine
 10
10.9940944882
 20
20.8661417323
 30
0.0
 11
10.9940944882
 21
0.0
 31
0.0
  0
LINE
  5
22D
330
1B
100
AcDbEntity
 67
     1
  8
0
  6
Continuous
 62
     7
370
    25
100
AcDbLine
 10
10.9940944882
 20
20.8661417323
 30
0.0
 11
11.624015748
 21
20.8661417323
 31
0.0
  0
LINE
  5
22E
330
1B
100
AcDbEntity
 67
     1
  8
0
  6
Continuous
 62
     7
370
    25
100
AcDbLine
 10
11.624015748
 20
0.0
 30
0.0
 11
-35.344488189
 21
0.0
 31
0.0
  0
LINE
  5
22F
330
1B
100
AcDbEntity
 67
     1
  8
0
  6
Continuous
 62
     7
370
    25
100
AcDbLine
 10
-35.344488189
 20
0.0
 30
0.0
 11
-35.344488189
 21
20.8661417323
 31
0.0
  0
LINE
  5
230
330
1B
100
AcDbEntity
 67
     1
  8
0
  6
Continuous
 62
     7
370
    25
100
AcDbLine
 10
-34.6751968504
 20
0.0393700787
 30
0.0
 11
-35.3838582677
 21
0.0393700787
 31
0.0
  0
LINE
  5
231
330
1B
100
AcDbEntity
 67
     1
  8
0
  6
Continuous
 62
     7
370
    25
100
AcDbLine
 10
-34.7145669291
 20
20.8661417323
 30
0.0
 11
-34.7145669291
 21
0.0
 31
0.0
  0
LINE
  5
232
330
1B
100
AcDbEntity
 67
     1
  8
0
  6
Continuous
 62
     7
370
    25
100
AcDbLine
 10
-35.3838582677
 20
20.8267716535
 30
0.0
 11
-34.6751968504
 21
20.8267716535
 31
0.0
  0
LINE
  5
233
330
1B
100
AcDbEntity
 67
     1
  8
0
  6
Continuous
 62
     7
370
    25
100
AcDbLine
 10
-34.7145669291
 20
20.8661417323
 30
0.0
 11
-35.344488189
 21
20.8661417323
 31
0.0
  0
LINE
  5
234
330
1B
100
AcDbEntity
 67
     1
  8
0
  6
Continuous
 62
     7
370
    25
100
AcDbLine
 10
-35.3838582677
 20
20.8267716535
 30
0.0
 11
-35.3838582677
 21
0.0393700787
 31
0.0
  0
LINE
  5
235
330
1B
100
AcDbEntity
 67
     1
  8
0
  6
Continuous
 62
     7
370
    25
100
AcDbLine
 10
10.9940944882
 20
8.1594488189
 30
0.0
 11
11.4797553716
 21
8.6451097023
 31
0.0
  0
LINE
  5
236
330
1B
100
AcDbEntity
 67
     1
  8
0
  6
Continuous
 62
     7
370
    25
100
AcDbLine
 10
10.8267716535
 20
4.6456692913
 30
0.0
 11
10.8267716535
 21
7.4803149606
 31
0.0
  0
LINE
  5
237
330
1B
100
AcDbEntity
 67
     1
  8
0
  6
Continuous
 62
     7
370
    25
100
AcDbLine
 10
-11.0236220472
 20
7.4803149606
 30
0.0
 11
-11.0236220472
 21
4.6456692913
 31
0.0
  0
LINE
  5
238
330
1B
100
AcDbEntity
 67
     1
  8
0
  6
Continuous
 62
     7
370
    25
100
AcDbLine
 10
10.0196850394
 20
4.6456692913
 30
0.0
 11
10.0196850394
 21
5.3937007874
 31
0.0
  0
LINE
  5
239
330
1B
100
AcDbEntity
 67
     1
  8
0
  6
Continuous
 62
     7
370
    25
100
AcDbLine
 10
10.0196850394
 20
5.3937007874
 30
0.0
 11
10.7283464567
 21
5.3937007874
 31
0.0
  0
LINE
  5
23A
330
1B
100
AcDbEntity
 67
     1
  8
0
  6
Continuous
 62
     7
370
    25
100
AcDbLine
 10
10.7283464567
 20
4.6456692913
 30
0.0
 11
10.7283464567
 21
5.3937007874
 31
0.0
  0
LINE
  5
23B
330
1B
100
AcDbEntity
 67
     1
  8
0
  6
Continuous
 62
     7
370
    25
100
AcDbLine
 10
-10.9251968504
 20
4.6456692913
 30
0.0
 11
-10.9251968504
 21
5.3937007874
 31
0.0
  0
LINE
  5
23C
330
1B
100
AcDbEntity
 67
     1
  8
0
  6
Continuous
 62
     7
370
    25
100
AcDbLine
 10
-10.2165354331
 20
4.6456692913
 30
0.0
 11
-10.2165354331
 21
5.3937007874
 31
0.0
  0
LINE
  5
23D
330
1B
100
AcDbEntity
 67
     1
  8
0
  6
Continuous
 62
     7
370
    25
100
AcDbLine
 10
-10.9251968504
 20
5.3937007874
 30
0.0
 11
-10.2165354331
 21
5.3937007874
 31
0.0
  0
LINE
  5
23E
330
1B
100
AcDbEntity
 67
     1
  8
0
  6
Continuous
 62
     7
370
    25
100
AcDbLine
 10
-10.2165354331
 20
5.0393700787
 30
0.0
 11
-3.0511811024
 21
5.0393700787
 31
0.0
  0
LINE
  5
23F
330
1B
100
AcDbEntity
 67
     1
  8
0
  6
Continuous
 62
     7
370
    25
100
AcDbLine
 10
2.8543307087
 20
5.0393700787
 30
0.0
 11
10.0196850394
 21
5.0393700787
 31
0.0
  0
LINE
  5
240
330
1B
100
AcDbEntity
 67
     1
  8
0
  6
Continuous
 62
     7
370
    25
100
AcDbLine
 10
-34.7145669291
 20
18.6204724409
 30
0.0
 11
-35.2002278125
 21
19.1061333243
 31
0.0
  0
LINE
  5
241
330
1B
100
AcDbEntity
 67
     1
  8
0
  6
Continuous
 62
     7
370
    25
100
AcDbLine
 10
-34.5472440945
 20
17.7165354331
 30
0.0
 11
-34.5472440945
 21
10.6299212598
 31
0.0
  0
LINE
  5
242
330
1B
100
AcDbEntity
 67
     1
  8
0
  6
Continuous
 62
     7
370
    25
100
AcDbLine
 10
-35.1886965834
 20
19.0946020952
 30
0.0
 11
-35.1886965834
 21
10.461023622
 31
0.0
  0
LINE
  5
243
330
1B
100
AcDbEntity
 67
     1
  8
0
  6
Continuous
 62
     7
370
    25
100
AcDbLine
 10
-34.7145669291
 20
10.461023622
 30
0.0
 11
-35.2002278125
 21
10.461023622
 31
0.0
  0
LINE
  5
244
330
1B
100
AcDbEntity
 67
     1
  8
0
  6
Continuous
 62
     7
370
    25
100
AcDbLine
 10
-12.6968503937
 20
10.6299212598
 30
0.0
 11
-12.6968503937
 21
17.7165354331
 31
0.0
  0
LINE
  5
245
330
1B
100
AcDbEntity
 67
     1
  8
0
  6
Continuous
 62
     7
370
    25
100
AcDbLine
 10
-13.5039370079
 20
11.7208661417
 30
0.0
 11
-12.7952755906
 21
11.7208661417
 31
0.0
  0
LINE
  5
246
330
1B
100
AcDbEntity
 67
     1
  8
0
  6
Continuous
 62
     7
370
    25
100
AcDbLine
 10
-13.5039370079
 20
11.6421259843
 30
0.0
 11
-13.5039370079
 21
15.8547244094
 31
0.0
  0
LINE
  5
247
330
1B
100
AcDbEntity
 67
     1
  8
0
  6
Continuous
 62
     7
370
    25
100
AcDbLine
 10
-13.5039370079
 20
15.8547244094
 30
0.0
 11
-12.7952755906
 21
15.8547244094
 31
0.0
  0
LINE
  5
248
330
1B
100
AcDbEntity
 67
     1
  8
0
  6
Continuous
 62
     7
370
    25
100
AcDbLine
 10
-12.7952755906
 20
11.7208661417
 30
0.0
 11
-12.7952755906
 21
15.8547244094
 31
0.0
  0
LINE
  5
249
330
1B
100
AcDbEntity
 67
     1
  8
0
  6
Continuous
 62
     7
370
    25
100
AcDbLine
 10
-34.4488188976
 20
11.7208661417
 30
0.0
 11
-33.7401574803
 21
11.7208661417
 31
0.0
  0
LINE
  5
24A
330
1B
100
AcDbEntity
 67
     1
  8
0
  6
Continuous
 62
     7
370
    25
100
AcDbLine
 10
-34.4488188976
 20
15.8547244094
 30
0.0
 11
-33.7401574803
 21
15.8547244094
 31
0.0
  0
LINE
  5
24B
330
1B
100
AcDbEntity
 67
     1
  8
0
  6
Continuous
 62
     7
370
    25
100
AcDbLine
 10
-33.7401574803
 20
11.6421259843
 30
0.0
 11
-33.7401574803
 21
15.8547244094
 31
0.0
  0
LINE
  5
24C
330
1B
100
AcDbEntity
 67
     1
  8
0
  6
Continuous
 62
     7
370
    25
100
AcDbLine
 10
-34.4488188976
 20
11.7208661417
 30
0.0
 11
-34.4488188976
 21
15.8547244094
 31
0.0
  0
LINE
  5
24D
330
1B
100
AcDbEntity
 67
     1
  8
0
  6
Continuous
 62
     7
370
    25
100
AcDbLine
 10
-19.7637795276
 20
12.3507874016
 30
0.0
 11
-13.5039370079
 21
12.3507874016
 31
0.0
  0
LINE
  5
24E
330
1B
100
AcDbEntity
 67
     1
  8
0
  6
Continuous
 62
     7
370
    25
100
AcDbLine
 10
-13.5039370079
 20
11.6421259843
 30
0.0
 11
-33.7401574803
 21
11.6421259843
 31
0.0
  0
LINE
  5
24F
330
1B
100
AcDbEntity
 67
     1
  8
0
  6
Continuous
 62
     7
370
    25
100
AcDbLine
 10
-33.7401574803
 20
12.3507874016
 30
0.0
 11
-27.4803149606
 21
12.3507874016
 31
0.0
  0
LINE
  5
250
330
1B
100
AcDbEntity
 67
     1
  8
0
  6
Continuous
 62
     7
370
    25
100
AcDbLine
 10
-33.7401574803
 20
15.5003937008
 30
0.0
 11
-13.5039370079
 21
15.5003937008
 31
0.0
  0
LINE
  5
251
330
1B
100
AcDbEntity
 67
     1
  8
0
  6
Continuous
 62
     7
370
    25
100
AcDbLine
 10
-19.7637795276
 20
15.5003937008
 30
0.0
 11
-19.7637795276
 21
11.6421259843
 31
0.0
  0
LINE
  5
252
330
1B
100
AcDbEntity
 67
     1
  8
0
  6
Continuous
 62
     7
370
    25
100
AcDbLine
 10
-20.5511811024
 20
15.5003937008
 30
0.0
 11
-20.5511811024
 21
11.6421259843
 31
0.0
  0
LINE
  5
253
330
1B
100
AcDbEntity
 67
     1
  8
0
  6
Continuous
 62
     7
370
    25
100
AcDbLine
 10
-27.4803149606
 20
15.5003937008
 30
0.0
 11
-27.4803149606
 21
11.6421259843
 31
0.0
  0
LINE
  5
254
330
1B
100
AcDbEntity
 67
     1
  8
0
  6
Continuous
 62
     7
370
    25
100
AcDbLine
 10
-26.6929133858
 20
15.5003937008
 30
0.0
 11
-26.6929133858
 21
11.6421259843
 31
0.0
  0
LINE
  5
255
330
1B
100
AcDbEntity
 67
     1
  8
0
  6
Continuous
 62
     7
370
    25
100
AcDbLine
 10
-24.0157480315
 20
15.5003937008
 30
0.0
 11
-24.0157480315
 21
11.6421259843
 31
0.0
  0
LINE
  5
256
330
1B
100
AcDbEntity
 67
     1
  8
0
  6
Continuous
 62
     7
370
    25
100
AcDbLine
 10
-23.2283464567
 20
15.5003937008
 30
0.0
 11
-23.2283464567
 21
11.6421259843
 31
0.0
  0
LINE
  5
257
330
1B
100
AcDbEntity
 67
     1
  8
0
  6
Continuous
 62
     7
370
    25
100
AcDbLine
 10
10.9940944882
 20
18.6204724409
 30
0.0
 11
11.4797553716
 21
19.1061333243
 31
0.0
  0
LINE
  5
258
330
1B
100
AcDbEntity
 67
     1
  8
0
  6
Continuous
 62
     7
370
    25
100
AcDbLine
 10
-11.0236220472
 20
17.7165354331
 30
0.0
 11
-11.0236220472
 21
10.6299212598
 31
0.0
  0
LINE
  5
259
330
1B
100
AcDbEntity
 67
     1
  8
0
  6
Continuous
 62
     7
370
    25
100
AcDbLine
 10
10.8267716535
 20
10.6299212598
 30
0.0
 11
10.8267716535
 21
17.7165354331
 31
0.0
  0
LINE
  5
25A
330
1B
100
AcDbEntity
 67
     1
  8
0
  6
Continuous
 62
     7
370
    25
100
AcDbLine
 10
11.4682241425
 20
10.461023622
 30
0.0
 11
11.4682241425
 21
19.0946020952
 31
0.0
  0
LINE
  5
25B
330
1B
100
AcDbEntity
 67
     1
  8
0
  6
Continuous
 62
     7
370
    25
100
AcDbLine
 10
11.4797553716
 20
10.461023622
 30
0.0
 11
10.9940944882
 21
10.461023622
 31
0.0
  0
LINE
  5
25C
330
1B
100
AcDbEntity
 67
     1
  8
0
  6
Continuous
 62
     7
370
    25
100
AcDbLine
 10
10.0196850394
 20
11.6421259843
 30
0.0
 11
10.0196850394
 21
15.8547244094
 31
0.0
  0
LINE
  5
25D
330
1B
100
AcDbEntity
 67
     1
  8
0
  6
Continuous
 62
     7
370
    25
100
AcDbLine
 10
10.0196850394
 20
11.7208661417
 30
0.0
 11
10.7283464567
 21
11.7208661417
 31
0.0
  0
LINE
  5
25E
330
1B
100
AcDbEntity
 67
     1
  8
0
  6
Continuous
 62
     7
370
    25
100
AcDbLine
 10
10.0196850394
 20
15.8547244094
 30
0.0
 11
10.7283464567
 21
15.8547244094
 31
0.0
  0
LINE
  5
25F
330
1B
100
AcDbEntity
 67
     1
  8
0
  6
Continuous
 62
     7
370
    25
100
AcDbLine
 10
10.7283464567
 20
11.7208661417
 30
0.0
 11
10.7283464567
 21
15.8547244094
 31
0.0
  0
LINE
  5
260
330
1B
100
AcDbEntity
 67
     1
  8
0
  6
Continuous
 62
     7
370
    25
100
AcDbLine
 10
-10.9251968504
 20
11.7208661417
 30
0.0
 11
-10.2165354331
 21
11.7208661417
 31
0.0
  0
LINE
  5
261
330
1B
100
AcDbEntity
 67
     1
  8
0
  6
Continuous
 62
     7
370
    25
100
AcDbLine
 10
-10.9251968504
 20
15.8547244094
 30
0.0
 11
-10.2165354331
 21
15.8547244094
 31
0.0
  0
LINE
  5
262
330
1B
100
AcDbEntity
 67
     1
  8
0
  6
Continuous
 62
     7
370
    25
100
AcDbLine
 10
-10.2165354331
 20
11.6421259843
 30
0.0
 11
-10.2165354331
 21
15.8547244094
 31
0.0
  0
LINE
  5
263
330
1B
100
AcDbEntity
 67
     1
  8
0
  6
Continuous
 62
     7
370
    25
100
AcDbLine
 10
-10.9251968504
 20
11.7208661417
 30
0.0
 11
-10.9251968504
 21
15.8547244094
 31
0.0
  0
LINE
  5
264
330
1B
100
AcDbEntity
 67
     1
  8
0
  6
Continuous
 62
     7
370
    25
100
AcDbLine
 10
-10.2165354331
 20
12.3507874016
 30
0.0
 11
-3.9566929134
 21
12.3507874016
 31
0.0
  0
LINE
  5
265
330
1B
100
AcDbEntity
 67
     1
  8
0
  6
Continuous
 62
     7
370
    25
100
AcDbLine
 10
10.0196850394
 20
11.6421259843
 30
0.0
 11
-10.2165354331
 21
11.6421259843
 31
0.0
  0
LINE
  5
266
330
1B
100
AcDbEntity
 67
     1
  8
0
  6
Continuous
 62
     7
370
    25
100
AcDbLine
 10
3.7598425197
 20
12.3507874016
 30
0.0
 11
10.0196850394
 21
12.3507874016
 31
0.0
  0
LINE
  5
267
330
1B
100
AcDbEntity
 67
     1
  8
0
  6
Continuous
 62
     7
370
    25
100
AcDbLine
 10
-10.2165354331
 20
15.5003937008
 30
0.0
 11
10.0196850394
 21
15.5003937008
 31
0.0
  0
LINE
  5
268
330
1B
100
AcDbEntity
 67
     1
  8
0
  6
Continuous
 62
     7
370
    25
100
AcDbLine
 10
3.7598425197
 20
15.5003937008
 30
0.0
 11
3.7598425197
 21
11.6421259843
 31
0.0
  0
LINE
  5
269
330
1B
100
AcDbEntity
 67
     1
  8
0
  6
Continuous
 62
     7
370
    25
100
AcDbLine
 10
2.9724409449
 20
15.5003937008
 30
0.0
 11
2.9724409449
 21
11.6421259843
 31
0.0
  0
LINE
  5
26A
330
1B
100
AcDbEntity
 67
     1
  8
0
  6
Continuous
 62
     7
370
    25
100
AcDbLine
 10
-3.9566929134
 20
15.5003937008
 30
0.0
 11
-3.9566929134
 21
11.6421259843
 31
0.0
  0
LINE
  5
26B
330
1B
100
AcDbEntity
 67
     1
  8
0
  6
Continuous
 62
     7
370
    25
100
AcDbLine
 10
-3.1692913386
 20
15.5003937008
 30
0.0
 11
-3.1692913386
 21
11.6421259843
 31
0.0
  0
LINE
  5
26C
330
1B
100
AcDbEntity
 67
     1
  8
0
  6
Continuous
 62
     7
370
    25
100
AcDbLine
 10
-0.4921259843
 20
15.5003937008
 30
0.0
 11
-0.4921259843
 21
11.6421259843
 31
0.0
  0
LINE
  5
26D
330
1B
100
AcDbEntity
 67
     1
  8
0
  6
Continuous
 62
     7
370
    25
100
AcDbLine
 10
0.2952755906
 20
15.5003937008
 30
0.0
 11
0.2952755906
 21
11.6421259843
 31
0.0
  0
LINE
  5
26E
330
1B
100
AcDbEntity
 67
     1
  8
0
  6
Continuous
 62
     8
370
    25
100
AcDbLine
 10
-34.7145669291
 20
8.6335784732
 30
0.0
 11
-35.1886965834
 21
8.6335784732
 31
0.0
  0
LINE
  5
26F
330
1B
100
AcDbEntity
 67
     1
  8
0
  6
Continuous
 62
     8
370
    25
100
AcDbLine
 10
-35.1886965834
 20
8.6335784732
 30
0.0
 11
-35.1886965834
 21
0.0393700787
 31
0.0
  0
LINE
  5
270
330
1B
100
AcDbEntity
 67
     1
  8
0
  6
Continuous
 62
     8
370
    25
100
AcDbLine
 10
11.4682241425
 20
8.6335784732
 30
0.0
 11
10.9940944882
 21
8.6335784732
 31
0.0
  0
LINE
  5
271
330
1B
100
AcDbEntity
 67
     1
  8
0
  6
Continuous
 62
     8
370
    25
100
AcDbLine
 10
11.4682241425
 20
0.0393700787
 30
0.0
 11
11.4682241425
 21
8.6335784732
 31
0.0
  0
LINE
  5
272
330
1B
100
AcDbEntity
 67
     1
  8
0
  6
Continuous
 62
     8
370
    25
100
AcDbLine
 10
-34.7145669291
 20
19.0946020952
 30
0.0
 11
-35.1886965834
 21
19.0946020952
 31
0.0
  0
LINE
  5
273
330
1B
100
AcDbEntity
 67
     1
  8
0
  6
Continuous
 62
     8
370
    25
100
AcDbLine
 10
11.4682241425
 20
19.0946020952
 30
0.0
 11
10.9940944882
 21
19.0946020952
 31
0.0
  0
ARC
  5
274
330
1B
100
AcDbEntity
 67
     1
  8
0
  6
Continuous
 62
     7
370
    25
100
AcDbCircle
 10
11.624015748
 20
20.8267716535
 30
0.0
 40
0.0393700787401663
100
AcDbArc
 50
0.0
 51
90.0
  0
ARC
  5
275
330
1B
100
AcDbEntity
 67
     1
  8
0
  6
Continuous
 62
     7
370
    25
100
AcDbCircle
 10
10.9940944882
 20
20.8267716535
 30
0.0
 40
0.0393700787401592
100
AcDbArc
 50
90.0
 51
180.0
  0
ARC
  5
276
330
1B
100
AcDbEntity
 67
     1
  8
0
  6
Continuous
 62
     7
370
    25
100
AcDbCircle
 10
10.9940944882
 20
0.0393700787
 30
0.0
 40
0.0393700787401601
100
AcDbArc
 50
180.0
 51
270.0
  0
ARC
  5
277
330
1B
100
AcDbEntity
 67
     1
  8
0
  6
Continuous
 62
     7
370
    25
100
AcDbCircle
 10
11.624015748
 20
0.0393700787
 30
0.0
 40
0.0393700787401574
100
AcDbArc
 50
270.0
 51
0.0
  0
ARC
  5
278
330
1B
100
AcDbEntity
 67
     1
  8
0
  6
Continuous
 62
     7
370
    25
100
AcDbCircle
 10
-35.344488189
 20
0.0393700787
 30
0.0
 40
0.0393700787401627
100
AcDbArc
 50
180.0
 51
270.0
  0
ARC
  5
279
330
1B
100
AcDbEntity
 67
     1
  8
0
  6
Continuous
 62
     7
370
    25
100
AcDbCircle
 10
-35.344488189
 20
20.8267716535
 30
0.0
 40
0.0393700787401592
100
AcDbArc
 50
90.0
 51
180.0
  0
ARC
  5
27A
330
1B
100
AcDbEntity
 67
     1
  8
0
  6
Continuous
 62
     7
370
    25
100
AcDbCircle
 10
-34.7145669291
 20
0.0393700787
 30
0.0
 40
0.0393700787401556
100
AcDbArc
 50
270.0
 51
0.0
  0
ARC
  5
27B
330
1B
100
AcDbEntity
 67
     1
  8
0
  6
Continuous
 62
     7
370
    25
100
AcDbCircle
 10
-34.7145669291
 20
20.8267716535
 30
0.0
 40
0.0393700787401521
100
AcDbArc
 50
360.0
 51
90.0
  0
VIEWPORT
  5
3DD
330
1B
100
AcDbEntity
 67
     1
  8
0
100
AcDbViewport
 10
0.0
 20
0.0
 30
0.0
 40
8.4
 41
6.4
 68
     1
 69
     1
 12
11.8602362205
 22
10.4330708661
 13
0.0
 23
0.0
 14
0.5
 24
0.5
 15
0.5
 25
0.5
 16
0.0
 26
0.0
 36
1.0
 17
0.0
 27
0.0
 37
0.0
 42
50.0
 43
0.0
 44
0.0
 45
36.5624296963
 50
0.0
 51
0.0
 72
   100
 90
   557152
  1

281
     0
 71
     1
 74
     0
110
0.0
120
0.0
130
0.0
111
1.0
121
0.0
131
0.0
112
0.0
122
1.0
132
0.0
 79
     0
146
0.0
  0
ENDSEC
  0
SECTION
  2
OBJECTS
  0
DICTIONARY
  5
C
330
0
100
AcDbDictionary
281
     1
  3
ACAD_GROUP
350
D
  3
ACAD_LAYOUT
350
1A
  3
ACAD_MLINESTYLE
350
17
  3
ACAD_PLOTSETTINGS
350
19
  3
ACAD_PLOTSTYLENAME
350
E
  3
ACAD_SCALELIST
350
47
  0
DICTIONARY
  5
D
102
{ACAD_REACTORS
330
C
102
}
330
C
100
AcDbDictionary
281
     1
  0
DICTIONARY
  5
1A
102
{ACAD_REACTORS
330
C
102
}
330
C
100
AcDbDictionary
281
     1
  3
_Back
350
1E
  3
_Left
350
26
  3
_Top
350
2B5
  3
Model
350
22
  0
DICTIONARY
  5
17
102
{ACAD_REACTORS
330
C
102
}
330
C
100
AcDbDictionary
281
     1
  3
Standard
350
18
  0
DICTIONARY
  5
19
102
{ACAD_REACTORS
330
C
102
}
330
C
100
AcDbDictionary
281
     1
  0
ACDBDICTIONARYWDFLT
  5
E
102
{ACAD_REACTORS
330
C
102
}
330
C
100
AcDbDictionary
281
     1
  3
Normal
350
F
100
AcDbDictionaryWithDefault
340
F
  0
DICTIONARY
  5
47
102
{ACAD_REACTORS
330
C
102
}
330
C
100
AcDbDictionary
281
     1
  3
A0
350
48
  3
A1
350
49
  3
A2
350
4A
  3
A3
350
4B
  3
A4
350
4C
  3
A5
350
4D
  3
A6
350
4E
  3
A7
350
4F
  3
A8
350
50
  3
A9
350
51
  3
B0
350
52
  3
B1
350
53
  3
B2
350
54
  3
B3
350
55
  3
B4
350
56
  3
B5
350
57
  3
B6
350
58
  3
B7
350
59
  3
B8
350
5A
  3
B9
350
5B
  3
C0
350
5C
  3
C1
350
5D
  3
C2
350
5E
  3
C3
350
5F
  3
C4
350
60
  3
C5
350
61
  3
C6
350
62
  3
C7
350
63
  3
C8
350
64
  3
C9
350
65
  3
D0
350
66
  3
D1
350
67
  3
D2
350
68
  0
LAYOUT
  5
1E
102
{ACAD_REACTORS
330
1A
102
}
330
1A
100
AcDbPlotSettings
  1

  2
none_device
  4
Letter_(8.50_x_11.00_Inches)
  6

 40
6.35
 41
6.35
 42
6.35001
 43
6.35001
 44
215.9
 45
279.4
 46
0.0
 47
0.0
 48
0.0
 49
0.0
140
0.0
141
0.0
142
1.0
143
4.4806900818
 70
   688
 72
     0
 73
     1
 74
     1
  7

 75
     0
147
0.2231799079
148
898.75
149
0.0
100
AcDbLayout
  1
_Back
 70
     1
 71
     1
 10
-36.5040325522
 20
-1.1201725204
 11
12.7835583472
 21
36.9656931746
 12
0.0
 22
0.0
 32
0.0
 14
-35.3838582677
 24
0.0
 34
0.0
 15
11.6633858268
 25
20.8661417323
 35
0.0
146
0.0
 13
0.0
 23
0.0
 33
0.0
 16
1.0
 26
0.0
 36
0.0
 17
0.0
 27
1.0
 37
0.0
 76
     0
330
1B
331
3DD
  0
LAYOUT
  5
26
102
{ACAD_REACTORS
330
1A
102
}
330
1A
100
AcDbPlotSettings
  1

  2
none_device
  4
Letter_(8.50_x_11.00_Inches)
  6

 40
6.35
 41
6.35
 42
6.35001
 43
6.35001
 44
215.9
 45
279.4
 46
0.0
 47
0.0
 48
0.0
 49
0.0
140
0.0
141
0.0
142
1.0
143
4.4806900818
 70
   688
 72
     0
 73
     1
 74
     1
  7

 75
     0
147
0.2231799079
148
898.75
149
0.0
100
AcDbLayout
  1
_Left
 70
     1
 71
     2
 10
0.0
 20
0.0
 11
0.0
 21
0.0
 12
0.0
 22
0.0
 32
0.0
 14
0.0
 24
0.0
 34
0.0
 15
0.0
 25
0.0
 35
0.0
146
0.0
 13
0.0
 23
0.0
 33
0.0
 16
1.0
 26
0.0
 36
0.0
 17
0.0
 27
1.0
 37
0.0
 76
     0
330
23
331
3DF
  0
LAYOUT
  5
2B5
102
{ACAD_REACTORS
330
1A
102
}
330
1A
100
AcDbPlotSettings
  1

  2
none_device
  4
Letter_(8.50_x_11.00_Inches)
  6

 40
6.35
 41
6.35
 42
6.35001
 43
6.35001
 44
215.9
 45
279.4
 46
0.0
 47
0.0
 48
0.0
 49
0.0
140
0.0
141
0.0
142
1.0
143
4.4806900818
 70
   688
 72
     0
 73
     1
 74
     1
  7

 75
     0
147
0.2231799079
148
898.75
149
0.0
100
AcDbLayout
  1
_Top
 70
     1
 71
     3
 10
0.0
 20
0.0
 11
0.0
 21
0.0
 12
0.0
 22
0.0
 32
0.0
 14
0.0
 24
0.0
 34
0.0
 15
0.0
 25
0.0
 35
0.0
146
0.0
 13
0.0
 23
0.0
 33
0.0
 16
1.0
 26
0.0
 36
0.0
 17
0.0
 27
1.0
 37
0.0
 76
     0
330
2B4
331
3E1
  0
LAYOUT
  5
22
102
{ACAD_REACTORS
330
1A
102
}
330
1A
100
AcDbPlotSettings
  1

  2
none_device
  4
ANSI_A_(11.00_x_8.50_Inches)
  6

 40
6.35
 41
19.05
 42
6.35000508
 43
19.05000254
 44
279.4
 45
215.9
 46
63.6198238198
 47
27.5605928723
 48
0.0
 49
0.0
140
0.0
141
0.0
142
0.2314694561
143
1.0
 70
  1696
 72
     0
 73
     0
 74
     0
  7

 75
     0
147
0.5913241897
148
-39.4088153714
149
0.0
100
AcDbLayout
  1
Model
 70
     1
 71
     0
 10
0.0
 20
0.0
 11
12.0
 21
9.0
 12
0.0
 22
0.0
 32
0.0
 14
-11.6633858268
 24
0.0
 34
0.0
 15
35.3838582677
 25
20.8661417323
 35
0.0
146
0.0
 13
0.0
 23
0.0
 33
0.0
 16
1.0
 26
0.0
 36
0.0
 17
0.0
 27
1.0
 37
0.0
 76
     0
330
1F
331
29
  0
MLINESTYLE
  5
18
102
{ACAD_REACTORS
330
17
102
}
330
17
100
AcDbMlineStyle
  2
Standard
 70
     0
  3

 62
   256
 51
90.0
 52
90.0
 71
     2
 49
0.5
 62
   256
  6
BYLAYER
 49
-0.5
 62
   256
  6
BYLAYER
  0
ACDBPLACEHOLDER
  5
F
102
{ACAD_REACTORS
330
E
102
}
330
E
  0
SCALE
  5
48
102
{ACAD_REACTORS
330
47
102
}
330
47
100
AcDbScale
 70
     0
300
1:1
140
1.0
141
1.0
290
     1
  0
SCALE
  5
49
102
{ACAD_REACTORS
330
47
102
}
330
47
100
AcDbScale
 70
     0
300
1:2
140
1.0
141
2.0
290
     0
  0
SCALE
  5
4A
102
{ACAD_REACTORS
330
47
102
}
330
47
100
AcDbScale
 70
     0
300
1:4
140
1.0
141
4.0
290
     0
  0
SCALE
  5
4B
102
{ACAD_REACTORS
330
47
102
}
330
47
100
AcDbScale
 70
     0
300
1:5
140
1.0
141
5.0
290
     0
  0
SCALE
  5
4C
102
{ACAD_REACTORS
330
47
102
}
330
47
100
AcDbScale
 70
     0
300
1:8
140
1.0
141
8.0
290
     0
  0
SCALE
  5
4D
102
{ACAD_REACTORS
330
47
102
}
330
47
100
AcDbScale
 70
     0
300
1:10
140
1.0
141
10.0
290
     0
  0
SCALE
  5
4E
102
{ACAD_REACTORS
330
47
102
}
330
47
100
AcDbScale
 70
     0
300
1:16
140
1.0
141
16.0
290
     0
  0
SCALE
  5
4F
102
{ACAD_REACTORS
330
47
102
}
330
47
100
AcDbScale
 70
     0
300
1:20
140
1.0
141
20.0
290
     0
  0
SCALE
  5
50
102
{ACAD_REACTORS
330
47
102
}
330
47
100
AcDbScale
 70
     0
300
1:30
140
1.0
141
30.0
290
     0
  0
SCALE
  5
51
102
{ACAD_REACTORS
330
47
102
}
330
47
100
AcDbScale
 70
     0
300
1:40
140
1.0
141
40.0
290
     0
  0
SCALE
  5
52
102
{ACAD_REACTORS
330
47
102
}
330
47
100
AcDbScale
 70
     0
300
1:50
140
1.0
141
50.0
290
     0
  0
SCALE
  5
53
102
{ACAD_REACTORS
330
47
102
}
330
47
100
AcDbScale
 70
     0
300
1:100
140
1.0
141
100.0
290
     0
  0
SCALE
  5
54
102
{ACAD_REACTORS
330
47
102
}
330
47
100
AcDbScale
 70
     0
300
2:1
140
2.0
141
1.0
290
     0
  0
SCALE
  5
55
102
{ACAD_REACTORS
330
47
102
}
330
47
100
AcDbScale
 70
     0
300
4:1
140
4.0
141
1.0
290
     0
  0
SCALE
  5
56
102
{ACAD_REACTORS
330
47
102
}
330
47
100
AcDbScale
 70
     0
300
8:1
140
8.0
141
1.0
290
     0
  0
SCALE
  5
57
102
{ACAD_REACTORS
330
47
102
}
330
47
100
AcDbScale
 70
     0
300
10:1
140
10.0
141
1.0
290
     0
  0
SCALE
  5
58
102
{ACAD_REACTORS
330
47
102
}
330
47
100
AcDbScale
 70
     0
300
100:1
140
100.0
141
1.0
290
     0
  0
SCALE
  5
59
102
{ACAD_REACTORS
330
47
102
}
330
47
100
AcDbScale
 70
     0
300
1/128" = 1'-0"
140
0.0078125
141
12.0
290
     0
  0
SCALE
  5
5A
102
{ACAD_REACTORS
330
47
102
}
330
47
100
AcDbScale
 70
     0
300
1/64" = 1'-0"
140
0.015625
141
12.0
290
     0
  0
SCALE
  5
5B
102
{ACAD_REACTORS
330
47
102
}
330
47
100
AcDbScale
 70
     0
300
1/32" = 1'-0"
140
0.03125
141
12.0
290
     0
  0
SCALE
  5
5C
102
{ACAD_REACTORS
330
47
102
}
330
47
100
AcDbScale
 70
     0
300
1/16" = 1'-0"
140
0.0625
141
12.0
290
     0
  0
SCALE
  5
5D
102
{ACAD_REACTORS
330
47
102
}
330
47
100
AcDbScale
 70
     0
300
3/32" = 1'-0"
140
0.09375
141
12.0
290
     0
  0
SCALE
  5
5E
102
{ACAD_REACTORS
330
47
102
}
330
47
100
AcDbScale
 70
     0
300
1/8" = 1'-0"
140
0.125
141
12.0
290
     0
  0
SCALE
  5
5F
102
{ACAD_REACTORS
330
47
102
}
330
47
100
AcDbScale
 70
     0
300
3/16" = 1'-0"
140
0.1875
141
12.0
290
     0
  0
SCALE
  5
60
102
{ACAD_REACTORS
330
47
102
}
330
47
100
AcDbScale
 70
     0
300
1/4" = 1'-0"
140
0.25
141
12.0
290
     0
  0
SCALE
  5
61
102
{ACAD_REACTORS
330
47
102
}
330
47
100
AcDbScale
 70
     0
300
3/8" = 1'-0"
140
0.375
141
12.0
290
     0
  0
SCALE
  5
62
102
{ACAD_REACTORS
330
47
102
}
330
47
100
AcDbScale
 70
     0
300
1/2" = 1'-0"
140
0.5
141
12.0
290
     0
  0
SCALE
  5
63
102
{ACAD_REACTORS
330
47
102
}
330
47
100
AcDbScale
 70
     0
300
3/4" = 1'-0"
140
0.75
141
12.0
290
     0
  0
SCALE
  5
64
102
{ACAD_REACTORS
330
47
102
}
330
47
100
AcDbScale
 70
     0
300
1" = 1'-0"
140
1.0
141
12.0
290
     0
  0
SCALE
  5
65
102
{ACAD_REACTORS
330
47
102
}
330
47
100
AcDbScale
 70
     0
300
1-1/2" = 1'-0"
140
1.5
141
12.0
290
     0
  0
SCALE
  5
66
102
{ACAD_REACTORS
330
47
102
}
330
47
100
AcDbScale
 70
     0
300
3" = 1'-0"
140
3.0
141
12.0
290
     0
  0
SCALE
  5
67
102
{ACAD_REACTORS
330
47
102
}
330
47
100
AcDbScale
 70
     0
300
6" = 1'-0"
140
6.0
141
12.0
290
     0
  0
SCALE
  5
68
102
{ACAD_REACTORS
330
47
102
}
330
47
100
AcDbScale
 70
     0
300
1'-0" = 1'-0"
140
12.0
141
12.0
290
     0
  0
ENDSEC
  0
EOF
