  0
SECTION
  2
HEADER
  9
$ACADVER
  1
AC1015
  9
$ACADMAINTVER
 70
     6
  9
$DWGCODEPAGE
  3
ANSI_1252
  9
$INSBASE
 10
0.0
 20
0.0
 30
0.0
  9
$EXTMIN
 10
-19.5866141732
 20
0.0
 30
0.0
  9
$EXTMAX
 10
27.4606299213
 20
15.7480314961
 30
0.0
  9
$LIMMIN
 10
0.0
 20
0.0
  9
$LIMMAX
 10
12.0
 20
9.0
  9
$ORTHOMODE
 70
     0
  9
$REGENMODE
 70
     1
  9
$FILLMODE
 70
     1
  9
$QTEXTMODE
 70
     0
  9
$MIRRTEXT
 70
     1
  9
$LTSCALE
 40
1.0
  9
$ATTMODE
 70
     1
  9
$TEXTSIZE
 40
0.1377952756
  9
$TRACEWID
 40
0.05
  9
$TEXTSTYLE
  7
Standard
  9
$CLAYER
  8
0
  9
$CELTYPE
  6
ByLayer
  9
$CECOLOR
 62
   256
  9
$CELTSCALE
 40
1.0
  9
$DISPSILH
 70
     0
  9
$DIMSCALE
 40
1.0
  9
$DIMASZ
 40
0.13
  9
$DIMEXO
 40
0.0393700787
  9
$DIMDLI
 40
0.38
  9
$DIMRND
 40
0.0
  9
$DIMDLE
 40
0.0
  9
$DIMEXE
 40
0.0393700787
  9
$DIMTP
 40
0.0
  9
$DIMTM
 40
0.0
  9
$DIMTXT
 40
0.1377952756
  9
$DIMCEN
 40
0.09
  9
$DIMTSZ
 40
0.0
  9
$DIMTOL
 70
     0
  9
$DIMLIM
 70
     0
  9
$DIMTIH
 70
     1
  9
$DIMTOH
 70
     1
  9
$DIMSE1
 70
     0
  9
$DIMSE2
 70
     0
  9
$DIMTAD
 70
     1
  9
$DIMZIN
 70
     1
  9
$DIMBLK
  1

  9
$DIMASO
 70
     1
  9
$DIMSHO
 70
     1
  9
$DIMPOST
  1

  9
$DIMAPOST
  1

  9
$DIMALT
 70
     0
  9
$DIMALTD
 70
     2
  9
$DIMALTF
 40
25.4
  9
$DIMLFAC
 40
1.0
  9
$DIMTOFL
 70
     0
  9
$DIMTVP
 40
0.0
  9
$DIMTIX
 70
     0
  9
$DIMSOXD
 70
     0
  9
$DIMSAH
 70
     0
  9
$DIMBLK1
  1

  9
$DIMBLK2
  1

  9
$DIMSTYLE
  2
Standard
  9
$DIMCLRD
 70
     0
  9
$DIMCLRE
 70
     0
  9
$DIMCLRT
 70
     0
  9
$DIMTFAC
 40
1.0
  9
$DIMGAP
 40
0.06
  9
$DIMJUST
 70
     0
  9
$DIMSD1
 70
     0
  9
$DIMSD2
 70
     0
  9
$DIMTOLJ
 70
     1
  9
$DIMTZIN
 70
     1
  9
$DIMALTZ
 70
     0
  9
$DIMALTTZ
 70
     0
  9
$DIMUPT
 70
     0
  9
$DIMDEC
 70
     2
  9
$DIMTDEC
 70
     2
  9
$DIMALTU
 70
     2
  9
$DIMALTTD
 70
     2
  9
$DIMTXSTY
  7
Standard
  9
$DIMAUNIT
 70
     0
  9
$DIMADEC
 70
     2
  9
$DIMALTRND
 40
0.0
  9
$DIMAZIN
 70
     0
  9
$DIMDSEP
 70
    46
  9
$DIMATFIT
 70
     3
  9
$DIMFRAC
 70
     0
  9
$DIMLDRBLK
  1

  9
$DIMLUNIT
 70
     2
  9
$DIMLWD
 70
    -2
  9
$DIMLWE
 70
    -2
  9
$DIMTMOVE
 70
     0
  9
$LUNITS
 70
     2
  9
$LUPREC
 70
     2
  9
$SKETCHINC
 40
0.1
  9
$FILLETRAD
 40
0.5
  9
$AUNITS
 70
     0
  9
$AUPREC
 70
     2
  9
$MENU
  1
.
  9
$ELEVATION
 40
0.0
  9
$PELEVATION
 40
0.0
  9
$THICKNESS
 40
0.0
  9
$LIMCHECK
 70
     0
  9
$CHAMFERA
 40
0.0
  9
$CHAMFERB
 40
0.0
  9
$CHAMFERC
 40
0.0
  9
$CHAMFERD
 40
0.0
  9
$SKPOLY
 70
     0
  9
$TDCREATE
 40
2460405.654295949
  9
$TDUCREATE
 40
2460405.612629282
  9
$TDUPDATE
 40
2460405.654329444
  9
$TDUUPDATE
 40
2460405.612662778
  9
$TDINDWG
 40
0.0000000116
  9
$TDUSRTIMER
 40
0.0000000116
  9
$USRTIMER
 70
     1
  9
$ANGBASE
 50
0.0
  9
$ANGDIR
 70
     0
  9
$PDMODE
 70
     0
  9
$PDSIZE
 40
-1.0
  9
$PLINEWID
 40
0.0
  9
$SPLFRAME
 70
     0
  9
$SPLINETYPE
 70
     6
  9
$SPLINESEGS
 70
     8
  9
$HANDSEED
  5
323
  9
$SURFTAB1
 70
     6
  9
$SURFTAB2
 70
     6
  9
$SURFTYPE
 70
     6
  9
$SURFU
 70
     6
  9
$SURFV
 70
     6
  9
$UCSBASE
  2

  9
$UCSNAME
  2

  9
$UCSORG
 10
0.0
 20
0.0
 30
0.0
  9
$UCSXDIR
 10
1.0
 20
0.0
 30
0.0
  9
$UCSYDIR
 10
0.0
 20
1.0
 30
0.0
  9
$UCSORTHOREF
  2

  9
$UCSORTHOVIEW
 70
     0
  9
$UCSORGTOP
 10
0.0
 20
0.0
 30
0.0
  9
$UCSORGBOTTOM
 10
0.0
 20
0.0
 30
0.0
  9
$UCSORGLEFT
 10
0.0
 20
0.0
 30
0.0
  9
$UCSORGRIGHT
 10
0.0
 20
0.0
 30
0.0
  9
$UCSORGFRONT
 10
0.0
 20
0.0
 30
0.0
  9
$UCSORGBACK
 10
0.0
 20
0.0
 30
0.0
  9
$PUCSBASE
  2

  9
$PUCSNAME
  2

  9
$PUCSORG
 10
0.0
 20
0.0
 30
0.0
  9
$PUCSXDIR
 10
1.0
 20
0.0
 30
0.0
  9
$PUCSYDIR
 10
0.0
 20
1.0
 30
0.0
  9
$PUCSORTHOREF
  2

  9
$PUCSORTHOVIEW
 70
     0
  9
$PUCSORGTOP
 10
0.0
 20
0.0
 30
0.0
  9
$PUCSORGBOTTOM
 10
0.0
 20
0.0
 30
0.0
  9
$PUCSORGLEFT
 10
0.0
 20
0.0
 30
0.0
  9
$PUCSORGRIGHT
 10
0.0
 20
0.0
 30
0.0
  9
$PUCSORGFRONT
 10
0.0
 20
0.0
 30
0.0
  9
$PUCSORGBACK
 10
0.0
 20
0.0
 30
0.0
  9
$USERI1
 70
     0
  9
$USERI2
 70
     0
  9
$USERI3
 70
     0
  9
$USERI4
 70
     0
  9
$USERI5
 70
     0
  9
$USERR1
 40
0.0
  9
$USERR2
 40
0.0
  9
$USERR3
 40
0.0
  9
$USERR4
 40
0.0
  9
$USERR5
 40
0.0
  9
$WORLDVIEW
 70
     1
  9
$SHADEDGE
 70
     3
  9
$SHADEDIF
 70
    70
  9
$TILEMODE
 70
     1
  9
$MAXACTVP
 70
    64
  9
$PINSBASE
 10
0.0
 20
0.0
 30
0.0
  9
$PLIMCHECK
 70
     0
  9
$PEXTMIN
 10
-8.9960629921
 20
0.0
 30
0.0
  9
$PEXTMAX
 10
8.9173228346
 20
15.7480314961
 30
0.0
  9
$PLIMMIN
 10
-9.4881897756
 20
-0.4921260085
  9
$PLIMMAX
 10
12.1653545971
 20
16.2401582795
  9
$UNITMODE
 70
     0
  9
$VISRETAIN
 70
     1
  9
$PLINEGEN
 70
     0
  9
$PSLTSCALE
 70
     1
  9
$TREEDEPTH
 70
  3020
  9
$CMLSTYLE
  2
Standard
  9
$CMLJUST
 70
     0
  9
$CMLSCALE
 40
1.0
  9
$PROXYGRAPHICS
 70
     1
  9
$MEASUREMENT
 70
     0
  9
$CELWEIGHT
370
    -1
  9
$ENDCAPS
280
     0
  9
$JOINSTYLE
280
     0
  9
$LWDISPLAY
290
     1
  9
$INSUNITS
 70
     1
  9
$HYPERLINKBASE
  1

  9
$STYLESHEET
  1

  9
$XEDIT
290
     1
  9
$CEPSNTYPE
380
     0
  9
$PSTYLEMODE
290
     1
  9
$FINGERPRINTGUID
  2
{6fa15198-b48f-43cc-88e6-4ce7182616fe}
  9
$VERSIONGUID
  2
{FAEB1C32-E019-11D5-929B-00C0DF256EC4}
  9
$EXTNAMES
290
     1
  9
$PSVPSCALE
 40
0.0
  9
$OLESTARTUP
290
     0
  0
ENDSEC
  0
SECTION
  2
CLASSES
  0
CLASS
  1
ACDBDICTIONARYWDFLT
  2
AcDbDictionaryWithDefault
  3
ObjectDBX Classes
 90
        0
280
     0
281
     0
  0
CLASS
  1
VISUALSTYLE
  2
AcDbVisualStyle
  3
ObjectDBX Classes
 90
     4095
280
     0
281
     0
  0
CLASS
  1
MATERIAL
  2
AcDbMaterial
  3
ObjectDBX Classes
 90
     1153
280
     0
281
     0
  0
CLASS
  1
SCALE
  2
AcDbScale
  3
ObjectDBX Classes
 90
     1153
280
     0
281
     0
  0
CLASS
  1
TABLESTYLE
  2
AcDbTableStyle
  3
ObjectDBX Classes
 90
     4095
280
     0
281
     0
  0
CLASS
  1
MLEADERSTYLE
  2
AcDbMLeaderStyle
  3
ACDB_MLEADERSTYLE_CLASS
 90
     4095
280
     0
281
     0
  0
CLASS
  1
SUN
  2
AcDbSun
  3
SCENEOE
 90
     1153
280
     0
281
     0
  0
CLASS
  1
ACDBPLACEHOLDER
  2
AcDbPlaceHolder
  3
ObjectDBX Classes
 90
        0
280
     0
281
     0
  0
CLASS
  1
LAYOUT
  2
AcDbLayout
  3
ObjectDBX Classes
 90
        0
280
     0
281
     0
  0
ENDSEC
  0
SECTION
  2
TABLES
  0
TABLE
  2
VPORT
  5
8
330
0
100
AcDbSymbolTable
 70
     1
  0
VPORT
  5
29
330
8
100
AcDbSymbolTableRecord
100
AcDbViewportTableRecord
  2
*Active
 70
     0
 10
0.0
 20
0.0
 11
1.0
 21
1.0
 12
3.937007874
 22
7.874015748
 13
0.0
 23
0.0
 14
0.5
 24
0.5
 15
0.5
 25
0.5
 16
0.0
 26
0.0
 36
1.0
 17
0.0
 27
0.0
 37
0.0
 40
16.062992126
 41
2.9875
 42
50.0
 43
0.0
 44
0.0
 50
0.0
 51
0.0
 71
     0
 72
   100
 73
     1
 74
     3
 75
     0
 76
     0
 77
     0
 78
     0
281
     0
 65
     1
110
0.0
120
0.0
130
0.0
111
1.0
121
0.0
131
0.0
112
0.0
122
1.0
132
0.0
 79
     0
146
0.0
  0
ENDTAB
  0
TABLE
  2
LTYPE
  5
5
330
0
100
AcDbSymbolTable
 70
     6
  0
LTYPE
  5
14
330
5
100
AcDbSymbolTableRecord
100
AcDbLinetypeTableRecord
  2
ByBlock
 70
     0
  3

 72
    65
 73
     0
 40
0.0
  0
LTYPE
  5
15
330
5
100
AcDbSymbolTableRecord
100
AcDbLinetypeTableRecord
  2
ByLayer
 70
     0
  3

 72
    65
 73
     0
 40
0.0
  0
LTYPE
  5
16
330
5
100
AcDbSymbolTableRecord
100
AcDbLinetypeTableRecord
  2
Continuous
 70
     0
  3
Solid line
 72
    65
 73
     0
 40
0.0
  0
LTYPE
  5
6E
330
5
100
AcDbSymbolTableRecord
100
AcDbLinetypeTableRecord
  2
HIDDEN
 70
     0
  3
Hidden __ __ __ __ __ __ __ __ __ __ __ __ __ __
 72
    65
 73
     2
 40
0.075
 49
0.05
 74
     0
 49
-0.025
 74
     0
  0
LTYPE
  5
6F
330
5
100
AcDbSymbolTableRecord
100
AcDbLinetypeTableRecord
  2
PHANTOM
 70
     0
  3
Phantom ______  __  __  ______  __  __  ______
 72
    65
 73
     6
 40
0.5
 49
0.25
 74
     0
 49
-0.05
 74
     0
 49
0.05
 74
     0
 49
-0.05
 74
     0
 49
0.05
 74
     0
 49
-0.05
 74
     0
  0
LTYPE
  5
70
330
5
100
AcDbSymbolTableRecord
100
AcDbLinetypeTableRecord
  2
CENTER
 70
     0
  3
Center ____ _ ____ _ ____ _ ____ _ ____ _ ____
 72
    65
 73
     4
 40
0.4
 49
0.25
 74
     0
 49
-0.05
 74
     0
 49
0.05
 74
     0
 49
-0.05
 74
     0
  0
LTYPE
  5
71
330
5
100
AcDbSymbolTableRecord
100
AcDbLinetypeTableRecord
  2
CENTERX2
 70
     0
  3
Center (2x) ________  __  ________  __  _____
 72
    65
 73
     4
 40
0.8
 49
0.5
 74
     0
 49
-0.1
 74
     0
 49
0.1
 74
     0
 49
-0.1
 74
     0
  0
LTYPE
  5
72
330
5
100
AcDbSymbolTableRecord
100
AcDbLinetypeTableRecord
  2
DOT2
 70
     0
  3
Dot (.5x) ........................................
 72
    65
 73
     2
 40
0.025
 49
0.0
 74
     0
 49
-0.025
 74
     0
  0
ENDTAB
  0
TABLE
  2
LAYER
  5
2
330
0
100
AcDbSymbolTable
 70
     1
  0
LAYER
  5
10
330
2
100
AcDbSymbolTableRecord
100
AcDbLayerTableRecord
  2
0
 70
     0
 62
     7
  6
Continuous
370
    -3
390
F
  0
ENDTAB
  0
TABLE
  2
STYLE
  5
3
330
0
100
AcDbSymbolTable
 70
     1
  0
STYLE
  5
11
330
3
100
AcDbSymbolTableRecord
100
AcDbTextStyleTableRecord
  2
Standard
 70
     0
 40
0.0
 41
1.0
 50
0.0
 71
     0
 42
0.1377952756
  3
txt
  4

  0
ENDTAB
  0
TABLE
  2
VIEW
  5
6
330
0
100
AcDbSymbolTable
 70
     0
  0
ENDTAB
  0
TABLE
  2
UCS
  5
7
330
0
100
AcDbSymbolTable
 70
     0
  0
ENDTAB
  0
TABLE
  2
APPID
  5
9
330
0
100
AcDbSymbolTable
 70
     1
  0
APPID
  5
12
330
9
100
AcDbSymbolTableRecord
100
AcDbRegAppTableRecord
  2
ACAD
 70
     0
  0
ENDTAB
  0
TABLE
  2
DIMSTYLE
  5
A
330
0
100
AcDbSymbolTable
 70
     1
100
AcDbDimStyleTable
  0
DIMSTYLE
105
27
330
A
100
AcDbSymbolTableRecord
100
AcDbDimStyleTableRecord
  2
Standard
 70
     0
178
     0
340
11
  0
ENDTAB
  0
TABLE
  2
BLOCK_RECORD
  5
1
330
0
100
AcDbSymbolTable
 70
     3
  0
BLOCK_RECORD
  5
1F
330
1
100
AcDbSymbolTableRecord
100
AcDbBlockTableRecord
  2
*Model_Space
340
22
  0
BLOCK_RECORD
  5
1B
330
1
100
AcDbSymbolTableRecord
100
AcDbBlockTableRecord
  2
*Paper_Space
340
1E
  0
BLOCK_RECORD
  5
23
330
1
100
AcDbSymbolTableRecord
100
AcDbBlockTableRecord
  2
*Paper_Space0
340
26
  0
BLOCK_RECORD
  5
123
330
1
100
AcDbSymbolTableRecord
100
AcDbBlockTableRecord
  2
*Paper_Space1
340
124
  0
BLOCK_RECORD
  5
1E3
330
1
100
AcDbSymbolTableRecord
100
AcDbBlockTableRecord
  2
*Paper_Space2
340
1E4
  0
ENDTAB
  0
ENDSEC
  0
SECTION
  2
BLOCKS
  0
BLOCK
  5
20
330
1F
100
AcDbEntity
  8
0
100
AcDbBlockBegin
  2
*Model_Space
 70
     0
 10
0.0
 20
0.0
 30
0.0
  3
*Model_Space
  1

  0
ENDBLK
  5
21
330
1F
100
AcDbEntity
  8
0
100
AcDbBlockEnd
  0
BLOCK
  5
1C
330
1B
100
AcDbEntity
 67
     1
  8
0
100
AcDbBlockBegin
  2
*Paper_Space
 70
     0
 10
0.0
 20
0.0
 30
0.0
  3
*Paper_Space
  1

  0
ENDBLK
  5
1D
330
1B
100
AcDbEntity
 67
     1
  8
0
100
AcDbBlockEnd
  0
BLOCK
  5
24
330
23
100
AcDbEntity
  8
0
100
AcDbBlockBegin
  2
*Paper_Space0
 70
     0
 10
0.0
 20
0.0
 30
0.0
  3
*Paper_Space0
  1

  0
LINE
  5
11F
330
23
100
AcDbEntity
  8
0
  6
Continuous
 62
     7
370
    25
100
AcDbLine
 10
-8.9173228346
 20
0.0
 30
0.0
 11
8.9960629921
 21
0.0
 31
0.0
  0
LINE
  5
120
330
23
100
AcDbEntity
  8
0
  6
Continuous
 62
     7
370
    25
100
AcDbLine
 10
-8.9173228346
 20
0.0
 30
0.0
 11
-8.9173228346
 21
15.7480314961
 31
0.0
  0
LINE
  5
121
330
23
100
AcDbEntity
  8
0
  6
Continuous
 62
     7
370
    25
100
AcDbLine
 10
-8.9173228346
 20
15.7480314961
 30
0.0
 11
8.9960629921
 21
15.7480314961
 31
0.0
  0
LINE
  5
122
330
23
100
AcDbEntity
  8
0
  6
Continuous
 62
     7
370
    25
100
AcDbLine
 10
8.9960629921
 20
0.0
 30
0.0
 11
8.9960629921
 21
15.7480314961
 31
0.0
  0
VIEWPORT
  5
31D
330
23
100
AcDbEntity
  8
0
100
AcDbViewport
 10
0.0
 20
0.0
 30
0.0
 40
8.4
 41
6.4
 68
     1
 69
     1
 12
3.937007874
 22
7.874015748
 13
0.0
 23
0.0
 14
0.5
 24
0.5
 15
0.5
 25
0.5
 16
0.0
 26
0.0
 36
1.0
 17
0.0
 27
0.0
 37
0.0
 42
50.0
 43
0.0
 44
0.0
 45
36.5624296963
 50
0.0
 51
0.0
 72
   100
 90
   557152
  1

281
     0
 71
     1
 74
     0
110
0.0
120
0.0
130
0.0
111
1.0
121
0.0
131
0.0
112
0.0
122
1.0
132
0.0
 79
     0
146
0.0
  0
ENDBLK
  5
25
330
23
100
AcDbEntity
  8
0
100
AcDbBlockEnd
  0
BLOCK
  5
125
330
123
100
AcDbEntity
  8
0
100
AcDbBlockBegin
  2
*Paper_Space1
 70
     0
 10
0.0
 20
0.0
 30
0.0
  3
*Paper_Space1
  1

  0
LINE
  5
19D
330
123
100
AcDbEntity
  8
0
  6
Continuous
 62
     7
370
    25
100
AcDbLine
 10
-18.7007874016
 20
7.5393700787
 30
0.0
 11
-18.7007874016
 21
-7.5
 31
0.0
  0
LINE
  5
19E
330
123
100
AcDbEntity
  8
0
  6
Continuous
 62
     7
370
    25
100
AcDbLine
 10
-17.9921259843
 20
-7.5
 30
0.0
 11
-17.9921259843
 21
7.5393700787
 31
0.0
  0
LINE
  5
19F
330
123
100
AcDbEntity
  8
0
  6
Continuous
 62
     7
370
    25
100
AcDbLine
 10
27.4606299213
 20
-8.9173228346
 30
0.0
 11
27.4606299213
 21
8.9960629921
 31
0.0
  0
LINE
  5
1A0
330
123
100
AcDbEntity
  8
0
  6
Continuous
 62
     7
370
    25
100
AcDbLine
 10
27.4606299213
 20
-8.9173228346
 30
0.0
 11
19.5866141732
 21
-8.9173228346
 31
0.0
  0
LINE
  5
1A1
330
123
100
AcDbEntity
  8
0
  6
Continuous
 62
     7
370
    25
100
AcDbLine
 10
19.5866141732
 20
-8.9173228346
 30
0.0
 11
19.5866141732
 21
8.9960629921
 31
0.0
  0
LINE
  5
1A2
330
123
100
AcDbEntity
  8
0
  6
Continuous
 62
     7
370
    25
100
AcDbLine
 10
27.4606299213
 20
8.9960629921
 30
0.0
 11
19.5866141732
 21
8.9960629921
 31
0.0
  0
LINE
  5
1A3
330
123
100
AcDbEntity
  8
0
  6
Continuous
 62
     7
370
    25
100
AcDbLine
 10
19.4128262377
 20
-8.9173228346
 30
0.0
 11
-19.4128262377
 21
-8.9173228346
 31
0.0
  0
LINE
  5
1A4
330
123
100
AcDbEntity
  8
0
  6
Continuous
 62
     7
370
    25
100
AcDbLine
 10
-19.4406650874
 20
-8.8501139063
 30
0.0
 11
19.4406650874
 21
-8.8501139063
 31
0.0
  0
LINE
  5
1A5
330
123
100
AcDbEntity
  8
0
  6
Continuous
 62
     7
370
    25
100
AcDbLine
 10
18.7992125984
 20
-8.2086614173
 30
0.0
 11
19.4406650874
 21
-8.8501139063
 31
0.0
  0
LINE
  5
1A6
330
123
100
AcDbEntity
  8
0
  6
Continuous
 62
     7
370
    25
100
AcDbLine
 10
-18.7992125984
 20
-8.2086614173
 30
0.0
 11
-19.4406650874
 21
-8.8501139063
 31
0.0
  0
LINE
  5
1A7
330
123
100
AcDbEntity
  8
0
  6
Continuous
 62
     7
370
    25
100
AcDbLine
 10
-19.5866141732
 20
-8.8222750566
 30
0.0
 11
-19.5866141732
 21
8.9566929134
 31
0.0
  0
LINE
  5
1A8
330
123
100
AcDbEntity
  8
0
  6
Continuous
 62
     7
370
    25
100
AcDbLine
 10
-19.5472440945
 20
8.9960629921
 30
0.0
 11
-19.5472440945
 21
-8.8222750566
 31
0.0
  0
LINE
  5
1A9
330
123
100
AcDbEntity
  8
0
  6
Continuous
 62
     7
370
    25
100
AcDbLine
 10
-19.5866141732
 20
-8.8222750566
 30
0.0
 11
-19.5472440945
 21
-8.8222750566
 31
0.0
  0
LINE
  5
1AA
330
123
100
AcDbEntity
  8
0
  6
Continuous
 62
     7
370
    25
100
AcDbLine
 10
-18.9173228346
 20
-8.1923537968
 30
0.0
 11
-18.9173228346
 21
8.9960629921
 31
0.0
  0
LINE
  5
1AB
330
123
100
AcDbEntity
  8
0
  6
Continuous
 62
     7
370
    25
100
AcDbLine
 10
-19.5472440945
 20
-8.8222750566
 30
0.0
 11
-18.9173228346
 21
-8.1923537968
 31
0.0
  0
LINE
  5
1AC
330
123
100
AcDbEntity
  8
0
  6
Continuous
 62
     7
370
    25
100
AcDbLine
 10
-18.9173228346
 20
-8.1923537968
 30
0.0
 11
-18.889483985
 21
-8.2201926464
 31
0.0
  0
LINE
  5
1AD
330
123
100
AcDbEntity
  8
0
  6
Continuous
 62
     7
370
    25
100
AcDbLine
 10
-18.889483985
 20
-8.2201926464
 30
0.0
 11
-19.5194052448
 21
-8.8501139063
 31
0.0
  0
LINE
  5
1AE
330
123
100
AcDbEntity
  8
0
  6
Continuous
 62
     7
370
    25
100
AcDbLine
 10
-19.5194052448
 20
-8.8501139063
 30
0.0
 11
-19.5472440945
 21
-8.8222750566
 31
0.0
  0
LINE
  5
1AF
330
123
100
AcDbEntity
  8
0
  6
Continuous
 62
     7
370
    25
100
AcDbLine
 10
-18.9173228346
 20
-8.1923537968
 30
0.0
 11
-18.8779527559
 21
-8.1923537968
 31
0.0
  0
LINE
  5
1B0
330
123
100
AcDbEntity
  8
0
  6
Continuous
 62
     7
370
    25
100
AcDbLine
 10
-18.8779527559
 20
8.9566929134
 30
0.0
 11
-18.8779527559
 21
-8.1923537968
 31
0.0
  0
LINE
  5
1B1
330
123
100
AcDbEntity
  8
0
  6
Continuous
 62
     7
370
    25
100
AcDbLine
 10
-19.5472440945
 20
8.9960629921
 30
0.0
 11
-18.9173228346
 21
8.9960629921
 31
0.0
  0
LINE
  5
1B2
330
123
100
AcDbEntity
  8
0
  6
Continuous
 62
     7
370
    25
100
AcDbLine
 10
18.9173228346
 20
-8.1923537968
 30
0.0
 11
18.8779527559
 21
-8.1923537968
 31
0.0
  0
LINE
  5
1B3
330
123
100
AcDbEntity
  8
0
  6
Continuous
 62
     7
370
    25
100
AcDbLine
 10
18.889483985
 20
-8.2201926464
 30
0.0
 11
18.9173228346
 21
-8.1923537968
 31
0.0
  0
LINE
  5
1B4
330
123
100
AcDbEntity
  8
0
  6
Continuous
 62
     7
370
    25
100
AcDbLine
 10
19.5866141732
 20
8.9566929134
 30
0.0
 11
-19.5866141732
 21
8.9566929134
 31
0.0
  0
LINE
  5
1B5
330
123
100
AcDbEntity
  8
0
  6
Continuous
 62
     7
370
    25
100
AcDbLine
 10
19.5472440945
 20
-8.8222750566
 30
0.0
 11
19.5472440945
 21
8.9960629921
 31
0.0
  0
LINE
  5
1B6
330
123
100
AcDbEntity
  8
0
  6
Continuous
 62
     7
370
    25
100
AcDbLine
 10
19.5194052448
 20
-8.8501139063
 30
0.0
 11
18.889483985
 21
-8.2201926464
 31
0.0
  0
LINE
  5
1B7
330
123
100
AcDbEntity
  8
0
  6
Continuous
 62
     7
370
    25
100
AcDbLine
 10
18.9173228346
 20
-8.1923537968
 30
0.0
 11
19.5472440945
 21
-8.8222750566
 31
0.0
  0
LINE
  5
1B8
330
123
100
AcDbEntity
  8
0
  6
Continuous
 62
     7
370
    25
100
AcDbLine
 10
19.5472440945
 20
-8.8222750566
 30
0.0
 11
19.5194052448
 21
-8.8501139063
 31
0.0
  0
LINE
  5
1B9
330
123
100
AcDbEntity
  8
0
  6
Continuous
 62
     7
370
    25
100
AcDbLine
 10
18.9173228346
 20
8.9960629921
 30
0.0
 11
18.9173228346
 21
-8.1923537968
 31
0.0
  0
LINE
  5
1BA
330
123
100
AcDbEntity
  8
0
  6
Continuous
 62
     7
370
    25
100
AcDbLine
 10
18.9173228346
 20
8.9960629921
 30
0.0
 11
19.5472440945
 21
8.9960629921
 31
0.0
  0
LINE
  5
1BB
330
123
100
AcDbEntity
  8
0
  6
Continuous
 62
     7
370
    25
100
AcDbLine
 10
18.8779527559
 20
-8.1923537968
 30
0.0
 11
18.8779527559
 21
8.9566929134
 31
0.0
  0
LINE
  5
1BC
330
123
100
AcDbEntity
  8
0
  6
Continuous
 62
     7
370
    25
100
AcDbLine
 10
19.5866141732
 20
-8.8222750566
 30
0.0
 11
19.5472440945
 21
-8.8222750566
 31
0.0
  0
LINE
  5
1BD
330
123
100
AcDbEntity
  8
0
  6
Continuous
 62
     7
370
    25
100
AcDbLine
 10
-18.8779527559
 20
8.3267716535
 30
0.0
 11
18.8779527559
 21
8.3267716535
 31
0.0
  0
LINE
  5
1BE
330
123
100
AcDbEntity
  8
0
  6
Continuous
 62
     7
370
    25
100
AcDbLine
 10
18.8385826772
 20
8.2874015748
 30
0.0
 11
-18.8385826772
 21
8.2874015748
 31
0.0
  0
LINE
  5
1BF
330
123
100
AcDbEntity
  8
0
  6
Continuous
 62
     7
370
    25
100
AcDbLine
 10
-18.8385826772
 20
8.9960629921
 30
0.0
 11
18.8385826772
 21
8.9960629921
 31
0.0
  0
LINE
  5
1C0
330
123
100
AcDbEntity
  8
0
  6
Continuous
 62
     7
370
    25
100
AcDbLine
 10
-17.9921259843
 20
6.8307086614
 30
0.0
 11
17.9921259843
 21
6.8307086614
 31
0.0
  0
LINE
  5
1C1
330
123
100
AcDbEntity
  8
0
  6
Continuous
 62
     7
370
    25
100
AcDbLine
 10
-2.9527559055
 20
7.5393700787
 30
0.0
 11
-2.9527559055
 21
6.8307086614
 31
0.0
  0
LINE
  5
1C2
330
123
100
AcDbEntity
  8
0
  6
Continuous
 62
     7
370
    25
100
AcDbLine
 10
18.7007874016
 20
7.5393700787
 30
0.0
 11
-18.7007874016
 21
7.5393700787
 31
0.0
  0
LINE
  5
1C3
330
123
100
AcDbEntity
  8
0
  6
Continuous
 62
     7
370
    25
100
AcDbLine
 10
2.9527559055
 20
6.8307086614
 30
0.0
 11
2.9527559055
 21
7.5393700787
 31
0.0
  0
LINE
  5
1C4
330
123
100
AcDbEntity
  8
0
  6
Continuous
 62
     7
370
    25
100
AcDbLine
 10
18.7007874016
 20
-7.5
 30
0.0
 11
18.7007874016
 21
7.5393700787
 31
0.0
  0
LINE
  5
1C5
330
123
100
AcDbEntity
  8
0
  6
Continuous
 62
     7
370
    25
100
AcDbLine
 10
17.9921259843
 20
7.5393700787
 30
0.0
 11
17.9921259843
 21
-7.5
 31
0.0
  0
LINE
  5
1C6
330
123
100
AcDbEntity
  8
0
  6
Continuous
 62
     7
370
    25
100
AcDbLine
 10
18.8385826772
 20
-8.2086614173
 30
0.0
 11
18.8385826772
 21
8.9960629921
 31
0.0
  0
LINE
  5
1C7
330
123
100
AcDbEntity
  8
0
  6
Continuous
 62
     7
370
    25
100
AcDbLine
 10
18.8779527559
 20
-7.9330708661
 30
0.0
 11
-18.8779527559
 21
-7.9330708661
 31
0.0
  0
LINE
  5
1C8
330
123
100
AcDbEntity
  8
0
  6
Continuous
 62
     7
370
    25
100
AcDbLine
 10
-18.8779527559
 20
-8.1692913386
 30
0.0
 11
18.8779527559
 21
-8.1692913386
 31
0.0
  0
LINE
  5
1C9
330
123
100
AcDbEntity
  8
0
  6
Continuous
 62
     7
370
    25
100
AcDbLine
 10
18.8385826772
 20
-8.2086614173
 30
0.0
 11
-18.8385826772
 21
-8.2086614173
 31
0.0
  0
LINE
  5
1CA
330
123
100
AcDbEntity
  8
0
  6
Continuous
 62
     7
370
    25
100
AcDbLine
 10
-18.8385826772
 20
-7.8937007874
 30
0.0
 11
18.8385826772
 21
-7.8937007874
 31
0.0
  0
LINE
  5
1CB
330
123
100
AcDbEntity
  8
0
  6
Continuous
 62
     7
370
    25
100
AcDbLine
 10
-18.8385826772
 20
8.9960629921
 30
0.0
 11
-18.8385826772
 21
-8.2086614173
 31
0.0
  0
LINE
  5
1CC
330
123
100
AcDbEntity
  8
0
  6
Continuous
 62
     7
370
    25
100
AcDbLine
 10
-18.8779527559
 20
-7.8543307087
 30
0.0
 11
18.8779527559
 21
-7.8543307087
 31
0.0
  0
LINE
  5
1CD
330
123
100
AcDbEntity
  8
0
  6
Continuous
 62
     7
370
    25
100
AcDbLine
 10
18.8779527559
 20
-7.5393700787
 30
0.0
 11
-18.8779527559
 21
-7.5393700787
 31
0.0
  0
LINE
  5
1CE
330
123
100
AcDbEntity
  8
0
  6
Continuous
 62
     7
370
    25
100
AcDbLine
 10
-18.8385826772
 20
-7.5
 30
0.0
 11
18.8385826772
 21
-7.5
 31
0.0
  0
ARC
  5
1CF
330
123
100
AcDbEntity
  8
0
  6
Continuous
 62
     7
370
    25
100
AcDbCircle
 10
19.4128262377
 20
-8.8779527559
 30
0.0
 40
0.0393700787401574
100
AcDbArc
 50
270.0
 51
45.0
  0
ARC
  5
1D0
330
123
100
AcDbEntity
  8
0
  6
Continuous
 62
     7
370
    25
100
AcDbCircle
 10
-19.4128262377
 20
-8.8779527559
 30
0.0
 40
0.0393700787401556
100
AcDbArc
 50
135.0
 51
270.0
  0
ARC
  5
1D1
330
123
100
AcDbEntity
  8
0
  6
Continuous
 62
     7
370
    25
100
AcDbCircle
 10
-18.9173228346
 20
8.9566929134
 30
0.0
 40
0.0393700787401592
100
AcDbArc
 50
0.0
 51
90.0
  0
ARC
  5
1D2
330
123
100
AcDbEntity
  8
0
  6
Continuous
 62
     7
370
    25
100
AcDbCircle
 10
-19.5472440945
 20
-8.8222750566
 30
0.0
 40
0.0393700787401601
100
AcDbArc
 50
180.0
 51
315.0
  0
ARC
  5
1D3
330
123
100
AcDbEntity
  8
0
  6
Continuous
 62
     7
370
    25
100
AcDbCircle
 10
-18.9173228346
 20
-8.1923537968
 30
0.0
 40
0.0393700787401538
100
AcDbArc
 50
315.0
 51
0.0
  0
ARC
  5
1D4
330
123
100
AcDbEntity
  8
0
  6
Continuous
 62
     7
370
    25
100
AcDbCircle
 10
-19.5472440945
 20
8.9566929134
 30
0.0
 40
0.0393700787401645
100
AcDbArc
 50
90.0
 51
180.0
  0
ARC
  5
1D5
330
123
100
AcDbEntity
  8
0
  6
Continuous
 62
     7
370
    25
100
AcDbCircle
 10
18.9173228346
 20
-8.1923537968
 30
0.0
 40
0.0393700787401592
100
AcDbArc
 50
180.0
 51
225.0
  0
ARC
  5
1D6
330
123
100
AcDbEntity
  8
0
  6
Continuous
 62
     7
370
    25
100
AcDbCircle
 10
19.5472440945
 20
8.9566929134
 30
0.0
 40
0.0393700787401592
100
AcDbArc
 50
0.0
 51
90.0
  0
ARC
  5
1D7
330
123
100
AcDbEntity
  8
0
  6
Continuous
 62
     7
370
    25
100
AcDbCircle
 10
18.9173228346
 20
8.9566929134
 30
0.0
 40
0.0393700787401556
100
AcDbArc
 50
90.0
 51
180.0
  0
ARC
  5
1D8
330
123
100
AcDbEntity
  8
0
  6
Continuous
 62
     7
370
    25
100
AcDbCircle
 10
19.5472440945
 20
-8.8222750566
 30
0.0
 40
0.0393700787401592
100
AcDbArc
 50
225.0
 51
0.0
  0
ARC
  5
1D9
330
123
100
AcDbEntity
  8
0
  6
Continuous
 62
     7
370
    25
100
AcDbCircle
 10
-18.8385826772
 20
8.9566929134
 30
0.0
 40
0.0393700787401627
100
AcDbArc
 50
90.0
 51
180.0
  0
ARC
  5
1DA
330
123
100
AcDbEntity
  8
0
  6
Continuous
 62
     7
370
    25
100
AcDbCircle
 10
-18.8385826772
 20
8.3267716535
 30
0.0
 40
0.039370078740161
100
AcDbArc
 50
180.0
 51
270.0
  0
ARC
  5
1DB
330
123
100
AcDbEntity
  8
0
  6
Continuous
 62
     7
370
    25
100
AcDbCircle
 10
18.8385826772
 20
8.3267716535
 30
0.0
 40
0.0393700787401627
100
AcDbArc
 50
270.0
 51
360.0
  0
ARC
  5
1DC
330
123
100
AcDbEntity
  8
0
  6
Continuous
 62
     7
370
    25
100
AcDbCircle
 10
18.8385826772
 20
8.9566929134
 30
0.0
 40
0.0393700787401627
100
AcDbArc
 50
0.0
 51
90.0
  0
ARC
  5
1DD
330
123
100
AcDbEntity
  8
0
  6
Continuous
 62
     7
370
    25
100
AcDbCircle
 10
-18.8385826772
 20
-7.9330708661
 30
0.0
 40
0.0393700787401592
100
AcDbArc
 50
90.0
 51
180.0
  0
ARC
  5
1DE
330
123
100
AcDbEntity
  8
0
  6
Continuous
 62
     7
370
    25
100
AcDbCircle
 10
18.8385826772
 20
-8.1692913386
 30
0.0
 40
0.0393700787401556
100
AcDbArc
 50
270.0
 51
0.0
  0
ARC
  5
1DF
330
123
100
AcDbEntity
  8
0
  6
Continuous
 62
     7
370
    25
100
AcDbCircle
 10
-18.8385826772
 20
-8.1692913386
 30
0.0
 40
0.039370078740161
100
AcDbArc
 50
180.0
 51
270.0
  0
ARC
  5
1E0
330
123
100
AcDbEntity
  8
0
  6
Continuous
 62
     7
370
    25
100
AcDbCircle
 10
18.8385826772
 20
-7.9330708661
 30
0.0
 40
0.0393700787401601
100
AcDbArc
 50
0.0
 51
90.0
  0
ARC
  5
1E1
330
123
100
AcDbEntity
  8
0
  6
Continuous
 62
     7
370
    25
100
AcDbCircle
 10
18.8385826772
 20
-7.5393700787
 30
0.0
 40
0.0393700787401601
100
AcDbArc
 50
0.0
 51
90.0
  0
ARC
  5
1E2
330
123
100
AcDbEntity
  8
0
  6
Continuous
 62
     7
370
    25
100
AcDbCircle
 10
-18.8385826772
 20
-7.5393700787
 30
0.0
 40
0.0393700787401592
100
AcDbArc
 50
90.0
 51
180.0
  0
VIEWPORT
  5
31F
330
123
100
AcDbEntity
  8
0
100
AcDbViewport
 10
0.0
 20
0.0
 30
0.0
 40
8.4
 41
6.4
 68
     1
 69
     1
 12
3.937007874
 22
7.874015748
 13
0.0
 23
0.0
 14
0.5
 24
0.5
 15
0.5
 25
0.5
 16
0.0
 26
0.0
 36
1.0
 17
0.0
 27
0.0
 37
0.0
 42
50.0
 43
0.0
 44
0.0
 45
36.5624296963
 50
0.0
 51
0.0
 72
   100
 90
   557152
  1

281
     0
 71
     1
 74
     0
110
0.0
120
0.0
130
0.0
111
1.0
121
0.0
131
0.0
112
0.0
122
1.0
132
0.0
 79
     0
146
0.0
  0
ENDBLK
  5
126
330
123
100
AcDbEntity
  8
0
100
AcDbBlockEnd
  0
BLOCK
  5
1E5
330
1E3
100
AcDbEntity
  8
0
100
AcDbBlockBegin
  2
*Paper_Space2
 70
     0
 10
0.0
 20
0.0
 30
0.0
  3
*Paper_Space2
  1

  0
LWPOLYLINE
  5
221
330
1E3
100
AcDbEntity
  8
0
  6
Continuous
 62
     7
370
    25
100
AcDbPolyline
 90
       14
 70
   128
 43
0.0
 10
-20.0324405211
 20
15.6699583833
 10
-20.037002611
 20
15.67891322
 10
-20.0405032402
 20
15.6881011844
 10
-20.0428277272
 20
15.697221277
 10
-20.0438999216
 20
15.705974722
 10
-20.043684698
 20
15.7140747549
 10
-20.0421891071
 20
15.7212560169
 10
-20.0394621449
 20
15.7272832488
 10
-20.035593147
 20
15.7319589971
 10
-20.0307088627
 20
15.7351300837
 10
-20.0249693019
 20
15.736692623
 10
-20.0185624938
 20
15.7365954259
 10
-20.0116983265
 20
15.7348416768
 10
-20.0046016714
 20
15.7314888287
  0
LWPOLYLINE
  5
223
330
1E3
100
AcDbEntity
  8
0
  6
Continuous
 62
     7
370
    25
100
AcDbPolyline
 90
       14
 70
   128
 43
0.0
 10
7.4214416283
 20
-0.1788304306
 10
7.4269157241
 20
-0.1756693606
 10
7.4331224935
 20
-0.1720853581
 10
7.4398586014
 20
-0.1681958356
 10
7.4469033717
 20
-0.1641282146
 10
7.4540260165
 20
-0.1600157511
 10
7.4609931966
 20
-0.1559931702
 10
7.4675766658
 20
-0.1521922525
 10
7.4735607485
 20
-0.1487375166
 10
7.478749405
 20
-0.1457421404
 10
7.482972654
 20
-0.1433042529
 10
7.486092141
 20
-0.1415037199
 10
7.4880056711
 20
-0.140399527
 10
7.4886505567
 20
-0.1400278479
  0
LWPOLYLINE
  5
225
330
1E3
100
AcDbEntity
  8
0
  6
Continuous
 62
     7
370
    25
100
AcDbPolyline
 90
        9
 70
   128
 43
0.0
 10
7.4214416283
 20
-11.5323344798
 10
7.4307215513
 20
-11.5363076394
 10
7.4415997566
 20
-11.5385546072
 10
7.4531394205
 20
-11.5388818758
 10
7.4643467548
 20
-11.5372612612
 10
7.4742565915
 20
-11.5338323295
 10
7.482015502
 20
-11.528890378
 10
7.4869552943
 20
-11.5228610043
 10
7.4886505567
 20
-11.516263454
  0
LWPOLYLINE
  5
241
330
1E3
100
AcDbEntity
  8
0
  6
Continuous
 62
     7
370
    25
100
AcDbPolyline
 90
       46
 70
   128
 43
0.0
 10
2.7421266908
 20
7.9987435867
 10
2.7472127437
 20
7.8276214244
 10
2.7624461237
 20
7.6514607205
 10
2.7877526152
 20
7.4711197122
 10
2.8230089275
 20
7.2874770026
 10
2.8680432955
 20
7.1014272806
 10
2.9226363163
 20
6.9138769618
 10
2.9865220181
 20
6.7257397725
 10
3.0593891562
 20
6.5379322982
 10
3.1408827293
 20
6.3513695179
 10
3.2306057088
 20
6.1669603468
 10
3.3281209735
 20
5.9856032078
 10
3.4329534386
 20
5.8081816548
 10
3.5445923711
 20
5.6355600675
 10
3.6624938773
 20
5.4685794412
 10
3.7860835528
 20
5.3080532886
 10
3.9147592812
 20
5.154763677
 10
4.0478941673
 20
5.0094574179
 10
4.1848395913
 20
4.8728424289
 10
4.3249283688
 20
4.7455842844
 10
4.4674780015
 20
4.6283029734
 10
4.6117940018
 20
4.5215698786
 10
4.7571732767
 20
4.4259049929
 10
4.9029075529
 20
4.341774386
 10
5.0482868278
 20
4.2695879337
 10
5.1926028281
 20
4.2096973213
 10
5.3351524608
 20
4.1623943297
 10
5.4752412383
 20
4.1279094144
 10
5.6121866623
 20
4.1064105825
 10
5.7453215484
 20
4.0980025739
 10
5.8739972768
 20
4.1027263519
 10
5.9975869523
 20
4.1205589024
 10
6.1154884585
 20
4.1514133473
 10
6.2271273909
 20
4.1951393667
 10
6.3319598561
 20
4.2515239318
 10
6.4294751208
 20
4.3202923427
 10
6.5191981003
 20
4.4011095667
 10
6.6006916734
 20
4.4935818703
 10
6.6735588115
 20
4.5972587377
 10
6.7374445133
 20
4.7116350658
 10
6.7920375341
 20
4.8361536244
 10
6.8370719021
 20
4.9702077718
 10
6.8723282144
 20
5.1131444096
 10
6.8976347059
 20
5.2642671648
 10
6.9128680859
 20
5.4228397826
 10
6.9179541388
 20
5.5880897132
  0
LWPOLYLINE
  5
246
330
1E3
100
AcDbEntity
  8
0
  6
Continuous
 62
     7
370
    25
100
AcDbPolyline
 90
       33
 70
   128
 43
0.0
 10
6.5354381207
 20
4.417912064
 10
6.4986862461
 20
4.4098373673
 10
6.3750965705
 20
4.3920048167
 10
6.2464208421
 20
4.3872810388
 10
6.113285956
 20
4.3956890473
 10
5.976340532
 20
4.4171878793
 10
5.8362517545
 20
4.4516727946
 10
5.6937021218
 20
4.4989757861
 10
5.5493861216
 20
4.5588663986
 10
5.4040068467
 20
4.6310528508
 10
5.2582725704
 20
4.7151834577
 10
5.1128932955
 20
4.8108483434
 10
4.9685772953
 20
4.9175814382
 10
4.8260276626
 20
5.0348627493
 10
4.6859388851
 20
5.1621208937
 10
4.5489934611
 20
5.2987358827
 10
4.415858575
 20
5.4440421418
 10
4.2871828466
 20
5.5973317534
 10
4.163593171
 20
5.757857906
 10
4.0456916649
 20
5.9248385324
 10
3.9340527324
 20
6.0974601196
 10
3.8292202672
 20
6.2748816726
 10
3.7317050026
 20
6.4562388116
 10
3.6419820231
 20
6.6406479827
 10
3.56048845
 20
6.827210763
 10
3.4876213119
 20
7.0150182374
 10
3.4237356101
 20
7.2031554267
 10
3.3691425893
 20
7.3907057454
 10
3.3241082213
 20
7.5767554674
 10
3.2888519089
 20
7.760398177
 10
3.2635454174
 20
7.9407391854
 10
3.2483120375
 20
8.1168998893
 10
3.2432259846
 20
8.2880220515
  0
LWPOLYLINE
  5
25C
330
1E3
100
AcDbEntity
  8
0
  6
Continuous
 62
     8
370
    25
100
AcDbPolyline
 90
        7
 70
   128
 43
0.0
 10
-20.0602793707
 20
17.1820111454
 10
-20.0717079013
 20
17.1829897996
 10
-20.0821522146
 20
17.185841481
 10
-20.0907128532
 20
17.1903206047
 10
-20.0966525807
 20
17.1960414316
 10
-20.0994598718
 20
17.202511288
 10
-20.0996494495
 20
17.2047390081
  0
LWPOLYLINE
  5
25F
330
1E3
100
AcDbEntity
  8
0
  6
Continuous
 62
     8
370
    25
100
AcDbPolyline
 90
        7
 70
   128
 43
0.0
 10
-20.0602793707
 20
4.3873952742
 10
-20.0717079013
 20
4.3883739283
 10
-20.0821522146
 20
4.3912256097
 10
-20.0907128532
 20
4.3957047334
 10
-20.0966525807
 20
4.4014255603
 10
-20.0994598718
 20
4.4078954167
 10
-20.0996494495
 20
4.4101231368
  0
LINE
  5
288
330
1E3
100
AcDbEntity
  8
0
  6
Continuous
 62
     7
370
    25
100
AcDbLine
 10
-20.024285111
 20
4.2984289479
 30
0.0
 11
7.4295970383
 21
-11.5503598659
 31
0.0
  0
LINE
  5
289
330
1E3
100
AcDbEntity
  8
0
  6
Continuous
 62
     7
370
    25
100
AcDbLine
 10
-20.0439717502
 20
15.708760966
 30
0.0
 11
-20.0439717502
 21
4.3325253598
 31
0.0
  0
LINE
  5
28A
330
1E3
100
AcDbEntity
  8
0
  6
Continuous
 62
     7
370
    25
100
AcDbLine
 10
-20.0996494495
 20
17.2047390081
 30
0.0
 11
-20.0996494495
 21
4.4101231368
 31
0.0
  0
LINE
  5
28B
330
1E3
100
AcDbEntity
  8
0
  6
Continuous
 62
     7
370
    25
100
AcDbLine
 10
-7.5083339963
 20
24.4962822553
 30
0.0
 11
-20.0799628104
 21
17.23883542
 31
0.0
  0
LINE
  5
28C
330
1E3
100
AcDbEntity
  8
0
  6
Continuous
 62
     7
370
    25
100
AcDbLine
 10
-20.0602793707
 20
4.3707530581
 30
0.0
 11
-20.0439717502
 21
4.3707530581
 31
0.0
  0
LINE
  5
28D
330
1E3
100
AcDbEntity
  8
0
  6
Continuous
 62
     7
370
    25
100
AcDbLine
 10
-7.0038588835
 20
15.1432093774
 30
0.0
 11
-7.0038588835
 21
24.2050494302
 31
0.0
  0
LINE
  5
28E
330
1E3
100
AcDbEntity
  8
0
  6
Continuous
 62
     7
370
    25
100
AcDbLine
 10
-7.0235455226
 20
24.2391458421
 30
0.0
 11
-7.468967117
 21
24.4962822553
 31
0.0
  0
LINE
  5
28F
330
1E3
100
AcDbEntity
  8
0
  6
Continuous
 62
     7
370
    25
100
AcDbLine
 10
19.6902221147
 20
8.794890026
 30
0.0
 11
7.5640148951
 21
1.7945796039
 31
0.0
  0
LINE
  5
290
330
1E3
100
AcDbEntity
  8
0
  6
Continuous
 62
     7
370
    25
100
AcDbLine
 10
20.1750105884
 20
8.5377536128
 30
0.0
 11
19.729588994
 21
8.794890026
 31
0.0
  0
LINE
  5
291
330
1E3
100
AcDbEntity
  8
0
  6
Continuous
 62
     7
370
    25
100
AcDbLine
 10
11.8580739124
 20
4.2734871095
 30
0.0
 11
-6.9678678233
 21
15.141471942
 31
0.0
  0
LINE
  5
292
330
1E3
100
AcDbEntity
  8
0
  6
Continuous
 62
     7
370
    25
100
AcDbLine
 10
-7.4723429361
 20
14.8502391169
 30
0.0
 11
-7.4723429361
 21
14.7633138019
 31
0.0
  0
LINE
  5
293
330
1E3
100
AcDbEntity
  8
0
  6
Continuous
 62
     7
370
    25
100
AcDbLine
 10
-7.0072347025
 20
15.141471942
 30
0.0
 11
-7.452656297
 21
14.8843355288
 31
0.0
  0
LINE
  5
294
330
1E3
100
AcDbEntity
  8
0
  6
Continuous
 62
     7
370
    25
100
AcDbLine
 10
7.4886505567
 20
-11.0058938068
 30
0.0
 11
7.5246448163
 21
-11.0266728506
 31
0.0
  0
LINE
  5
295
330
1E3
100
AcDbEntity
  8
0
  6
Continuous
 62
     7
370
    25
100
AcDbLine
 10
7.7310447935
 20
1.9325619994
 30
0.0
 11
-18.9107343244
 21
17.3125337123
 31
0.0
  0
LINE
  5
296
330
1E3
100
AcDbEntity
  8
0
  6
Continuous
 62
     7
370
    25
100
AcDbLine
 10
7.4886505567
 20
-1.3617109892
 30
0.0
 11
7.5246448163
 21
-1.3824900331
 31
0.0
  0
LINE
  5
297
330
1E3
100
AcDbEntity
  8
0
  6
Continuous
 62
     7
370
    25
100
AcDbLine
 10
-19.1368209407
 20
17.1820111454
 30
0.0
 11
-19.1368209407
 21
15.230529676
 31
0.0
  0
LINE
  5
298
330
1E3
100
AcDbEntity
  8
0
  6
Continuous
 62
     7
370
    25
100
AcDbLine
 10
-18.9501012037
 20
17.3125337123
 30
0.0
 11
-19.1171343016
 21
17.2161075574
 31
0.0
  0
LINE
  5
299
330
1E3
100
AcDbEntity
  8
0
  6
Continuous
 62
     7
370
    25
100
AcDbLine
 10
-7.8923138766
 20
15.0057578653
 30
0.0
 11
-11.4035811349
 21
12.9787464233
 31
0.0
  0
LINE
  5
29A
330
1E3
100
AcDbEntity
  8
0
  6
Continuous
 62
     7
370
    25
100
AcDbLine
 10
-7.3912145829
 20
14.7164794005
 30
0.0
 11
-7.8923138766
 21
15.0057578653
 31
0.0
  0
LINE
  5
29B
330
1E3
100
AcDbEntity
  8
0
  6
Continuous
 62
     7
370
    25
100
AcDbLine
 10
-10.9024818412
 20
12.6894679584
 30
0.0
 11
-7.3912145829
 21
14.7164794005
 31
0.0
  0
LINE
  5
29C
330
1E3
100
AcDbEntity
  8
0
  6
Continuous
 62
     7
370
    25
100
AcDbLine
 10
-7.3912145829
 20
14.427153916
 30
0.0
 11
-7.3912145829
 21
14.7164794005
 31
0.0
  0
LINE
  5
29D
330
1E3
100
AcDbEntity
  8
0
  6
Continuous
 62
     7
370
    25
100
AcDbLine
 10
-8.4244215003
 20
11.2589141738
 30
0.0
 11
-7.8923138766
 21
11.5660933665
 31
0.0
  0
LINE
  5
29E
330
1E3
100
AcDbEntity
  8
0
  6
Continuous
 62
     7
370
    25
100
AcDbLine
 10
13.1120981866
 20
-14.8496278607
 30
0.0
 11
25.7787747787
 21
-7.5373111111
 31
0.0
  0
LINE
  5
29F
330
1E3
100
AcDbEntity
  8
0
  6
Continuous
 62
     7
370
    25
100
AcDbLine
 10
13.1120981866
 20
-14.8496278607
 30
0.0
 11
13.1120981866
 21
-1.9907174373
 31
0.0
  0
LINE
  5
2A0
330
1E3
100
AcDbEntity
  8
0
  6
Continuous
 62
     7
370
    25
100
AcDbLine
 10
13.1120981866
 20
-1.9907174373
 30
0.0
 11
25.7787747787
 21
5.3215993123
 31
0.0
  0
LINE
  5
2A1
330
1E3
100
AcDbEntity
  8
0
  6
Continuous
 62
     7
370
    25
100
AcDbLine
 10
25.7787747787
 20
-7.5373111111
 30
0.0
 11
25.7787747787
 21
5.3215993123
 31
0.0
  0
LINE
  5
2A2
330
1E3
100
AcDbEntity
  8
0
  6
Continuous
 62
     7
370
    25
100
AcDbLine
 10
13.1120981866
 20
-1.9907174373
 30
0.0
 11
7.544328256
 21
1.2234877273
 31
0.0
  0
LINE
  5
2A3
330
1E3
100
AcDbEntity
  8
0
  6
Continuous
 62
     7
370
    25
100
AcDbLine
 10
7.544328256
 20
1.2234877273
 30
0.0
 11
20.2110048481
 21
8.5358044769
 31
0.0
  0
LINE
  5
2A4
330
1E3
100
AcDbEntity
  8
0
  6
Continuous
 62
     7
370
    25
100
AcDbLine
 10
25.7787747787
 20
5.3215993123
 30
0.0
 11
20.2110048481
 21
8.5358044769
 31
0.0
  0
LINE
  5
2A5
330
1E3
100
AcDbEntity
  8
0
  6
Continuous
 62
     7
370
    25
100
AcDbLine
 10
12.6666765921
 20
-14.0781350306
 30
0.0
 11
12.6666765921
 21
-2.2479374411
 31
0.0
  0
LINE
  5
2A6
330
1E3
100
AcDbEntity
  8
0
  6
Continuous
 62
     7
370
    25
100
AcDbLine
 10
12.6666765921
 20
-2.2479374411
 30
0.0
 11
7.9897498504
 21
0.4519948972
 31
0.0
  0
LINE
  5
2A7
330
1E3
100
AcDbEntity
  8
0
  6
Continuous
 62
     7
370
    25
100
AcDbLine
 10
7.9897498504
 20
0.4519948972
 30
0.0
 11
7.9897498504
 21
-11.3782026923
 31
0.0
  0
LINE
  5
2A8
330
1E3
100
AcDbEntity
  8
0
  6
Continuous
 62
     7
370
    25
100
AcDbLine
 10
7.9897498504
 20
-11.3782026923
 30
0.0
 11
12.6666765921
 21
-14.0781350306
 31
0.0
  0
LINE
  5
2A9
330
1E3
100
AcDbEntity
  8
0
  6
Continuous
 62
     7
370
    25
100
AcDbLine
 10
7.544328256
 20
-11.6354226961
 30
0.0
 11
13.1120981866
 21
-14.8496278607
 31
0.0
  0
LINE
  5
2AA
330
1E3
100
AcDbEntity
  8
0
  6
Continuous
 62
     7
370
    25
100
AcDbLine
 10
7.544328256
 20
1.760483192
 30
0.0
 11
7.544328256
 21
-11.6354226961
 31
0.0
  0
LINE
  5
2AB
330
1E3
100
AcDbEntity
  8
0
  6
Continuous
 62
     7
370
    25
100
AcDbLine
 10
7.9897498504
 20
-11.3782026923
 30
0.0
 11
12.6666765921
 21
-8.678270354
 31
0.0
  0
LINE
  5
2AC
330
1E3
100
AcDbEntity
  8
0
  6
Continuous
 62
     7
370
    25
100
AcDbLine
 10
12.6666765921
 20
-2.5059933508
 30
0.0
 11
7.9897498504
 21
-5.2059256891
 31
0.0
  0
LINE
  5
2AD
330
1E3
100
AcDbEntity
  8
0
  6
Continuous
 62
     7
370
    25
100
AcDbLine
 10
12.6666765921
 20
-7.9058580274
 30
0.0
 11
7.9897498504
 21
-5.2059256891
 31
0.0
  0
LINE
  5
2AE
330
1E3
100
AcDbEntity
  8
0
  6
Continuous
 62
     7
370
    25
100
AcDbLine
 10
12.6666765921
 20
-8.4202144443
 30
0.0
 11
7.9897498504
 21
-5.720282106
 31
0.0
  0
LINE
  5
2AF
330
1E3
100
AcDbEntity
  8
0
  6
Continuous
 62
     7
370
    25
100
AcDbLine
 10
7.4214416283
 20
-0.1788304306
 30
0.0
 11
-20.0324405211
 21
15.6699583833
 31
0.0
  0
LINE
  5
2B0
330
1E3
100
AcDbEntity
  8
0
  6
Continuous
 62
     7
370
    25
100
AcDbLine
 10
-20.0046016714
 20
15.7314888287
 30
0.0
 11
7.4886505567
 21
-0.1400278479
 31
0.0
  0
LINE
  5
2B1
330
1E3
100
AcDbEntity
  8
0
  6
Continuous
 62
     7
370
    25
100
AcDbLine
 10
7.4886505567
 20
-0.1400278479
 30
0.0
 11
7.4886505567
 21
-11.516263454
 31
0.0
  0
LINE
  5
2B2
330
1E3
100
AcDbEntity
  8
0
  6
Continuous
 62
     7
370
    25
100
AcDbLine
 10
7.4214416283
 20
-11.5323344798
 30
0.0
 11
7.4214416283
 21
-0.1788304306
 31
0.0
  0
LINE
  5
2B3
330
1E3
100
AcDbEntity
  8
0
  6
Continuous
 62
     7
370
    25
100
AcDbLine
 10
-20.0324405211
 20
4.316454334
 30
0.0
 11
7.4214416283
 21
-11.5323344798
 31
0.0
  0
LINE
  5
2B4
330
1E3
100
AcDbEntity
  8
0
  6
Continuous
 62
     7
370
    25
100
AcDbLine
 10
-20.0324405211
 20
15.6699583833
 30
0.0
 11
-20.0324405211
 21
4.316454334
 31
0.0
  0
LINE
  5
2B5
330
1E3
100
AcDbEntity
  8
0
  6
Continuous
 62
     7
370
    25
100
AcDbLine
 10
-20.0602793707
 20
17.2368862842
 30
0.0
 11
-19.1694361818
 21
17.2368862842
 31
0.0
  0
LINE
  5
2B6
330
1E3
100
AcDbEntity
  8
0
  6
Continuous
 62
     7
370
    25
100
AcDbLine
 10
-19.1694361818
 20
15.249358054
 30
0.0
 11
-19.1694361818
 21
17.2368862842
 31
0.0
  0
LINE
  5
2B7
330
1E3
100
AcDbEntity
  8
0
  6
Continuous
 62
     7
370
    25
100
AcDbLine
 10
-19.1694361818
 20
17.1820111454
 30
0.0
 11
-20.0602793707
 21
17.1820111454
 31
0.0
  0
LINE
  5
2B8
330
1E3
100
AcDbEntity
  8
0
  6
Continuous
 62
     7
370
    25
100
AcDbLine
 10
-20.0602793707
 20
17.2368862842
 30
0.0
 11
-20.0602793707
 21
4.3707530581
 31
0.0
  0
LINE
  5
2B9
330
1E3
100
AcDbEntity
  8
0
  6
Continuous
 62
     7
370
    25
100
AcDbLine
 10
-7.4886505567
 20
24.4943331195
 30
0.0
 11
-20.0602793707
 21
17.2368862842
 31
0.0
  0
LINE
  5
2BA
330
1E3
100
AcDbEntity
  8
0
  6
Continuous
 62
     7
370
    25
100
AcDbLine
 10
-7.0432289622
 20
24.2371967063
 30
0.0
 11
-7.4886505567
 21
24.4943331195
 31
0.0
  0
LINE
  5
2BB
330
1E3
100
AcDbEntity
  8
0
  6
Continuous
 62
     7
370
    25
100
AcDbLine
 10
-19.1694361818
 20
17.2368862842
 30
0.0
 11
-7.0432289622
 21
24.2371967063
 31
0.0
  0
LINE
  5
2BC
330
1E3
100
AcDbEntity
  8
0
  6
Continuous
 62
     7
370
    25
100
AcDbLine
 10
7.5836983347
 20
1.2783576417
 30
0.0
 11
20.1553271488
 21
8.5358044769
 31
0.0
  0
LINE
  5
2BD
330
1E3
100
AcDbEntity
  8
0
  6
Continuous
 62
     7
370
    25
100
AcDbLine
 10
7.5836983347
 20
1.792630468
 30
0.0
 11
7.5836983347
 21
1.2783576417
 31
0.0
  0
LINE
  5
2BE
330
1E3
100
AcDbEntity
  8
0
  6
Continuous
 62
     7
370
    25
100
AcDbLine
 10
19.7099055543
 20
8.7929408901
 30
0.0
 11
7.5836983347
 21
1.792630468
 31
0.0
  0
LINE
  5
2BF
330
1E3
100
AcDbEntity
  8
0
  6
Continuous
 62
     7
370
    25
100
AcDbLine
 10
20.1553271488
 20
8.5358044769
 30
0.0
 11
19.7099055543
 21
8.7929408901
 31
0.0
  0
LINE
  5
2C0
330
1E3
100
AcDbEntity
  8
0
  6
Continuous
 62
     7
370
    25
100
AcDbLine
 10
-6.9875512629
 20
15.1395228061
 30
0.0
 11
-7.4329728574
 21
14.882386393
 31
0.0
  0
LINE
  5
2C1
330
1E3
100
AcDbEntity
  8
0
  6
Continuous
 62
     7
370
    25
100
AcDbLine
 10
-7.8923138766
 20
11.5660933665
 30
0.0
 11
8.2991466768
 21
2.2189621482
 31
0.0
  0
LINE
  5
2C2
330
1E3
100
AcDbEntity
  8
0
  6
Continuous
 62
     7
370
    25
100
AcDbLine
 10
-7.8923138766
 20
14.1378754512
 30
0.0
 11
-7.8923138766
 21
11.5660933665
 31
0.0
  0
LINE
  5
2C3
330
1E3
100
AcDbEntity
  8
0
  6
Continuous
 62
     7
370
    25
100
AcDbLine
 10
-7.8923138766
 20
14.1378754512
 30
0.0
 11
2.7421266908
 21
7.9987435867
 31
0.0
  0
LINE
  5
2C4
330
1E3
100
AcDbEntity
  8
0
  6
Continuous
 62
     7
370
    25
100
AcDbLine
 10
6.9179541388
 20
5.5880897132
 30
0.0
 11
10.5266166462
 21
3.5048531906
 31
0.0
  0
LINE
  5
2C5
330
1E3
100
AcDbEntity
  8
0
  6
Continuous
 62
     7
370
    25
100
AcDbLine
 10
11.0277159399
 20
3.7941316554
 30
0.0
 11
7.4190534325
 21
5.877368178
 31
0.0
  0
LINE
  5
2C6
330
1E3
100
AcDbEntity
  8
0
  6
Continuous
 62
     7
370
    25
100
AcDbLine
 10
6.9179541388
 20
5.5880897132
 30
0.0
 11
7.4190534325
 21
5.877368178
 31
0.0
  0
LINE
  5
2C7
330
1E3
100
AcDbEntity
  8
0
  6
Continuous
 62
     7
370
    25
100
AcDbLine
 10
3.2432259846
 20
8.2880220515
 30
0.0
 11
2.7421266908
 21
7.9987435867
 31
0.0
  0
LINE
  5
2C8
330
1E3
100
AcDbEntity
  8
0
  6
Continuous
 62
     7
370
    25
100
AcDbLine
 10
-7.3912145829
 20
14.427153916
 30
0.0
 11
-7.8923138766
 21
14.1378754512
 31
0.0
  0
LINE
  5
2C9
330
1E3
100
AcDbEntity
  8
0
  6
Continuous
 62
     7
370
    25
100
AcDbLine
 10
3.2432259846
 20
8.2880220515
 30
0.0
 11
-7.3912145829
 21
14.427153916
 31
0.0
  0
LINE
  5
2CA
330
1E3
100
AcDbEntity
  8
0
  6
Continuous
 62
     7
370
    25
100
AcDbLine
 10
7.5164894063
 20
-11.0086474645
 30
0.0
 11
7.5164894063
 21
-10.4942910476
 31
0.0
  0
LINE
  5
2CB
330
1E3
100
AcDbEntity
  8
0
  6
Continuous
 62
     7
370
    25
100
AcDbLine
 10
7.4886505567
 20
-10.0254134177
 30
0.0
 11
7.544328256
 21
-9.993271366
 31
0.0
  0
LINE
  5
2CC
330
1E3
100
AcDbEntity
  8
0
  6
Continuous
 62
     7
370
    25
100
AcDbLine
 10
7.4886505567
 20
-6.6499494316
 30
0.0
 11
7.544328256
 21
-6.6178073799
 31
0.0
  0
LINE
  5
2CD
330
1E3
100
AcDbEntity
  8
0
  6
Continuous
 62
     7
370
    25
100
AcDbLine
 10
7.544328256
 20
-6.0392504503
 30
0.0
 11
7.4886505567
 21
-6.0713925019
 31
0.0
  0
LINE
  5
2CE
330
1E3
100
AcDbEntity
  8
0
  6
Continuous
 62
     7
370
    25
100
AcDbLine
 10
7.5164894063
 20
-1.364464647
 30
0.0
 11
7.5164894063
 21
1.7859684067
 31
0.0
  0
LINE
  5
2CF
330
1E3
100
AcDbEntity
  8
0
  6
Continuous
 62
     7
370
    25
100
AcDbLine
 10
-19.097450862
 20
17.2141584215
 30
0.0
 11
7.544328256
 21
1.8341867086
 31
0.0
  0
LINE
  5
2D0
330
1E3
100
AcDbEntity
  8
0
  6
Continuous
 62
     7
370
    25
100
AcDbLine
 10
7.5164894063
 20
1.7859684067
 30
0.0
 11
-19.1252897116
 21
17.1659401196
 31
0.0
  0
LINE
  5
2D1
330
1E3
100
AcDbEntity
  8
0
  6
Continuous
 62
     7
370
    25
100
AcDbLine
 10
7.544328256
 20
1.8341867086
 30
0.0
 11
7.7113613539
 21
1.9306128636
 31
0.0
  0
LINE
  5
2D2
330
1E3
100
AcDbEntity
  8
0
  6
Continuous
 62
     7
370
    25
100
AcDbLine
 10
-18.930417764
 20
17.3105845764
 30
0.0
 11
-19.097450862
 21
17.2141584215
 31
0.0
  0
LINE
  5
2D3
330
1E3
100
AcDbEntity
  8
0
  6
Continuous
 62
     7
370
    25
100
AcDbLine
 10
7.7113613539
 20
1.9306128636
 30
0.0
 11
-18.930417764
 21
17.3105845764
 31
0.0
  0
LINE
  5
2D4
330
1E3
100
AcDbEntity
  8
0
  6
Continuous
 62
     8
370
    25
100
AcDbLine
 10
-20.0602793707
 20
4.3873952742
 30
0.0
 11
-20.0439717502
 21
4.3873952742
 31
0.0
  0
LINE
  5
2D5
330
1E3
100
AcDbEntity
  8
0
  6
Continuous
 62
     8
370
    25
100
AcDbLine
 10
-7.0153901126
 20
24.1889784044
 30
0.0
 11
-18.9202231633
 21
17.3164645698
 31
0.0
  0
LINE
  5
2D6
330
1E3
100
AcDbEntity
  8
0
  6
Continuous
 62
     8
370
    25
100
AcDbLine
 10
-19.1354797877
 20
17.1921995655
 30
0.0
 11
-19.1415973322
 21
17.1886679823
 31
0.0
  0
LINE
  5
2D7
330
1E3
100
AcDbEntity
  8
0
  6
Continuous
 62
     8
370
    25
100
AcDbLine
 10
-19.1415973322
 20
17.1886679823
 30
0.0
 11
-19.1415973322
 21
15.2332870281
 31
0.0
  0
LINE
  5
2D8
330
1E3
100
AcDbEntity
  8
0
  6
Continuous
 62
     8
370
    25
100
AcDbLine
 10
-7.0153901126
 20
15.136763924
 30
0.0
 11
-7.0153901126
 21
24.1889784044
 31
0.0
  0
LINE
  5
2D9
330
1E3
100
AcDbEntity
  8
0
  6
Continuous
 62
     8
370
    25
100
AcDbLine
 10
11.3454401898
 20
3.9775499607
 30
0.0
 11
-7.460811707
 21
14.8341680911
 31
0.0
  0
LINE
  5
2DA
330
1E3
100
AcDbEntity
  8
0
  6
Continuous
 62
     8
370
    25
100
AcDbLine
 10
-7.4329728574
 20
14.882386393
 30
0.0
 11
11.4011224141
 21
4.0096946245
 31
0.0
  0
LINE
  5
2DB
330
1E3
100
AcDbEntity
  8
0
  6
Continuous
 62
     8
370
    25
100
AcDbLine
 10
-7.460811707
 20
14.8341680911
 30
0.0
 11
-7.460811707
 21
14.7566569651
 31
0.0
  0
LINE
  5
2DC
330
1E3
100
AcDbEntity
  8
0
  6
Continuous
 62
     8
370
    25
100
AcDbLine
 10
11.8465440085
 20
4.2668310377
 30
0.0
 11
-6.9875512629
 21
15.1395228061
 31
0.0
  0
LINE
  5
2DD
330
1E3
100
AcDbEntity
  8
0
  6
Continuous
 62
     8
370
    25
100
AcDbLine
 10
7.5164894063
 20
-10.4942910476
 30
0.0
 11
7.4886505567
 21
-10.4782200218
 31
0.0
  0
LINE
  5
2DE
330
1E3
100
AcDbEntity
  8
0
  6
Continuous
 62
     8
370
    25
100
AcDbLine
 10
7.4886505567
 20
-10.4139306941
 30
0.0
 11
7.544328256
 21
-10.4460727457
 31
0.0
  0
LINE
  5
2DF
330
1E3
100
AcDbEntity
  8
0
  6
Continuous
 62
     8
370
    25
100
AcDbLine
 10
7.4886505567
 20
-10.9925764387
 30
0.0
 11
7.5164894063
 21
-11.0086474645
 31
0.0
  0
LINE
  5
2E0
330
1E3
100
AcDbEntity
  8
0
  6
Continuous
 62
     8
370
    25
100
AcDbLine
 10
-19.1252897116
 20
17.1659401196
 30
0.0
 11
-19.1252897116
 21
15.2238728392
 31
0.0
  0
LINE
  5
2E1
330
1E3
100
AcDbEntity
  8
0
  6
Continuous
 62
     8
370
    25
100
AcDbLine
 10
7.4886505567
 20
-1.3483936212
 30
0.0
 11
7.5164894063
 21
-1.364464647
 31
0.0
  0
ARC
  5
2E2
330
1E3
100
AcDbEntity
  8
0
  6
Continuous
 62
     7
370
    25
100
AcDbCircle
 10
7.4492804779
 20
-11.516263454
 30
0.0
 40
0.0393700787401601
100
AcDbArc
 50
240.0026882664
 51
360.0
  0
ARC
  5
2E3
330
1E3
100
AcDbEntity
  8
0
  6
Continuous
 62
     7
370
    25
100
AcDbCircle
 10
-20.0046016714
 20
4.3325253598
 30
0.0
 40
0.0393700787401665
100
AcDbArc
 50
180.0
 51
240.0026882663
  0
ARC
  5
2E4
330
1E3
100
AcDbEntity
  8
0
  6
Continuous
 62
     7
370
    25
100
AcDbCircle
 10
-20.0602793707
 20
17.2047390081
 30
0.0
 40
0.0393700787401663
100
AcDbArc
 50
119.9973117337
 51
180.0
  0
ARC
  5
2E5
330
1E3
100
AcDbEntity
  8
0
  6
Continuous
 62
     7
370
    25
100
AcDbCircle
 10
-20.0602793707
 20
4.4101231368
 30
0.0
 40
0.0393700787401592
100
AcDbArc
 50
180.0
 51
270.0
  0
ARC
  5
2E6
330
1E3
100
AcDbEntity
  8
0
  6
Continuous
 62
     7
370
    25
100
AcDbCircle
 10
-7.0432289622
 20
24.2050494302
 30
0.0
 40
0.0393700787401533
100
AcDbArc
 50
360.0
 51
60.0026882664
  0
ARC
  5
2E7
330
1E3
100
AcDbEntity
  8
0
  6
Continuous
 62
     7
370
    25
100
AcDbCircle
 10
-7.4886505567
 20
24.4621858434
 30
0.0
 40
0.0393700787401661
100
AcDbArc
 50
60.0026882664
 51
119.9973117336
  0
ARC
  5
2E8
330
1E3
100
AcDbEntity
  8
0
  6
Continuous
 62
     7
370
    25
100
AcDbCircle
 10
7.5836983347
 20
1.760483192
 30
0.0
 40
0.0393700787401636
100
AcDbArc
 50
119.9973117337
 51
180.0
  0
ARC
  5
2E9
330
1E3
100
AcDbEntity
  8
0
  6
Continuous
 62
     7
370
    25
100
AcDbCircle
 10
20.1553271488
 20
8.5036572009
 30
0.0
 40
0.039370078740148
100
AcDbArc
 50
30.0038964362
 51
60.0026882664
  0
ARC
  5
2EA
330
1E3
100
AcDbEntity
  8
0
  6
Continuous
 62
     7
370
    25
100
AcDbCircle
 10
19.7099055543
 20
8.760793614
 30
0.0
 40
0.0393700787401627
100
AcDbArc
 50
60.0026882664
 51
119.9973117336
  0
ARC
  5
2EB
330
1E3
100
AcDbEntity
  8
0
  6
Continuous
 62
     7
370
    25
100
AcDbCircle
 10
-7.4329728574
 20
14.8502391169
 30
0.0
 40
0.0393700787401574
100
AcDbArc
 50
119.9973117337
 51
180.0
  0
ARC
  5
2EC
330
1E3
100
AcDbEntity
  8
0
  6
Continuous
 62
     7
370
    25
100
AcDbCircle
 10
-6.9875512629
 20
15.1073755301
 30
0.0
 40
0.0393700787401678
100
AcDbArc
 50
60.0026882664
 51
119.9973117336
  0
ARC
  5
2ED
330
1E3
100
AcDbEntity
  8
0
  6
Continuous
 62
     7
370
    25
100
AcDbCircle
 10
7.544328256
 20
-10.9925764387
 30
0.0
 40
0.0393700787401521
100
AcDbArc
 50
240.0026882664
 51
270.0
  0
ARC
  5
2EE
330
1E3
100
AcDbEntity
  8
0
  6
Continuous
 62
     7
370
    25
100
AcDbCircle
 10
7.7113613539
 20
1.8984655875
 30
0.0
 40
0.0393700787401448
100
AcDbArc
 50
5.5347458071
 51
60.0026882664
  0
ARC
  5
2EF
330
1E3
100
AcDbEntity
  8
0
  6
Continuous
 62
     7
370
    25
100
AcDbCircle
 10
7.544328256
 20
-1.3483936212
 30
0.0
 40
0.0393700787401198
100
AcDbArc
 50
240.0026882663
 51
270.0
  0
ARC
  5
2F0
330
1E3
100
AcDbEntity
  8
0
  6
Continuous
 62
     7
370
    25
100
AcDbCircle
 10
-19.097450862
 20
17.1820111454
 30
0.0
 40
0.0393700787401627
100
AcDbArc
 50
119.9973117337
 51
180.0
  0
ARC
  5
2F1
330
1E3
100
AcDbEntity
  8
0
  6
Continuous
 62
     7
370
    25
100
AcDbCircle
 10
-18.930417764
 20
17.2784373004
 30
0.0
 40
0.0393700787401907
100
AcDbArc
 50
60.0026882664
 51
119.9973117336
  0
ARC
  5
2F2
330
1E3
100
AcDbEntity
  8
0
  6
Continuous
 62
     7
370
    25
100
AcDbCircle
 10
-19.1683019166
 20
17.2388070203
 30
0.0
 40
0.0568071998464727
100
AcDbArc
 50
268.8559032541
 51
298.0402391154
  0
ARC
  5
2F3
330
1E3
100
AcDbEntity
  8
0
  6
Continuous
 62
     7
370
    25
100
AcDbCircle
 10
-19.202038911
 20
17.1859175551
 30
0.0
 40
0.0605041262823668
100
AcDbArc
 50
2.6054784856
 51
57.39452166
  0
ARC
  5
2F4
330
1E3
100
AcDbEntity
  8
0
  6
Continuous
 62
     7
370
    25
100
AcDbCircle
 10
-7.0758316914
 20
24.1862279771
 30
0.0
 40
0.060504126282372
100
AcDbArc
 50
2.6054784857
 51
57.39452166
  0
ARC
  5
2F5
330
1E3
100
AcDbEntity
  8
0
  6
Continuous
 62
     7
370
    25
100
AcDbCircle
 10
7.5804182057
 20
1.2421932621
 30
0.0
 40
0.0363128296282996
100
AcDbArc
 50
84.8174221345
 51
173.6486598634
  0
ARC
  5
2F6
330
1E3
100
AcDbEntity
  8
0
  6
Continuous
 62
     7
370
    25
100
AcDbCircle
 10
7.5804182057
 20
1.7564660884
 30
0.0
 40
0.0363128296283013
100
AcDbArc
 50
84.8174221345
 51
173.6486598634
  0
ARC
  5
2F7
330
1E3
100
AcDbEntity
  8
0
  6
Continuous
 62
     7
370
    25
100
AcDbCircle
 10
-7.4003701282
 20
14.8314176638
 30
0.0
 40
0.0605041262823762
100
AcDbArc
 50
122.60547834
 51
177.3945215143
  0
ARC
  5
2F8
330
1E3
100
AcDbEntity
  8
0
  6
Continuous
 62
     7
370
    25
100
AcDbCircle
 10
7.5769309851
 20
-10.4970414749
 30
0.0
 40
0.0605041262823669
100
AcDbArc
 50
122.60547834
 51
177.3945215143
  0
ARC
  5
2F9
330
1E3
100
AcDbEntity
  8
0
  6
Continuous
 62
     7
370
    25
100
AcDbCircle
 10
7.5769309851
 20
1.7832179795
 30
0.0
 40
0.0605041262823729
100
AcDbArc
 50
122.60547834
 51
177.3945215143
  0
ARC
  5
2FA
330
1E3
100
AcDbEntity
  8
0
  6
Continuous
 62
     7
370
    25
100
AcDbCircle
 10
-19.0648481328
 20
17.1631896924
 30
0.0
 40
0.0605041262823896
100
AcDbArc
 50
122.60547834
 51
177.3945215143
  0
ARC
  5
2FB
330
1E3
100
AcDbEntity
  8
0
  6
Continuous
 62
     8
370
    25
100
AcDbCircle
 10
7.4406776255
 20
-11.5344889515
 30
0.0
 40
0.0193562738972992
100
AcDbArc
 50
173.6093872136
 51
235.078432393
  0
ARC
  5
2FC
330
1E3
100
AcDbEntity
  8
0
  6
Continuous
 62
     8
370
    25
100
AcDbCircle
 10
-20.0132045238
 20
4.3142998624
 30
0.0
 40
0.0193562738972989
100
AcDbArc
 50
173.6093872136
 51
235.078432393
  0
ARC
  5
2FD
330
1E3
100
AcDbEntity
  8
0
  6
Continuous
 62
     8
370
    25
100
AcDbCircle
 10
-20.0246916924
 20
4.3341866853
 30
0.0
 40
0.0193515019933855
100
AcDbArc
 50
184.9249021695
 51
246.3952387881
  0
ARC
  5
2FE
330
1E3
100
AcDbEntity
  8
0
  6
Continuous
 62
     8
370
    25
100
AcDbCircle
 10
-20.0718116564
 20
17.2207885941
 30
0.0
 40
0.01980225338197
100
AcDbArc
 50
54.3824225248
 51
114.3071190461
  0
ARC
  5
2FF
330
1E3
100
AcDbEntity
  8
0
  6
Continuous
 62
     8
370
    25
100
AcDbCircle
 10
-7.5001828423
 20
24.4782354293
 30
0.0
 40
0.0198022533819551
100
AcDbArc
 50
54.3824225248
 51
114.3071190461
  0
ARC
  5
300
330
1E3
100
AcDbEntity
  8
0
  6
Continuous
 62
     8
370
    25
100
AcDbCircle
 10
-7.0235619174
 20
24.2070142482
 30
0.0
 40
0.0198007589958161
100
AcDbArc
 50
294.3746582936
 51
354.3052007488
  0
ARC
  5
301
330
1E3
100
AcDbEntity
  8
0
  6
Continuous
 62
     8
370
    25
100
AcDbCircle
 10
-7.0316966766
 20
24.2210990162
 30
0.0
 40
0.0198022533819605
100
AcDbArc
 50
65.6928809539
 51
125.6175774752
  0
ARC
  5
302
330
1E3
100
AcDbEntity
  8
0
  6
Continuous
 62
     8
370
    25
100
AcDbCircle
 10
-7.477118271
 20
24.4782354293
 30
0.0
 40
0.0198022533819641
100
AcDbArc
 50
65.6928809539
 51
125.6175774752
  0
ARC
  5
303
330
1E3
100
AcDbEntity
  8
0
  6
Continuous
 62
     8
370
    25
100
AcDbCircle
 10
7.5644388887
 20
1.2484682057
 30
0.0
 40
0.0202369808157319
100
AcDbArc
 50
186.4058275526
 51
244.9018361571
  0
ARC
  5
304
330
1E3
100
AcDbEntity
  8
0
  6
Continuous
 62
     8
370
    25
100
AcDbCircle
 10
7.5536392593
 20
1.2301681929
 30
0.0
 40
0.0567958712324847
100
AcDbArc
 50
28.8567998288
 51
58.0453714773
  0
ARC
  5
305
330
1E3
100
AcDbEntity
  8
0
  6
Continuous
 62
     8
370
    25
100
AcDbCircle
 10
20.1252680734
 20
8.4876150281
 30
0.0
 40
0.0567958712325337
100
AcDbArc
 50
28.8567998288
 51
58.0453714773
  0
ARC
  5
306
330
1E3
100
AcDbEntity
  8
0
  6
Continuous
 62
     8
370
    25
100
AcDbCircle
 10
7.5721660491
 20
1.7765327779
 30
0.0
 40
0.0198022533819601
100
AcDbArc
 50
54.3824225248
 51
114.3071190461
  0
ARC
  5
307
330
1E3
100
AcDbEntity
  8
0
  6
Continuous
 62
     8
370
    25
100
AcDbCircle
 10
19.6983732687
 20
8.7768432
 30
0.0
 40
0.0198022533819634
100
AcDbArc
 50
54.3824225248
 51
114.3071190461
  0
ARC
  5
308
330
1E3
100
AcDbEntity
  8
0
  6
Continuous
 62
     8
370
    25
100
AcDbCircle
 10
20.1668594344
 20
8.5197067868
 30
0.0
 40
0.0198022533819551
100
AcDbArc
 50
65.6928809539
 51
125.6175774752
  0
ARC
  5
309
330
1E3
100
AcDbEntity
  8
0
  6
Continuous
 62
     8
370
    25
100
AcDbCircle
 10
19.72143784
 20
8.7768432
 30
0.0
 40
0.0198022533819666
100
AcDbArc
 50
65.6928809539
 51
125.6175774752
  0
ARC
  5
30A
330
1E3
100
AcDbEntity
  8
0
  6
Continuous
 62
     8
370
    25
100
AcDbCircle
 10
-6.9760189773
 20
15.123425116
 30
0.0
 40
0.0198022533819681
100
AcDbArc
 50
65.6928809539
 51
125.6175774752
  0
ARC
  5
30B
330
1E3
100
AcDbEntity
  8
0
  6
Continuous
 62
     8
370
    25
100
AcDbCircle
 10
-7.4526399021
 20
14.8522039349
 30
0.0
 40
0.0198007589958242
100
AcDbArc
 50
185.6947992512
 51
245.6253417064
  0
ARC
  5
30C
330
1E3
100
AcDbEntity
  8
0
  6
Continuous
 62
     8
370
    25
100
AcDbCircle
 10
-7.444505143
 20
14.8662887028
 30
0.0
 40
0.0198022533819697
100
AcDbArc
 50
54.3824225248
 51
114.3071190461
  0
ARC
  5
30D
330
1E3
100
AcDbEntity
  8
0
  6
Continuous
 62
     8
370
    25
100
AcDbCircle
 10
-6.9990835485
 20
15.123425116
 30
0.0
 40
0.0198022533819661
100
AcDbArc
 50
54.3824225248
 51
114.3071190461
  0
ARC
  5
30E
330
1E3
100
AcDbEntity
  8
0
  6
Continuous
 62
     8
370
    25
100
AcDbCircle
 10
7.5431939907
 20
-10.4441520096
 30
0.0
 40
0.0568071998465911
100
AcDbArc
 50
241.9597608846
 51
271.1440967458
  0
ARC
  5
30F
330
1E3
100
AcDbEntity
  8
0
  6
Continuous
 62
     8
370
    25
100
AcDbCircle
 10
7.5431939907
 20
-10.9585084266
 30
0.0
 40
0.0568071998465062
100
AcDbArc
 50
241.9597608846
 51
271.1440967458
  0
ARC
  5
310
330
1E3
100
AcDbEntity
  8
0
  6
Continuous
 62
     8
370
    25
100
AcDbCircle
 10
7.5357808198
 20
-11.0107768636
 30
0.0
 40
0.0194085799236536
100
AcDbArc
 50
173.7011524856
 51
234.986667121
  0
ARC
  5
311
330
1E3
100
AcDbEntity
  8
0
  6
Continuous
 62
     8
370
    25
100
AcDbCircle
 10
7.5104524346
 20
1.7821801546
 30
0.0
 40
0.0620665202661608
100
AcDbArc
 50
15.019743397
 51
56.9207443128
  0
ARC
  5
312
330
1E3
100
AcDbEntity
  8
0
  6
Continuous
 62
     8
370
    25
100
AcDbCircle
 10
7.5439332981
 20
1.8386802188
 30
0.0
 40
0.0594281274014955
100
AcDbArc
 50
242.4966996037
 51
275.1026363465
  0
ARC
  5
313
330
1E3
100
AcDbEntity
  8
0
  6
Continuous
 62
     8
370
    25
100
AcDbCircle
 10
7.5431939907
 20
-1.314325609
 30
0.0
 40
0.0568071998465345
100
AcDbArc
 50
241.9597608846
 51
271.1440967458
  0
ARC
  5
314
330
1E3
100
AcDbEntity
  8
0
  6
Continuous
 62
     8
370
    25
100
AcDbCircle
 10
7.6784133167
 20
1.8792796482
 30
0.0
 40
0.0609973126905329
100
AcDbArc
 50
14.6347164039
 51
57.305771306
  0
ARC
  5
315
330
1E3
100
AcDbEntity
  8
0
  6
Continuous
 62
     8
370
    25
100
AcDbCircle
 10
7.7228936395
 20
1.9145151734
 30
0.0
 40
0.0198022533819518
100
AcDbArc
 50
65.6928809539
 51
125.6175774752
  0
ARC
  5
316
330
1E3
100
AcDbEntity
  8
0
  6
Continuous
 62
     8
370
    25
100
AcDbCircle
 10
-18.9188854784
 20
17.2944868863
 30
0.0
 40
0.0198022533819634
100
AcDbArc
 50
65.6928809539
 51
125.6175774752
  0
ARC
  5
317
330
1E3
100
AcDbEntity
  8
0
  6
Continuous
 62
     8
370
    25
100
AcDbCircle
 10
7.5352171841
 20
-1.3668490576
 30
0.0
 40
0.0188789585170557
100
AcDbArc
 50
172.7441704322
 51
235.9436491745
  0
ARC
  5
318
330
1E3
100
AcDbEntity
  8
0
  6
Continuous
 62
     8
370
    25
100
AcDbCircle
 10
-19.1171179068
 20
17.1839759634
 30
0.0
 40
0.0198007589958021
100
AcDbArc
 50
185.6947992512
 51
245.6253417065
  0
ARC
  5
319
330
1E3
100
AcDbEntity
  8
0
  6
Continuous
 62
     8
370
    25
100
AcDbCircle
 10
-19.1089831476
 20
17.1980607314
 30
0.0
 40
0.0198022533819663
100
AcDbArc
 50
54.3824225248
 51
114.3071190461
  0
ARC
  5
31A
330
1E3
100
AcDbEntity
  8
0
  6
Continuous
 62
     8
370
    25
100
AcDbCircle
 10
-18.9419500497
 20
17.2944868863
 30
0.0
 40
0.0198022533819411
100
AcDbArc
 50
54.3824225248
 51
114.3071190461
  0
VIEWPORT
  5
321
330
1E3
100
AcDbEntity
  8
0
100
AcDbViewport
 10
0.0
 20
0.0
 30
0.0
 40
8.4
 41
6.4
 68
     1
 69
     1
 12
3.937007874
 22
7.874015748
 13
0.0
 23
0.0
 14
0.5
 24
0.5
 15
0.5
 25
0.5
 16
0.0
 26
0.0
 36
1.0
 17
0.0
 27
0.0
 37
0.0
 42
50.0
 43
0.0
 44
0.0
 45
36.5624296963
 50
0.0
 51
0.0
 72
   100
 90
   557152
  1

281
     0
 71
     1
 74
     0
110
0.0
120
0.0
130
0.0
111
1.0
121
0.0
131
0.0
112
0.0
122
1.0
132
0.0
 79
     0
146
0.0
  0
ENDBLK
  5
1E6
330
1E3
100
AcDbEntity
  8
0
100
AcDbBlockEnd
  0
ENDSEC
  0
SECTION
  2
ENTITIES
  0
LINE
  5
BB
330
1F
100
AcDbEntity
  8
0
  6
Continuous
 62
     7
370
    25
100
AcDbLine
 10
-19.5472440945
 20
0.0
 30
0.0
 11
19.5472440945
 21
0.0
 31
0.0
  0
LINE
  5
BC
330
1F
100
AcDbEntity
  8
0
  6
Continuous
 62
     7
370
    25
100
AcDbLine
 10
-19.4521963164
 20
13.9831327904
 30
0.0
 11
-19.4521963164
 21
0.0393700787
 31
0.0
  0
LINE
  5
BD
330
1F
100
AcDbEntity
  8
0
  6
Continuous
 62
     7
370
    25
100
AcDbLine
 10
19.4521963164
 20
13.9831327904
 30
0.0
 11
-19.4521963164
 21
13.9831327904
 31
0.0
  0
LINE
  5
BE
330
1F
100
AcDbEntity
  8
0
  6
Continuous
 62
     7
370
    25
100
AcDbLine
 10
19.4521963164
 20
0.0393700787
 30
0.0
 11
19.4521963164
 21
13.9831327904
 31
0.0
  0
LINE
  5
BF
330
1F
100
AcDbEntity
  8
0
  6
Continuous
 62
     7
370
    25
100
AcDbLine
 10
26.8307086614
 20
15.1181102362
 30
0.0
 11
20.2165354331
 21
15.1181102362
 31
0.0
  0
LINE
  5
C0
330
1F
100
AcDbEntity
  8
0
  6
Continuous
 62
     7
370
    25
100
AcDbLine
 10
26.8307086614
 20
0.6299212598
 30
0.0
 11
26.8307086614
 21
15.1181102362
 31
0.0
  0
LINE
  5
C1
330
1F
100
AcDbEntity
  8
0
  6
Continuous
 62
     7
370
    25
100
AcDbLine
 10
20.2165354331
 20
0.6299212598
 30
0.0
 11
26.8307086614
 21
0.6299212598
 31
0.0
  0
LINE
  5
C2
330
1F
100
AcDbEntity
  8
0
  6
Continuous
 62
     7
370
    25
100
AcDbLine
 10
20.2165354331
 20
15.1181102362
 30
0.0
 11
20.2165354331
 21
0.6299212598
 31
0.0
  0
LINE
  5
C3
330
1F
100
AcDbEntity
  8
0
  6
Continuous
 62
     7
370
    25
100
AcDbLine
 10
19.5866141732
 20
0.0
 30
0.0
 11
27.4606299213
 21
0.0
 31
0.0
  0
LINE
  5
C4
330
1F
100
AcDbEntity
  8
0
  6
Continuous
 62
     7
370
    25
100
AcDbLine
 10
19.5866141732
 20
15.7480314961
 30
0.0
 11
19.5866141732
 21
0.0
 31
0.0
  0
LINE
  5
C5
330
1F
100
AcDbEntity
  8
0
  6
Continuous
 62
     7
370
    25
100
AcDbLine
 10
27.4606299213
 20
15.7480314961
 30
0.0
 11
19.5866141732
 21
15.7480314961
 31
0.0
  0
LINE
  5
C6
330
1F
100
AcDbEntity
  8
0
  6
Continuous
 62
     7
370
    25
100
AcDbLine
 10
27.4606299213
 20
0.0
 30
0.0
 11
27.4606299213
 21
15.7480314961
 31
0.0
  0
LINE
  5
C7
330
1F
100
AcDbEntity
  8
0
  6
Continuous
 62
     7
370
    25
100
AcDbLine
 10
26.8307086614
 20
7.5590551181
 30
0.0
 11
20.2165354331
 21
7.5590551181
 31
0.0
  0
LINE
  5
C8
330
1F
100
AcDbEntity
  8
0
  6
Continuous
 62
     7
370
    25
100
AcDbLine
 10
26.8307086614
 20
8.188976378
 30
0.0
 11
20.2165354331
 21
8.188976378
 31
0.0
  0
LINE
  5
C9
330
1F
100
AcDbEntity
  8
0
  6
Continuous
 62
     7
370
    25
100
AcDbLine
 10
-19.4128262377
 20
13.9437627116
 30
0.0
 11
-19.4521963164
 21
13.9831327904
 31
0.0
  0
LINE
  5
CA
330
1F
100
AcDbEntity
  8
0
  6
Continuous
 62
     7
370
    25
100
AcDbLine
 10
-19.4128262377
 20
13.9437627116
 30
0.0
 11
-19.4128262377
 21
0.0
 31
0.0
  0
LINE
  5
CB
330
1F
100
AcDbEntity
  8
0
  6
Continuous
 62
     7
370
    25
100
AcDbLine
 10
19.4128262377
 20
13.9437627116
 30
0.0
 11
-19.4128262377
 21
13.9437627116
 31
0.0
  0
LINE
  5
CC
330
1F
100
AcDbEntity
  8
0
  6
Continuous
 62
     7
370
    25
100
AcDbLine
 10
19.4128262377
 20
0.0
 30
0.0
 11
19.4128262377
 21
13.9437627116
 31
0.0
  0
LINE
  5
CD
330
1F
100
AcDbEntity
  8
0
  6
Continuous
 62
     7
370
    25
100
AcDbLine
 10
19.4128262377
 20
13.9437627116
 30
0.0
 11
19.4521963164
 21
13.9831327904
 31
0.0
  0
LINE
  5
CE
330
1F
100
AcDbEntity
  8
0
  6
Continuous
 62
     7
370
    25
100
AcDbLine
 10
-19.5194052448
 20
15.7086614173
 30
0.0
 11
-19.5194052448
 21
0.0393700787
 31
0.0
  0
LINE
  5
CF
330
1F
100
AcDbEntity
  8
0
  6
Continuous
 62
     7
370
    25
100
AcDbLine
 10
-19.5866141732
 20
0.0393700787
 30
0.0
 11
-19.5866141732
 21
15.7086614173
 31
0.0
  0
LINE
  5
D0
330
1F
100
AcDbEntity
  8
0
  6
Continuous
 62
     7
370
    25
100
AcDbLine
 10
-19.5472440945
 20
15.7480314961
 30
0.0
 11
-18.9173228346
 21
15.7480314961
 31
0.0
  0
LINE
  5
D1
330
1F
100
AcDbEntity
  8
0
  6
Continuous
 62
     7
370
    25
100
AcDbLine
 10
-18.8779527559
 20
15.7086614173
 30
0.0
 11
-18.8779527559
 21
13.9831327904
 31
0.0
  0
LINE
  5
D2
330
1F
100
AcDbEntity
  8
0
  6
Continuous
 62
     7
370
    25
100
AcDbLine
 10
-19.5866141732
 20
0.0393700787
 30
0.0
 11
19.5866141732
 21
0.0393700787
 31
0.0
  0
LINE
  5
D3
330
1F
100
AcDbEntity
  8
0
  6
Continuous
 62
     7
370
    25
100
AcDbLine
 10
19.5194052448
 20
0.0393700787
 30
0.0
 11
19.5194052448
 21
15.7086614173
 31
0.0
  0
LINE
  5
D4
330
1F
100
AcDbEntity
  8
0
  6
Continuous
 62
     7
370
    25
100
AcDbLine
 10
19.5866141732
 20
15.7086614173
 30
0.0
 11
-19.5866141732
 21
15.7086614173
 31
0.0
  0
LINE
  5
D5
330
1F
100
AcDbEntity
  8
0
  6
Continuous
 62
     7
370
    25
100
AcDbLine
 10
18.9173228346
 20
15.7480314961
 30
0.0
 11
19.5472440945
 21
15.7480314961
 31
0.0
  0
LINE
  5
D6
330
1F
100
AcDbEntity
  8
0
  6
Continuous
 62
     7
370
    25
100
AcDbLine
 10
18.8779527559
 20
13.9831327904
 30
0.0
 11
18.8779527559
 21
15.7086614173
 31
0.0
  0
LINE
  5
D7
330
1F
100
AcDbEntity
  8
0
  6
Continuous
 62
     7
370
    25
100
AcDbLine
 10
-18.8385826772
 20
15.7480314961
 30
0.0
 11
18.8385826772
 21
15.7480314961
 31
0.0
  0
LINE
  5
D8
330
1F
100
AcDbEntity
  8
0
  6
Continuous
 62
     7
370
    25
100
AcDbLine
 10
18.8385826772
 20
13.9831327904
 30
0.0
 11
18.8385826772
 21
15.7480314961
 31
0.0
  0
LINE
  5
D9
330
1F
100
AcDbEntity
  8
0
  6
Continuous
 62
     7
370
    25
100
AcDbLine
 10
-18.8385826772
 20
15.7480314961
 30
0.0
 11
-18.8385826772
 21
13.9831327904
 31
0.0
  0
LINE
  5
DA
330
1F
100
AcDbEntity
  8
0
  6
Continuous
 62
     8
370
    25
100
AcDbLine
 10
-18.889483985
 20
13.9831327904
 30
0.0
 11
-18.889483985
 21
15.7086614173
 31
0.0
  0
LINE
  5
DB
330
1F
100
AcDbEntity
  8
0
  6
Continuous
 62
     8
370
    25
100
AcDbLine
 10
18.889483985
 20
15.7086614173
 30
0.0
 11
18.889483985
 21
13.9831327904
 31
0.0
  0
ARC
  5
DC
330
1F
100
AcDbEntity
  8
0
  6
Continuous
 62
     7
370
    25
100
AcDbCircle
 10
-19.4128262377
 20
0.0393700787
 30
0.0
 40
0.0393700787401521
100
AcDbArc
 50
180.0
 51
270.0
  0
ARC
  5
DD
330
1F
100
AcDbEntity
  8
0
  6
Continuous
 62
     7
370
    25
100
AcDbCircle
 10
19.4128262377
 20
0.0393700787
 30
0.0
 40
0.0393700787401592
100
AcDbArc
 50
270.0
 51
0.0
  0
ARC
  5
DE
330
1F
100
AcDbEntity
  8
0
  6
Continuous
 62
     7
370
    25
100
AcDbCircle
 10
-19.5472440945
 20
0.0393700787
 30
0.0
 40
0.0393700787401627
100
AcDbArc
 50
180.0
 51
270.0
  0
ARC
  5
DF
330
1F
100
AcDbEntity
  8
0
  6
Continuous
 62
     7
370
    25
100
AcDbCircle
 10
-19.5542038069
 20
0.0344488189
 30
0.0
 40
0.0351448249436233
100
AcDbArc
 50
281.421753659
 51
8.0494669755
  0
ARC
  5
E0
330
1F
100
AcDbEntity
  8
0
  6
Continuous
 62
     7
370
    25
100
AcDbCircle
 10
-19.5472440945
 20
15.7086614173
 30
0.0
 40
0.039370078740161
100
AcDbArc
 50
90.0
 51
180.0
  0
ARC
  5
E1
330
1F
100
AcDbEntity
  8
0
  6
Continuous
 62
     7
370
    25
100
AcDbCircle
 10
-19.5542038069
 20
15.7135826772
 30
0.0
 40
0.0351448249436147
100
AcDbArc
 50
351.9505330245
 51
78.578246341
  0
ARC
  5
E2
330
1F
100
AcDbEntity
  8
0
  6
Continuous
 62
     7
370
    25
100
AcDbCircle
 10
-18.9242825471
 20
15.7135826772
 30
0.0
 40
0.0351448249436081
100
AcDbArc
 50
351.9505330245
 51
78.5782463411
  0
ARC
  5
E3
330
1F
100
AcDbEntity
  8
0
  6
Continuous
 62
     7
370
    25
100
AcDbCircle
 10
-18.9173228346
 20
15.7086614173
 30
0.0
 40
0.0393700787401574
100
AcDbArc
 50
0.0
 51
90.0
  0
ARC
  5
E4
330
1F
100
AcDbEntity
  8
0
  6
Continuous
 62
     7
370
    25
100
AcDbCircle
 10
19.5542038069
 20
15.7135826772
 30
0.0
 40
0.0351448249436147
100
AcDbArc
 50
101.421753659
 51
188.0494669755
  0
ARC
  5
E5
330
1F
100
AcDbEntity
  8
0
  6
Continuous
 62
     7
370
    25
100
AcDbCircle
 10
19.5472440945
 20
15.7086614173
 30
0.0
 40
0.0393700787401556
100
AcDbArc
 50
360.0
 51
90.0
  0
ARC
  5
E6
330
1F
100
AcDbEntity
  8
0
  6
Continuous
 62
     7
370
    25
100
AcDbCircle
 10
19.5542038069
 20
0.0344488189
 30
0.0
 40
0.0351448249436138
100
AcDbArc
 50
171.9505330245
 51
258.578246341
  0
ARC
  5
E7
330
1F
100
AcDbEntity
  8
0
  6
Continuous
 62
     7
370
    25
100
AcDbCircle
 10
19.5472440945
 20
0.0393700787
 30
0.0
 40
0.039370078740156
100
AcDbArc
 50
270.0
 51
0.0
  0
ARC
  5
E8
330
1F
100
AcDbEntity
  8
0
  6
Continuous
 62
     7
370
    25
100
AcDbCircle
 10
18.9242825471
 20
15.7135826772
 30
0.0
 40
0.035144824943617
100
AcDbArc
 50
101.421753659
 51
188.0494669755
  0
ARC
  5
E9
330
1F
100
AcDbEntity
  8
0
  6
Continuous
 62
     7
370
    25
100
AcDbCircle
 10
18.9173228346
 20
15.7086614173
 30
0.0
 40
0.0393700787401503
100
AcDbArc
 50
90.0
 51
180.0
  0
ARC
  5
EA
330
1F
100
AcDbEntity
  8
0
  6
Continuous
 62
     7
370
    25
100
AcDbCircle
 10
18.8385826772
 20
15.7086614173
 30
0.0
 40
0.0393700787401574
100
AcDbArc
 50
0.0
 51
90.0
  0
ARC
  5
EB
330
1F
100
AcDbEntity
  8
0
  6
Continuous
 62
     7
370
    25
100
AcDbCircle
 10
-18.8385826772
 20
15.7086614173
 30
0.0
 40
0.0393700787401574
100
AcDbArc
 50
90.0
 51
180.0
  0
LINE
  5
10C
330
1B
100
AcDbEntity
 67
     1
  8
0
  6
Continuous
 62
     7
370
    25
100
AcDbLine
 10
8.8616451353
 20
0.0393700787
 30
0.0
 11
8.8616451353
 21
15.7086614173
 31
0.0
  0
LINE
  5
10D
330
1B
100
AcDbEntity
 67
     1
  8
0
  6
Continuous
 62
     7
370
    25
100
AcDbLine
 10
8.9173228346
 20
0.0
 30
0.0
 11
-8.9960629921
 21
0.0
 31
0.0
  0
LINE
  5
10E
330
1B
100
AcDbEntity
 67
     1
  8
0
  6
Continuous
 62
     7
370
    25
100
AcDbLine
 10
-8.9960629921
 20
15.7480314961
 30
0.0
 11
8.9173228346
 21
15.7480314961
 31
0.0
  0
LINE
  5
10F
330
1B
100
AcDbEntity
 67
     1
  8
0
  6
Continuous
 62
     7
370
    25
100
AcDbLine
 10
-8.9960629921
 20
0.0
 30
0.0
 11
-8.9960629921
 21
15.7480314961
 31
0.0
  0
LINE
  5
110
330
1B
100
AcDbEntity
 67
     1
  8
0
  6
Continuous
 62
     7
370
    25
100
AcDbLine
 10
8.9173228346
 20
15.7480314961
 30
0.0
 11
8.9173228346
 21
0.0
 31
0.0
  0
LINE
  5
111
330
1B
100
AcDbEntity
 67
     1
  8
0
  6
Continuous
 62
     7
370
    25
100
AcDbLine
 10
8.8616451353
 20
15.7086614173
 30
0.0
 11
-8.9960629921
 21
15.7086614173
 31
0.0
  0
LINE
  5
112
330
1B
100
AcDbEntity
 67
     1
  8
0
  6
Continuous
 62
     7
370
    25
100
AcDbLine
 10
-8.9566929134
 20
15.7480314961
 30
0.0
 11
-8.9566929134
 21
0.0
 31
0.0
  0
LINE
  5
113
330
1B
100
AcDbEntity
 67
     1
  8
0
  6
Continuous
 62
     7
370
    25
100
AcDbLine
 10
8.8222750566
 20
0.0
 30
0.0
 11
8.8222750566
 21
15.7480314961
 31
0.0
  0
LINE
  5
114
330
1B
100
AcDbEntity
 67
     1
  8
0
  6
Continuous
 62
     8
370
    25
100
AcDbLine
 10
-8.9960629921
 20
0.0393700787
 30
0.0
 11
8.9173228346
 21
0.0393700787
 31
0.0
  0
ARC
  5
115
330
1B
100
AcDbEntity
 67
     1
  8
0
  6
Continuous
 62
     7
370
    25
100
AcDbCircle
 10
8.8222750566
 20
15.7086614173
 30
0.0
 40
0.0393700787401574
100
AcDbArc
 50
0.0
 51
90.0
  0
ARC
  5
116
330
1B
100
AcDbEntity
 67
     1
  8
0
  6
Continuous
 62
     7
370
    25
100
AcDbCircle
 10
8.8222750566
 20
0.0393700787
 30
0.0
 40
0.0393700787401592
100
AcDbArc
 50
270.0
 51
0.0
  0
ARC
  5
117
330
1B
100
AcDbEntity
 67
     1
  8
0
  6
Continuous
 62
     7
370
    25
100
AcDbCircle
 10
8.8779527559
 20
13.9437627116
 30
0.0
 40
0.0393700787401574
100
AcDbArc
 50
360.0
 51
114.4698005207
  0
ARC
  5
118
330
1B
100
AcDbEntity
 67
     1
  8
0
  6
Continuous
 62
     7
370
    25
100
AcDbCircle
 10
8.8779527559
 20
0.0393700787
 30
0.0
 40
0.0393700787401578
100
AcDbArc
 50
225.0
 51
0.0
  0
ARC
  5
119
330
1B
100
AcDbEntity
 67
     1
  8
0
  6
Continuous
 62
     7
370
    25
100
AcDbCircle
 10
-8.9566929134
 20
15.7086614173
 30
0.0
 40
0.0393700787401592
100
AcDbArc
 50
90.0
 51
180.0
  0
ARC
  5
11A
330
1B
100
AcDbEntity
 67
     1
  8
0
  6
Continuous
 62
     7
370
    25
100
AcDbCircle
 10
-8.9566929134
 20
0.0393700787
 30
0.0
 40
0.0393700787401597
100
AcDbArc
 50
180.0
 51
270.0
  0
VIEWPORT
  5
31B
330
1B
100
AcDbEntity
 67
     1
  8
0
100
AcDbViewport
 10
0.0
 20
0.0
 30
0.0
 40
8.4
 41
6.4
 68
     1
 69
     1
 12
3.937007874
 22
7.874015748
 13
0.0
 23
0.0
 14
0.5
 24
0.5
 15
0.5
 25
0.5
 16
0.0
 26
0.0
 36
1.0
 17
0.0
 27
0.0
 37
0.0
 42
50.0
 43
0.0
 44
0.0
 45
36.5624296963
 50
0.0
 51
0.0
 72
   100
 90
   557152
  1

281
     0
 71
     1
 74
     0
110
0.0
120
0.0
130
0.0
111
1.0
121
0.0
131
0.0
112
0.0
122
1.0
132
0.0
 79
     0
146
0.0
  0
ENDSEC
  0
SECTION
  2
OBJECTS
  0
DICTIONARY
  5
C
330
0
100
AcDbDictionary
281
     1
  3
ACAD_GROUP
350
D
  3
ACAD_LAYOUT
350
1A
  3
ACAD_MLINESTYLE
350
17
  3
ACAD_PLOTSETTINGS
350
19
  3
ACAD_PLOTSTYLENAME
350
E
  3
ACAD_SCALELIST
350
47
  0
DICTIONARY
  5
D
102
{ACAD_REACTORS
330
C
102
}
330
C
100
AcDbDictionary
281
     1
  0
DICTIONARY
  5
1A
102
{ACAD_REACTORS
330
C
102
}
330
C
100
AcDbDictionary
281
     1
  3
_Isometric
350
1E4
  3
_Left
350
1E
  3
_Right
350
26
  3
_Top
350
124
  3
Model
350
22
  0
DICTIONARY
  5
17
102
{ACAD_REACTORS
330
C
102
}
330
C
100
AcDbDictionary
281
     1
  3
Standard
350
18
  0
DICTIONARY
  5
19
102
{ACAD_REACTORS
330
C
102
}
330
C
100
AcDbDictionary
281
     1
  0
ACDBDICTIONARYWDFLT
  5
E
102
{ACAD_REACTORS
330
C
102
}
330
C
100
AcDbDictionary
281
     1
  3
Normal
350
F
100
AcDbDictionaryWithDefault
340
F
  0
DICTIONARY
  5
47
102
{ACAD_REACTORS
330
C
102
}
330
C
100
AcDbDictionary
281
     1
  3
A0
350
48
  3
A1
350
49
  3
A2
350
4A
  3
A3
350
4B
  3
A4
350
4C
  3
A5
350
4D
  3
A6
350
4E
  3
A7
350
4F
  3
A8
350
50
  3
A9
350
51
  3
B0
350
52
  3
B1
350
53
  3
B2
350
54
  3
B3
350
55
  3
B4
350
56
  3
B5
350
57
  3
B6
350
58
  3
B7
350
59
  3
B8
350
5A
  3
B9
350
5B
  3
C0
350
5C
  3
C1
350
5D
  3
C2
350
5E
  3
C3
350
5F
  3
C4
350
60
  3
C5
350
61
  3
C6
350
62
  3
C7
350
63
  3
C8
350
64
  3
C9
350
65
  3
D0
350
66
  3
D1
350
67
  3
D2
350
68
  0
LAYOUT
  5
1E4
102
{ACAD_REACTORS
330
1A
102
}
330
1A
100
AcDbPlotSettings
  1

  2
none_device
  4
Letter_(8.50_x_11.00_Inches)
  6

 40
6.35
 41
6.35
 42
6.35001
 43
6.35001
 44
215.9
 45
279.4
 46
0.0
 47
0.0
 48
0.0
 49
0.0
140
0.0
141
0.0
142
1.0
143
1.9685040339
 70
   688
 72
     0
 73
     1
 74
     1
  7

 75
     0
147
0.507999975
148
228.5
149
0.0
100
AcDbLayout
  1
_Isometric
 70
     1
 71
     4
 10
0.0
 20
0.0
 11
0.0
 21
0.0
 12
0.0
 22
0.0
 32
0.0
 14
0.0
 24
0.0
 34
0.0
 15
0.0
 25
0.0
 35
0.0
146
0.0
 13
0.0
 23
0.0
 33
0.0
 16
1.0
 26
0.0
 36
0.0
 17
0.0
 27
1.0
 37
0.0
 76
     0
330
1E3
331
321
  0
LAYOUT
  5
1E
102
{ACAD_REACTORS
330
1A
102
}
330
1A
100
AcDbPlotSettings
  1

  2
none_device
  4
Letter_(8.50_x_11.00_Inches)
  6

 40
6.35
 41
6.35
 42
6.35001
 43
6.35001
 44
215.9
 45
279.4
 46
0.0
 47
0.0
 48
0.0
 49
0.0
140
0.0
141
0.0
142
1.0
143
1.9685040339
 70
   688
 72
     0
 73
     1
 74
     1
  7

 75
     0
147
0.507999975
148
228.5
149
0.0
100
AcDbLayout
  1
_Left
 70
     1
 71
     1
 10
-9.4881897756
 20
-0.4921260085
 11
12.1653545971
 21
16.2401582795
 12
0.0
 22
0.0
 32
0.0
 14
-8.9960629921
 24
0.0
 34
0.0
 15
8.9173228346
 25
15.7480314961
 35
0.0
146
0.0
 13
0.0
 23
0.0
 33
0.0
 16
1.0
 26
0.0
 36
0.0
 17
0.0
 27
1.0
 37
0.0
 76
     0
330
1B
331
31B
  0
LAYOUT
  5
26
102
{ACAD_REACTORS
330
1A
102
}
330
1A
100
AcDbPlotSettings
  1

  2
none_device
  4
Letter_(8.50_x_11.00_Inches)
  6

 40
6.35
 41
6.35
 42
6.35001
 43
6.35001
 44
215.9
 45
279.4
 46
0.0
 47
0.0
 48
0.0
 49
0.0
140
0.0
141
0.0
142
1.0
143
1.9685040339
 70
   688
 72
     0
 73
     1
 74
     1
  7

 75
     0
147
0.507999975
148
228.5
149
0.0
100
AcDbLayout
  1
_Right
 70
     1
 71
     2
 10
0.0
 20
0.0
 11
0.0
 21
0.0
 12
0.0
 22
0.0
 32
0.0
 14
0.0
 24
0.0
 34
0.0
 15
0.0
 25
0.0
 35
0.0
146
0.0
 13
0.0
 23
0.0
 33
0.0
 16
1.0
 26
0.0
 36
0.0
 17
0.0
 27
1.0
 37
0.0
 76
     0
330
23
331
31D
  0
LAYOUT
  5
124
102
{ACAD_REACTORS
330
1A
102
}
330
1A
100
AcDbPlotSettings
  1

  2
none_device
  4
Letter_(8.50_x_11.00_Inches)
  6

 40
6.35
 41
6.35
 42
6.35001
 43
6.35001
 44
215.9
 45
279.4
 46
0.0
 47
0.0
 48
0.0
 49
0.0
140
0.0
141
0.0
142
1.0
143
1.9685040339
 70
   688
 72
     0
 73
     1
 74
     1
  7

 75
     0
147
0.507999975
148
228.5
149
0.0
100
AcDbLayout
  1
_Top
 70
     1
 71
     3
 10
0.0
 20
0.0
 11
0.0
 21
0.0
 12
0.0
 22
0.0
 32
0.0
 14
0.0
 24
0.0
 34
0.0
 15
0.0
 25
0.0
 35
0.0
146
0.0
 13
0.0
 23
0.0
 33
0.0
 16
1.0
 26
0.0
 36
0.0
 17
0.0
 27
1.0
 37
0.0
 76
     0
330
123
331
31F
  0
LAYOUT
  5
22
102
{ACAD_REACTORS
330
1A
102
}
330
1A
100
AcDbPlotSettings
  1

  2
none_device
  4
ANSI_A_(11.00_x_8.50_Inches)
  6

 40
6.35
 41
19.05
 42
6.35000508
 43
19.05000254
 44
279.4
 45
215.9
 46
110.2030518533
 47
42.6061075166
 48
0.0
 49
0.0
140
0.0
141
0.0
142
0.2314694561
143
1.0
 70
  1696
 72
     0
 73
     0
 74
     0
  7

 75
     0
147
0.5913241897
148
-39.4088153714
149
0.0
100
AcDbLayout
  1
Model
 70
     1
 71
     0
 10
0.0
 20
0.0
 11
12.0
 21
9.0
 12
0.0
 22
0.0
 32
0.0
 14
-19.5866141732
 24
0.0
 34
0.0
 15
27.4606299213
 25
15.7480314961
 35
0.0
146
0.0
 13
0.0
 23
0.0
 33
0.0
 16
1.0
 26
0.0
 36
0.0
 17
0.0
 27
1.0
 37
0.0
 76
     0
330
1F
331
29
  0
MLINESTYLE
  5
18
102
{ACAD_REACTORS
330
17
102
}
330
17
100
AcDbMlineStyle
  2
Standard
 70
     0
  3

 62
   256
 51
90.0
 52
90.0
 71
     2
 49
0.5
 62
   256
  6
BYLAYER
 49
-0.5
 62
   256
  6
BYLAYER
  0
ACDBPLACEHOLDER
  5
F
102
{ACAD_REACTORS
330
E
102
}
330
E
  0
SCALE
  5
48
102
{ACAD_REACTORS
330
47
102
}
330
47
100
AcDbScale
 70
     0
300
1:1
140
1.0
141
1.0
290
     1
  0
SCALE
  5
49
102
{ACAD_REACTORS
330
47
102
}
330
47
100
AcDbScale
 70
     0
300
1:2
140
1.0
141
2.0
290
     0
  0
SCALE
  5
4A
102
{ACAD_REACTORS
330
47
102
}
330
47
100
AcDbScale
 70
     0
300
1:4
140
1.0
141
4.0
290
     0
  0
SCALE
  5
4B
102
{ACAD_REACTORS
330
47
102
}
330
47
100
AcDbScale
 70
     0
300
1:5
140
1.0
141
5.0
290
     0
  0
SCALE
  5
4C
102
{ACAD_REACTORS
330
47
102
}
330
47
100
AcDbScale
 70
     0
300
1:8
140
1.0
141
8.0
290
     0
  0
SCALE
  5
4D
102
{ACAD_REACTORS
330
47
102
}
330
47
100
AcDbScale
 70
     0
300
1:10
140
1.0
141
10.0
290
     0
  0
SCALE
  5
4E
102
{ACAD_REACTORS
330
47
102
}
330
47
100
AcDbScale
 70
     0
300
1:16
140
1.0
141
16.0
290
     0
  0
SCALE
  5
4F
102
{ACAD_REACTORS
330
47
102
}
330
47
100
AcDbScale
 70
     0
300
1:20
140
1.0
141
20.0
290
     0
  0
SCALE
  5
50
102
{ACAD_REACTORS
330
47
102
}
330
47
100
AcDbScale
 70
     0
300
1:30
140
1.0
141
30.0
290
     0
  0
SCALE
  5
51
102
{ACAD_REACTORS
330
47
102
}
330
47
100
AcDbScale
 70
     0
300
1:40
140
1.0
141
40.0
290
     0
  0
SCALE
  5
52
102
{ACAD_REACTORS
330
47
102
}
330
47
100
AcDbScale
 70
     0
300
1:50
140
1.0
141
50.0
290
     0
  0
SCALE
  5
53
102
{ACAD_REACTORS
330
47
102
}
330
47
100
AcDbScale
 70
     0
300
1:100
140
1.0
141
100.0
290
     0
  0
SCALE
  5
54
102
{ACAD_REACTORS
330
47
102
}
330
47
100
AcDbScale
 70
     0
300
2:1
140
2.0
141
1.0
290
     0
  0
SCALE
  5
55
102
{ACAD_REACTORS
330
47
102
}
330
47
100
AcDbScale
 70
     0
300
4:1
140
4.0
141
1.0
290
     0
  0
SCALE
  5
56
102
{ACAD_REACTORS
330
47
102
}
330
47
100
AcDbScale
 70
     0
300
8:1
140
8.0
141
1.0
290
     0
  0
SCALE
  5
57
102
{ACAD_REACTORS
330
47
102
}
330
47
100
AcDbScale
 70
     0
300
10:1
140
10.0
141
1.0
290
     0
  0
SCALE
  5
58
102
{ACAD_REACTORS
330
47
102
}
330
47
100
AcDbScale
 70
     0
300
100:1
140
100.0
141
1.0
290
     0
  0
SCALE
  5
59
102
{ACAD_REACTORS
330
47
102
}
330
47
100
AcDbScale
 70
     0
300
1/128" = 1'-0"
140
0.0078125
141
12.0
290
     0
  0
SCALE
  5
5A
102
{ACAD_REACTORS
330
47
102
}
330
47
100
AcDbScale
 70
     0
300
1/64" = 1'-0"
140
0.015625
141
12.0
290
     0
  0
SCALE
  5
5B
102
{ACAD_REACTORS
330
47
102
}
330
47
100
AcDbScale
 70
     0
300
1/32" = 1'-0"
140
0.03125
141
12.0
290
     0
  0
SCALE
  5
5C
102
{ACAD_REACTORS
330
47
102
}
330
47
100
AcDbScale
 70
     0
300
1/16" = 1'-0"
140
0.0625
141
12.0
290
     0
  0
SCALE
  5
5D
102
{ACAD_REACTORS
330
47
102
}
330
47
100
AcDbScale
 70
     0
300
3/32" = 1'-0"
140
0.09375
141
12.0
290
     0
  0
SCALE
  5
5E
102
{ACAD_REACTORS
330
47
102
}
330
47
100
AcDbScale
 70
     0
300
1/8" = 1'-0"
140
0.125
141
12.0
290
     0
  0
SCALE
  5
5F
102
{ACAD_REACTORS
330
47
102
}
330
47
100
AcDbScale
 70
     0
300
3/16" = 1'-0"
140
0.1875
141
12.0
290
     0
  0
SCALE
  5
60
102
{ACAD_REACTORS
330
47
102
}
330
47
100
AcDbScale
 70
     0
300
1/4" = 1'-0"
140
0.25
141
12.0
290
     0
  0
SCALE
  5
61
102
{ACAD_REACTORS
330
47
102
}
330
47
100
AcDbScale
 70
     0
300
3/8" = 1'-0"
140
0.375
141
12.0
290
     0
  0
SCALE
  5
62
102
{ACAD_REACTORS
330
47
102
}
330
47
100
AcDbScale
 70
     0
300
1/2" = 1'-0"
140
0.5
141
12.0
290
     0
  0
SCALE
  5
63
102
{ACAD_REACTORS
330
47
102
}
330
47
100
AcDbScale
 70
     0
300
3/4" = 1'-0"
140
0.75
141
12.0
290
     0
  0
SCALE
  5
64
102
{ACAD_REACTORS
330
47
102
}
330
47
100
AcDbScale
 70
     0
300
1" = 1'-0"
140
1.0
141
12.0
290
     0
  0
SCALE
  5
65
102
{ACAD_REACTORS
330
47
102
}
330
47
100
AcDbScale
 70
     0
300
1-1/2" = 1'-0"
140
1.5
141
12.0
290
     0
  0
SCALE
  5
66
102
{ACAD_REACTORS
330
47
102
}
330
47
100
AcDbScale
 70
     0
300
3" = 1'-0"
140
3.0
141
12.0
290
     0
  0
SCALE
  5
67
102
{ACAD_REACTORS
330
47
102
}
330
47
100
AcDbScale
 70
     0
300
6" = 1'-0"
140
6.0
141
12.0
290
     0
  0
SCALE
  5
68
102
{ACAD_REACTORS
330
47
102
}
330
47
100
AcDbScale
 70
     0
300
1'-0" = 1'-0"
140
12.0
141
12.0
290
     0
  0
ENDSEC
  0
EOF
