  0
SECTION
  2
HEADER
  9
$ACADVER
  1
AC1015
  9
$ACADMAINTVER
 70
     6
  9
$DWGCODEPAGE
  3
ANSI_1252
  9
$INSBASE
 10
0.0
 20
0.0
 30
0.0
  9
$EXTMIN
 10
-15.6496062992
 20
0.0
 30
0.0
  9
$EXTMAX
 10
23.5236220472
 20
15.7480314961
 30
0.0
  9
$LIMMIN
 10
0.0
 20
0.0
  9
$LIMMAX
 10
12.0
 20
9.0
  9
$ORTHOMODE
 70
     0
  9
$REGENMODE
 70
     1
  9
$FILLMODE
 70
     1
  9
$QTEXTMODE
 70
     0
  9
$MIRRTEXT
 70
     1
  9
$LTSCALE
 40
1.0
  9
$ATTMODE
 70
     1
  9
$TEXTSIZE
 40
0.1377952756
  9
$TRACEWID
 40
0.05
  9
$TEXTSTYLE
  7
Standard
  9
$CLAYER
  8
0
  9
$CELTYPE
  6
ByLayer
  9
$CECOLOR
 62
   256
  9
$CELTSCALE
 40
1.0
  9
$DISPSILH
 70
     0
  9
$DIMSCALE
 40
1.0
  9
$DIMASZ
 40
0.13
  9
$DIMEXO
 40
0.0393700787
  9
$DIMDLI
 40
0.38
  9
$DIMRND
 40
0.0
  9
$DIMDLE
 40
0.0
  9
$DIMEXE
 40
0.0393700787
  9
$DIMTP
 40
0.0
  9
$DIMTM
 40
0.0
  9
$DIMTXT
 40
0.1377952756
  9
$DIMCEN
 40
0.09
  9
$DIMTSZ
 40
0.0
  9
$DIMTOL
 70
     0
  9
$DIMLIM
 70
     0
  9
$DIMTIH
 70
     1
  9
$DIMTOH
 70
     1
  9
$DIMSE1
 70
     0
  9
$DIMSE2
 70
     0
  9
$DIMTAD
 70
     1
  9
$DIMZIN
 70
     1
  9
$DIMBLK
  1

  9
$DIMASO
 70
     1
  9
$DIMSHO
 70
     1
  9
$DIMPOST
  1

  9
$DIMAPOST
  1

  9
$DIMALT
 70
     0
  9
$DIMALTD
 70
     2
  9
$DIMALTF
 40
25.4
  9
$DIMLFAC
 40
1.0
  9
$DIMTOFL
 70
     0
  9
$DIMTVP
 40
0.0
  9
$DIMTIX
 70
     0
  9
$DIMSOXD
 70
     0
  9
$DIMSAH
 70
     0
  9
$DIMBLK1
  1

  9
$DIMBLK2
  1

  9
$DIMSTYLE
  2
Standard
  9
$DIMCLRD
 70
     0
  9
$DIMCLRE
 70
     0
  9
$DIMCLRT
 70
     0
  9
$DIMTFAC
 40
1.0
  9
$DIMGAP
 40
0.06
  9
$DIMJUST
 70
     0
  9
$DIMSD1
 70
     0
  9
$DIMSD2
 70
     0
  9
$DIMTOLJ
 70
     1
  9
$DIMTZIN
 70
     1
  9
$DIMALTZ
 70
     0
  9
$DIMALTTZ
 70
     0
  9
$DIMUPT
 70
     0
  9
$DIMDEC
 70
     2
  9
$DIMTDEC
 70
     2
  9
$DIMALTU
 70
     2
  9
$DIMALTTD
 70
     2
  9
$DIMTXSTY
  7
Standard
  9
$DIMAUNIT
 70
     0
  9
$DIMADEC
 70
     2
  9
$DIMALTRND
 40
0.0
  9
$DIMAZIN
 70
     0
  9
$DIMDSEP
 70
    46
  9
$DIMATFIT
 70
     3
  9
$DIMFRAC
 70
     0
  9
$DIMLDRBLK
  1

  9
$DIMLUNIT
 70
     2
  9
$DIMLWD
 70
    -2
  9
$DIMLWE
 70
    -2
  9
$DIMTMOVE
 70
     0
  9
$LUNITS
 70
     2
  9
$LUPREC
 70
     2
  9
$SKETCHINC
 40
0.1
  9
$FILLETRAD
 40
0.5
  9
$AUNITS
 70
     0
  9
$AUPREC
 70
     2
  9
$MENU
  1
.
  9
$ELEVATION
 40
0.0
  9
$PELEVATION
 40
0.0
  9
$THICKNESS
 40
0.0
  9
$LIMCHECK
 70
     0
  9
$CHAMFERA
 40
0.0
  9
$CHAMFERB
 40
0.0
  9
$CHAMFERC
 40
0.0
  9
$CHAMFERD
 40
0.0
  9
$SKPOLY
 70
     0
  9
$TDCREATE
 40
2460405.647487975
  9
$TDUCREATE
 40
2460405.605821308
  9
$TDUPDATE
 40
2460405.647509329
  9
$TDUUPDATE
 40
2460405.605842662
  9
$TDINDWG
 40
0.0000000116
  9
$TDUSRTIMER
 40
0.0000000116
  9
$USRTIMER
 70
     1
  9
$ANGBASE
 50
0.0
  9
$ANGDIR
 70
     0
  9
$PDMODE
 70
     0
  9
$PDSIZE
 40
-1.0
  9
$PLINEWID
 40
0.0
  9
$SPLFRAME
 70
     0
  9
$SPLINETYPE
 70
     6
  9
$SPLINESEGS
 70
     8
  9
$HANDSEED
  5
324
  9
$SURFTAB1
 70
     6
  9
$SURFTAB2
 70
     6
  9
$SURFTYPE
 70
     6
  9
$SURFU
 70
     6
  9
$SURFV
 70
     6
  9
$UCSBASE
  2

  9
$UCSNAME
  2

  9
$UCSORG
 10
0.0
 20
0.0
 30
0.0
  9
$UCSXDIR
 10
1.0
 20
0.0
 30
0.0
  9
$UCSYDIR
 10
0.0
 20
1.0
 30
0.0
  9
$UCSORTHOREF
  2

  9
$UCSORTHOVIEW
 70
     0
  9
$UCSORGTOP
 10
0.0
 20
0.0
 30
0.0
  9
$UCSORGBOTTOM
 10
0.0
 20
0.0
 30
0.0
  9
$UCSORGLEFT
 10
0.0
 20
0.0
 30
0.0
  9
$UCSORGRIGHT
 10
0.0
 20
0.0
 30
0.0
  9
$UCSORGFRONT
 10
0.0
 20
0.0
 30
0.0
  9
$UCSORGBACK
 10
0.0
 20
0.0
 30
0.0
  9
$PUCSBASE
  2

  9
$PUCSNAME
  2

  9
$PUCSORG
 10
0.0
 20
0.0
 30
0.0
  9
$PUCSXDIR
 10
1.0
 20
0.0
 30
0.0
  9
$PUCSYDIR
 10
0.0
 20
1.0
 30
0.0
  9
$PUCSORTHOREF
  2

  9
$PUCSORTHOVIEW
 70
     0
  9
$PUCSORGTOP
 10
0.0
 20
0.0
 30
0.0
  9
$PUCSORGBOTTOM
 10
0.0
 20
0.0
 30
0.0
  9
$PUCSORGLEFT
 10
0.0
 20
0.0
 30
0.0
  9
$PUCSORGRIGHT
 10
0.0
 20
0.0
 30
0.0
  9
$PUCSORGFRONT
 10
0.0
 20
0.0
 30
0.0
  9
$PUCSORGBACK
 10
0.0
 20
0.0
 30
0.0
  9
$USERI1
 70
     0
  9
$USERI2
 70
     0
  9
$USERI3
 70
     0
  9
$USERI4
 70
     0
  9
$USERI5
 70
     0
  9
$USERR1
 40
0.0
  9
$USERR2
 40
0.0
  9
$USERR3
 40
0.0
  9
$USERR4
 40
0.0
  9
$USERR5
 40
0.0
  9
$WORLDVIEW
 70
     1
  9
$SHADEDGE
 70
     3
  9
$SHADEDIF
 70
    70
  9
$TILEMODE
 70
     1
  9
$MAXACTVP
 70
    64
  9
$PINSBASE
 10
0.0
 20
0.0
 30
0.0
  9
$PLIMCHECK
 70
     0
  9
$PEXTMIN
 10
-8.9960629921
 20
0.0
 30
0.0
  9
$PEXTMAX
 10
8.9173228346
 20
15.7480314961
 30
0.0
  9
$PLIMMIN
 10
-9.4881897756
 20
-0.4921260085
  9
$PLIMMAX
 10
12.1653545971
 20
16.2401582795
  9
$UNITMODE
 70
     0
  9
$VISRETAIN
 70
     1
  9
$PLINEGEN
 70
     0
  9
$PSLTSCALE
 70
     1
  9
$TREEDEPTH
 70
  3020
  9
$CMLSTYLE
  2
Standard
  9
$CMLJUST
 70
     0
  9
$CMLSCALE
 40
1.0
  9
$PROXYGRAPHICS
 70
     1
  9
$MEASUREMENT
 70
     0
  9
$CELWEIGHT
370
    -1
  9
$ENDCAPS
280
     0
  9
$JOINSTYLE
280
     0
  9
$LWDISPLAY
290
     1
  9
$INSUNITS
 70
     1
  9
$HYPERLINKBASE
  1

  9
$STYLESHEET
  1

  9
$XEDIT
290
     1
  9
$CEPSNTYPE
380
     0
  9
$PSTYLEMODE
290
     1
  9
$FINGERPRINTGUID
  2
{8f2833e3-4efc-467d-a64a-4dbc736ac070}
  9
$VERSIONGUID
  2
{FAEB1C32-E019-11D5-929B-00C0DF256EC4}
  9
$EXTNAMES
290
     1
  9
$PSVPSCALE
 40
0.0
  9
$OLESTARTUP
290
     0
  0
ENDSEC
  0
SECTION
  2
CLASSES
  0
CLASS
  1
ACDBDICTIONARYWDFLT
  2
AcDbDictionaryWithDefault
  3
ObjectDBX Classes
 90
        0
280
     0
281
     0
  0
CLASS
  1
VISUALSTYLE
  2
AcDbVisualStyle
  3
ObjectDBX Classes
 90
     4095
280
     0
281
     0
  0
CLASS
  1
MATERIAL
  2
AcDbMaterial
  3
ObjectDBX Classes
 90
     1153
280
     0
281
     0
  0
CLASS
  1
SCALE
  2
AcDbScale
  3
ObjectDBX Classes
 90
     1153
280
     0
281
     0
  0
CLASS
  1
TABLESTYLE
  2
AcDbTableStyle
  3
ObjectDBX Classes
 90
     4095
280
     0
281
     0
  0
CLASS
  1
MLEADERSTYLE
  2
AcDbMLeaderStyle
  3
ACDB_MLEADERSTYLE_CLASS
 90
     4095
280
     0
281
     0
  0
CLASS
  1
SUN
  2
AcDbSun
  3
SCENEOE
 90
     1153
280
     0
281
     0
  0
CLASS
  1
ACDBPLACEHOLDER
  2
AcDbPlaceHolder
  3
ObjectDBX Classes
 90
        0
280
     0
281
     0
  0
CLASS
  1
LAYOUT
  2
AcDbLayout
  3
ObjectDBX Classes
 90
        0
280
     0
281
     0
  0
ENDSEC
  0
SECTION
  2
TABLES
  0
TABLE
  2
VPORT
  5
8
330
0
100
AcDbSymbolTable
 70
     1
  0
VPORT
  5
29
330
8
100
AcDbSymbolTableRecord
100
AcDbViewportTableRecord
  2
*Active
 70
     0
 10
0.0
 20
0.0
 11
1.0
 21
1.0
 12
3.937007874
 22
7.874015748
 13
0.0
 23
0.0
 14
0.5
 24
0.5
 15
0.5
 25
0.5
 16
0.0
 26
0.0
 36
1.0
 17
0.0
 27
0.0
 37
0.0
 40
16.062992126
 41
2.4875
 42
50.0
 43
0.0
 44
0.0
 50
0.0
 51
0.0
 71
     0
 72
   100
 73
     1
 74
     3
 75
     0
 76
     0
 77
     0
 78
     0
281
     0
 65
     1
110
0.0
120
0.0
130
0.0
111
1.0
121
0.0
131
0.0
112
0.0
122
1.0
132
0.0
 79
     0
146
0.0
  0
ENDTAB
  0
TABLE
  2
LTYPE
  5
5
330
0
100
AcDbSymbolTable
 70
     6
  0
LTYPE
  5
14
330
5
100
AcDbSymbolTableRecord
100
AcDbLinetypeTableRecord
  2
ByBlock
 70
     0
  3

 72
    65
 73
     0
 40
0.0
  0
LTYPE
  5
15
330
5
100
AcDbSymbolTableRecord
100
AcDbLinetypeTableRecord
  2
ByLayer
 70
     0
  3

 72
    65
 73
     0
 40
0.0
  0
LTYPE
  5
16
330
5
100
AcDbSymbolTableRecord
100
AcDbLinetypeTableRecord
  2
Continuous
 70
     0
  3
Solid line
 72
    65
 73
     0
 40
0.0
  0
LTYPE
  5
6E
330
5
100
AcDbSymbolTableRecord
100
AcDbLinetypeTableRecord
  2
HIDDEN
 70
     0
  3
Hidden __ __ __ __ __ __ __ __ __ __ __ __ __ __
 72
    65
 73
     2
 40
0.075
 49
0.05
 74
     0
 49
-0.025
 74
     0
  0
LTYPE
  5
6F
330
5
100
AcDbSymbolTableRecord
100
AcDbLinetypeTableRecord
  2
PHANTOM
 70
     0
  3
Phantom ______  __  __  ______  __  __  ______
 72
    65
 73
     6
 40
0.5
 49
0.25
 74
     0
 49
-0.05
 74
     0
 49
0.05
 74
     0
 49
-0.05
 74
     0
 49
0.05
 74
     0
 49
-0.05
 74
     0
  0
LTYPE
  5
70
330
5
100
AcDbSymbolTableRecord
100
AcDbLinetypeTableRecord
  2
CENTER
 70
     0
  3
Center ____ _ ____ _ ____ _ ____ _ ____ _ ____
 72
    65
 73
     4
 40
0.4
 49
0.25
 74
     0
 49
-0.05
 74
     0
 49
0.05
 74
     0
 49
-0.05
 74
     0
  0
LTYPE
  5
71
330
5
100
AcDbSymbolTableRecord
100
AcDbLinetypeTableRecord
  2
CENTERX2
 70
     0
  3
Center (2x) ________  __  ________  __  _____
 72
    65
 73
     4
 40
0.8
 49
0.5
 74
     0
 49
-0.1
 74
     0
 49
0.1
 74
     0
 49
-0.1
 74
     0
  0
LTYPE
  5
72
330
5
100
AcDbSymbolTableRecord
100
AcDbLinetypeTableRecord
  2
DOT2
 70
     0
  3
Dot (.5x) ........................................
 72
    65
 73
     2
 40
0.025
 49
0.0
 74
     0
 49
-0.025
 74
     0
  0
ENDTAB
  0
TABLE
  2
LAYER
  5
2
330
0
100
AcDbSymbolTable
 70
     1
  0
LAYER
  5
10
330
2
100
AcDbSymbolTableRecord
100
AcDbLayerTableRecord
  2
0
 70
     0
 62
     7
  6
Continuous
370
    -3
390
F
  0
ENDTAB
  0
TABLE
  2
STYLE
  5
3
330
0
100
AcDbSymbolTable
 70
     1
  0
STYLE
  5
11
330
3
100
AcDbSymbolTableRecord
100
AcDbTextStyleTableRecord
  2
Standard
 70
     0
 40
0.0
 41
1.0
 50
0.0
 71
     0
 42
0.1377952756
  3
txt
  4

  0
ENDTAB
  0
TABLE
  2
VIEW
  5
6
330
0
100
AcDbSymbolTable
 70
     0
  0
ENDTAB
  0
TABLE
  2
UCS
  5
7
330
0
100
AcDbSymbolTable
 70
     0
  0
ENDTAB
  0
TABLE
  2
APPID
  5
9
330
0
100
AcDbSymbolTable
 70
     1
  0
APPID
  5
12
330
9
100
AcDbSymbolTableRecord
100
AcDbRegAppTableRecord
  2
ACAD
 70
     0
  0
ENDTAB
  0
TABLE
  2
DIMSTYLE
  5
A
330
0
100
AcDbSymbolTable
 70
     1
100
AcDbDimStyleTable
  0
DIMSTYLE
105
27
330
A
100
AcDbSymbolTableRecord
100
AcDbDimStyleTableRecord
  2
Standard
 70
     0
178
     0
340
11
  0
ENDTAB
  0
TABLE
  2
BLOCK_RECORD
  5
1
330
0
100
AcDbSymbolTable
 70
     3
  0
BLOCK_RECORD
  5
1F
330
1
100
AcDbSymbolTableRecord
100
AcDbBlockTableRecord
  2
*Model_Space
340
22
  0
BLOCK_RECORD
  5
1B
330
1
100
AcDbSymbolTableRecord
100
AcDbBlockTableRecord
  2
*Paper_Space
340
1E
  0
BLOCK_RECORD
  5
23
330
1
100
AcDbSymbolTableRecord
100
AcDbBlockTableRecord
  2
*Paper_Space0
340
26
  0
BLOCK_RECORD
  5
123
330
1
100
AcDbSymbolTableRecord
100
AcDbBlockTableRecord
  2
*Paper_Space1
340
124
  0
BLOCK_RECORD
  5
1E3
330
1
100
AcDbSymbolTableRecord
100
AcDbBlockTableRecord
  2
*Paper_Space2
340
1E4
  0
ENDTAB
  0
ENDSEC
  0
SECTION
  2
BLOCKS
  0
BLOCK
  5
20
330
1F
100
AcDbEntity
  8
0
100
AcDbBlockBegin
  2
*Model_Space
 70
     0
 10
0.0
 20
0.0
 30
0.0
  3
*Model_Space
  1

  0
ENDBLK
  5
21
330
1F
100
AcDbEntity
  8
0
100
AcDbBlockEnd
  0
BLOCK
  5
1C
330
1B
100
AcDbEntity
 67
     1
  8
0
100
AcDbBlockBegin
  2
*Paper_Space
 70
     0
 10
0.0
 20
0.0
 30
0.0
  3
*Paper_Space
  1

  0
ENDBLK
  5
1D
330
1B
100
AcDbEntity
 67
     1
  8
0
100
AcDbBlockEnd
  0
BLOCK
  5
24
330
23
100
AcDbEntity
  8
0
100
AcDbBlockBegin
  2
*Paper_Space0
 70
     0
 10
0.0
 20
0.0
 30
0.0
  3
*Paper_Space0
  1

  0
LINE
  5
11F
330
23
100
AcDbEntity
  8
0
  6
Continuous
 62
     7
370
    25
100
AcDbLine
 10
-8.9173228346
 20
0.0
 30
0.0
 11
8.9960629921
 21
0.0
 31
0.0
  0
LINE
  5
120
330
23
100
AcDbEntity
  8
0
  6
Continuous
 62
     7
370
    25
100
AcDbLine
 10
-8.9173228346
 20
0.0
 30
0.0
 11
-8.9173228346
 21
15.7480314961
 31
0.0
  0
LINE
  5
121
330
23
100
AcDbEntity
  8
0
  6
Continuous
 62
     7
370
    25
100
AcDbLine
 10
-8.9173228346
 20
15.7480314961
 30
0.0
 11
8.9960629921
 21
15.7480314961
 31
0.0
  0
LINE
  5
122
330
23
100
AcDbEntity
  8
0
  6
Continuous
 62
     7
370
    25
100
AcDbLine
 10
8.9960629921
 20
0.0
 30
0.0
 11
8.9960629921
 21
15.7480314961
 31
0.0
  0
VIEWPORT
  5
31E
330
23
100
AcDbEntity
  8
0
100
AcDbViewport
 10
0.0
 20
0.0
 30
0.0
 40
8.4
 41
6.4
 68
     1
 69
     1
 12
3.937007874
 22
7.874015748
 13
0.0
 23
0.0
 14
0.5
 24
0.5
 15
0.5
 25
0.5
 16
0.0
 26
0.0
 36
1.0
 17
0.0
 27
0.0
 37
0.0
 42
50.0
 43
0.0
 44
0.0
 45
30.4431946007
 50
0.0
 51
0.0
 72
   100
 90
   557152
  1

281
     0
 71
     1
 74
     0
110
0.0
120
0.0
130
0.0
111
1.0
121
0.0
131
0.0
112
0.0
122
1.0
132
0.0
 79
     0
146
0.0
  0
ENDBLK
  5
25
330
23
100
AcDbEntity
  8
0
100
AcDbBlockEnd
  0
BLOCK
  5
125
330
123
100
AcDbEntity
  8
0
100
AcDbBlockBegin
  2
*Paper_Space1
 70
     0
 10
0.0
 20
0.0
 30
0.0
  3
*Paper_Space1
  1

  0
LINE
  5
19D
330
123
100
AcDbEntity
  8
0
  6
Continuous
 62
     7
370
    25
100
AcDbLine
 10
-14.7637795276
 20
7.5393700787
 30
0.0
 11
-14.7637795276
 21
-7.5
 31
0.0
  0
LINE
  5
19E
330
123
100
AcDbEntity
  8
0
  6
Continuous
 62
     7
370
    25
100
AcDbLine
 10
-14.0551181102
 20
-7.5
 30
0.0
 11
-14.0551181102
 21
7.5393700787
 31
0.0
  0
LINE
  5
19F
330
123
100
AcDbEntity
  8
0
  6
Continuous
 62
     7
370
    25
100
AcDbLine
 10
23.5236220472
 20
8.9960629921
 30
0.0
 11
15.6496062992
 21
8.9960629921
 31
0.0
  0
LINE
  5
1A0
330
123
100
AcDbEntity
  8
0
  6
Continuous
 62
     7
370
    25
100
AcDbLine
 10
23.5236220472
 20
-8.9173228346
 30
0.0
 11
23.5236220472
 21
8.9960629921
 31
0.0
  0
LINE
  5
1A1
330
123
100
AcDbEntity
  8
0
  6
Continuous
 62
     7
370
    25
100
AcDbLine
 10
23.5236220472
 20
-8.9173228346
 30
0.0
 11
15.6496062992
 21
-8.9173228346
 31
0.0
  0
LINE
  5
1A2
330
123
100
AcDbEntity
  8
0
  6
Continuous
 62
     7
370
    25
100
AcDbLine
 10
15.6496062992
 20
-8.9173228346
 30
0.0
 11
15.6496062992
 21
8.9960629921
 31
0.0
  0
LINE
  5
1A3
330
123
100
AcDbEntity
  8
0
  6
Continuous
 62
     7
370
    25
100
AcDbLine
 10
15.4758183637
 20
-8.9173228346
 30
0.0
 11
-15.4758183637
 21
-8.9173228346
 31
0.0
  0
LINE
  5
1A4
330
123
100
AcDbEntity
  8
0
  6
Continuous
 62
     7
370
    25
100
AcDbLine
 10
-15.5036572133
 20
-8.8501139063
 30
0.0
 11
15.5036572133
 21
-8.8501139063
 31
0.0
  0
LINE
  5
1A5
330
123
100
AcDbEntity
  8
0
  6
Continuous
 62
     7
370
    25
100
AcDbLine
 10
14.8622047244
 20
-8.2086614173
 30
0.0
 11
15.5036572133
 21
-8.8501139063
 31
0.0
  0
LINE
  5
1A6
330
123
100
AcDbEntity
  8
0
  6
Continuous
 62
     7
370
    25
100
AcDbLine
 10
-14.8622047244
 20
-8.2086614173
 30
0.0
 11
-15.5036572133
 21
-8.8501139063
 31
0.0
  0
LINE
  5
1A7
330
123
100
AcDbEntity
  8
0
  6
Continuous
 62
     7
370
    25
100
AcDbLine
 10
-15.6496062992
 20
-8.8222750566
 30
0.0
 11
-15.6102362205
 21
-8.8222750566
 31
0.0
  0
LINE
  5
1A8
330
123
100
AcDbEntity
  8
0
  6
Continuous
 62
     7
370
    25
100
AcDbLine
 10
-15.5823973708
 20
-8.8501139063
 30
0.0
 11
-15.6102362205
 21
-8.8222750566
 31
0.0
  0
LINE
  5
1A9
330
123
100
AcDbEntity
  8
0
  6
Continuous
 62
     7
370
    25
100
AcDbLine
 10
-14.9803149606
 20
-8.1923537968
 30
0.0
 11
-14.952476111
 21
-8.2201926464
 31
0.0
  0
LINE
  5
1AA
330
123
100
AcDbEntity
  8
0
  6
Continuous
 62
     7
370
    25
100
AcDbLine
 10
-14.9803149606
 20
-8.1923537968
 30
0.0
 11
-14.9409448819
 21
-8.1923537968
 31
0.0
  0
LINE
  5
1AB
330
123
100
AcDbEntity
  8
0
  6
Continuous
 62
     7
370
    25
100
AcDbLine
 10
-15.6496062992
 20
-8.8222750566
 30
0.0
 11
-15.6496062992
 21
8.9566929134
 31
0.0
  0
LINE
  5
1AC
330
123
100
AcDbEntity
  8
0
  6
Continuous
 62
     7
370
    25
100
AcDbLine
 10
-15.6102362205
 20
8.9960629921
 30
0.0
 11
-15.6102362205
 21
-8.8222750566
 31
0.0
  0
LINE
  5
1AD
330
123
100
AcDbEntity
  8
0
  6
Continuous
 62
     7
370
    25
100
AcDbLine
 10
-14.9803149606
 20
-8.1923537968
 30
0.0
 11
-14.9803149606
 21
8.9960629921
 31
0.0
  0
LINE
  5
1AE
330
123
100
AcDbEntity
  8
0
  6
Continuous
 62
     7
370
    25
100
AcDbLine
 10
-15.6102362205
 20
-8.8222750566
 30
0.0
 11
-14.9803149606
 21
-8.1923537968
 31
0.0
  0
LINE
  5
1AF
330
123
100
AcDbEntity
  8
0
  6
Continuous
 62
     7
370
    25
100
AcDbLine
 10
-14.9409448819
 20
8.9566929134
 30
0.0
 11
-14.9409448819
 21
-8.1923537968
 31
0.0
  0
LINE
  5
1B0
330
123
100
AcDbEntity
  8
0
  6
Continuous
 62
     7
370
    25
100
AcDbLine
 10
-14.952476111
 20
-8.2201926464
 30
0.0
 11
-15.5823973708
 21
-8.8501139063
 31
0.0
  0
LINE
  5
1B1
330
123
100
AcDbEntity
  8
0
  6
Continuous
 62
     7
370
    25
100
AcDbLine
 10
-15.6102362205
 20
8.9960629921
 30
0.0
 11
-14.9803149606
 21
8.9960629921
 31
0.0
  0
LINE
  5
1B2
330
123
100
AcDbEntity
  8
0
  6
Continuous
 62
     7
370
    25
100
AcDbLine
 10
15.6102362205
 20
-8.8222750566
 30
0.0
 11
15.6102362205
 21
8.9960629921
 31
0.0
  0
LINE
  5
1B3
330
123
100
AcDbEntity
  8
0
  6
Continuous
 62
     7
370
    25
100
AcDbLine
 10
14.9803149606
 20
-8.1923537968
 30
0.0
 11
14.9409448819
 21
-8.1923537968
 31
0.0
  0
LINE
  5
1B4
330
123
100
AcDbEntity
  8
0
  6
Continuous
 62
     7
370
    25
100
AcDbLine
 10
14.952476111
 20
-8.2201926464
 30
0.0
 11
14.9803149606
 21
-8.1923537968
 31
0.0
  0
LINE
  5
1B5
330
123
100
AcDbEntity
  8
0
  6
Continuous
 62
     7
370
    25
100
AcDbLine
 10
14.9803149606
 20
8.9960629921
 30
0.0
 11
14.9803149606
 21
-8.1923537968
 31
0.0
  0
LINE
  5
1B6
330
123
100
AcDbEntity
  8
0
  6
Continuous
 62
     7
370
    25
100
AcDbLine
 10
15.6496062992
 20
8.9566929134
 30
0.0
 11
-15.6496062992
 21
8.9566929134
 31
0.0
  0
LINE
  5
1B7
330
123
100
AcDbEntity
  8
0
  6
Continuous
 62
     7
370
    25
100
AcDbLine
 10
14.9803149606
 20
8.9960629921
 30
0.0
 11
15.6102362205
 21
8.9960629921
 31
0.0
  0
LINE
  5
1B8
330
123
100
AcDbEntity
  8
0
  6
Continuous
 62
     7
370
    25
100
AcDbLine
 10
15.5823973708
 20
-8.8501139063
 30
0.0
 11
14.952476111
 21
-8.2201926464
 31
0.0
  0
LINE
  5
1B9
330
123
100
AcDbEntity
  8
0
  6
Continuous
 62
     7
370
    25
100
AcDbLine
 10
14.9803149606
 20
-8.1923537968
 30
0.0
 11
15.6102362205
 21
-8.8222750566
 31
0.0
  0
LINE
  5
1BA
330
123
100
AcDbEntity
  8
0
  6
Continuous
 62
     7
370
    25
100
AcDbLine
 10
15.6102362205
 20
-8.8222750566
 30
0.0
 11
15.5823973708
 21
-8.8501139063
 31
0.0
  0
LINE
  5
1BB
330
123
100
AcDbEntity
  8
0
  6
Continuous
 62
     7
370
    25
100
AcDbLine
 10
15.6496062992
 20
-8.8222750566
 30
0.0
 11
15.6102362205
 21
-8.8222750566
 31
0.0
  0
LINE
  5
1BC
330
123
100
AcDbEntity
  8
0
  6
Continuous
 62
     7
370
    25
100
AcDbLine
 10
14.9409448819
 20
-8.1923537968
 30
0.0
 11
14.9409448819
 21
8.9566929134
 31
0.0
  0
LINE
  5
1BD
330
123
100
AcDbEntity
  8
0
  6
Continuous
 62
     7
370
    25
100
AcDbLine
 10
-14.9409448819
 20
8.3267716535
 30
0.0
 11
14.9409448819
 21
8.3267716535
 31
0.0
  0
LINE
  5
1BE
330
123
100
AcDbEntity
  8
0
  6
Continuous
 62
     7
370
    25
100
AcDbLine
 10
14.9015748031
 20
8.2874015748
 30
0.0
 11
-14.9015748031
 21
8.2874015748
 31
0.0
  0
LINE
  5
1BF
330
123
100
AcDbEntity
  8
0
  6
Continuous
 62
     7
370
    25
100
AcDbLine
 10
-14.9015748031
 20
8.9960629921
 30
0.0
 11
14.9015748031
 21
8.9960629921
 31
0.0
  0
LINE
  5
1C0
330
123
100
AcDbEntity
  8
0
  6
Continuous
 62
     7
370
    25
100
AcDbLine
 10
-14.0551181102
 20
6.8307086614
 30
0.0
 11
14.0551181102
 21
6.8307086614
 31
0.0
  0
LINE
  5
1C1
330
123
100
AcDbEntity
  8
0
  6
Continuous
 62
     7
370
    25
100
AcDbLine
 10
-2.9527559055
 20
7.5393700787
 30
0.0
 11
-2.9527559055
 21
6.8307086614
 31
0.0
  0
LINE
  5
1C2
330
123
100
AcDbEntity
  8
0
  6
Continuous
 62
     7
370
    25
100
AcDbLine
 10
14.7637795276
 20
7.5393700787
 30
0.0
 11
-14.7637795276
 21
7.5393700787
 31
0.0
  0
LINE
  5
1C3
330
123
100
AcDbEntity
  8
0
  6
Continuous
 62
     7
370
    25
100
AcDbLine
 10
2.9527559055
 20
6.8307086614
 30
0.0
 11
2.9527559055
 21
7.5393700787
 31
0.0
  0
LINE
  5
1C4
330
123
100
AcDbEntity
  8
0
  6
Continuous
 62
     7
370
    25
100
AcDbLine
 10
14.7637795276
 20
-7.5
 30
0.0
 11
14.7637795276
 21
7.5393700787
 31
0.0
  0
LINE
  5
1C5
330
123
100
AcDbEntity
  8
0
  6
Continuous
 62
     7
370
    25
100
AcDbLine
 10
14.0551181102
 20
7.5393700787
 30
0.0
 11
14.0551181102
 21
-7.5
 31
0.0
  0
LINE
  5
1C6
330
123
100
AcDbEntity
  8
0
  6
Continuous
 62
     7
370
    25
100
AcDbLine
 10
14.9015748031
 20
-8.2086614173
 30
0.0
 11
14.9015748031
 21
8.9960629921
 31
0.0
  0
LINE
  5
1C7
330
123
100
AcDbEntity
  8
0
  6
Continuous
 62
     7
370
    25
100
AcDbLine
 10
14.9409448819
 20
-7.9330708661
 30
0.0
 11
-14.9409448819
 21
-7.9330708661
 31
0.0
  0
LINE
  5
1C8
330
123
100
AcDbEntity
  8
0
  6
Continuous
 62
     7
370
    25
100
AcDbLine
 10
-14.9409448819
 20
-8.1692913386
 30
0.0
 11
14.9409448819
 21
-8.1692913386
 31
0.0
  0
LINE
  5
1C9
330
123
100
AcDbEntity
  8
0
  6
Continuous
 62
     7
370
    25
100
AcDbLine
 10
-14.9015748031
 20
8.9960629921
 30
0.0
 11
-14.9015748031
 21
-8.2086614173
 31
0.0
  0
LINE
  5
1CA
330
123
100
AcDbEntity
  8
0
  6
Continuous
 62
     7
370
    25
100
AcDbLine
 10
-14.9015748031
 20
-7.8937007874
 30
0.0
 11
14.9015748031
 21
-7.8937007874
 31
0.0
  0
LINE
  5
1CB
330
123
100
AcDbEntity
  8
0
  6
Continuous
 62
     7
370
    25
100
AcDbLine
 10
14.9015748031
 20
-8.2086614173
 30
0.0
 11
-14.9015748031
 21
-8.2086614173
 31
0.0
  0
LINE
  5
1CC
330
123
100
AcDbEntity
  8
0
  6
Continuous
 62
     7
370
    25
100
AcDbLine
 10
-14.9409448819
 20
-7.8543307087
 30
0.0
 11
14.9409448819
 21
-7.8543307087
 31
0.0
  0
LINE
  5
1CD
330
123
100
AcDbEntity
  8
0
  6
Continuous
 62
     7
370
    25
100
AcDbLine
 10
14.9409448819
 20
-7.5393700787
 30
0.0
 11
-14.9409448819
 21
-7.5393700787
 31
0.0
  0
LINE
  5
1CE
330
123
100
AcDbEntity
  8
0
  6
Continuous
 62
     7
370
    25
100
AcDbLine
 10
-14.9015748031
 20
-7.5
 30
0.0
 11
14.9015748031
 21
-7.5
 31
0.0
  0
ARC
  5
1CF
330
123
100
AcDbEntity
  8
0
  6
Continuous
 62
     7
370
    25
100
AcDbCircle
 10
15.4758183637
 20
-8.8779527559
 30
0.0
 40
0.0393700787401592
100
AcDbArc
 50
270.0
 51
45.0
  0
ARC
  5
1D0
330
123
100
AcDbEntity
  8
0
  6
Continuous
 62
     7
370
    25
100
AcDbCircle
 10
-15.4758183637
 20
-8.8779527559
 30
0.0
 40
0.0393700787401576
100
AcDbArc
 50
135.0
 51
270.0
  0
ARC
  5
1D1
330
123
100
AcDbEntity
  8
0
  6
Continuous
 62
     7
370
    25
100
AcDbCircle
 10
-15.6102362205
 20
-8.8222750566
 30
0.0
 40
0.039370078740161
100
AcDbArc
 50
180.0
 51
315.0
  0
ARC
  5
1D2
330
123
100
AcDbEntity
  8
0
  6
Continuous
 62
     7
370
    25
100
AcDbCircle
 10
-14.9803149606
 20
-8.1923537968
 30
0.0
 40
0.0393700787401463
100
AcDbArc
 50
315.0
 51
0.0
  0
ARC
  5
1D3
330
123
100
AcDbEntity
  8
0
  6
Continuous
 62
     7
370
    25
100
AcDbCircle
 10
-14.9803149606
 20
8.9566929134
 30
0.0
 40
0.0393700787401574
100
AcDbArc
 50
0.0
 51
90.0
  0
ARC
  5
1D4
330
123
100
AcDbEntity
  8
0
  6
Continuous
 62
     7
370
    25
100
AcDbCircle
 10
-15.6102362205
 20
8.9566929134
 30
0.0
 40
0.039370078740161
100
AcDbArc
 50
90.0
 51
180.0
  0
ARC
  5
1D5
330
123
100
AcDbEntity
  8
0
  6
Continuous
 62
     7
370
    25
100
AcDbCircle
 10
15.6102362205
 20
8.9566929134
 30
0.0
 40
0.0393700787401574
100
AcDbArc
 50
360.0
 51
90.0
  0
ARC
  5
1D6
330
123
100
AcDbEntity
  8
0
  6
Continuous
 62
     7
370
    25
100
AcDbCircle
 10
14.9803149606
 20
-8.1923537968
 30
0.0
 40
0.0393700787401789
100
AcDbArc
 50
180.0
 51
225.0
  0
ARC
  5
1D7
330
123
100
AcDbEntity
  8
0
  6
Continuous
 62
     7
370
    25
100
AcDbCircle
 10
14.9803149606
 20
8.9566929134
 30
0.0
 40
0.0393700787401592
100
AcDbArc
 50
90.0
 51
180.0
  0
ARC
  5
1D8
330
123
100
AcDbEntity
  8
0
  6
Continuous
 62
     7
370
    25
100
AcDbCircle
 10
15.6102362205
 20
-8.8222750566
 30
0.0
 40
0.0393700787401563
100
AcDbArc
 50
225.0
 51
0.0
  0
ARC
  5
1D9
330
123
100
AcDbEntity
  8
0
  6
Continuous
 62
     7
370
    25
100
AcDbCircle
 10
-14.9015748031
 20
8.9566929134
 30
0.0
 40
0.039370078740161
100
AcDbArc
 50
90.0
 51
180.0
  0
ARC
  5
1DA
330
123
100
AcDbEntity
  8
0
  6
Continuous
 62
     7
370
    25
100
AcDbCircle
 10
-14.9015748031
 20
8.3267716535
 30
0.0
 40
0.039370078740161
100
AcDbArc
 50
180.0
 51
270.0
  0
ARC
  5
1DB
330
123
100
AcDbEntity
  8
0
  6
Continuous
 62
     7
370
    25
100
AcDbCircle
 10
14.9015748031
 20
8.3267716535
 30
0.0
 40
0.0393700787401592
100
AcDbArc
 50
270.0
 51
360.0
  0
ARC
  5
1DC
330
123
100
AcDbEntity
  8
0
  6
Continuous
 62
     7
370
    25
100
AcDbCircle
 10
14.9015748031
 20
8.9566929134
 30
0.0
 40
0.0393700787401592
100
AcDbArc
 50
0.0
 51
90.0
  0
ARC
  5
1DD
330
123
100
AcDbEntity
  8
0
  6
Continuous
 62
     7
370
    25
100
AcDbCircle
 10
-14.9015748031
 20
-7.9330708661
 30
0.0
 40
0.039370078740161
100
AcDbArc
 50
90.0
 51
180.0
  0
ARC
  5
1DE
330
123
100
AcDbEntity
  8
0
  6
Continuous
 62
     7
370
    25
100
AcDbCircle
 10
14.9015748031
 20
-8.1692913386
 30
0.0
 40
0.0393700787401592
100
AcDbArc
 50
270.0
 51
360.0
  0
ARC
  5
1DF
330
123
100
AcDbEntity
  8
0
  6
Continuous
 62
     7
370
    25
100
AcDbCircle
 10
-14.9015748031
 20
-8.1692913386
 30
0.0
 40
0.039370078740161
100
AcDbArc
 50
180.0
 51
270.0
  0
ARC
  5
1E0
330
123
100
AcDbEntity
  8
0
  6
Continuous
 62
     7
370
    25
100
AcDbCircle
 10
14.9015748031
 20
-7.9330708661
 30
0.0
 40
0.0393700787401592
100
AcDbArc
 50
0.0
 51
90.0
  0
ARC
  5
1E1
330
123
100
AcDbEntity
  8
0
  6
Continuous
 62
     7
370
    25
100
AcDbCircle
 10
14.9015748031
 20
-7.5393700787
 30
0.0
 40
0.0393700787401592
100
AcDbArc
 50
0.0
 51
90.0
  0
ARC
  5
1E2
330
123
100
AcDbEntity
  8
0
  6
Continuous
 62
     7
370
    25
100
AcDbCircle
 10
-14.9015748031
 20
-7.5393700787
 30
0.0
 40
0.039370078740161
100
AcDbArc
 50
90.0
 51
180.0
  0
VIEWPORT
  5
320
330
123
100
AcDbEntity
  8
0
100
AcDbViewport
 10
0.0
 20
0.0
 30
0.0
 40
8.4
 41
6.4
 68
     1
 69
     1
 12
3.937007874
 22
7.874015748
 13
0.0
 23
0.0
 14
0.5
 24
0.5
 15
0.5
 25
0.5
 16
0.0
 26
0.0
 36
1.0
 17
0.0
 27
0.0
 37
0.0
 42
50.0
 43
0.0
 44
0.0
 45
30.4431946007
 50
0.0
 51
0.0
 72
   100
 90
   557152
  1

281
     0
 71
     1
 74
     0
110
0.0
120
0.0
130
0.0
111
1.0
121
0.0
131
0.0
112
0.0
122
1.0
132
0.0
 79
     0
146
0.0
  0
ENDBLK
  5
126
330
123
100
AcDbEntity
  8
0
100
AcDbBlockEnd
  0
BLOCK
  5
1E5
330
1E3
100
AcDbEntity
  8
0
100
AcDbBlockBegin
  2
*Paper_Space2
 70
     0
 10
0.0
 20
0.0
 30
0.0
  3
*Paper_Space2
  1

  0
LWPOLYLINE
  5
221
330
1E3
100
AcDbEntity
  8
0
  6
Continuous
 62
     7
370
    25
100
AcDbPolyline
 90
       14
 70
   128
 43
0.0
 10
-17.2485555558
 20
14.0628558009
 10
-17.2531176457
 20
14.0718106377
 10
-17.2566182749
 20
14.0809986021
 10
-17.2589427619
 20
14.0901186947
 10
-17.2600149563
 20
14.0988721397
 10
-17.2597997327
 20
14.1069721725
 10
-17.2583041418
 20
14.1141534346
 10
-17.2555771796
 20
14.1201806664
 10
-17.2517081817
 20
14.1248564148
 10
-17.2468238974
 20
14.1280275013
 10
-17.2410843366
 20
14.1295900406
 10
-17.2346775285
 20
14.1294928436
 10
-17.2278133612
 20
14.1277390944
 10
-17.2207167061
 20
14.1243862463
  0
LWPOLYLINE
  5
223
330
1E3
100
AcDbEntity
  8
0
  6
Continuous
 62
     7
370
    25
100
AcDbPolyline
 90
       14
 70
   128
 43
0.0
 10
4.637556663
 20
1.4282721517
 10
4.6430307588
 20
1.4314332217
 10
4.6492375282
 20
1.4350172243
 10
4.6559736361
 20
1.4389067468
 10
4.6630184064
 20
1.4429743678
 10
4.6701410512
 20
1.4470868312
 10
4.6771082313
 20
1.4511094121
 10
4.6836917005
 20
1.4549103298
 10
4.6896757832
 20
1.4583650657
 10
4.6948644397
 20
1.4613604419
 10
4.6990876887
 20
1.4637983294
 10
4.7022071757
 20
1.4655988624
 10
4.7041207058
 20
1.4667030553
 10
4.7047655914
 20
1.4670747344
  0
LWPOLYLINE
  5
225
330
1E3
100
AcDbEntity
  8
0
  6
Continuous
 62
     7
370
    25
100
AcDbPolyline
 90
        9
 70
   128
 43
0.0
 10
4.637556663
 20
-9.9252318975
 10
4.646836586
 20
-9.9292050571
 10
4.6577147913
 20
-9.9314520249
 10
4.6692544552
 20
-9.9317792935
 10
4.6804617895
 20
-9.9301586788
 10
4.6903716262
 20
-9.9267297471
 10
4.6981305367
 20
-9.9217877957
 10
4.703070329
 20
-9.915758422
 10
4.7047655914
 20
-9.9091608717
  0
LWPOLYLINE
  5
241
330
1E3
100
AcDbEntity
  8
0
  6
Continuous
 62
     7
370
    25
100
AcDbPolyline
 90
       33
 70
   128
 43
0.0
 10
2.7421266908
 20
7.9987435867
 10
2.7472127437
 20
7.8276214244
 10
2.7624461237
 20
7.6514607205
 10
2.7877526152
 20
7.4711197122
 10
2.8230089275
 20
7.2874770026
 10
2.8680432955
 20
7.1014272806
 10
2.9226363163
 20
6.9138769618
 10
2.9865220181
 20
6.7257397725
 10
3.0593891562
 20
6.5379322982
 10
3.1408827293
 20
6.3513695179
 10
3.2306057088
 20
6.1669603468
 10
3.3281209735
 20
5.9856032078
 10
3.4329534386
 20
5.8081816548
 10
3.5445923711
 20
5.6355600675
 10
3.6624938773
 20
5.4685794412
 10
3.7860835528
 20
5.3080532886
 10
3.9147592812
 20
5.154763677
 10
4.0478941673
 20
5.0094574179
 10
4.1848395913
 20
4.8728424289
 10
4.3249283688
 20
4.7455842844
 10
4.4674780015
 20
4.6283029734
 10
4.6117940018
 20
4.5215698786
 10
4.7571732767
 20
4.4259049929
 10
4.9029075529
 20
4.341774386
 10
5.0482868278
 20
4.2695879337
 10
5.1926028281
 20
4.2096973213
 10
5.3351524608
 20
4.1623943297
 10
5.4752412383
 20
4.1279094144
 10
5.6121866623
 20
4.1064105825
 10
5.7453215484
 20
4.0980025739
 10
5.8739972768
 20
4.1027263519
 10
5.9975869523
 20
4.1205589024
 10
6.043037085
 20
4.1307429684
  0
LWPOLYLINE
  5
242
330
1E3
100
AcDbEntity
  8
0
  6
Continuous
 62
     7
370
    25
100
AcDbPolyline
 90
       10
 70
   128
 43
0.0
 10
6.5292616164
 20
4.4114344157
 10
6.6006916734
 20
4.4935818703
 10
6.6735588115
 20
4.5972587377
 10
6.7374445133
 20
4.7116350658
 10
6.7920375341
 20
4.8361536244
 10
6.8370719021
 20
4.9702077718
 10
6.8723282144
 20
5.1131444096
 10
6.8976347059
 20
5.2642671648
 10
6.9128680859
 20
5.4228397826
 10
6.9179541388
 20
5.5880897132
  0
LWPOLYLINE
  5
247
330
1E3
100
AcDbEntity
  8
0
  6
Continuous
 62
     7
370
    25
100
AcDbPolyline
 90
       33
 70
   128
 43
0.0
 10
6.5354381207
 20
4.417912064
 10
6.4986862461
 20
4.4098373673
 10
6.3750965705
 20
4.3920048167
 10
6.2464208421
 20
4.3872810388
 10
6.113285956
 20
4.3956890473
 10
5.976340532
 20
4.4171878793
 10
5.8362517545
 20
4.4516727946
 10
5.6937021218
 20
4.4989757861
 10
5.5493861216
 20
4.5588663986
 10
5.4040068467
 20
4.6310528508
 10
5.2582725704
 20
4.7151834577
 10
5.1128932955
 20
4.8108483434
 10
4.9685772953
 20
4.9175814382
 10
4.8260276626
 20
5.0348627493
 10
4.6859388851
 20
5.1621208937
 10
4.5489934611
 20
5.2987358827
 10
4.415858575
 20
5.4440421418
 10
4.2871828466
 20
5.5973317534
 10
4.163593171
 20
5.757857906
 10
4.0456916649
 20
5.9248385324
 10
3.9340527324
 20
6.0974601196
 10
3.8292202672
 20
6.2748816726
 10
3.7317050026
 20
6.4562388116
 10
3.6419820231
 20
6.6406479827
 10
3.56048845
 20
6.827210763
 10
3.4876213119
 20
7.0150182374
 10
3.4237356101
 20
7.2031554267
 10
3.3691425893
 20
7.3907057454
 10
3.3241082213
 20
7.5767554674
 10
3.2888519089
 20
7.760398177
 10
3.2635454174
 20
7.9407391854
 10
3.2483120375
 20
8.1168998893
 10
3.2432259846
 20
8.2880220515
  0
LWPOLYLINE
  5
25D
330
1E3
100
AcDbEntity
  8
0
  6
Continuous
 62
     8
370
    25
100
AcDbPolyline
 90
        7
 70
   128
 43
0.0
 10
-17.2763944054
 20
15.5749085631
 10
-17.287822936
 20
15.5758872173
 10
-17.2982672493
 20
15.5787388986
 10
-17.3068278879
 20
15.5832180224
 10
-17.3127676154
 20
15.5889388493
 10
-17.3155749065
 20
15.5954087057
 10
-17.3157644842
 20
15.5976364258
  0
LWPOLYLINE
  5
260
330
1E3
100
AcDbEntity
  8
0
  6
Continuous
 62
     8
370
    25
100
AcDbPolyline
 90
        7
 70
   128
 43
0.0
 10
-17.2763944054
 20
2.7802926918
 10
-17.287822936
 20
2.781271346
 10
-17.2982672493
 20
2.7841230273
 10
-17.3068278879
 20
2.7886021511
 10
-17.3127676154
 20
2.794322978
 10
-17.3155749065
 20
2.8007928344
 10
-17.3157644842
 20
2.8030205545
  0
LINE
  5
289
330
1E3
100
AcDbEntity
  8
0
  6
Continuous
 62
     7
370
    25
100
AcDbLine
 10
-17.2404001457
 20
2.6913263656
 30
0.0
 11
4.645712073
 21
-9.9432572836
 31
0.0
  0
LINE
  5
28A
330
1E3
100
AcDbEntity
  8
0
  6
Continuous
 62
     7
370
    25
100
AcDbLine
 10
-17.2600867849
 20
14.1016583836
 30
0.0
 11
-17.2600867849
 21
2.7254227775
 31
0.0
  0
LINE
  5
28B
330
1E3
100
AcDbEntity
  8
0
  6
Continuous
 62
     7
370
    25
100
AcDbLine
 10
-17.3157644842
 20
15.5976364258
 30
0.0
 11
-17.3157644842
 21
2.8030205545
 31
0.0
  0
LINE
  5
28C
330
1E3
100
AcDbEntity
  8
0
  6
Continuous
 62
     7
370
    25
100
AcDbLine
 10
-4.724449031
 20
22.889179673
 30
0.0
 11
-17.2960778451
 21
15.6317328377
 31
0.0
  0
LINE
  5
28D
330
1E3
100
AcDbEntity
  8
0
  6
Continuous
 62
     7
370
    25
100
AcDbLine
 10
-17.2763944054
 20
2.7636504758
 30
0.0
 11
-17.2600867849
 21
2.7636504758
 31
0.0
  0
LINE
  5
28E
330
1E3
100
AcDbEntity
  8
0
  6
Continuous
 62
     7
370
    25
100
AcDbLine
 10
-4.2199739182
 20
13.536106795
 30
0.0
 11
-4.2199739182
 21
22.5979468479
 31
0.0
  0
LINE
  5
28F
330
1E3
100
AcDbEntity
  8
0
  6
Continuous
 62
     7
370
    25
100
AcDbLine
 10
-4.2396605573
 20
22.6320432598
 30
0.0
 11
-4.6850821517
 21
22.889179673
 31
0.0
  0
LINE
  5
290
330
1E3
100
AcDbEntity
  8
0
  6
Continuous
 62
     7
370
    25
100
AcDbLine
 10
16.9063371494
 20
10.4019926083
 30
0.0
 11
4.7801299298
 21
3.4016821862
 31
0.0
  0
LINE
  5
291
330
1E3
100
AcDbEntity
  8
0
  6
Continuous
 62
     7
370
    25
100
AcDbLine
 10
17.3911256231
 20
10.1448561951
 30
0.0
 11
16.9457040287
 21
10.4019926083
 31
0.0
  0
LINE
  5
292
330
1E3
100
AcDbEntity
  8
0
  6
Continuous
 62
     7
370
    25
100
AcDbLine
 10
9.0741889471
 20
5.8805896919
 30
0.0
 11
-4.183982858
 21
13.5343693597
 31
0.0
  0
LINE
  5
293
330
1E3
100
AcDbEntity
  8
0
  6
Continuous
 62
     7
370
    25
100
AcDbLine
 10
-4.6884579708
 20
13.2431365346
 30
0.0
 11
-4.6884579708
 21
13.1562112196
 31
0.0
  0
LINE
  5
294
330
1E3
100
AcDbEntity
  8
0
  6
Continuous
 62
     7
370
    25
100
AcDbLine
 10
-4.2233497372
 20
13.5343693597
 30
0.0
 11
-4.6687713317
 21
13.2772329465
 31
0.0
  0
LINE
  5
295
330
1E3
100
AcDbEntity
  8
0
  6
Continuous
 62
     7
370
    25
100
AcDbLine
 10
4.7047655914
 20
-9.3987912245
 30
0.0
 11
4.740759851
 21
-9.4195702683
 31
0.0
  0
LINE
  5
296
330
1E3
100
AcDbEntity
  8
0
  6
Continuous
 62
     7
370
    25
100
AcDbLine
 10
4.9471598282
 20
3.5396645817
 30
0.0
 11
-16.1268493591
 21
15.70543113
 31
0.0
  0
LINE
  5
297
330
1E3
100
AcDbEntity
  8
0
  6
Continuous
 62
     7
370
    25
100
AcDbLine
 10
4.7047655914
 20
0.2453915931
 30
0.0
 11
4.740759851
 21
0.2246125493
 31
0.0
  0
LINE
  5
298
330
1E3
100
AcDbEntity
  8
0
  6
Continuous
 62
     7
370
    25
100
AcDbLine
 10
-16.3529359754
 20
15.5749085631
 30
0.0
 11
-16.3529359754
 21
13.6234270937
 31
0.0
  0
LINE
  5
299
330
1E3
100
AcDbEntity
  8
0
  6
Continuous
 62
     7
370
    25
100
AcDbLine
 10
-16.1662162384
 20
15.70543113
 30
0.0
 11
-16.3332493363
 21
15.609004975
 31
0.0
  0
LINE
  5
29A
330
1E3
100
AcDbEntity
  8
0
  6
Continuous
 62
     7
370
    25
100
AcDbLine
 10
-5.1084289113
 20
13.398655283
 30
0.0
 11
-8.6196961696
 21
11.3716438409
 31
0.0
  0
LINE
  5
29B
330
1E3
100
AcDbEntity
  8
0
  6
Continuous
 62
     7
370
    25
100
AcDbLine
 10
-4.6073296176
 20
13.1093768182
 30
0.0
 11
-5.1084289113
 21
13.398655283
 31
0.0
  0
LINE
  5
29C
330
1E3
100
AcDbEntity
  8
0
  6
Continuous
 62
     7
370
    25
100
AcDbLine
 10
-8.1185968759
 20
11.0823653761
 30
0.0
 11
-4.6073296176
 21
13.1093768182
 31
0.0
  0
LINE
  5
29D
330
1E3
100
AcDbEntity
  8
0
  6
Continuous
 62
     7
370
    25
100
AcDbLine
 10
-4.6073296176
 20
12.8200513336
 30
0.0
 11
-4.6073296176
 21
13.1093768182
 31
0.0
  0
LINE
  5
29E
330
1E3
100
AcDbEntity
  8
0
  6
Continuous
 62
     7
370
    25
100
AcDbLine
 10
-5.640536535
 20
9.6518115915
 30
0.0
 11
-5.1084289113
 21
9.9589907841
 31
0.0
  0
LINE
  5
29F
330
1E3
100
AcDbEntity
  8
0
  6
Continuous
 62
     7
370
    25
100
AcDbLine
 10
10.3282132213
 20
-13.2425252784
 30
0.0
 11
22.9948898134
 21
-5.9302085288
 31
0.0
  0
LINE
  5
2A0
330
1E3
100
AcDbEntity
  8
0
  6
Continuous
 62
     7
370
    25
100
AcDbLine
 10
10.3282132213
 20
-13.2425252784
 30
0.0
 11
10.3282132213
 21
-0.383614855
 31
0.0
  0
LINE
  5
2A1
330
1E3
100
AcDbEntity
  8
0
  6
Continuous
 62
     7
370
    25
100
AcDbLine
 10
10.3282132213
 20
-0.383614855
 30
0.0
 11
22.9948898134
 21
6.9287018946
 31
0.0
  0
LINE
  5
2A2
330
1E3
100
AcDbEntity
  8
0
  6
Continuous
 62
     7
370
    25
100
AcDbLine
 10
22.9948898134
 20
-5.9302085288
 30
0.0
 11
22.9948898134
 21
6.9287018946
 31
0.0
  0
LINE
  5
2A3
330
1E3
100
AcDbEntity
  8
0
  6
Continuous
 62
     7
370
    25
100
AcDbLine
 10
9.8827916268
 20
-12.4710324483
 30
0.0
 11
9.8827916268
 21
-0.6408348587
 31
0.0
  0
LINE
  5
2A4
330
1E3
100
AcDbEntity
  8
0
  6
Continuous
 62
     7
370
    25
100
AcDbLine
 10
9.8827916268
 20
-0.6408348587
 30
0.0
 11
5.2058648851
 21
2.0590974796
 31
0.0
  0
LINE
  5
2A5
330
1E3
100
AcDbEntity
  8
0
  6
Continuous
 62
     7
370
    25
100
AcDbLine
 10
5.2058648851
 20
2.0590974796
 30
0.0
 11
5.2058648851
 21
-9.77110011
 31
0.0
  0
LINE
  5
2A6
330
1E3
100
AcDbEntity
  8
0
  6
Continuous
 62
     7
370
    25
100
AcDbLine
 10
5.2058648851
 20
-9.77110011
 30
0.0
 11
9.8827916268
 21
-12.4710324483
 31
0.0
  0
LINE
  5
2A7
330
1E3
100
AcDbEntity
  8
0
  6
Continuous
 62
     7
370
    25
100
AcDbLine
 10
4.7604432907
 20
-10.0283201137
 30
0.0
 11
10.3282132213
 21
-13.2425252784
 31
0.0
  0
LINE
  5
2A8
330
1E3
100
AcDbEntity
  8
0
  6
Continuous
 62
     7
370
    25
100
AcDbLine
 10
4.7604432907
 20
3.3675857743
 30
0.0
 11
4.7604432907
 21
-10.0283201137
 31
0.0
  0
LINE
  5
2A9
330
1E3
100
AcDbEntity
  8
0
  6
Continuous
 62
     7
370
    25
100
AcDbLine
 10
10.3282132213
 20
-0.383614855
 30
0.0
 11
4.7604432907
 21
2.8305903097
 31
0.0
  0
LINE
  5
2AA
330
1E3
100
AcDbEntity
  8
0
  6
Continuous
 62
     7
370
    25
100
AcDbLine
 10
4.7604432907
 20
2.8305903097
 30
0.0
 11
17.4271198828
 21
10.1429070593
 31
0.0
  0
LINE
  5
2AB
330
1E3
100
AcDbEntity
  8
0
  6
Continuous
 62
     7
370
    25
100
AcDbLine
 10
22.9948898134
 20
6.9287018946
 30
0.0
 11
17.4271198828
 21
10.1429070593
 31
0.0
  0
LINE
  5
2AC
330
1E3
100
AcDbEntity
  8
0
  6
Continuous
 62
     7
370
    25
100
AcDbLine
 10
5.2058648851
 20
-9.77110011
 30
0.0
 11
9.8827916268
 21
-7.0711677717
 31
0.0
  0
LINE
  5
2AD
330
1E3
100
AcDbEntity
  8
0
  6
Continuous
 62
     7
370
    25
100
AcDbLine
 10
9.8827916268
 20
-0.8988907684
 30
0.0
 11
5.2058648851
 21
-3.5988231067
 31
0.0
  0
LINE
  5
2AE
330
1E3
100
AcDbEntity
  8
0
  6
Continuous
 62
     7
370
    25
100
AcDbLine
 10
9.8827916268
 20
-6.298755445
 30
0.0
 11
5.2058648851
 21
-3.5988231067
 31
0.0
  0
LINE
  5
2AF
330
1E3
100
AcDbEntity
  8
0
  6
Continuous
 62
     7
370
    25
100
AcDbLine
 10
9.8827916268
 20
-6.813111862
 30
0.0
 11
5.2058648851
 21
-4.1131795237
 31
0.0
  0
LINE
  5
2B0
330
1E3
100
AcDbEntity
  8
0
  6
Continuous
 62
     7
370
    25
100
AcDbLine
 10
4.637556663
 20
1.4282721517
 30
0.0
 11
-17.2485555558
 21
14.0628558009
 31
0.0
  0
LINE
  5
2B1
330
1E3
100
AcDbEntity
  8
0
  6
Continuous
 62
     7
370
    25
100
AcDbLine
 10
-17.2207167061
 20
14.1243862463
 30
0.0
 11
4.7047655914
 21
1.4670747344
 31
0.0
  0
LINE
  5
2B2
330
1E3
100
AcDbEntity
  8
0
  6
Continuous
 62
     7
370
    25
100
AcDbLine
 10
4.7047655914
 20
1.4670747344
 30
0.0
 11
4.7047655914
 21
-9.9091608717
 31
0.0
  0
LINE
  5
2B3
330
1E3
100
AcDbEntity
  8
0
  6
Continuous
 62
     7
370
    25
100
AcDbLine
 10
4.637556663
 20
-9.9252318975
 30
0.0
 11
4.637556663
 21
1.4282721517
 31
0.0
  0
LINE
  5
2B4
330
1E3
100
AcDbEntity
  8
0
  6
Continuous
 62
     7
370
    25
100
AcDbLine
 10
-17.2485555558
 20
2.7093517517
 30
0.0
 11
4.637556663
 21
-9.9252318975
 31
0.0
  0
LINE
  5
2B5
330
1E3
100
AcDbEntity
  8
0
  6
Continuous
 62
     7
370
    25
100
AcDbLine
 10
-17.2485555558
 20
14.0628558009
 30
0.0
 11
-17.2485555558
 21
2.7093517517
 31
0.0
  0
LINE
  5
2B6
330
1E3
100
AcDbEntity
  8
0
  6
Continuous
 62
     7
370
    25
100
AcDbLine
 10
-17.2763944054
 20
15.6297837019
 30
0.0
 11
-16.3855512165
 21
15.6297837019
 31
0.0
  0
LINE
  5
2B7
330
1E3
100
AcDbEntity
  8
0
  6
Continuous
 62
     7
370
    25
100
AcDbLine
 10
-16.3855512165
 20
13.6422554716
 30
0.0
 11
-16.3855512165
 21
15.6297837019
 31
0.0
  0
LINE
  5
2B8
330
1E3
100
AcDbEntity
  8
0
  6
Continuous
 62
     7
370
    25
100
AcDbLine
 10
-16.3855512165
 20
15.5749085631
 30
0.0
 11
-17.2763944054
 21
15.5749085631
 31
0.0
  0
LINE
  5
2B9
330
1E3
100
AcDbEntity
  8
0
  6
Continuous
 62
     7
370
    25
100
AcDbLine
 10
-17.2763944054
 20
15.6297837019
 30
0.0
 11
-17.2763944054
 21
2.7636504758
 31
0.0
  0
LINE
  5
2BA
330
1E3
100
AcDbEntity
  8
0
  6
Continuous
 62
     7
370
    25
100
AcDbLine
 10
-4.7047655914
 20
22.8872305371
 30
0.0
 11
-17.2763944054
 21
15.6297837019
 31
0.0
  0
LINE
  5
2BB
330
1E3
100
AcDbEntity
  8
0
  6
Continuous
 62
     7
370
    25
100
AcDbLine
 10
-4.2593439969
 20
22.630094124
 30
0.0
 11
-4.7047655914
 21
22.8872305371
 31
0.0
  0
LINE
  5
2BC
330
1E3
100
AcDbEntity
  8
0
  6
Continuous
 62
     7
370
    25
100
AcDbLine
 10
-16.3855512165
 20
15.6297837019
 30
0.0
 11
-4.2593439969
 21
22.630094124
 31
0.0
  0
LINE
  5
2BD
330
1E3
100
AcDbEntity
  8
0
  6
Continuous
 62
     7
370
    25
100
AcDbLine
 10
4.7998133694
 20
2.885460224
 30
0.0
 11
17.3714421835
 21
10.1429070593
 31
0.0
  0
LINE
  5
2BE
330
1E3
100
AcDbEntity
  8
0
  6
Continuous
 62
     7
370
    25
100
AcDbLine
 10
4.7998133694
 20
3.3997330503
 30
0.0
 11
4.7998133694
 21
2.885460224
 31
0.0
  0
LINE
  5
2BF
330
1E3
100
AcDbEntity
  8
0
  6
Continuous
 62
     7
370
    25
100
AcDbLine
 10
16.926020589
 20
10.4000434724
 30
0.0
 11
4.7998133694
 21
3.3997330503
 31
0.0
  0
LINE
  5
2C0
330
1E3
100
AcDbEntity
  8
0
  6
Continuous
 62
     7
370
    25
100
AcDbLine
 10
17.3714421835
 20
10.1429070593
 30
0.0
 11
16.926020589
 21
10.4000434724
 31
0.0
  0
LINE
  5
2C1
330
1E3
100
AcDbEntity
  8
0
  6
Continuous
 62
     7
370
    25
100
AcDbLine
 10
-4.2036662976
 20
13.5324202238
 30
0.0
 11
-4.6490878921
 21
13.2752838106
 31
0.0
  0
LINE
  5
2C2
330
1E3
100
AcDbEntity
  8
0
  6
Continuous
 62
     7
370
    25
100
AcDbLine
 10
-5.1084289113
 20
9.9589907841
 30
0.0
 11
5.5152617115
 21
3.8260647306
 31
0.0
  0
LINE
  5
2C3
330
1E3
100
AcDbEntity
  8
0
  6
Continuous
 62
     7
370
    25
100
AcDbLine
 10
-5.1084289113
 20
12.5307728688
 30
0.0
 11
-5.1084289113
 21
9.9589907841
 31
0.0
  0
LINE
  5
2C4
330
1E3
100
AcDbEntity
  8
0
  6
Continuous
 62
     7
370
    25
100
AcDbLine
 10
-5.1084289113
 20
12.5307728688
 30
0.0
 11
2.7421266908
 21
7.9987435867
 31
0.0
  0
LINE
  5
2C5
330
1E3
100
AcDbEntity
  8
0
  6
Continuous
 62
     7
370
    25
100
AcDbLine
 10
6.9179541388
 20
5.5880897132
 30
0.0
 11
7.7427316809
 21
5.1119557729
 31
0.0
  0
LINE
  5
2C6
330
1E3
100
AcDbEntity
  8
0
  6
Continuous
 62
     7
370
    25
100
AcDbLine
 10
8.2438309746
 20
5.4012342377
 30
0.0
 11
7.4190534325
 21
5.877368178
 31
0.0
  0
LINE
  5
2C7
330
1E3
100
AcDbEntity
  8
0
  6
Continuous
 62
     7
370
    25
100
AcDbLine
 10
6.9179541388
 20
5.5880897132
 30
0.0
 11
7.4190534325
 21
5.877368178
 31
0.0
  0
LINE
  5
2C8
330
1E3
100
AcDbEntity
  8
0
  6
Continuous
 62
     7
370
    25
100
AcDbLine
 10
3.2432259846
 20
8.2880220515
 30
0.0
 11
2.7421266908
 21
7.9987435867
 31
0.0
  0
LINE
  5
2C9
330
1E3
100
AcDbEntity
  8
0
  6
Continuous
 62
     7
370
    25
100
AcDbLine
 10
-4.6073296176
 20
12.8200513336
 30
0.0
 11
-5.1084289113
 21
12.5307728688
 31
0.0
  0
LINE
  5
2CA
330
1E3
100
AcDbEntity
  8
0
  6
Continuous
 62
     7
370
    25
100
AcDbLine
 10
3.2432259846
 20
8.2880220515
 30
0.0
 11
-4.6073296176
 21
12.8200513336
 31
0.0
  0
LINE
  5
2CB
330
1E3
100
AcDbEntity
  8
0
  6
Continuous
 62
     7
370
    25
100
AcDbLine
 10
4.732604441
 20
-9.4015448822
 30
0.0
 11
4.732604441
 21
-8.8871884653
 31
0.0
  0
LINE
  5
2CC
330
1E3
100
AcDbEntity
  8
0
  6
Continuous
 62
     7
370
    25
100
AcDbLine
 10
4.7047655914
 20
-8.4183108354
 30
0.0
 11
4.7604432907
 21
-8.3861687837
 31
0.0
  0
LINE
  5
2CD
330
1E3
100
AcDbEntity
  8
0
  6
Continuous
 62
     7
370
    25
100
AcDbLine
 10
4.7047655914
 20
-5.0428468492
 30
0.0
 11
4.7604432907
 21
-5.0107047976
 31
0.0
  0
LINE
  5
2CE
330
1E3
100
AcDbEntity
  8
0
  6
Continuous
 62
     7
370
    25
100
AcDbLine
 10
4.7604432907
 20
-4.4321478679
 30
0.0
 11
4.7047655914
 21
-4.4642899196
 31
0.0
  0
LINE
  5
2CF
330
1E3
100
AcDbEntity
  8
0
  6
Continuous
 62
     7
370
    25
100
AcDbLine
 10
4.732604441
 20
0.2426379353
 30
0.0
 11
4.732604441
 21
3.3930709891
 31
0.0
  0
LINE
  5
2D0
330
1E3
100
AcDbEntity
  8
0
  6
Continuous
 62
     7
370
    25
100
AcDbLine
 10
-16.3135658967
 20
15.6070558392
 30
0.0
 11
4.7604432907
 21
3.441289291
 31
0.0
  0
LINE
  5
2D1
330
1E3
100
AcDbEntity
  8
0
  6
Continuous
 62
     7
370
    25
100
AcDbLine
 10
4.732604441
 20
3.3930709891
 30
0.0
 11
-16.3414047463
 21
15.5588375373
 31
0.0
  0
LINE
  5
2D2
330
1E3
100
AcDbEntity
  8
0
  6
Continuous
 62
     7
370
    25
100
AcDbLine
 10
4.7604432907
 20
3.441289291
 30
0.0
 11
4.9274763886
 21
3.5377154459
 31
0.0
  0
LINE
  5
2D3
330
1E3
100
AcDbEntity
  8
0
  6
Continuous
 62
     7
370
    25
100
AcDbLine
 10
-16.1465327987
 20
15.7034819941
 30
0.0
 11
-16.3135658967
 21
15.6070558392
 31
0.0
  0
LINE
  5
2D4
330
1E3
100
AcDbEntity
  8
0
  6
Continuous
 62
     7
370
    25
100
AcDbLine
 10
4.9274763886
 20
3.5377154459
 30
0.0
 11
-16.1465327987
 21
15.7034819941
 31
0.0
  0
LINE
  5
2D5
330
1E3
100
AcDbEntity
  8
0
  6
Continuous
 62
     8
370
    25
100
AcDbLine
 10
-17.2763944054
 20
2.7802926918
 30
0.0
 11
-17.2600867849
 21
2.7802926918
 31
0.0
  0
LINE
  5
2D6
330
1E3
100
AcDbEntity
  8
0
  6
Continuous
 62
     8
370
    25
100
AcDbLine
 10
-4.2315051473
 20
22.5818758221
 30
0.0
 11
-16.136338198
 21
15.7093619874
 31
0.0
  0
LINE
  5
2D7
330
1E3
100
AcDbEntity
  8
0
  6
Continuous
 62
     8
370
    25
100
AcDbLine
 10
-16.3515948224
 20
15.5850969832
 30
0.0
 11
-16.3577123669
 21
15.5815654
 31
0.0
  0
LINE
  5
2D8
330
1E3
100
AcDbEntity
  8
0
  6
Continuous
 62
     8
370
    25
100
AcDbLine
 10
-16.3577123669
 20
15.5815654
 30
0.0
 11
-16.3577123669
 21
13.6261844458
 31
0.0
  0
LINE
  5
2D9
330
1E3
100
AcDbEntity
  8
0
  6
Continuous
 62
     8
370
    25
100
AcDbLine
 10
-4.2315051473
 20
13.5296613417
 30
0.0
 11
-4.2315051473
 21
22.5818758221
 31
0.0
  0
LINE
  5
2DA
330
1E3
100
AcDbEntity
  8
0
  6
Continuous
 62
     8
370
    25
100
AcDbLine
 10
8.5615552245
 20
5.584652543
 30
0.0
 11
-4.6769267417
 21
13.2270655088
 31
0.0
  0
LINE
  5
2DB
330
1E3
100
AcDbEntity
  8
0
  6
Continuous
 62
     8
370
    25
100
AcDbLine
 10
-4.6490878921
 20
13.2752838106
 30
0.0
 11
8.6172374488
 21
5.6167972069
 31
0.0
  0
LINE
  5
2DC
330
1E3
100
AcDbEntity
  8
0
  6
Continuous
 62
     8
370
    25
100
AcDbLine
 10
-4.6769267417
 20
13.2270655088
 30
0.0
 11
-4.6769267417
 21
13.1495543827
 31
0.0
  0
LINE
  5
2DD
330
1E3
100
AcDbEntity
  8
0
  6
Continuous
 62
     8
370
    25
100
AcDbLine
 10
9.0626590432
 20
5.87393362
 30
0.0
 11
-4.2036662976
 21
13.5324202238
 31
0.0
  0
LINE
  5
2DE
330
1E3
100
AcDbEntity
  8
0
  6
Continuous
 62
     8
370
    25
100
AcDbLine
 10
4.732604441
 20
-8.8871884653
 30
0.0
 11
4.7047655914
 21
-8.8711174394
 31
0.0
  0
LINE
  5
2DF
330
1E3
100
AcDbEntity
  8
0
  6
Continuous
 62
     8
370
    25
100
AcDbLine
 10
4.7047655914
 20
-8.8068281117
 30
0.0
 11
4.7604432907
 21
-8.8389701634
 31
0.0
  0
LINE
  5
2E0
330
1E3
100
AcDbEntity
  8
0
  6
Continuous
 62
     8
370
    25
100
AcDbLine
 10
4.7047655914
 20
-9.3854738564
 30
0.0
 11
4.732604441
 21
-9.4015448822
 31
0.0
  0
LINE
  5
2E1
330
1E3
100
AcDbEntity
  8
0
  6
Continuous
 62
     8
370
    25
100
AcDbLine
 10
-16.3414047463
 20
15.5588375373
 30
0.0
 11
-16.3414047463
 21
13.6167702568
 31
0.0
  0
LINE
  5
2E2
330
1E3
100
AcDbEntity
  8
0
  6
Continuous
 62
     8
370
    25
100
AcDbLine
 10
4.7047655914
 20
0.2587089612
 30
0.0
 11
4.732604441
 21
0.2426379353
 31
0.0
  0
ARC
  5
2E3
330
1E3
100
AcDbEntity
  8
0
  6
Continuous
 62
     7
370
    25
100
AcDbCircle
 10
4.6653955126
 20
-9.9091608717
 30
0.0
 40
0.0393700787401577
100
AcDbArc
 50
240.0026882664
 51
0.0
  0
ARC
  5
2E4
330
1E3
100
AcDbEntity
  8
0
  6
Continuous
 62
     7
370
    25
100
AcDbCircle
 10
-17.2207167061
 20
2.7254227775
 30
0.0
 40
0.0393700787401627
100
AcDbArc
 50
180.0
 51
240.0026882664
  0
ARC
  5
2E5
330
1E3
100
AcDbEntity
  8
0
  6
Continuous
 62
     7
370
    25
100
AcDbCircle
 10
-17.2763944054
 20
15.5976364258
 30
0.0
 40
0.0393700787401556
100
AcDbArc
 50
119.9973117336
 51
180.0
  0
ARC
  5
2E6
330
1E3
100
AcDbEntity
  8
0
  6
Continuous
 62
     7
370
    25
100
AcDbCircle
 10
-17.2763944054
 20
2.8030205545
 30
0.0
 40
0.0393700787401592
100
AcDbArc
 50
180.0
 51
270.0
  0
ARC
  5
2E7
330
1E3
100
AcDbEntity
  8
0
  6
Continuous
 62
     7
370
    25
100
AcDbCircle
 10
-4.2593439969
 20
22.5979468479
 30
0.0
 40
0.0393700787401506
100
AcDbArc
 50
360.0
 51
60.0026882664
  0
ARC
  5
2E8
330
1E3
100
AcDbEntity
  8
0
  6
Continuous
 62
     7
370
    25
100
AcDbCircle
 10
-4.7047655914
 20
22.8550832611
 30
0.0
 40
0.0393700787401801
100
AcDbArc
 50
60.0026882664
 51
119.9973117336
  0
ARC
  5
2E9
330
1E3
100
AcDbEntity
  8
0
  6
Continuous
 62
     7
370
    25
100
AcDbCircle
 10
4.7998133694
 20
3.3675857743
 30
0.0
 40
0.0393700787401716
100
AcDbArc
 50
119.9973117337
 51
180.0
  0
ARC
  5
2EA
330
1E3
100
AcDbEntity
  8
0
  6
Continuous
 62
     7
370
    25
100
AcDbCircle
 10
17.3714421835
 20
10.1107597832
 30
0.0
 40
0.0393700787401524
100
AcDbArc
 50
30.0038964361
 51
60.0026882664
  0
ARC
  5
2EB
330
1E3
100
AcDbEntity
  8
0
  6
Continuous
 62
     7
370
    25
100
AcDbCircle
 10
16.926020589
 20
10.3678961964
 30
0.0
 40
0.0393700787401507
100
AcDbArc
 50
60.0026882663
 51
119.9973117336
  0
ARC
  5
2EC
330
1E3
100
AcDbEntity
  8
0
  6
Continuous
 62
     7
370
    25
100
AcDbCircle
 10
-4.6490878921
 20
13.2431365346
 30
0.0
 40
0.0393700787401494
100
AcDbArc
 50
119.9973117336
 51
180.0
  0
ARC
  5
2ED
330
1E3
100
AcDbEntity
  8
0
  6
Continuous
 62
     7
370
    25
100
AcDbCircle
 10
-4.2036662976
 20
13.5002729478
 30
0.0
 40
0.0393700787401709
100
AcDbArc
 50
60.0026882664
 51
119.9973117336
  0
ARC
  5
2EE
330
1E3
100
AcDbEntity
  8
0
  6
Continuous
 62
     7
370
    25
100
AcDbCircle
 10
4.7604432907
 20
-9.3854738564
 30
0.0
 40
0.0393700787401663
100
AcDbArc
 50
240.0026882664
 51
270.0
  0
ARC
  5
2EF
330
1E3
100
AcDbEntity
  8
0
  6
Continuous
 62
     7
370
    25
100
AcDbCircle
 10
4.9274763886
 20
3.5055681698
 30
0.0
 40
0.0393700787401467
100
AcDbArc
 50
5.5347458071
 51
60.0026882664
  0
ARC
  5
2F0
330
1E3
100
AcDbEntity
  8
0
  6
Continuous
 62
     7
370
    25
100
AcDbCircle
 10
4.7604432907
 20
0.2587089612
 30
0.0
 40
0.0393700787401376
100
AcDbArc
 50
240.0026882663
 51
270.0
  0
ARC
  5
2F1
330
1E3
100
AcDbEntity
  8
0
  6
Continuous
 62
     7
370
    25
100
AcDbCircle
 10
-16.3135658967
 20
15.5749085631
 30
0.0
 40
0.0393700787401592
100
AcDbArc
 50
119.9973117336
 51
180.0
  0
ARC
  5
2F2
330
1E3
100
AcDbEntity
  8
0
  6
Continuous
 62
     7
370
    25
100
AcDbCircle
 10
-16.1465327987
 20
15.6713347181
 30
0.0
 40
0.0393700787401768
100
AcDbArc
 50
60.0026882664
 51
119.9973117336
  0
ARC
  5
2F3
330
1E3
100
AcDbEntity
  8
0
  6
Continuous
 62
     7
370
    25
100
AcDbCircle
 10
-16.3844169513
 20
15.6317044379
 30
0.0
 40
0.0568071998465486
100
AcDbArc
 50
268.8559032542
 51
298.0402391154
  0
ARC
  5
2F4
330
1E3
100
AcDbEntity
  8
0
  6
Continuous
 62
     7
370
    25
100
AcDbCircle
 10
-16.4181539457
 20
15.5788149727
 30
0.0
 40
0.0605041262823635
100
AcDbArc
 50
2.6054784857
 51
57.39452166
  0
ARC
  5
2F5
330
1E3
100
AcDbEntity
  8
0
  6
Continuous
 62
     7
370
    25
100
AcDbCircle
 10
-4.2919467261
 20
22.5791253948
 30
0.0
 40
0.0605041262823701
100
AcDbArc
 50
2.6054784857
 51
57.39452166
  0
ARC
  5
2F6
330
1E3
100
AcDbEntity
  8
0
  6
Continuous
 62
     7
370
    25
100
AcDbCircle
 10
4.7965332404
 20
2.8492958444
 30
0.0
 40
0.0363128296282997
100
AcDbArc
 50
84.8174221345
 51
173.6486598634
  0
ARC
  5
2F7
330
1E3
100
AcDbEntity
  8
0
  6
Continuous
 62
     7
370
    25
100
AcDbCircle
 10
4.7965332404
 20
3.3635686708
 30
0.0
 40
0.0363128296283025
100
AcDbArc
 50
84.8174221345
 51
173.6486598634
  0
ARC
  5
2F8
330
1E3
100
AcDbEntity
  8
0
  6
Continuous
 62
     7
370
    25
100
AcDbCircle
 10
-4.6164851629
 20
13.2243150815
 30
0.0
 40
0.0605041262823506
100
AcDbArc
 50
122.60547834
 51
177.3945215144
  0
ARC
  5
2F9
330
1E3
100
AcDbEntity
  8
0
  6
Continuous
 62
     7
370
    25
100
AcDbCircle
 10
4.7930460198
 20
-8.8899388925
 30
0.0
 40
0.0605041262823652
100
AcDbArc
 50
122.60547834
 51
177.3945215143
  0
ARC
  5
2FA
330
1E3
100
AcDbEntity
  8
0
  6
Continuous
 62
     7
370
    25
100
AcDbCircle
 10
4.7930460198
 20
3.3903205618
 30
0.0
 40
0.0605041262823688
100
AcDbArc
 50
122.60547834
 51
177.3945215143
  0
ARC
  5
2FB
330
1E3
100
AcDbEntity
  8
0
  6
Continuous
 62
     7
370
    25
100
AcDbCircle
 10
-16.2809631675
 20
15.55608711
 30
0.0
 40
0.0605041262823574
100
AcDbArc
 50
122.60547834
 51
177.3945215143
  0
ARC
  5
2FC
330
1E3
100
AcDbEntity
  8
0
  6
Continuous
 62
     8
370
    25
100
AcDbCircle
 10
4.6567926602
 20
-9.9273863691
 30
0.0
 40
0.0193562738972936
100
AcDbArc
 50
173.6093872136
 51
235.078432393
  0
ARC
  5
2FD
330
1E3
100
AcDbEntity
  8
0
  6
Continuous
 62
     8
370
    25
100
AcDbCircle
 10
-17.2293195585
 20
2.7071972801
 30
0.0
 40
0.0193562738973195
100
AcDbArc
 50
173.6093872137
 51
235.0784323929
  0
ARC
  5
2FE
330
1E3
100
AcDbEntity
  8
0
  6
Continuous
 62
     8
370
    25
100
AcDbCircle
 10
-17.2408067271
 20
2.727084103
 30
0.0
 40
0.0193515019933934
100
AcDbArc
 50
184.9249021695
 51
246.3952387881
  0
ARC
  5
2FF
330
1E3
100
AcDbEntity
  8
0
  6
Continuous
 62
     8
370
    25
100
AcDbCircle
 10
-17.2879266911
 20
15.6136860117
 30
0.0
 40
0.0198022533819551
100
AcDbArc
 50
54.3824225248
 51
114.3071190461
  0
ARC
  5
300
330
1E3
100
AcDbEntity
  8
0
  6
Continuous
 62
     8
370
    25
100
AcDbCircle
 10
-4.716297877
 20
22.871132847
 30
0.0
 40
0.0198022533819484
100
AcDbArc
 50
54.3824225248
 51
114.3071190461
  0
ARC
  5
301
330
1E3
100
AcDbEntity
  8
0
  6
Continuous
 62
     8
370
    25
100
AcDbCircle
 10
-4.2396769521
 20
22.5999116659
 30
0.0
 40
0.0198007589958127
100
AcDbArc
 50
294.3746582936
 51
354.3052007488
  0
ARC
  5
302
330
1E3
100
AcDbEntity
  8
0
  6
Continuous
 62
     8
370
    25
100
AcDbCircle
 10
-4.2478117113
 20
22.6139964338
 30
0.0
 40
0.0198022533819512
100
AcDbArc
 50
65.6928809539
 51
125.6175774752
  0
ARC
  5
303
330
1E3
100
AcDbEntity
  8
0
  6
Continuous
 62
     8
370
    25
100
AcDbCircle
 10
-4.6932333057
 20
22.871132847
 30
0.0
 40
0.0198022533819597
100
AcDbArc
 50
65.6928809539
 51
125.6175774752
  0
ARC
  5
304
330
1E3
100
AcDbEntity
  8
0
  6
Continuous
 62
     8
370
    25
100
AcDbCircle
 10
4.7805539234
 20
2.855570788
 30
0.0
 40
0.0202369808157286
100
AcDbArc
 50
186.4058275526
 51
244.9018361571
  0
ARC
  5
305
330
1E3
100
AcDbEntity
  8
0
  6
Continuous
 62
     8
370
    25
100
AcDbCircle
 10
4.769754294
 20
2.8372707752
 30
0.0
 40
0.0567958712324548
100
AcDbArc
 50
28.8567998288
 51
58.0453714773
  0
ARC
  5
306
330
1E3
100
AcDbEntity
  8
0
  6
Continuous
 62
     8
370
    25
100
AcDbCircle
 10
17.3413831081
 20
10.0947176105
 30
0.0
 40
0.0567958712325525
100
AcDbArc
 50
28.8567998288
 51
58.0453714773
  0
ARC
  5
307
330
1E3
100
AcDbEntity
  8
0
  6
Continuous
 62
     8
370
    25
100
AcDbCircle
 10
4.7882810838
 20
3.3836353602
 30
0.0
 40
0.0198022533819633
100
AcDbArc
 50
54.3824225248
 51
114.3071190461
  0
ARC
  5
308
330
1E3
100
AcDbEntity
  8
0
  6
Continuous
 62
     8
370
    25
100
AcDbCircle
 10
16.9144883034
 20
10.3839457823
 30
0.0
 40
0.0198022533819506
100
AcDbArc
 50
54.3824225248
 51
114.3071190461
  0
ARC
  5
309
330
1E3
100
AcDbEntity
  8
0
  6
Continuous
 62
     8
370
    25
100
AcDbCircle
 10
17.3829744691
 20
10.1268093691
 30
0.0
 40
0.0198022533819729
100
AcDbArc
 50
65.6928809539
 51
125.6175774752
  0
ARC
  5
30A
330
1E3
100
AcDbEntity
  8
0
  6
Continuous
 62
     8
370
    25
100
AcDbCircle
 10
16.9375528747
 20
10.3839457823
 30
0.0
 40
0.0198022533819556
100
AcDbArc
 50
65.6928809539
 51
125.6175774752
  0
ARC
  5
30B
330
1E3
100
AcDbEntity
  8
0
  6
Continuous
 62
     8
370
    25
100
AcDbCircle
 10
-4.192134012
 20
13.5163225337
 30
0.0
 40
0.0198022533819628
100
AcDbArc
 50
65.6928809539
 51
125.6175774752
  0
ARC
  5
30C
330
1E3
100
AcDbEntity
  8
0
  6
Continuous
 62
     8
370
    25
100
AcDbCircle
 10
-4.6687549368
 20
13.2451013526
 30
0.0
 40
0.0198007589958184
100
AcDbArc
 50
185.6947992512
 51
245.6253417064
  0
ARC
  5
30D
330
1E3
100
AcDbEntity
  8
0
  6
Continuous
 62
     8
370
    25
100
AcDbCircle
 10
-4.6606201777
 20
13.2591861205
 30
0.0
 40
0.0198022533819596
100
AcDbArc
 50
54.3824225248
 51
114.3071190461
  0
ARC
  5
30E
330
1E3
100
AcDbEntity
  8
0
  6
Continuous
 62
     8
370
    25
100
AcDbCircle
 10
-4.2151985832
 20
13.5163225337
 30
0.0
 40
0.0198022533819564
100
AcDbArc
 50
54.3824225248
 51
114.3071190461
  0
ARC
  5
30F
330
1E3
100
AcDbEntity
  8
0
  6
Continuous
 62
     8
370
    25
100
AcDbCircle
 10
4.7593090254
 20
-8.8370494273
 30
0.0
 40
0.0568071998465151
100
AcDbArc
 50
241.9597608846
 51
271.1440967458
  0
ARC
  5
310
330
1E3
100
AcDbEntity
  8
0
  6
Continuous
 62
     8
370
    25
100
AcDbCircle
 10
4.7593090254
 20
-9.3514058442
 30
0.0
 40
0.0568071998465416
100
AcDbArc
 50
241.9597608846
 51
271.1440967458
  0
ARC
  5
311
330
1E3
100
AcDbEntity
  8
0
  6
Continuous
 62
     8
370
    25
100
AcDbCircle
 10
4.7518958545
 20
-9.4036742813
 30
0.0
 40
0.0194085799146812
100
AcDbArc
 50
173.7011524699
 51
234.9866671367
  0
ARC
  5
312
330
1E3
100
AcDbEntity
  8
0
  6
Continuous
 62
     8
370
    25
100
AcDbCircle
 10
4.7265674693
 20
3.3892827369
 30
0.0
 40
0.062066520266148
100
AcDbArc
 50
15.019743397
 51
56.9207443129
  0
ARC
  5
313
330
1E3
100
AcDbEntity
  8
0
  6
Continuous
 62
     8
370
    25
100
AcDbCircle
 10
4.7600483328
 20
3.4457828011
 30
0.0
 40
0.0594281274013453
100
AcDbArc
 50
242.4966996037
 51
275.102636346
  0
ARC
  5
314
330
1E3
100
AcDbEntity
  8
0
  6
Continuous
 62
     8
370
    25
100
AcDbCircle
 10
4.7593090254
 20
0.2927769733
 30
0.0
 40
0.0568071998465449
100
AcDbArc
 50
241.9597608846
 51
271.1440967458
  0
ARC
  5
315
330
1E3
100
AcDbEntity
  8
0
  6
Continuous
 62
     8
370
    25
100
AcDbCircle
 10
4.8945283514
 20
3.4863822305
 30
0.0
 40
0.0609973126904387
100
AcDbArc
 50
14.6347164038
 51
57.305771306
  0
ARC
  5
316
330
1E3
100
AcDbEntity
  8
0
  6
Continuous
 62
     8
370
    25
100
AcDbCircle
 10
4.9390086742
 20
3.5216177558
 30
0.0
 40
0.0198022533819565
100
AcDbArc
 50
65.6928809539
 51
125.6175774752
  0
ARC
  5
317
330
1E3
100
AcDbEntity
  8
0
  6
Continuous
 62
     8
370
    25
100
AcDbCircle
 10
-16.1350005131
 20
15.687384304
 30
0.0
 40
0.0198022533819533
100
AcDbArc
 50
65.6928809539
 51
125.6175774752
  0
ARC
  5
318
330
1E3
100
AcDbEntity
  8
0
  6
Continuous
 62
     8
370
    25
100
AcDbCircle
 10
4.7513322188
 20
0.2402535248
 30
0.0
 40
0.0188789585183422
100
AcDbArc
 50
172.7441704346
 51
235.9436491721
  0
ARC
  5
319
330
1E3
100
AcDbEntity
  8
0
  6
Continuous
 62
     8
370
    25
100
AcDbCircle
 10
-16.3332329414
 20
15.5768733811
 30
0.0
 40
0.0198007589958128
100
AcDbArc
 50
185.6947992512
 51
245.6253417064
  0
ARC
  5
31A
330
1E3
100
AcDbEntity
  8
0
  6
Continuous
 62
     8
370
    25
100
AcDbCircle
 10
-16.3250981823
 20
15.5909581491
 30
0.0
 40
0.0198022533819616
100
AcDbArc
 50
54.3824225248
 51
114.3071190461
  0
ARC
  5
31B
330
1E3
100
AcDbEntity
  8
0
  6
Continuous
 62
     8
370
    25
100
AcDbCircle
 10
-16.1580650844
 20
15.687384304
 30
0.0
 40
0.0198022533819376
100
AcDbArc
 50
54.3824225248
 51
114.3071190461
  0
VIEWPORT
  5
322
330
1E3
100
AcDbEntity
  8
0
100
AcDbViewport
 10
0.0
 20
0.0
 30
0.0
 40
8.4
 41
6.4
 68
     1
 69
     1
 12
3.937007874
 22
7.874015748
 13
0.0
 23
0.0
 14
0.5
 24
0.5
 15
0.5
 25
0.5
 16
0.0
 26
0.0
 36
1.0
 17
0.0
 27
0.0
 37
0.0
 42
50.0
 43
0.0
 44
0.0
 45
30.4431946007
 50
0.0
 51
0.0
 72
   100
 90
   557152
  1

281
     0
 71
     1
 74
     0
110
0.0
120
0.0
130
0.0
111
1.0
121
0.0
131
0.0
112
0.0
122
1.0
132
0.0
 79
     0
146
0.0
  0
ENDBLK
  5
1E6
330
1E3
100
AcDbEntity
  8
0
100
AcDbBlockEnd
  0
ENDSEC
  0
SECTION
  2
ENTITIES
  0
LINE
  5
BB
330
1F
100
AcDbEntity
  8
0
  6
Continuous
 62
     7
370
    25
100
AcDbLine
 10
-15.6102362205
 20
0.0
 30
0.0
 11
15.6102362205
 21
0.0
 31
0.0
  0
LINE
  5
BC
330
1F
100
AcDbEntity
  8
0
  6
Continuous
 62
     7
370
    25
100
AcDbLine
 10
-15.5151884424
 20
13.9831327904
 30
0.0
 11
-15.5151884424
 21
0.0393700787
 31
0.0
  0
LINE
  5
BD
330
1F
100
AcDbEntity
  8
0
  6
Continuous
 62
     7
370
    25
100
AcDbLine
 10
15.5151884424
 20
13.9831327904
 30
0.0
 11
-15.5151884424
 21
13.9831327904
 31
0.0
  0
LINE
  5
BE
330
1F
100
AcDbEntity
  8
0
  6
Continuous
 62
     7
370
    25
100
AcDbLine
 10
15.5151884424
 20
0.0393700787
 30
0.0
 11
15.5151884424
 21
13.9831327904
 31
0.0
  0
LINE
  5
BF
330
1F
100
AcDbEntity
  8
0
  6
Continuous
 62
     7
370
    25
100
AcDbLine
 10
22.8937007874
 20
15.1181102362
 30
0.0
 11
16.2795275591
 21
15.1181102362
 31
0.0
  0
LINE
  5
C0
330
1F
100
AcDbEntity
  8
0
  6
Continuous
 62
     7
370
    25
100
AcDbLine
 10
22.8937007874
 20
0.6299212598
 30
0.0
 11
22.8937007874
 21
15.1181102362
 31
0.0
  0
LINE
  5
C1
330
1F
100
AcDbEntity
  8
0
  6
Continuous
 62
     7
370
    25
100
AcDbLine
 10
16.2795275591
 20
0.6299212598
 30
0.0
 11
22.8937007874
 21
0.6299212598
 31
0.0
  0
LINE
  5
C2
330
1F
100
AcDbEntity
  8
0
  6
Continuous
 62
     7
370
    25
100
AcDbLine
 10
16.2795275591
 20
15.1181102362
 30
0.0
 11
16.2795275591
 21
0.6299212598
 31
0.0
  0
LINE
  5
C3
330
1F
100
AcDbEntity
  8
0
  6
Continuous
 62
     7
370
    25
100
AcDbLine
 10
15.6496062992
 20
0.0
 30
0.0
 11
23.5236220472
 21
0.0
 31
0.0
  0
LINE
  5
C4
330
1F
100
AcDbEntity
  8
0
  6
Continuous
 62
     7
370
    25
100
AcDbLine
 10
15.6496062992
 20
15.7480314961
 30
0.0
 11
15.6496062992
 21
0.0
 31
0.0
  0
LINE
  5
C5
330
1F
100
AcDbEntity
  8
0
  6
Continuous
 62
     7
370
    25
100
AcDbLine
 10
23.5236220472
 20
15.7480314961
 30
0.0
 11
15.6496062992
 21
15.7480314961
 31
0.0
  0
LINE
  5
C6
330
1F
100
AcDbEntity
  8
0
  6
Continuous
 62
     7
370
    25
100
AcDbLine
 10
23.5236220472
 20
0.0
 30
0.0
 11
23.5236220472
 21
15.7480314961
 31
0.0
  0
LINE
  5
C7
330
1F
100
AcDbEntity
  8
0
  6
Continuous
 62
     7
370
    25
100
AcDbLine
 10
22.8937007874
 20
7.5590551181
 30
0.0
 11
16.2795275591
 21
7.5590551181
 31
0.0
  0
LINE
  5
C8
330
1F
100
AcDbEntity
  8
0
  6
Continuous
 62
     7
370
    25
100
AcDbLine
 10
22.8937007874
 20
8.188976378
 30
0.0
 11
16.2795275591
 21
8.188976378
 31
0.0
  0
LINE
  5
C9
330
1F
100
AcDbEntity
  8
0
  6
Continuous
 62
     7
370
    25
100
AcDbLine
 10
-15.4758183637
 20
13.9437627116
 30
0.0
 11
-15.5151884424
 21
13.9831327904
 31
0.0
  0
LINE
  5
CA
330
1F
100
AcDbEntity
  8
0
  6
Continuous
 62
     7
370
    25
100
AcDbLine
 10
-15.4758183637
 20
13.9437627116
 30
0.0
 11
-15.4758183637
 21
0.0
 31
0.0
  0
LINE
  5
CB
330
1F
100
AcDbEntity
  8
0
  6
Continuous
 62
     7
370
    25
100
AcDbLine
 10
15.4758183637
 20
13.9437627116
 30
0.0
 11
-15.4758183637
 21
13.9437627116
 31
0.0
  0
LINE
  5
CC
330
1F
100
AcDbEntity
  8
0
  6
Continuous
 62
     7
370
    25
100
AcDbLine
 10
15.4758183637
 20
0.0
 30
0.0
 11
15.4758183637
 21
13.9437627116
 31
0.0
  0
LINE
  5
CD
330
1F
100
AcDbEntity
  8
0
  6
Continuous
 62
     7
370
    25
100
AcDbLine
 10
15.4758183637
 20
13.9437627116
 30
0.0
 11
15.5151884424
 21
13.9831327904
 31
0.0
  0
LINE
  5
CE
330
1F
100
AcDbEntity
  8
0
  6
Continuous
 62
     7
370
    25
100
AcDbLine
 10
-15.5823973708
 20
15.7086614173
 30
0.0
 11
-15.5823973708
 21
0.0393700787
 31
0.0
  0
LINE
  5
CF
330
1F
100
AcDbEntity
  8
0
  6
Continuous
 62
     7
370
    25
100
AcDbLine
 10
-15.6496062992
 20
0.0393700787
 30
0.0
 11
-15.6496062992
 21
15.7086614173
 31
0.0
  0
LINE
  5
D0
330
1F
100
AcDbEntity
  8
0
  6
Continuous
 62
     7
370
    25
100
AcDbLine
 10
-15.6102362205
 20
15.7480314961
 30
0.0
 11
-14.9803149606
 21
15.7480314961
 31
0.0
  0
LINE
  5
D1
330
1F
100
AcDbEntity
  8
0
  6
Continuous
 62
     7
370
    25
100
AcDbLine
 10
-14.9409448819
 20
15.7086614173
 30
0.0
 11
-14.9409448819
 21
13.9831327904
 31
0.0
  0
LINE
  5
D2
330
1F
100
AcDbEntity
  8
0
  6
Continuous
 62
     7
370
    25
100
AcDbLine
 10
-15.6496062992
 20
0.0393700787
 30
0.0
 11
15.6496062992
 21
0.0393700787
 31
0.0
  0
LINE
  5
D3
330
1F
100
AcDbEntity
  8
0
  6
Continuous
 62
     7
370
    25
100
AcDbLine
 10
15.5823973708
 20
0.0393700787
 30
0.0
 11
15.5823973708
 21
15.7086614173
 31
0.0
  0
LINE
  5
D4
330
1F
100
AcDbEntity
  8
0
  6
Continuous
 62
     7
370
    25
100
AcDbLine
 10
15.6496062992
 20
15.7086614173
 30
0.0
 11
-15.6496062992
 21
15.7086614173
 31
0.0
  0
LINE
  5
D5
330
1F
100
AcDbEntity
  8
0
  6
Continuous
 62
     7
370
    25
100
AcDbLine
 10
14.9803149606
 20
15.7480314961
 30
0.0
 11
15.6102362205
 21
15.7480314961
 31
0.0
  0
LINE
  5
D6
330
1F
100
AcDbEntity
  8
0
  6
Continuous
 62
     7
370
    25
100
AcDbLine
 10
14.9409448819
 20
13.9831327904
 30
0.0
 11
14.9409448819
 21
15.7086614173
 31
0.0
  0
LINE
  5
D7
330
1F
100
AcDbEntity
  8
0
  6
Continuous
 62
     7
370
    25
100
AcDbLine
 10
-14.9015748031
 20
15.7480314961
 30
0.0
 11
14.9015748031
 21
15.7480314961
 31
0.0
  0
LINE
  5
D8
330
1F
100
AcDbEntity
  8
0
  6
Continuous
 62
     7
370
    25
100
AcDbLine
 10
14.9015748031
 20
13.9831327904
 30
0.0
 11
14.9015748031
 21
15.7480314961
 31
0.0
  0
LINE
  5
D9
330
1F
100
AcDbEntity
  8
0
  6
Continuous
 62
     7
370
    25
100
AcDbLine
 10
-14.9015748031
 20
15.7480314961
 30
0.0
 11
-14.9015748031
 21
13.9831327904
 31
0.0
  0
LINE
  5
DA
330
1F
100
AcDbEntity
  8
0
  6
Continuous
 62
     8
370
    25
100
AcDbLine
 10
-14.952476111
 20
13.9831327904
 30
0.0
 11
-14.952476111
 21
15.7086614173
 31
0.0
  0
LINE
  5
DB
330
1F
100
AcDbEntity
  8
0
  6
Continuous
 62
     8
370
    25
100
AcDbLine
 10
14.952476111
 20
15.7086614173
 30
0.0
 11
14.952476111
 21
13.9831327904
 31
0.0
  0
ARC
  5
DC
330
1F
100
AcDbEntity
  8
0
  6
Continuous
 62
     7
370
    25
100
AcDbCircle
 10
-15.4758183637
 20
0.0393700787
 30
0.0
 40
0.0393700787401592
100
AcDbArc
 50
180.0
 51
270.0
  0
ARC
  5
DD
330
1F
100
AcDbEntity
  8
0
  6
Continuous
 62
     7
370
    25
100
AcDbCircle
 10
15.4758183637
 20
0.0393700787
 30
0.0
 40
0.0393700787401592
100
AcDbArc
 50
270.0
 51
0.0
  0
ARC
  5
DE
330
1F
100
AcDbEntity
  8
0
  6
Continuous
 62
     7
370
    25
100
AcDbCircle
 10
-15.6102362205
 20
0.0393700787
 30
0.0
 40
0.039370078740161
100
AcDbArc
 50
180.0
 51
270.0
  0
ARC
  5
DF
330
1F
100
AcDbEntity
  8
0
  6
Continuous
 62
     7
370
    25
100
AcDbCircle
 10
-15.6171959329
 20
0.0344488189
 30
0.0
 40
0.0351448249436156
100
AcDbArc
 50
281.421753659
 51
8.0494669755
  0
ARC
  5
E0
330
1F
100
AcDbEntity
  8
0
  6
Continuous
 62
     7
370
    25
100
AcDbCircle
 10
-15.6102362205
 20
15.7086614173
 30
0.0
 40
0.0393700787401627
100
AcDbArc
 50
90.0
 51
180.0
  0
ARC
  5
E1
330
1F
100
AcDbEntity
  8
0
  6
Continuous
 62
     7
370
    25
100
AcDbCircle
 10
-15.6171959329
 20
15.7135826772
 30
0.0
 40
0.0351448249436189
100
AcDbArc
 50
351.9505330245
 51
78.578246341
  0
ARC
  5
E2
330
1F
100
AcDbEntity
  8
0
  6
Continuous
 62
     7
370
    25
100
AcDbCircle
 10
-14.987274673
 20
15.7135826772
 30
0.0
 40
0.0351448249436189
100
AcDbArc
 50
351.9505330245
 51
78.578246341
  0
ARC
  5
E3
330
1F
100
AcDbEntity
  8
0
  6
Continuous
 62
     7
370
    25
100
AcDbCircle
 10
-14.9803149606
 20
15.7086614173
 30
0.0
 40
0.0393700787401574
100
AcDbArc
 50
0.0
 51
90.0
  0
ARC
  5
E4
330
1F
100
AcDbEntity
  8
0
  6
Continuous
 62
     7
370
    25
100
AcDbCircle
 10
15.6171959329
 20
0.0344488189
 30
0.0
 40
0.0351448249436107
100
AcDbArc
 50
171.9505330245
 51
258.578246341
  0
ARC
  5
E5
330
1F
100
AcDbEntity
  8
0
  6
Continuous
 62
     7
370
    25
100
AcDbCircle
 10
15.6102362205
 20
0.0393700787
 30
0.0
 40
0.0393700787401574
100
AcDbArc
 50
270.0
 51
0.0
  0
ARC
  5
E6
330
1F
100
AcDbEntity
  8
0
  6
Continuous
 62
     7
370
    25
100
AcDbCircle
 10
15.6171959329
 20
15.7135826772
 30
0.0
 40
0.0351448249436158
100
AcDbArc
 50
101.421753659
 51
188.0494669755
  0
ARC
  5
E7
330
1F
100
AcDbEntity
  8
0
  6
Continuous
 62
     7
370
    25
100
AcDbCircle
 10
15.6102362205
 20
15.7086614173
 30
0.0
 40
0.0393700787401574
100
AcDbArc
 50
0.0
 51
90.0
  0
ARC
  5
E8
330
1F
100
AcDbEntity
  8
0
  6
Continuous
 62
     7
370
    25
100
AcDbCircle
 10
14.987274673
 20
15.7135826772
 30
0.0
 40
0.0351448249436154
100
AcDbArc
 50
101.421753659
 51
188.0494669755
  0
ARC
  5
E9
330
1F
100
AcDbEntity
  8
0
  6
Continuous
 62
     7
370
    25
100
AcDbCircle
 10
14.9803149606
 20
15.7086614173
 30
0.0
 40
0.0393700787401574
100
AcDbArc
 50
90.0
 51
180.0
  0
ARC
  5
EA
330
1F
100
AcDbEntity
  8
0
  6
Continuous
 62
     7
370
    25
100
AcDbCircle
 10
14.9015748031
 20
15.7086614173
 30
0.0
 40
0.0393700787401574
100
AcDbArc
 50
0.0
 51
90.0
  0
ARC
  5
EB
330
1F
100
AcDbEntity
  8
0
  6
Continuous
 62
     7
370
    25
100
AcDbCircle
 10
-14.9015748031
 20
15.7086614173
 30
0.0
 40
0.0393700787401592
100
AcDbArc
 50
90.0
 51
180.0
  0
LINE
  5
10C
330
1B
100
AcDbEntity
 67
     1
  8
0
  6
Continuous
 62
     7
370
    25
100
AcDbLine
 10
8.8616451353
 20
0.0393700787
 30
0.0
 11
8.8616451353
 21
15.7086614173
 31
0.0
  0
LINE
  5
10D
330
1B
100
AcDbEntity
 67
     1
  8
0
  6
Continuous
 62
     7
370
    25
100
AcDbLine
 10
8.9173228346
 20
0.0
 30
0.0
 11
-8.9960629921
 21
0.0
 31
0.0
  0
LINE
  5
10E
330
1B
100
AcDbEntity
 67
     1
  8
0
  6
Continuous
 62
     7
370
    25
100
AcDbLine
 10
-8.9960629921
 20
15.7480314961
 30
0.0
 11
8.9173228346
 21
15.7480314961
 31
0.0
  0
LINE
  5
10F
330
1B
100
AcDbEntity
 67
     1
  8
0
  6
Continuous
 62
     7
370
    25
100
AcDbLine
 10
-8.9960629921
 20
0.0
 30
0.0
 11
-8.9960629921
 21
15.7480314961
 31
0.0
  0
LINE
  5
110
330
1B
100
AcDbEntity
 67
     1
  8
0
  6
Continuous
 62
     7
370
    25
100
AcDbLine
 10
8.9173228346
 20
15.7480314961
 30
0.0
 11
8.9173228346
 21
0.0
 31
0.0
  0
LINE
  5
111
330
1B
100
AcDbEntity
 67
     1
  8
0
  6
Continuous
 62
     7
370
    25
100
AcDbLine
 10
8.8616451353
 20
15.7086614173
 30
0.0
 11
-8.9960629921
 21
15.7086614173
 31
0.0
  0
LINE
  5
112
330
1B
100
AcDbEntity
 67
     1
  8
0
  6
Continuous
 62
     7
370
    25
100
AcDbLine
 10
-8.9566929134
 20
15.7480314961
 30
0.0
 11
-8.9566929134
 21
0.0
 31
0.0
  0
LINE
  5
113
330
1B
100
AcDbEntity
 67
     1
  8
0
  6
Continuous
 62
     7
370
    25
100
AcDbLine
 10
8.8222750566
 20
0.0
 30
0.0
 11
8.8222750566
 21
15.7480314961
 31
0.0
  0
LINE
  5
114
330
1B
100
AcDbEntity
 67
     1
  8
0
  6
Continuous
 62
     8
370
    25
100
AcDbLine
 10
-8.9960629921
 20
0.0393700787
 30
0.0
 11
8.9173228346
 21
0.0393700787
 31
0.0
  0
ARC
  5
115
330
1B
100
AcDbEntity
 67
     1
  8
0
  6
Continuous
 62
     7
370
    25
100
AcDbCircle
 10
8.8222750566
 20
15.7086614173
 30
0.0
 40
0.0393700787401627
100
AcDbArc
 50
0.0
 51
90.0
  0
ARC
  5
116
330
1B
100
AcDbEntity
 67
     1
  8
0
  6
Continuous
 62
     7
370
    25
100
AcDbCircle
 10
8.8222750566
 20
0.0393700787
 30
0.0
 40
0.0393700787401556
100
AcDbArc
 50
270.0
 51
0.0
  0
ARC
  5
117
330
1B
100
AcDbEntity
 67
     1
  8
0
  6
Continuous
 62
     7
370
    25
100
AcDbCircle
 10
8.8779527559
 20
13.9437627116
 30
0.0
 40
0.0393700787401558
100
AcDbArc
 50
360.0
 51
114.4698005207
  0
ARC
  5
118
330
1B
100
AcDbEntity
 67
     1
  8
0
  6
Continuous
 62
     7
370
    25
100
AcDbCircle
 10
8.8779527559
 20
0.0393700787
 30
0.0
 40
0.0393700787401578
100
AcDbArc
 50
225.0
 51
0.0
  0
ARC
  5
119
330
1B
100
AcDbEntity
 67
     1
  8
0
  6
Continuous
 62
     7
370
    25
100
AcDbCircle
 10
-8.9566929134
 20
15.7086614173
 30
0.0
 40
0.0393700787401574
100
AcDbArc
 50
90.0
 51
180.0
  0
ARC
  5
11A
330
1B
100
AcDbEntity
 67
     1
  8
0
  6
Continuous
 62
     7
370
    25
100
AcDbCircle
 10
-8.9566929134
 20
0.0393700787
 30
0.0
 40
0.0393700787401597
100
AcDbArc
 50
180.0
 51
270.0
  0
VIEWPORT
  5
31C
330
1B
100
AcDbEntity
 67
     1
  8
0
100
AcDbViewport
 10
0.0
 20
0.0
 30
0.0
 40
8.4
 41
6.4
 68
     1
 69
     1
 12
3.937007874
 22
7.874015748
 13
0.0
 23
0.0
 14
0.5
 24
0.5
 15
0.5
 25
0.5
 16
0.0
 26
0.0
 36
1.0
 17
0.0
 27
0.0
 37
0.0
 42
50.0
 43
0.0
 44
0.0
 45
30.4431946007
 50
0.0
 51
0.0
 72
   100
 90
   557152
  1

281
     0
 71
     1
 74
     0
110
0.0
120
0.0
130
0.0
111
1.0
121
0.0
131
0.0
112
0.0
122
1.0
132
0.0
 79
     0
146
0.0
  0
ENDSEC
  0
SECTION
  2
OBJECTS
  0
DICTIONARY
  5
C
330
0
100
AcDbDictionary
281
     1
  3
ACAD_GROUP
350
D
  3
ACAD_LAYOUT
350
1A
  3
ACAD_MLINESTYLE
350
17
  3
ACAD_PLOTSETTINGS
350
19
  3
ACAD_PLOTSTYLENAME
350
E
  3
ACAD_SCALELIST
350
47
  0
DICTIONARY
  5
D
102
{ACAD_REACTORS
330
C
102
}
330
C
100
AcDbDictionary
281
     1
  0
DICTIONARY
  5
1A
102
{ACAD_REACTORS
330
C
102
}
330
C
100
AcDbDictionary
281
     1
  3
_Isometric
350
1E4
  3
_Left
350
1E
  3
_Right
350
26
  3
_Top
350
124
  3
Model
350
22
  0
DICTIONARY
  5
17
102
{ACAD_REACTORS
330
C
102
}
330
C
100
AcDbDictionary
281
     1
  3
Standard
350
18
  0
DICTIONARY
  5
19
102
{ACAD_REACTORS
330
C
102
}
330
C
100
AcDbDictionary
281
     1
  0
ACDBDICTIONARYWDFLT
  5
E
102
{ACAD_REACTORS
330
C
102
}
330
C
100
AcDbDictionary
281
     1
  3
Normal
350
F
100
AcDbDictionaryWithDefault
340
F
  0
DICTIONARY
  5
47
102
{ACAD_REACTORS
330
C
102
}
330
C
100
AcDbDictionary
281
     1
  3
A0
350
48
  3
A1
350
49
  3
A2
350
4A
  3
A3
350
4B
  3
A4
350
4C
  3
A5
350
4D
  3
A6
350
4E
  3
A7
350
4F
  3
A8
350
50
  3
A9
350
51
  3
B0
350
52
  3
B1
350
53
  3
B2
350
54
  3
B3
350
55
  3
B4
350
56
  3
B5
350
57
  3
B6
350
58
  3
B7
350
59
  3
B8
350
5A
  3
B9
350
5B
  3
C0
350
5C
  3
C1
350
5D
  3
C2
350
5E
  3
C3
350
5F
  3
C4
350
60
  3
C5
350
61
  3
C6
350
62
  3
C7
350
63
  3
C8
350
64
  3
C9
350
65
  3
D0
350
66
  3
D1
350
67
  3
D2
350
68
  0
LAYOUT
  5
1E4
102
{ACAD_REACTORS
330
1A
102
}
330
1A
100
AcDbPlotSettings
  1

  2
none_device
  4
Letter_(8.50_x_11.00_Inches)
  6

 40
6.35
 41
6.35
 42
6.35001
 43
6.35001
 44
215.9
 45
279.4
 46
0.0
 47
0.0
 48
0.0
 49
0.0
140
0.0
141
0.0
142
1.0
143
1.9685040339
 70
   688
 72
     0
 73
     1
 74
     1
  7

 75
     0
147
0.507999975
148
228.5
149
0.0
100
AcDbLayout
  1
_Isometric
 70
     1
 71
     4
 10
0.0
 20
0.0
 11
0.0
 21
0.0
 12
0.0
 22
0.0
 32
0.0
 14
0.0
 24
0.0
 34
0.0
 15
0.0
 25
0.0
 35
0.0
146
0.0
 13
0.0
 23
0.0
 33
0.0
 16
1.0
 26
0.0
 36
0.0
 17
0.0
 27
1.0
 37
0.0
 76
     0
330
1E3
331
322
  0
LAYOUT
  5
1E
102
{ACAD_REACTORS
330
1A
102
}
330
1A
100
AcDbPlotSettings
  1

  2
none_device
  4
Letter_(8.50_x_11.00_Inches)
  6

 40
6.35
 41
6.35
 42
6.35001
 43
6.35001
 44
215.9
 45
279.4
 46
0.0
 47
0.0
 48
0.0
 49
0.0
140
0.0
141
0.0
142
1.0
143
1.9685040339
 70
   688
 72
     0
 73
     1
 74
     1
  7

 75
     0
147
0.507999975
148
228.5
149
0.0
100
AcDbLayout
  1
_Left
 70
     1
 71
     1
 10
-9.4881897756
 20
-0.4921260085
 11
12.1653545971
 21
16.2401582795
 12
0.0
 22
0.0
 32
0.0
 14
-8.9960629921
 24
0.0
 34
0.0
 15
8.9173228346
 25
15.7480314961
 35
0.0
146
0.0
 13
0.0
 23
0.0
 33
0.0
 16
1.0
 26
0.0
 36
0.0
 17
0.0
 27
1.0
 37
0.0
 76
     0
330
1B
331
31C
  0
LAYOUT
  5
26
102
{ACAD_REACTORS
330
1A
102
}
330
1A
100
AcDbPlotSettings
  1

  2
none_device
  4
Letter_(8.50_x_11.00_Inches)
  6

 40
6.35
 41
6.35
 42
6.35001
 43
6.35001
 44
215.9
 45
279.4
 46
0.0
 47
0.0
 48
0.0
 49
0.0
140
0.0
141
0.0
142
1.0
143
1.9685040339
 70
   688
 72
     0
 73
     1
 74
     1
  7

 75
     0
147
0.507999975
148
228.5
149
0.0
100
AcDbLayout
  1
_Right
 70
     1
 71
     2
 10
0.0
 20
0.0
 11
0.0
 21
0.0
 12
0.0
 22
0.0
 32
0.0
 14
0.0
 24
0.0
 34
0.0
 15
0.0
 25
0.0
 35
0.0
146
0.0
 13
0.0
 23
0.0
 33
0.0
 16
1.0
 26
0.0
 36
0.0
 17
0.0
 27
1.0
 37
0.0
 76
     0
330
23
331
31E
  0
LAYOUT
  5
124
102
{ACAD_REACTORS
330
1A
102
}
330
1A
100
AcDbPlotSettings
  1

  2
none_device
  4
Letter_(8.50_x_11.00_Inches)
  6

 40
6.35
 41
6.35
 42
6.35001
 43
6.35001
 44
215.9
 45
279.4
 46
0.0
 47
0.0
 48
0.0
 49
0.0
140
0.0
141
0.0
142
1.0
143
1.9685040339
 70
   688
 72
     0
 73
     1
 74
     1
  7

 75
     0
147
0.507999975
148
228.5
149
0.0
100
AcDbLayout
  1
_Top
 70
     1
 71
     3
 10
0.0
 20
0.0
 11
0.0
 21
0.0
 12
0.0
 22
0.0
 32
0.0
 14
0.0
 24
0.0
 34
0.0
 15
0.0
 25
0.0
 35
0.0
146
0.0
 13
0.0
 23
0.0
 33
0.0
 16
1.0
 26
0.0
 36
0.0
 17
0.0
 27
1.0
 37
0.0
 76
     0
330
123
331
320
  0
LAYOUT
  5
22
102
{ACAD_REACTORS
330
1A
102
}
330
1A
100
AcDbPlotSettings
  1

  2
none_device
  4
ANSI_A_(11.00_x_8.50_Inches)
  6

 40
6.35
 41
19.05
 42
6.35000508
 43
19.05000254
 44
279.4
 45
215.9
 46
105.5503994701
 47
33.3008027501
 48
0.0
 49
0.0
140
0.0
141
0.0
142
0.2779959799
143
1.0
 70
  1696
 72
     0
 73
     0
 74
     0
  7

 75
     0
147
0.5913241897
148
-39.4088153714
149
0.0
100
AcDbLayout
  1
Model
 70
     1
 71
     0
 10
0.0
 20
0.0
 11
12.0
 21
9.0
 12
0.0
 22
0.0
 32
0.0
 14
-15.6496062992
 24
0.0
 34
0.0
 15
23.5236220472
 25
15.7480314961
 35
0.0
146
0.0
 13
0.0
 23
0.0
 33
0.0
 16
1.0
 26
0.0
 36
0.0
 17
0.0
 27
1.0
 37
0.0
 76
     0
330
1F
331
29
  0
MLINESTYLE
  5
18
102
{ACAD_REACTORS
330
17
102
}
330
17
100
AcDbMlineStyle
  2
Standard
 70
     0
  3

 62
   256
 51
90.0
 52
90.0
 71
     2
 49
0.5
 62
   256
  6
BYLAYER
 49
-0.5
 62
   256
  6
BYLAYER
  0
ACDBPLACEHOLDER
  5
F
102
{ACAD_REACTORS
330
E
102
}
330
E
  0
SCALE
  5
48
102
{ACAD_REACTORS
330
47
102
}
330
47
100
AcDbScale
 70
     0
300
1:1
140
1.0
141
1.0
290
     1
  0
SCALE
  5
49
102
{ACAD_REACTORS
330
47
102
}
330
47
100
AcDbScale
 70
     0
300
1:2
140
1.0
141
2.0
290
     0
  0
SCALE
  5
4A
102
{ACAD_REACTORS
330
47
102
}
330
47
100
AcDbScale
 70
     0
300
1:4
140
1.0
141
4.0
290
     0
  0
SCALE
  5
4B
102
{ACAD_REACTORS
330
47
102
}
330
47
100
AcDbScale
 70
     0
300
1:5
140
1.0
141
5.0
290
     0
  0
SCALE
  5
4C
102
{ACAD_REACTORS
330
47
102
}
330
47
100
AcDbScale
 70
     0
300
1:8
140
1.0
141
8.0
290
     0
  0
SCALE
  5
4D
102
{ACAD_REACTORS
330
47
102
}
330
47
100
AcDbScale
 70
     0
300
1:10
140
1.0
141
10.0
290
     0
  0
SCALE
  5
4E
102
{ACAD_REACTORS
330
47
102
}
330
47
100
AcDbScale
 70
     0
300
1:16
140
1.0
141
16.0
290
     0
  0
SCALE
  5
4F
102
{ACAD_REACTORS
330
47
102
}
330
47
100
AcDbScale
 70
     0
300
1:20
140
1.0
141
20.0
290
     0
  0
SCALE
  5
50
102
{ACAD_REACTORS
330
47
102
}
330
47
100
AcDbScale
 70
     0
300
1:30
140
1.0
141
30.0
290
     0
  0
SCALE
  5
51
102
{ACAD_REACTORS
330
47
102
}
330
47
100
AcDbScale
 70
     0
300
1:40
140
1.0
141
40.0
290
     0
  0
SCALE
  5
52
102
{ACAD_REACTORS
330
47
102
}
330
47
100
AcDbScale
 70
     0
300
1:50
140
1.0
141
50.0
290
     0
  0
SCALE
  5
53
102
{ACAD_REACTORS
330
47
102
}
330
47
100
AcDbScale
 70
     0
300
1:100
140
1.0
141
100.0
290
     0
  0
SCALE
  5
54
102
{ACAD_REACTORS
330
47
102
}
330
47
100
AcDbScale
 70
     0
300
2:1
140
2.0
141
1.0
290
     0
  0
SCALE
  5
55
102
{ACAD_REACTORS
330
47
102
}
330
47
100
AcDbScale
 70
     0
300
4:1
140
4.0
141
1.0
290
     0
  0
SCALE
  5
56
102
{ACAD_REACTORS
330
47
102
}
330
47
100
AcDbScale
 70
     0
300
8:1
140
8.0
141
1.0
290
     0
  0
SCALE
  5
57
102
{ACAD_REACTORS
330
47
102
}
330
47
100
AcDbScale
 70
     0
300
10:1
140
10.0
141
1.0
290
     0
  0
SCALE
  5
58
102
{ACAD_REACTORS
330
47
102
}
330
47
100
AcDbScale
 70
     0
300
100:1
140
100.0
141
1.0
290
     0
  0
SCALE
  5
59
102
{ACAD_REACTORS
330
47
102
}
330
47
100
AcDbScale
 70
     0
300
1/128" = 1'-0"
140
0.0078125
141
12.0
290
     0
  0
SCALE
  5
5A
102
{ACAD_REACTORS
330
47
102
}
330
47
100
AcDbScale
 70
     0
300
1/64" = 1'-0"
140
0.015625
141
12.0
290
     0
  0
SCALE
  5
5B
102
{ACAD_REACTORS
330
47
102
}
330
47
100
AcDbScale
 70
     0
300
1/32" = 1'-0"
140
0.03125
141
12.0
290
     0
  0
SCALE
  5
5C
102
{ACAD_REACTORS
330
47
102
}
330
47
100
AcDbScale
 70
     0
300
1/16" = 1'-0"
140
0.0625
141
12.0
290
     0
  0
SCALE
  5
5D
102
{ACAD_REACTORS
330
47
102
}
330
47
100
AcDbScale
 70
     0
300
3/32" = 1'-0"
140
0.09375
141
12.0
290
     0
  0
SCALE
  5
5E
102
{ACAD_REACTORS
330
47
102
}
330
47
100
AcDbScale
 70
     0
300
1/8" = 1'-0"
140
0.125
141
12.0
290
     0
  0
SCALE
  5
5F
102
{ACAD_REACTORS
330
47
102
}
330
47
100
AcDbScale
 70
     0
300
3/16" = 1'-0"
140
0.1875
141
12.0
290
     0
  0
SCALE
  5
60
102
{ACAD_REACTORS
330
47
102
}
330
47
100
AcDbScale
 70
     0
300
1/4" = 1'-0"
140
0.25
141
12.0
290
     0
  0
SCALE
  5
61
102
{ACAD_REACTORS
330
47
102
}
330
47
100
AcDbScale
 70
     0
300
3/8" = 1'-0"
140
0.375
141
12.0
290
     0
  0
SCALE
  5
62
102
{ACAD_REACTORS
330
47
102
}
330
47
100
AcDbScale
 70
     0
300
1/2" = 1'-0"
140
0.5
141
12.0
290
     0
  0
SCALE
  5
63
102
{ACAD_REACTORS
330
47
102
}
330
47
100
AcDbScale
 70
     0
300
3/4" = 1'-0"
140
0.75
141
12.0
290
     0
  0
SCALE
  5
64
102
{ACAD_REACTORS
330
47
102
}
330
47
100
AcDbScale
 70
     0
300
1" = 1'-0"
140
1.0
141
12.0
290
     0
  0
SCALE
  5
65
102
{ACAD_REACTORS
330
47
102
}
330
47
100
AcDbScale
 70
     0
300
1-1/2" = 1'-0"
140
1.5
141
12.0
290
     0
  0
SCALE
  5
66
102
{ACAD_REACTORS
330
47
102
}
330
47
100
AcDbScale
 70
     0
300
3" = 1'-0"
140
3.0
141
12.0
290
     0
  0
SCALE
  5
67
102
{ACAD_REACTORS
330
47
102
}
330
47
100
AcDbScale
 70
     0
300
6" = 1'-0"
140
6.0
141
12.0
290
     0
  0
SCALE
  5
68
102
{ACAD_REACTORS
330
47
102
}
330
47
100
AcDbScale
 70
     0
300
1'-0" = 1'-0"
140
12.0
141
12.0
290
     0
  0
ENDSEC
  0
EOF
