  0
SECTION
  2
HEADER
  9
$ACADVER
  1
AC1015
  9
$ACADMAINTVER
 70
     6
  9
$DWGCODEPAGE
  3
ANSI_1252
  9
$INSBASE
 10
0.0
 20
0.0
 30
0.0
  9
$EXTMIN
 10
-19.5866141732
 20
0.0
 30
0.0
  9
$EXTMAX
 10
19.5866141732
 20
15.7480314961
 30
0.0
  9
$LIMMIN
 10
0.0
 20
0.0
  9
$LIMMAX
 10
12.0
 20
9.0
  9
$ORTHOMODE
 70
     0
  9
$REGENMODE
 70
     1
  9
$FILLMODE
 70
     1
  9
$QTEXTMODE
 70
     0
  9
$MIRRTEXT
 70
     1
  9
$LTSCALE
 40
1.0
  9
$ATTMODE
 70
     1
  9
$TEXTSIZE
 40
0.1377952756
  9
$TRACEWID
 40
0.05
  9
$TEXTSTYLE
  7
Standard
  9
$CLAYER
  8
0
  9
$CELTYPE
  6
ByLayer
  9
$CECOLOR
 62
   256
  9
$CELTSCALE
 40
1.0
  9
$DISPSILH
 70
     0
  9
$DIMSCALE
 40
1.0
  9
$DIMASZ
 40
0.13
  9
$DIMEXO
 40
0.0393700787
  9
$DIMDLI
 40
0.38
  9
$DIMRND
 40
0.0
  9
$DIMDLE
 40
0.0
  9
$DIMEXE
 40
0.0393700787
  9
$DIMTP
 40
0.0
  9
$DIMTM
 40
0.0
  9
$DIMTXT
 40
0.1377952756
  9
$DIMCEN
 40
0.09
  9
$DIMTSZ
 40
0.0
  9
$DIMTOL
 70
     0
  9
$DIMLIM
 70
     0
  9
$DIMTIH
 70
     1
  9
$DIMTOH
 70
     1
  9
$DIMSE1
 70
     0
  9
$DIMSE2
 70
     0
  9
$DIMTAD
 70
     1
  9
$DIMZIN
 70
     1
  9
$DIMBLK
  1

  9
$DIMASO
 70
     1
  9
$DIMSHO
 70
     1
  9
$DIMPOST
  1

  9
$DIMAPOST
  1

  9
$DIMALT
 70
     0
  9
$DIMALTD
 70
     2
  9
$DIMALTF
 40
25.4
  9
$DIMLFAC
 40
1.0
  9
$DIMTOFL
 70
     0
  9
$DIMTVP
 40
0.0
  9
$DIMTIX
 70
     0
  9
$DIMSOXD
 70
     0
  9
$DIMSAH
 70
     0
  9
$DIMBLK1
  1

  9
$DIMBLK2
  1

  9
$DIMSTYLE
  2
Standard
  9
$DIMCLRD
 70
     0
  9
$DIMCLRE
 70
     0
  9
$DIMCLRT
 70
     0
  9
$DIMTFAC
 40
1.0
  9
$DIMGAP
 40
0.06
  9
$DIMJUST
 70
     0
  9
$DIMSD1
 70
     0
  9
$DIMSD2
 70
     0
  9
$DIMTOLJ
 70
     1
  9
$DIMTZIN
 70
     1
  9
$DIMALTZ
 70
     0
  9
$DIMALTTZ
 70
     0
  9
$DIMUPT
 70
     0
  9
$DIMDEC
 70
     2
  9
$DIMTDEC
 70
     2
  9
$DIMALTU
 70
     2
  9
$DIMALTTD
 70
     2
  9
$DIMTXSTY
  7
Standard
  9
$DIMAUNIT
 70
     0
  9
$DIMADEC
 70
     2
  9
$DIMALTRND
 40
0.0
  9
$DIMAZIN
 70
     0
  9
$DIMDSEP
 70
    46
  9
$DIMATFIT
 70
     3
  9
$DIMFRAC
 70
     0
  9
$DIMLDRBLK
  1

  9
$DIMLUNIT
 70
     2
  9
$DIMLWD
 70
    -2
  9
$DIMLWE
 70
    -2
  9
$DIMTMOVE
 70
     0
  9
$LUNITS
 70
     2
  9
$LUPREC
 70
     2
  9
$SKETCHINC
 40
0.1
  9
$FILLETRAD
 40
0.5
  9
$AUNITS
 70
     0
  9
$AUPREC
 70
     2
  9
$MENU
  1
.
  9
$ELEVATION
 40
0.0
  9
$PELEVATION
 40
0.0
  9
$THICKNESS
 40
0.0
  9
$LIMCHECK
 70
     0
  9
$CHAMFERA
 40
0.0
  9
$CHAMFERB
 40
0.0
  9
$CHAMFERC
 40
0.0
  9
$CHAMFERD
 40
0.0
  9
$SKPOLY
 70
     0
  9
$TDCREATE
 40
2460405.65619669
  9
$TDUCREATE
 40
2460405.614530023
  9
$TDUPDATE
 40
2460405.656230127
  9
$TDUUPDATE
 40
2460405.61456346
  9
$TDINDWG
 40
0.0000000116
  9
$TDUSRTIMER
 40
0.0000000116
  9
$USRTIMER
 70
     1
  9
$ANGBASE
 50
0.0
  9
$ANGDIR
 70
     0
  9
$PDMODE
 70
     0
  9
$PDSIZE
 40
-1.0
  9
$PLINEWID
 40
0.0
  9
$SPLFRAME
 70
     0
  9
$SPLINETYPE
 70
     6
  9
$SPLINESEGS
 70
     8
  9
$HANDSEED
  5
334
  9
$SURFTAB1
 70
     6
  9
$SURFTAB2
 70
     6
  9
$SURFTYPE
 70
     6
  9
$SURFU
 70
     6
  9
$SURFV
 70
     6
  9
$UCSBASE
  2

  9
$UCSNAME
  2

  9
$UCSORG
 10
0.0
 20
0.0
 30
0.0
  9
$UCSXDIR
 10
1.0
 20
0.0
 30
0.0
  9
$UCSYDIR
 10
0.0
 20
1.0
 30
0.0
  9
$UCSORTHOREF
  2

  9
$UCSORTHOVIEW
 70
     0
  9
$UCSORGTOP
 10
0.0
 20
0.0
 30
0.0
  9
$UCSORGBOTTOM
 10
0.0
 20
0.0
 30
0.0
  9
$UCSORGLEFT
 10
0.0
 20
0.0
 30
0.0
  9
$UCSORGRIGHT
 10
0.0
 20
0.0
 30
0.0
  9
$UCSORGFRONT
 10
0.0
 20
0.0
 30
0.0
  9
$UCSORGBACK
 10
0.0
 20
0.0
 30
0.0
  9
$PUCSBASE
  2

  9
$PUCSNAME
  2

  9
$PUCSORG
 10
0.0
 20
0.0
 30
0.0
  9
$PUCSXDIR
 10
1.0
 20
0.0
 30
0.0
  9
$PUCSYDIR
 10
0.0
 20
1.0
 30
0.0
  9
$PUCSORTHOREF
  2

  9
$PUCSORTHOVIEW
 70
     0
  9
$PUCSORGTOP
 10
0.0
 20
0.0
 30
0.0
  9
$PUCSORGBOTTOM
 10
0.0
 20
0.0
 30
0.0
  9
$PUCSORGLEFT
 10
0.0
 20
0.0
 30
0.0
  9
$PUCSORGRIGHT
 10
0.0
 20
0.0
 30
0.0
  9
$PUCSORGFRONT
 10
0.0
 20
0.0
 30
0.0
  9
$PUCSORGBACK
 10
0.0
 20
0.0
 30
0.0
  9
$USERI1
 70
     0
  9
$USERI2
 70
     0
  9
$USERI3
 70
     0
  9
$USERI4
 70
     0
  9
$USERI5
 70
     0
  9
$USERR1
 40
0.0
  9
$USERR2
 40
0.0
  9
$USERR3
 40
0.0
  9
$USERR4
 40
0.0
  9
$USERR5
 40
0.0
  9
$WORLDVIEW
 70
     1
  9
$SHADEDGE
 70
     3
  9
$SHADEDIF
 70
    70
  9
$TILEMODE
 70
     1
  9
$MAXACTVP
 70
    64
  9
$PINSBASE
 10
0.0
 20
0.0
 30
0.0
  9
$PLIMCHECK
 70
     0
  9
$PEXTMIN
 10
-8.9960629921
 20
0.0
 30
0.0
  9
$PEXTMAX
 10
8.9173228346
 20
15.7480314961
 30
0.0
  9
$PLIMMIN
 10
-9.4881897756
 20
-0.4921260085
  9
$PLIMMAX
 10
12.1653545971
 20
16.2401582795
  9
$UNITMODE
 70
     0
  9
$VISRETAIN
 70
     1
  9
$PLINEGEN
 70
     0
  9
$PSLTSCALE
 70
     1
  9
$TREEDEPTH
 70
  3020
  9
$CMLSTYLE
  2
Standard
  9
$CMLJUST
 70
     0
  9
$CMLSCALE
 40
1.0
  9
$PROXYGRAPHICS
 70
     1
  9
$MEASUREMENT
 70
     0
  9
$CELWEIGHT
370
    -1
  9
$ENDCAPS
280
     0
  9
$JOINSTYLE
280
     0
  9
$LWDISPLAY
290
     1
  9
$INSUNITS
 70
     1
  9
$HYPERLINKBASE
  1

  9
$STYLESHEET
  1

  9
$XEDIT
290
     1
  9
$CEPSNTYPE
380
     0
  9
$PSTYLEMODE
290
     1
  9
$FINGERPRINTGUID
  2
{9736ad97-f767-41ad-9bf7-3be65d7bd182}
  9
$VERSIONGUID
  2
{FAEB1C32-E019-11D5-929B-00C0DF256EC4}
  9
$EXTNAMES
290
     1
  9
$PSVPSCALE
 40
0.0
  9
$OLESTARTUP
290
     0
  0
ENDSEC
  0
SECTION
  2
CLASSES
  0
CLASS
  1
ACDBDICTIONARYWDFLT
  2
AcDbDictionaryWithDefault
  3
ObjectDBX Classes
 90
        0
280
     0
281
     0
  0
CLASS
  1
VISUALSTYLE
  2
AcDbVisualStyle
  3
ObjectDBX Classes
 90
     4095
280
     0
281
     0
  0
CLASS
  1
MATERIAL
  2
AcDbMaterial
  3
ObjectDBX Classes
 90
     1153
280
     0
281
     0
  0
CLASS
  1
SCALE
  2
AcDbScale
  3
ObjectDBX Classes
 90
     1153
280
     0
281
     0
  0
CLASS
  1
TABLESTYLE
  2
AcDbTableStyle
  3
ObjectDBX Classes
 90
     4095
280
     0
281
     0
  0
CLASS
  1
MLEADERSTYLE
  2
AcDbMLeaderStyle
  3
ACDB_MLEADERSTYLE_CLASS
 90
     4095
280
     0
281
     0
  0
CLASS
  1
SUN
  2
AcDbSun
  3
SCENEOE
 90
     1153
280
     0
281
     0
  0
CLASS
  1
ACDBPLACEHOLDER
  2
AcDbPlaceHolder
  3
ObjectDBX Classes
 90
        0
280
     0
281
     0
  0
CLASS
  1
LAYOUT
  2
AcDbLayout
  3
ObjectDBX Classes
 90
        0
280
     0
281
     0
  0
ENDSEC
  0
SECTION
  2
TABLES
  0
TABLE
  2
VPORT
  5
8
330
0
100
AcDbSymbolTable
 70
     1
  0
VPORT
  5
29
330
8
100
AcDbSymbolTableRecord
100
AcDbViewportTableRecord
  2
*Active
 70
     0
 10
0.0
 20
0.0
 11
1.0
 21
1.0
 12
0.0
 22
7.874015748
 13
0.0
 23
0.0
 14
0.5
 24
0.5
 15
0.5
 25
0.5
 16
0.0
 26
0.0
 36
1.0
 17
0.0
 27
0.0
 37
0.0
 40
16.062992126
 41
2.4875
 42
50.0
 43
0.0
 44
0.0
 50
0.0
 51
0.0
 71
     0
 72
   100
 73
     1
 74
     3
 75
     0
 76
     0
 77
     0
 78
     0
281
     0
 65
     1
110
0.0
120
0.0
130
0.0
111
1.0
121
0.0
131
0.0
112
0.0
122
1.0
132
0.0
 79
     0
146
0.0
  0
ENDTAB
  0
TABLE
  2
LTYPE
  5
5
330
0
100
AcDbSymbolTable
 70
     6
  0
LTYPE
  5
14
330
5
100
AcDbSymbolTableRecord
100
AcDbLinetypeTableRecord
  2
ByBlock
 70
     0
  3

 72
    65
 73
     0
 40
0.0
  0
LTYPE
  5
15
330
5
100
AcDbSymbolTableRecord
100
AcDbLinetypeTableRecord
  2
ByLayer
 70
     0
  3

 72
    65
 73
     0
 40
0.0
  0
LTYPE
  5
16
330
5
100
AcDbSymbolTableRecord
100
AcDbLinetypeTableRecord
  2
Continuous
 70
     0
  3
Solid line
 72
    65
 73
     0
 40
0.0
  0
LTYPE
  5
6E
330
5
100
AcDbSymbolTableRecord
100
AcDbLinetypeTableRecord
  2
HIDDEN
 70
     0
  3
Hidden __ __ __ __ __ __ __ __ __ __ __ __ __ __
 72
    65
 73
     2
 40
0.075
 49
0.05
 74
     0
 49
-0.025
 74
     0
  0
LTYPE
  5
6F
330
5
100
AcDbSymbolTableRecord
100
AcDbLinetypeTableRecord
  2
PHANTOM
 70
     0
  3
Phantom ______  __  __  ______  __  __  ______
 72
    65
 73
     6
 40
0.5
 49
0.25
 74
     0
 49
-0.05
 74
     0
 49
0.05
 74
     0
 49
-0.05
 74
     0
 49
0.05
 74
     0
 49
-0.05
 74
     0
  0
LTYPE
  5
70
330
5
100
AcDbSymbolTableRecord
100
AcDbLinetypeTableRecord
  2
CENTER
 70
     0
  3
Center ____ _ ____ _ ____ _ ____ _ ____ _ ____
 72
    65
 73
     4
 40
0.4
 49
0.25
 74
     0
 49
-0.05
 74
     0
 49
0.05
 74
     0
 49
-0.05
 74
     0
  0
LTYPE
  5
71
330
5
100
AcDbSymbolTableRecord
100
AcDbLinetypeTableRecord
  2
CENTERX2
 70
     0
  3
Center (2x) ________  __  ________  __  _____
 72
    65
 73
     4
 40
0.8
 49
0.5
 74
     0
 49
-0.1
 74
     0
 49
0.1
 74
     0
 49
-0.1
 74
     0
  0
LTYPE
  5
72
330
5
100
AcDbSymbolTableRecord
100
AcDbLinetypeTableRecord
  2
DOT2
 70
     0
  3
Dot (.5x) ........................................
 72
    65
 73
     2
 40
0.025
 49
0.0
 74
     0
 49
-0.025
 74
     0
  0
ENDTAB
  0
TABLE
  2
LAYER
  5
2
330
0
100
AcDbSymbolTable
 70
     1
  0
LAYER
  5
10
330
2
100
AcDbSymbolTableRecord
100
AcDbLayerTableRecord
  2
0
 70
     0
 62
     7
  6
Continuous
370
    -3
390
F
  0
ENDTAB
  0
TABLE
  2
STYLE
  5
3
330
0
100
AcDbSymbolTable
 70
     1
  0
STYLE
  5
11
330
3
100
AcDbSymbolTableRecord
100
AcDbTextStyleTableRecord
  2
Standard
 70
     0
 40
0.0
 41
1.0
 50
0.0
 71
     0
 42
0.1377952756
  3
txt
  4

  0
ENDTAB
  0
TABLE
  2
VIEW
  5
6
330
0
100
AcDbSymbolTable
 70
     0
  0
ENDTAB
  0
TABLE
  2
UCS
  5
7
330
0
100
AcDbSymbolTable
 70
     0
  0
ENDTAB
  0
TABLE
  2
APPID
  5
9
330
0
100
AcDbSymbolTable
 70
     1
  0
APPID
  5
12
330
9
100
AcDbSymbolTableRecord
100
AcDbRegAppTableRecord
  2
ACAD
 70
     0
  0
ENDTAB
  0
TABLE
  2
DIMSTYLE
  5
A
330
0
100
AcDbSymbolTable
 70
     1
100
AcDbDimStyleTable
  0
DIMSTYLE
105
27
330
A
100
AcDbSymbolTableRecord
100
AcDbDimStyleTableRecord
  2
Standard
 70
     0
178
     0
340
11
  0
ENDTAB
  0
TABLE
  2
BLOCK_RECORD
  5
1
330
0
100
AcDbSymbolTable
 70
     3
  0
BLOCK_RECORD
  5
1F
330
1
100
AcDbSymbolTableRecord
100
AcDbBlockTableRecord
  2
*Model_Space
340
22
  0
BLOCK_RECORD
  5
1B
330
1
100
AcDbSymbolTableRecord
100
AcDbBlockTableRecord
  2
*Paper_Space
340
1E
  0
BLOCK_RECORD
  5
23
330
1
100
AcDbSymbolTableRecord
100
AcDbBlockTableRecord
  2
*Paper_Space0
340
26
  0
BLOCK_RECORD
  5
110
330
1
100
AcDbSymbolTableRecord
100
AcDbBlockTableRecord
  2
*Paper_Space1
340
111
  0
BLOCK_RECORD
  5
1D6
330
1
100
AcDbSymbolTableRecord
100
AcDbBlockTableRecord
  2
*Paper_Space2
340
1D7
  0
ENDTAB
  0
ENDSEC
  0
SECTION
  2
BLOCKS
  0
BLOCK
  5
20
330
1F
100
AcDbEntity
  8
0
100
AcDbBlockBegin
  2
*Model_Space
 70
     0
 10
0.0
 20
0.0
 30
0.0
  3
*Model_Space
  1

  0
ENDBLK
  5
21
330
1F
100
AcDbEntity
  8
0
100
AcDbBlockEnd
  0
BLOCK
  5
1C
330
1B
100
AcDbEntity
 67
     1
  8
0
100
AcDbBlockBegin
  2
*Paper_Space
 70
     0
 10
0.0
 20
0.0
 30
0.0
  3
*Paper_Space
  1

  0
ENDBLK
  5
1D
330
1B
100
AcDbEntity
 67
     1
  8
0
100
AcDbBlockEnd
  0
BLOCK
  5
24
330
23
100
AcDbEntity
  8
0
100
AcDbBlockBegin
  2
*Paper_Space0
 70
     0
 10
0.0
 20
0.0
 30
0.0
  3
*Paper_Space0
  1

  0
LINE
  5
10C
330
23
100
AcDbEntity
  8
0
  6
Continuous
 62
     7
370
    25
100
AcDbLine
 10
-8.9173228346
 20
0.0
 30
0.0
 11
8.9960629921
 21
0.0
 31
0.0
  0
LINE
  5
10D
330
23
100
AcDbEntity
  8
0
  6
Continuous
 62
     7
370
    25
100
AcDbLine
 10
-8.9173228346
 20
0.0
 30
0.0
 11
-8.9173228346
 21
15.7480314961
 31
0.0
  0
LINE
  5
10E
330
23
100
AcDbEntity
  8
0
  6
Continuous
 62
     7
370
    25
100
AcDbLine
 10
-8.9173228346
 20
15.7480314961
 30
0.0
 11
8.9960629921
 21
15.7480314961
 31
0.0
  0
LINE
  5
10F
330
23
100
AcDbEntity
  8
0
  6
Continuous
 62
     7
370
    25
100
AcDbLine
 10
8.9960629921
 20
0.0
 30
0.0
 11
8.9960629921
 21
15.7480314961
 31
0.0
  0
VIEWPORT
  5
32E
330
23
100
AcDbEntity
  8
0
100
AcDbViewport
 10
0.0
 20
0.0
 30
0.0
 40
8.4
 41
6.4
 68
     1
 69
     1
 12
0.0
 22
7.874015748
 13
0.0
 23
0.0
 14
0.5
 24
0.5
 15
0.5
 25
0.5
 16
0.0
 26
0.0
 36
1.0
 17
0.0
 27
0.0
 37
0.0
 42
50.0
 43
0.0
 44
0.0
 45
30.4431946007
 50
0.0
 51
0.0
 72
   100
 90
   557152
  1

281
     0
 71
     1
 74
     0
110
0.0
120
0.0
130
0.0
111
1.0
121
0.0
131
0.0
112
0.0
122
1.0
132
0.0
 79
     0
146
0.0
  0
ENDBLK
  5
25
330
23
100
AcDbEntity
  8
0
100
AcDbBlockEnd
  0
BLOCK
  5
112
330
110
100
AcDbEntity
  8
0
100
AcDbBlockBegin
  2
*Paper_Space1
 70
     0
 10
0.0
 20
0.0
 30
0.0
  3
*Paper_Space1
  1

  0
LINE
  5
18D
330
110
100
AcDbEntity
  8
0
  6
Continuous
 62
     7
370
    25
100
AcDbLine
 10
-11.7125984252
 20
-8.9173228346
 30
0.0
 11
-19.5866141732
 21
-8.9173228346
 31
0.0
  0
LINE
  5
18E
330
110
100
AcDbEntity
  8
0
  6
Continuous
 62
     7
370
    25
100
AcDbLine
 10
-19.5866141732
 20
-8.9173228346
 30
0.0
 11
-19.5866141732
 21
8.9960629921
 31
0.0
  0
LINE
  5
18F
330
110
100
AcDbEntity
  8
0
  6
Continuous
 62
     7
370
    25
100
AcDbLine
 10
-11.7125984252
 20
8.9960629921
 30
0.0
 11
-19.5866141732
 21
8.9960629921
 31
0.0
  0
LINE
  5
190
330
110
100
AcDbEntity
  8
0
  6
Continuous
 62
     7
370
    25
100
AcDbLine
 10
-11.7125984252
 20
-8.9173228346
 30
0.0
 11
-11.7125984252
 21
8.9960629921
 31
0.0
  0
LINE
  5
191
330
110
100
AcDbEntity
  8
0
  6
Continuous
 62
     7
370
    25
100
AcDbLine
 10
-10.8267716535
 20
7.5393700787
 30
0.0
 11
-10.8267716535
 21
-7.5
 31
0.0
  0
LINE
  5
192
330
110
100
AcDbEntity
  8
0
  6
Continuous
 62
     7
370
    25
100
AcDbLine
 10
-10.1181102362
 20
-7.5
 30
0.0
 11
-10.1181102362
 21
7.5393700787
 31
0.0
  0
LINE
  5
193
330
110
100
AcDbEntity
  8
0
  6
Continuous
 62
     7
370
    25
100
AcDbLine
 10
19.5866141732
 20
-8.9173228346
 30
0.0
 11
19.5866141732
 21
8.9960629921
 31
0.0
  0
LINE
  5
194
330
110
100
AcDbEntity
  8
0
  6
Continuous
 62
     7
370
    25
100
AcDbLine
 10
11.7125984252
 20
-8.9173228346
 30
0.0
 11
11.7125984252
 21
8.9960629921
 31
0.0
  0
LINE
  5
195
330
110
100
AcDbEntity
  8
0
  6
Continuous
 62
     7
370
    25
100
AcDbLine
 10
19.5866141732
 20
-8.9173228346
 30
0.0
 11
11.7125984252
 21
-8.9173228346
 31
0.0
  0
LINE
  5
196
330
110
100
AcDbEntity
  8
0
  6
Continuous
 62
     7
370
    25
100
AcDbLine
 10
19.5866141732
 20
8.9960629921
 30
0.0
 11
11.7125984252
 21
8.9960629921
 31
0.0
  0
LINE
  5
197
330
110
100
AcDbEntity
  8
0
  6
Continuous
 62
     7
370
    25
100
AcDbLine
 10
11.5388104897
 20
-8.9173228346
 30
0.0
 11
-11.5388104897
 21
-8.9173228346
 31
0.0
  0
LINE
  5
198
330
110
100
AcDbEntity
  8
0
  6
Continuous
 62
     7
370
    25
100
AcDbLine
 10
-11.5666493393
 20
-8.8501139063
 30
0.0
 11
11.5666493393
 21
-8.8501139063
 31
0.0
  0
LINE
  5
199
330
110
100
AcDbEntity
  8
0
  6
Continuous
 62
     7
370
    25
100
AcDbLine
 10
10.9251968504
 20
-8.2086614173
 30
0.0
 11
11.5666493393
 21
-8.8501139063
 31
0.0
  0
LINE
  5
19A
330
110
100
AcDbEntity
  8
0
  6
Continuous
 62
     7
370
    25
100
AcDbLine
 10
-10.9251968504
 20
-8.2086614173
 30
0.0
 11
-11.5666493393
 21
-8.8501139063
 31
0.0
  0
LINE
  5
19B
330
110
100
AcDbEntity
  8
0
  6
Continuous
 62
     7
370
    25
100
AcDbLine
 10
-11.6732283465
 20
-8.8222750566
 30
0.0
 11
-11.0433070866
 21
-8.1923537968
 31
0.0
  0
LINE
  5
19C
330
110
100
AcDbEntity
  8
0
  6
Continuous
 62
     7
370
    25
100
AcDbLine
 10
-11.0433070866
 20
-8.1923537968
 30
0.0
 11
-11.015468237
 21
-8.2201926464
 31
0.0
  0
LINE
  5
19D
330
110
100
AcDbEntity
  8
0
  6
Continuous
 62
     7
370
    25
100
AcDbLine
 10
-11.015468237
 20
-8.2201926464
 30
0.0
 11
-11.6453894968
 21
-8.8501139063
 31
0.0
  0
LINE
  5
19E
330
110
100
AcDbEntity
  8
0
  6
Continuous
 62
     7
370
    25
100
AcDbLine
 10
-11.6453894968
 20
-8.8501139063
 30
0.0
 11
-11.6732283465
 21
-8.8222750566
 31
0.0
  0
LINE
  5
19F
330
110
100
AcDbEntity
  8
0
  6
Continuous
 62
     7
370
    25
100
AcDbLine
 10
-11.6732283465
 20
8.9960629921
 30
0.0
 11
-11.6732283465
 21
-8.8222750566
 31
0.0
  0
LINE
  5
1A0
330
110
100
AcDbEntity
  8
0
  6
Continuous
 62
     7
370
    25
100
AcDbLine
 10
-11.0433070866
 20
-8.1923537968
 30
0.0
 11
-11.0433070866
 21
8.9960629921
 31
0.0
  0
LINE
  5
1A1
330
110
100
AcDbEntity
  8
0
  6
Continuous
 62
     7
370
    25
100
AcDbLine
 10
-11.0433070866
 20
-8.1923537968
 30
0.0
 11
-11.0039370079
 21
-8.1923537968
 31
0.0
  0
LINE
  5
1A2
330
110
100
AcDbEntity
  8
0
  6
Continuous
 62
     7
370
    25
100
AcDbLine
 10
-11.0039370079
 20
8.9566929134
 30
0.0
 11
-11.0039370079
 21
-8.1923537968
 31
0.0
  0
LINE
  5
1A3
330
110
100
AcDbEntity
  8
0
  6
Continuous
 62
     7
370
    25
100
AcDbLine
 10
-11.7125984252
 20
-8.8222750566
 30
0.0
 11
-11.6732283465
 21
-8.8222750566
 31
0.0
  0
LINE
  5
1A4
330
110
100
AcDbEntity
  8
0
  6
Continuous
 62
     7
370
    25
100
AcDbLine
 10
-11.6732283465
 20
8.9960629921
 30
0.0
 11
-11.0433070866
 21
8.9960629921
 31
0.0
  0
LINE
  5
1A5
330
110
100
AcDbEntity
  8
0
  6
Continuous
 62
     7
370
    25
100
AcDbLine
 10
11.0433070866
 20
8.9960629921
 30
0.0
 11
11.0433070866
 21
-8.1923537968
 31
0.0
  0
LINE
  5
1A6
330
110
100
AcDbEntity
  8
0
  6
Continuous
 62
     7
370
    25
100
AcDbLine
 10
11.0433070866
 20
-8.1923537968
 30
0.0
 11
11.0039370079
 21
-8.1923537968
 31
0.0
  0
LINE
  5
1A7
330
110
100
AcDbEntity
  8
0
  6
Continuous
 62
     7
370
    25
100
AcDbLine
 10
11.0039370079
 20
-8.1923537968
 30
0.0
 11
11.0039370079
 21
8.9566929134
 31
0.0
  0
LINE
  5
1A8
330
110
100
AcDbEntity
  8
0
  6
Continuous
 62
     7
370
    25
100
AcDbLine
 10
11.7125984252
 20
8.9566929134
 30
0.0
 11
-11.7125984252
 21
8.9566929134
 31
0.0
  0
LINE
  5
1A9
330
110
100
AcDbEntity
  8
0
  6
Continuous
 62
     7
370
    25
100
AcDbLine
 10
11.6732283465
 20
-8.8222750566
 30
0.0
 11
11.6732283465
 21
8.9960629921
 31
0.0
  0
LINE
  5
1AA
330
110
100
AcDbEntity
  8
0
  6
Continuous
 62
     7
370
    25
100
AcDbLine
 10
11.0433070866
 20
-8.1923537968
 30
0.0
 11
11.6732283465
 21
-8.8222750566
 31
0.0
  0
LINE
  5
1AB
330
110
100
AcDbEntity
  8
0
  6
Continuous
 62
     7
370
    25
100
AcDbLine
 10
11.7125984252
 20
-8.8222750566
 30
0.0
 11
11.6732283465
 21
-8.8222750566
 31
0.0
  0
LINE
  5
1AC
330
110
100
AcDbEntity
  8
0
  6
Continuous
 62
     7
370
    25
100
AcDbLine
 10
11.6453894968
 20
-8.8501139063
 30
0.0
 11
11.015468237
 21
-8.2201926464
 31
0.0
  0
LINE
  5
1AD
330
110
100
AcDbEntity
  8
0
  6
Continuous
 62
     7
370
    25
100
AcDbLine
 10
11.015468237
 20
-8.2201926464
 30
0.0
 11
11.0433070866
 21
-8.1923537968
 31
0.0
  0
LINE
  5
1AE
330
110
100
AcDbEntity
  8
0
  6
Continuous
 62
     7
370
    25
100
AcDbLine
 10
11.6732283465
 20
-8.8222750566
 30
0.0
 11
11.6453894968
 21
-8.8501139063
 31
0.0
  0
LINE
  5
1AF
330
110
100
AcDbEntity
  8
0
  6
Continuous
 62
     7
370
    25
100
AcDbLine
 10
11.0433070866
 20
8.9960629921
 30
0.0
 11
11.6732283465
 21
8.9960629921
 31
0.0
  0
LINE
  5
1B0
330
110
100
AcDbEntity
  8
0
  6
Continuous
 62
     7
370
    25
100
AcDbLine
 10
-11.0039370079
 20
8.3267716535
 30
0.0
 11
11.0039370079
 21
8.3267716535
 31
0.0
  0
LINE
  5
1B1
330
110
100
AcDbEntity
  8
0
  6
Continuous
 62
     7
370
    25
100
AcDbLine
 10
10.9645669291
 20
8.2874015748
 30
0.0
 11
-10.9645669291
 21
8.2874015748
 31
0.0
  0
LINE
  5
1B2
330
110
100
AcDbEntity
  8
0
  6
Continuous
 62
     7
370
    25
100
AcDbLine
 10
-10.9645669291
 20
8.9960629921
 30
0.0
 11
10.9645669291
 21
8.9960629921
 31
0.0
  0
LINE
  5
1B3
330
110
100
AcDbEntity
  8
0
  6
Continuous
 62
     7
370
    25
100
AcDbLine
 10
-10.1181102362
 20
6.8307086614
 30
0.0
 11
10.1181102362
 21
6.8307086614
 31
0.0
  0
LINE
  5
1B4
330
110
100
AcDbEntity
  8
0
  6
Continuous
 62
     7
370
    25
100
AcDbLine
 10
-2.9527559055
 20
7.5393700787
 30
0.0
 11
-2.9527559055
 21
6.8307086614
 31
0.0
  0
LINE
  5
1B5
330
110
100
AcDbEntity
  8
0
  6
Continuous
 62
     7
370
    25
100
AcDbLine
 10
10.8267716535
 20
7.5393700787
 30
0.0
 11
-10.8267716535
 21
7.5393700787
 31
0.0
  0
LINE
  5
1B6
330
110
100
AcDbEntity
  8
0
  6
Continuous
 62
     7
370
    25
100
AcDbLine
 10
2.9527559055
 20
6.8307086614
 30
0.0
 11
2.9527559055
 21
7.5393700787
 31
0.0
  0
LINE
  5
1B7
330
110
100
AcDbEntity
  8
0
  6
Continuous
 62
     7
370
    25
100
AcDbLine
 10
10.8267716535
 20
-7.5
 30
0.0
 11
10.8267716535
 21
7.5393700787
 31
0.0
  0
LINE
  5
1B8
330
110
100
AcDbEntity
  8
0
  6
Continuous
 62
     7
370
    25
100
AcDbLine
 10
10.1181102362
 20
7.5393700787
 30
0.0
 11
10.1181102362
 21
-7.5
 31
0.0
  0
LINE
  5
1B9
330
110
100
AcDbEntity
  8
0
  6
Continuous
 62
     7
370
    25
100
AcDbLine
 10
10.9645669291
 20
-8.2086614173
 30
0.0
 11
10.9645669291
 21
8.9960629921
 31
0.0
  0
LINE
  5
1BA
330
110
100
AcDbEntity
  8
0
  6
Continuous
 62
     7
370
    25
100
AcDbLine
 10
-11.0039370079
 20
-8.1692913386
 30
0.0
 11
11.0039370079
 21
-8.1692913386
 31
0.0
  0
LINE
  5
1BB
330
110
100
AcDbEntity
  8
0
  6
Continuous
 62
     7
370
    25
100
AcDbLine
 10
11.0039370079
 20
-7.9330708661
 30
0.0
 11
-11.0039370079
 21
-7.9330708661
 31
0.0
  0
LINE
  5
1BC
330
110
100
AcDbEntity
  8
0
  6
Continuous
 62
     7
370
    25
100
AcDbLine
 10
10.9645669291
 20
-8.2086614173
 30
0.0
 11
-10.9645669291
 21
-8.2086614173
 31
0.0
  0
LINE
  5
1BD
330
110
100
AcDbEntity
  8
0
  6
Continuous
 62
     7
370
    25
100
AcDbLine
 10
-10.9645669291
 20
-7.8937007874
 30
0.0
 11
10.9645669291
 21
-7.8937007874
 31
0.0
  0
LINE
  5
1BE
330
110
100
AcDbEntity
  8
0
  6
Continuous
 62
     7
370
    25
100
AcDbLine
 10
-11.0039370079
 20
-7.8543307087
 30
0.0
 11
11.0039370079
 21
-7.8543307087
 31
0.0
  0
LINE
  5
1BF
330
110
100
AcDbEntity
  8
0
  6
Continuous
 62
     7
370
    25
100
AcDbLine
 10
-10.9645669291
 20
8.9960629921
 30
0.0
 11
-10.9645669291
 21
-8.2086614173
 31
0.0
  0
LINE
  5
1C0
330
110
100
AcDbEntity
  8
0
  6
Continuous
 62
     7
370
    25
100
AcDbLine
 10
11.0039370079
 20
-7.5393700787
 30
0.0
 11
-11.0039370079
 21
-7.5393700787
 31
0.0
  0
LINE
  5
1C1
330
110
100
AcDbEntity
  8
0
  6
Continuous
 62
     7
370
    25
100
AcDbLine
 10
-10.9645669291
 20
-7.5
 30
0.0
 11
10.9645669291
 21
-7.5
 31
0.0
  0
ARC
  5
1C2
330
110
100
AcDbEntity
  8
0
  6
Continuous
 62
     7
370
    25
100
AcDbCircle
 10
11.5388104897
 20
-8.8779527559
 30
0.0
 40
0.0393700787401563
100
AcDbArc
 50
270.0
 51
45.0
  0
ARC
  5
1C3
330
110
100
AcDbEntity
  8
0
  6
Continuous
 62
     7
370
    25
100
AcDbCircle
 10
-11.5388104897
 20
-8.8779527559
 30
0.0
 40
0.0393700787401563
100
AcDbArc
 50
135.0
 51
270.0
  0
ARC
  5
1C4
330
110
100
AcDbEntity
  8
0
  6
Continuous
 62
     7
370
    25
100
AcDbCircle
 10
-11.0433070866
 20
-8.1923537968
 30
0.0
 40
0.0393700787401681
100
AcDbArc
 50
315.0
 51
360.0
  0
ARC
  5
1C5
330
110
100
AcDbEntity
  8
0
  6
Continuous
 62
     7
370
    25
100
AcDbCircle
 10
-11.6732283465
 20
-8.8222750566
 30
0.0
 40
0.0393700787401576
100
AcDbArc
 50
180.0
 51
315.0
  0
ARC
  5
1C6
330
110
100
AcDbEntity
  8
0
  6
Continuous
 62
     7
370
    25
100
AcDbCircle
 10
-11.0433070866
 20
8.9566929134
 30
0.0
 40
0.0393700787401574
100
AcDbArc
 50
360.0
 51
90.0
  0
ARC
  5
1C7
330
110
100
AcDbEntity
  8
0
  6
Continuous
 62
     7
370
    25
100
AcDbCircle
 10
-11.6732283465
 20
8.9566929134
 30
0.0
 40
0.0393700787401574
100
AcDbArc
 50
90.0
 51
180.0
  0
ARC
  5
1C8
330
110
100
AcDbEntity
  8
0
  6
Continuous
 62
     7
370
    25
100
AcDbCircle
 10
11.6732283465
 20
8.9566929134
 30
0.0
 40
0.0393700787401592
100
AcDbArc
 50
0.0
 51
90.0
  0
ARC
  5
1C9
330
110
100
AcDbEntity
  8
0
  6
Continuous
 62
     7
370
    25
100
AcDbCircle
 10
11.0433070866
 20
8.9566929134
 30
0.0
 40
0.0393700787401592
100
AcDbArc
 50
90.0
 51
180.0
  0
ARC
  5
1CA
330
110
100
AcDbEntity
  8
0
  6
Continuous
 62
     7
370
    25
100
AcDbCircle
 10
11.6732283465
 20
-8.8222750566
 30
0.0
 40
0.0393700787401601
100
AcDbArc
 50
225.0
 51
0.0
  0
ARC
  5
1CB
330
110
100
AcDbEntity
  8
0
  6
Continuous
 62
     7
370
    25
100
AcDbCircle
 10
11.0433070866
 20
-8.1923537968
 30
0.0
 40
0.0393700787401789
100
AcDbArc
 50
180.0
 51
225.0
  0
ARC
  5
1CC
330
110
100
AcDbEntity
  8
0
  6
Continuous
 62
     7
370
    25
100
AcDbCircle
 10
-10.9645669291
 20
8.9566929134
 30
0.0
 40
0.0393700787401574
100
AcDbArc
 50
90.0
 51
180.0
  0
ARC
  5
1CD
330
110
100
AcDbEntity
  8
0
  6
Continuous
 62
     7
370
    25
100
AcDbCircle
 10
10.9645669291
 20
8.3267716535
 30
0.0
 40
0.0393700787401574
100
AcDbArc
 50
270.0
 51
0.0
  0
ARC
  5
1CE
330
110
100
AcDbEntity
  8
0
  6
Continuous
 62
     7
370
    25
100
AcDbCircle
 10
-10.9645669291
 20
8.3267716535
 30
0.0
 40
0.0393700787401592
100
AcDbArc
 50
180.0
 51
270.0
  0
ARC
  5
1CF
330
110
100
AcDbEntity
  8
0
  6
Continuous
 62
     7
370
    25
100
AcDbCircle
 10
10.9645669291
 20
8.9566929134
 30
0.0
 40
0.0393700787401539
100
AcDbArc
 50
360.0
 51
90.0
  0
ARC
  5
1D0
330
110
100
AcDbEntity
  8
0
  6
Continuous
 62
     7
370
    25
100
AcDbCircle
 10
-10.9645669291
 20
-8.1692913386
 30
0.0
 40
0.039370078740161
100
AcDbArc
 50
180.0
 51
270.0
  0
ARC
  5
1D1
330
110
100
AcDbEntity
  8
0
  6
Continuous
 62
     7
370
    25
100
AcDbCircle
 10
-10.9645669291
 20
-7.9330708661
 30
0.0
 40
0.0393700787401592
100
AcDbArc
 50
90.0
 51
180.0
  0
ARC
  5
1D2
330
110
100
AcDbEntity
  8
0
  6
Continuous
 62
     7
370
    25
100
AcDbCircle
 10
10.9645669291
 20
-8.1692913386
 30
0.0
 40
0.0393700787401574
100
AcDbArc
 50
270.0
 51
0.0
  0
ARC
  5
1D3
330
110
100
AcDbEntity
  8
0
  6
Continuous
 62
     7
370
    25
100
AcDbCircle
 10
10.9645669291
 20
-7.9330708661
 30
0.0
 40
0.0393700787401574
100
AcDbArc
 50
360.0
 51
90.0
  0
ARC
  5
1D4
330
110
100
AcDbEntity
  8
0
  6
Continuous
 62
     7
370
    25
100
AcDbCircle
 10
-10.9645669291
 20
-7.5393700787
 30
0.0
 40
0.039370078740161
100
AcDbArc
 50
90.0
 51
180.0
  0
ARC
  5
1D5
330
110
100
AcDbEntity
  8
0
  6
Continuous
 62
     7
370
    25
100
AcDbCircle
 10
10.9645669291
 20
-7.5393700787
 30
0.0
 40
0.0393700787401574
100
AcDbArc
 50
0.0
 51
90.0
  0
VIEWPORT
  5
330
330
110
100
AcDbEntity
  8
0
100
AcDbViewport
 10
0.0
 20
0.0
 30
0.0
 40
8.4
 41
6.4
 68
     1
 69
     1
 12
0.0
 22
7.874015748
 13
0.0
 23
0.0
 14
0.5
 24
0.5
 15
0.5
 25
0.5
 16
0.0
 26
0.0
 36
1.0
 17
0.0
 27
0.0
 37
0.0
 42
50.0
 43
0.0
 44
0.0
 45
30.4431946007
 50
0.0
 51
0.0
 72
   100
 90
   557152
  1

281
     0
 71
     1
 74
     0
110
0.0
120
0.0
130
0.0
111
1.0
121
0.0
131
0.0
112
0.0
122
1.0
132
0.0
 79
     0
146
0.0
  0
ENDBLK
  5
113
330
110
100
AcDbEntity
  8
0
100
AcDbBlockEnd
  0
BLOCK
  5
1D8
330
1D6
100
AcDbEntity
  8
0
100
AcDbBlockBegin
  2
*Paper_Space2
 70
     0
 10
0.0
 20
0.0
 30
0.0
  3
*Paper_Space2
  1

  0
LWPOLYLINE
  5
227
330
1D6
100
AcDbEntity
  8
0
  6
Continuous
 62
     7
370
    25
100
AcDbPolyline
 90
       14
 70
   128
 43
0.0
 10
-14.4646705905
 20
12.4557532186
 10
-14.4692326804
 20
12.4647080553
 10
-14.4727333096
 20
12.4738960197
 10
-14.4750577966
 20
12.4830161124
 10
-14.476129991
 20
12.4917695574
 10
-14.4759147674
 20
12.4998695902
 10
-14.4744191765
 20
12.5070508523
 10
-14.4716922143
 20
12.5130780841
 10
-14.4678232164
 20
12.5177538325
 10
-14.4629389321
 20
12.520924919
 10
-14.4571993713
 20
12.5224874583
 10
-14.4507925632
 20
12.5223902613
 10
-14.4439283959
 20
12.5206365121
 10
-14.4368317408
 20
12.517283664
  0
LWPOLYLINE
  5
229
330
1D6
100
AcDbEntity
  8
0
  6
Continuous
 62
     7
370
    25
100
AcDbPolyline
 90
       14
 70
   128
 43
0.0
 10
1.8536716977
 20
3.035374734
 10
1.8591457935
 20
3.038535804
 10
1.8653525629
 20
3.0421198066
 10
1.8720886708
 20
3.0460093291
 10
1.8791334411
 20
3.0500769501
 10
1.8862560859
 20
3.0541894136
 10
1.893223266
 20
3.0582119944
 10
1.8998067352
 20
3.0620129122
 10
1.9057908179
 20
3.065467648
 10
1.9109794744
 20
3.0684630242
 10
1.9152027234
 20
3.0709009117
 10
1.9183222104
 20
3.0727014448
 10
1.9202357405
 20
3.0738056376
 10
1.9208806261
 20
3.0741773168
  0
LWPOLYLINE
  5
22B
330
1D6
100
AcDbEntity
  8
0
  6
Continuous
 62
     7
370
    25
100
AcDbPolyline
 90
        9
 70
   128
 43
0.0
 10
1.8536716977
 20
-8.3181293152
 10
1.8629516207
 20
-8.3221024748
 10
1.873829826
 20
-8.3243494425
 10
1.8853694899
 20
-8.3246767112
 10
1.8965768242
 20
-8.3230560965
 10
1.9064866609
 20
-8.3196271648
 10
1.9142455714
 20
-8.3146852133
 10
1.9191853637
 20
-8.3086558397
 10
1.9208806261
 20
-8.3020582894
  0
LWPOLYLINE
  5
247
330
1D6
100
AcDbEntity
  8
0
  6
Continuous
 62
     7
370
    25
100
AcDbPolyline
 90
       13
 70
   128
 43
0.0
 10
2.7421266908
 20
7.9987435867
 10
2.7472127437
 20
7.8276214244
 10
2.7624461237
 20
7.6514607205
 10
2.7877526152
 20
7.4711197122
 10
2.8230089275
 20
7.2874770026
 10
2.8680432955
 20
7.1014272806
 10
2.9226363163
 20
6.9138769618
 10
2.9865220181
 20
6.7257397725
 10
3.0593891562
 20
6.5379322982
 10
3.1408827293
 20
6.3513695179
 10
3.2306057088
 20
6.1669603468
 10
3.3281209735
 20
5.9856032078
 10
3.4193404381
 20
5.8303202986
  0
LWPOLYLINE
  5
249
330
1D6
100
AcDbEntity
  8
0
  6
Continuous
 62
     7
370
    25
100
AcDbPolyline
 90
       13
 70
   128
 43
0.0
 10
3.9204397318
 20
6.1195987634
 10
3.8292202672
 20
6.2748816726
 10
3.7317050026
 20
6.4562388116
 10
3.6419820231
 20
6.6406479827
 10
3.56048845
 20
6.827210763
 10
3.4876213119
 20
7.0150182374
 10
3.4237356101
 20
7.2031554267
 10
3.3691425893
 20
7.3907057454
 10
3.3241082213
 20
7.5767554674
 10
3.2888519089
 20
7.760398177
 10
3.2635454174
 20
7.9407391854
 10
3.2483120375
 20
8.1168998893
 10
3.2432259846
 20
8.2880220515
  0
LWPOLYLINE
  5
25F
330
1D6
100
AcDbEntity
  8
0
  6
Continuous
 62
     8
370
    25
100
AcDbPolyline
 90
        7
 70
   128
 43
0.0
 10
-14.4925094401
 20
13.9678059808
 10
-14.5039379707
 20
13.9687846349
 10
-14.514382284
 20
13.9716363163
 10
-14.5229429225
 20
13.97611544
 10
-14.5288826501
 20
13.981836267
 10
-14.5316899412
 20
13.9883061234
 10
-14.5318795189
 20
13.9905338435
  0
LWPOLYLINE
  5
262
330
1D6
100
AcDbEntity
  8
0
  6
Continuous
 62
     8
370
    25
100
AcDbPolyline
 90
        7
 70
   128
 43
0.0
 10
-14.4925094401
 20
1.1731901095
 10
-14.5039379707
 20
1.1741687636
 10
-14.514382284
 20
1.177020445
 10
-14.5229429225
 20
1.1814995687
 10
-14.5288826501
 20
1.1872203957
 10
-14.5316899412
 20
1.1936902521
 10
-14.5318795189
 20
1.1959179722
  0
LINE
  5
28B
330
1D6
100
AcDbEntity
  8
0
  6
Continuous
 62
     7
370
    25
100
AcDbLine
 10
-14.4565151804
 20
1.0842237833
 30
0.0
 11
1.8618271077
 21
-8.3361547013
 31
0.0
  0
LINE
  5
28C
330
1D6
100
AcDbEntity
  8
0
  6
Continuous
 62
     7
370
    25
100
AcDbLine
 10
-14.4762018196
 20
12.4945558013
 30
0.0
 11
-14.4762018196
 21
1.1183201952
 31
0.0
  0
LINE
  5
28D
330
1D6
100
AcDbEntity
  8
0
  6
Continuous
 62
     7
370
    25
100
AcDbLine
 10
-14.5318795189
 20
13.9905338435
 30
0.0
 11
-14.5318795189
 21
1.1959179722
 31
0.0
  0
LINE
  5
28E
330
1D6
100
AcDbEntity
  8
0
  6
Continuous
 62
     7
370
    25
100
AcDbLine
 10
-1.9405640657
 20
21.2820770906
 30
0.0
 11
-14.5121928798
 21
14.0246302554
 31
0.0
  0
LINE
  5
28F
330
1D6
100
AcDbEntity
  8
0
  6
Continuous
 62
     7
370
    25
100
AcDbLine
 10
-14.4925094401
 20
1.1565478935
 30
0.0
 11
-14.4762018196
 21
1.1565478935
 31
0.0
  0
LINE
  5
290
330
1D6
100
AcDbEntity
  8
0
  6
Continuous
 62
     7
370
    25
100
AcDbLine
 10
-1.4360889529
 20
11.9290042127
 30
0.0
 11
-1.4360889529
 21
20.9908442656
 31
0.0
  0
LINE
  5
291
330
1D6
100
AcDbEntity
  8
0
  6
Continuous
 62
     7
370
    25
100
AcDbLine
 10
-1.455775592
 20
21.0249406775
 30
0.0
 11
-1.9011971864
 21
21.2820770906
 31
0.0
  0
LINE
  5
292
330
1D6
100
AcDbEntity
  8
0
  6
Continuous
 62
     7
370
    25
100
AcDbLine
 10
14.1224521841
 20
12.0090951906
 30
0.0
 11
1.9962449645
 21
5.0087847685
 31
0.0
  0
LINE
  5
293
330
1D6
100
AcDbEntity
  8
0
  6
Continuous
 62
     7
370
    25
100
AcDbLine
 10
14.6072406578
 20
11.7519587774
 30
0.0
 11
14.1618190633
 21
12.0090951906
 31
0.0
  0
LINE
  5
294
330
1D6
100
AcDbEntity
  8
0
  6
Continuous
 62
     7
370
    25
100
AcDbLine
 10
6.2903039818
 20
7.4876922742
 30
0.0
 11
-1.4000978927
 21
11.9272667773
 31
0.0
  0
LINE
  5
295
330
1D6
100
AcDbEntity
  8
0
  6
Continuous
 62
     7
370
    25
100
AcDbLine
 10
-1.9045730055
 20
11.6360339523
 30
0.0
 11
-1.9045730055
 21
11.5491086373
 31
0.0
  0
LINE
  5
296
330
1D6
100
AcDbEntity
  8
0
  6
Continuous
 62
     7
370
    25
100
AcDbLine
 10
-1.4394647719
 20
11.9272667773
 30
0.0
 11
-1.8848863664
 21
11.6701303642
 31
0.0
  0
LINE
  5
297
330
1D6
100
AcDbEntity
  8
0
  6
Continuous
 62
     7
370
    25
100
AcDbLine
 10
1.9208806261
 20
-7.7916886421
 30
0.0
 11
1.9568748857
 21
-7.812467686
 31
0.0
  0
LINE
  5
298
330
1D6
100
AcDbEntity
  8
0
  6
Continuous
 62
     7
370
    25
100
AcDbLine
 10
2.1632748629
 20
5.1467671641
 30
0.0
 11
-13.3429643938
 21
14.0983285476
 31
0.0
  0
LINE
  5
299
330
1D6
100
AcDbEntity
  8
0
  6
Continuous
 62
     7
370
    25
100
AcDbLine
 10
1.9208806261
 20
1.8524941754
 30
0.0
 11
1.9568748857
 21
1.8317151316
 31
0.0
  0
LINE
  5
29A
330
1D6
100
AcDbEntity
  8
0
  6
Continuous
 62
     7
370
    25
100
AcDbLine
 10
-13.5690510101
 20
13.9678059808
 30
0.0
 11
-13.5690510101
 21
12.0163245114
 31
0.0
  0
LINE
  5
29B
330
1D6
100
AcDbEntity
  8
0
  6
Continuous
 62
     7
370
    25
100
AcDbLine
 10
-13.3823312731
 20
14.0983285476
 30
0.0
 11
-13.549364371
 21
14.0019023927
 31
0.0
  0
LINE
  5
29C
330
1D6
100
AcDbEntity
  8
0
  6
Continuous
 62
     7
370
    25
100
AcDbLine
 10
-14.5875572182
 20
1.1410428335
 30
0.0
 11
-14.5266035897
 21
1.1762306142
 31
0.0
  0
LINE
  5
29D
330
1D6
100
AcDbEntity
  8
0
  6
Continuous
 62
     7
370
    25
100
AcDbLine
 10
-14.5875572182
 20
1.1410428335
 30
0.0
 11
-14.5875572182
 21
13.9999532569
 31
0.0
  0
LINE
  5
29E
330
1D6
100
AcDbEntity
  8
0
  6
Continuous
 62
     7
370
    25
100
AcDbLine
 10
-14.5875572182
 20
13.9999532569
 30
0.0
 11
-1.9208806261
 21
21.3122700064
 31
0.0
  0
LINE
  5
29F
330
1D6
100
AcDbEntity
  8
0
  6
Continuous
 62
     7
370
    25
100
AcDbLine
 10
-1.9208806261
 20
21.2873507575
 30
0.0
 11
-1.9208806261
 21
21.3122700064
 31
0.0
  0
LINE
  5
2A0
330
1D6
100
AcDbEntity
  8
0
  6
Continuous
 62
     7
370
    25
100
AcDbLine
 10
-15.0329788126
 20
1.9125356636
 30
0.0
 11
-15.0329788126
 21
13.7427332531
 31
0.0
  0
LINE
  5
2A1
330
1D6
100
AcDbEntity
  8
0
  6
Continuous
 62
     7
370
    25
100
AcDbLine
 10
-15.0329788126
 20
13.7427332531
 30
0.0
 11
-19.7099055543
 21
16.4426655914
 31
0.0
  0
LINE
  5
2A2
330
1D6
100
AcDbEntity
  8
0
  6
Continuous
 62
     7
370
    25
100
AcDbLine
 10
-19.7099055543
 20
16.4426655914
 30
0.0
 11
-19.7099055543
 21
4.6124680019
 31
0.0
  0
LINE
  5
2A3
330
1D6
100
AcDbEntity
  8
0
  6
Continuous
 62
     7
370
    25
100
AcDbLine
 10
-19.7099055543
 20
4.6124680019
 30
0.0
 11
-15.0329788126
 21
1.9125356636
 31
0.0
  0
LINE
  5
2A4
330
1D6
100
AcDbEntity
  8
0
  6
Continuous
 62
     7
370
    25
100
AcDbLine
 10
-20.1553271488
 20
4.3552479981
 30
0.0
 11
-14.5875572182
 21
1.1410428335
 31
0.0
  0
LINE
  5
2A5
330
1D6
100
AcDbEntity
  8
0
  6
Continuous
 62
     7
370
    25
100
AcDbLine
 10
-20.1553271488
 20
17.2141584215
 30
0.0
 11
-20.1553271488
 21
4.3552479981
 31
0.0
  0
LINE
  5
2A6
330
1D6
100
AcDbEntity
  8
0
  6
Continuous
 62
     7
370
    25
100
AcDbLine
 10
-14.5875572182
 20
13.9999532569
 30
0.0
 11
-20.1553271488
 21
17.2141584215
 31
0.0
  0
LINE
  5
2A7
330
1D6
100
AcDbEntity
  8
0
  6
Continuous
 62
     7
370
    25
100
AcDbLine
 10
-20.1553271488
 20
17.2141584215
 30
0.0
 11
-7.4886505567
 21
24.5264751711
 31
0.0
  0
LINE
  5
2A8
330
1D6
100
AcDbEntity
  8
0
  6
Continuous
 62
     7
370
    25
100
AcDbLine
 10
-1.9208806261
 20
21.3122700064
 30
0.0
 11
-7.4886505567
 21
24.5264751711
 31
0.0
  0
LINE
  5
2A9
330
1D6
100
AcDbEntity
  8
0
  6
Continuous
 62
     7
370
    25
100
AcDbLine
 10
-19.7099055543
 20
4.6124680019
 30
0.0
 11
-15.0329788126
 21
7.3124003402
 31
0.0
  0
LINE
  5
2AA
330
1D6
100
AcDbEntity
  8
0
  6
Continuous
 62
     7
370
    25
100
AcDbLine
 10
-15.0329788126
 20
8.0848126668
 30
0.0
 11
-19.7099055543
 21
10.7847450051
 31
0.0
  0
LINE
  5
2AB
330
1D6
100
AcDbEntity
  8
0
  6
Continuous
 62
     7
370
    25
100
AcDbLine
 10
-15.0329788126
 20
7.5704562499
 30
0.0
 11
-19.7099055543
 21
10.2703885882
 31
0.0
  0
LINE
  5
2AC
330
1D6
100
AcDbEntity
  8
0
  6
Continuous
 62
     7
370
    25
100
AcDbLine
 10
-15.0329788126
 20
13.4846773434
 30
0.0
 11
-19.7099055543
 21
10.7847450051
 31
0.0
  0
LINE
  5
2AD
330
1D6
100
AcDbEntity
  8
0
  6
Continuous
 62
     7
370
    25
100
AcDbLine
 10
-5.3347119106
 20
9.4752627938
 30
0.0
 11
-1.8234446523
 21
11.5022742358
 31
0.0
  0
LINE
  5
2AE
330
1D6
100
AcDbEntity
  8
0
  6
Continuous
 62
     7
370
    25
100
AcDbLine
 10
-1.8234446523
 20
11.2129487513
 30
0.0
 11
-1.8234446523
 21
11.5022742358
 31
0.0
  0
LINE
  5
2AF
330
1D6
100
AcDbEntity
  8
0
  6
Continuous
 62
     7
370
    25
100
AcDbLine
 10
-2.324543946
 20
11.7915527007
 30
0.0
 11
-5.8358112043
 21
9.7645412586
 31
0.0
  0
LINE
  5
2B0
330
1D6
100
AcDbEntity
  8
0
  6
Continuous
 62
     7
370
    25
100
AcDbLine
 10
-1.8234446523
 20
11.5022742358
 30
0.0
 11
-2.324543946
 21
11.7915527007
 31
0.0
  0
LINE
  5
2B1
330
1D6
100
AcDbEntity
  8
0
  6
Continuous
 62
     7
370
    25
100
AcDbLine
 10
-2.8566515697
 20
8.0447090092
 30
0.0
 11
-2.324543946
 21
8.3518882018
 31
0.0
  0
LINE
  5
2B2
330
1D6
100
AcDbEntity
  8
0
  6
Continuous
 62
     7
370
    25
100
AcDbLine
 10
7.544328256
 20
-11.6354226961
 30
0.0
 11
20.2110048481
 21
-4.3231059465
 31
0.0
  0
LINE
  5
2B3
330
1D6
100
AcDbEntity
  8
0
  6
Continuous
 62
     7
370
    25
100
AcDbLine
 10
7.544328256
 20
-11.6354226961
 30
0.0
 11
7.544328256
 21
1.2234877273
 31
0.0
  0
LINE
  5
2B4
330
1D6
100
AcDbEntity
  8
0
  6
Continuous
 62
     7
370
    25
100
AcDbLine
 10
7.544328256
 20
1.2234877273
 30
0.0
 11
20.2110048481
 21
8.5358044769
 31
0.0
  0
LINE
  5
2B5
330
1D6
100
AcDbEntity
  8
0
  6
Continuous
 62
     7
370
    25
100
AcDbLine
 10
20.2110048481
 20
-4.3231059465
 30
0.0
 11
20.2110048481
 21
8.5358044769
 31
0.0
  0
LINE
  5
2B6
330
1D6
100
AcDbEntity
  8
0
  6
Continuous
 62
     7
370
    25
100
AcDbLine
 10
7.0989066615
 20
-10.8639298659
 30
0.0
 11
7.0989066615
 21
0.9662677236
 31
0.0
  0
LINE
  5
2B7
330
1D6
100
AcDbEntity
  8
0
  6
Continuous
 62
     7
370
    25
100
AcDbLine
 10
7.0989066615
 20
0.9662677236
 30
0.0
 11
2.4219799198
 21
3.6662000619
 31
0.0
  0
LINE
  5
2B8
330
1D6
100
AcDbEntity
  8
0
  6
Continuous
 62
     7
370
    25
100
AcDbLine
 10
2.4219799198
 20
3.6662000619
 30
0.0
 11
2.4219799198
 21
-8.1639975276
 31
0.0
  0
LINE
  5
2B9
330
1D6
100
AcDbEntity
  8
0
  6
Continuous
 62
     7
370
    25
100
AcDbLine
 10
2.4219799198
 20
-8.1639975276
 30
0.0
 11
7.0989066615
 21
-10.8639298659
 31
0.0
  0
LINE
  5
2BA
330
1D6
100
AcDbEntity
  8
0
  6
Continuous
 62
     7
370
    25
100
AcDbLine
 10
1.9765583254
 20
-8.4212175314
 30
0.0
 11
7.544328256
 21
-11.6354226961
 31
0.0
  0
LINE
  5
2BB
330
1D6
100
AcDbEntity
  8
0
  6
Continuous
 62
     7
370
    25
100
AcDbLine
 10
1.9765583254
 20
4.9746883566
 30
0.0
 11
1.9765583254
 21
-8.4212175314
 31
0.0
  0
LINE
  5
2BC
330
1D6
100
AcDbEntity
  8
0
  6
Continuous
 62
     7
370
    25
100
AcDbLine
 10
7.544328256
 20
1.2234877273
 30
0.0
 11
1.9765583254
 21
4.437692892
 31
0.0
  0
LINE
  5
2BD
330
1D6
100
AcDbEntity
  8
0
  6
Continuous
 62
     7
370
    25
100
AcDbLine
 10
1.9765583254
 20
4.437692892
 30
0.0
 11
14.6432349175
 21
11.7500096416
 31
0.0
  0
LINE
  5
2BE
330
1D6
100
AcDbEntity
  8
0
  6
Continuous
 62
     7
370
    25
100
AcDbLine
 10
20.2110048481
 20
8.5358044769
 30
0.0
 11
14.6432349175
 21
11.7500096416
 31
0.0
  0
LINE
  5
2BF
330
1D6
100
AcDbEntity
  8
0
  6
Continuous
 62
     7
370
    25
100
AcDbLine
 10
2.4219799198
 20
-8.1639975276
 30
0.0
 11
7.0989066615
 21
-5.4640651893
 31
0.0
  0
LINE
  5
2C0
330
1D6
100
AcDbEntity
  8
0
  6
Continuous
 62
     7
370
    25
100
AcDbLine
 10
7.0989066615
 20
-4.6916528627
 30
0.0
 11
2.4219799198
 21
-1.9917205244
 31
0.0
  0
LINE
  5
2C1
330
1D6
100
AcDbEntity
  8
0
  6
Continuous
 62
     7
370
    25
100
AcDbLine
 10
7.0989066615
 20
-5.2060092797
 30
0.0
 11
2.4219799198
 21
-2.5060769413
 31
0.0
  0
LINE
  5
2C2
330
1D6
100
AcDbEntity
  8
0
  6
Continuous
 62
     7
370
    25
100
AcDbLine
 10
7.0989066615
 20
0.7082118139
 30
0.0
 11
2.4219799198
 21
-1.9917205244
 31
0.0
  0
LINE
  5
2C3
330
1D6
100
AcDbEntity
  8
0
  6
Continuous
 62
     7
370
    25
100
AcDbLine
 10
1.8536716977
 20
3.035374734
 30
0.0
 11
-14.4646705905
 21
12.4557532186
 31
0.0
  0
LINE
  5
2C4
330
1D6
100
AcDbEntity
  8
0
  6
Continuous
 62
     7
370
    25
100
AcDbLine
 10
-14.4368317408
 20
12.517283664
 30
0.0
 11
1.9208806261
 21
3.0741773168
 31
0.0
  0
LINE
  5
2C5
330
1D6
100
AcDbEntity
  8
0
  6
Continuous
 62
     7
370
    25
100
AcDbLine
 10
1.9208806261
 20
3.0741773168
 30
0.0
 11
1.9208806261
 21
-8.3020582894
 31
0.0
  0
LINE
  5
2C6
330
1D6
100
AcDbEntity
  8
0
  6
Continuous
 62
     7
370
    25
100
AcDbLine
 10
1.8536716977
 20
-8.3181293152
 30
0.0
 11
1.8536716977
 21
3.035374734
 31
0.0
  0
LINE
  5
2C7
330
1D6
100
AcDbEntity
  8
0
  6
Continuous
 62
     7
370
    25
100
AcDbLine
 10
-14.4646705905
 20
1.1022491694
 30
0.0
 11
1.8536716977
 21
-8.3181293152
 31
0.0
  0
LINE
  5
2C8
330
1D6
100
AcDbEntity
  8
0
  6
Continuous
 62
     7
370
    25
100
AcDbLine
 10
-14.4646705905
 20
12.4557532186
 30
0.0
 11
-14.4646705905
 21
1.1022491694
 31
0.0
  0
LINE
  5
2C9
330
1D6
100
AcDbEntity
  8
0
  6
Continuous
 62
     7
370
    25
100
AcDbLine
 10
-14.4925094401
 20
14.0226811195
 30
0.0
 11
-13.6016662512
 21
14.0226811195
 31
0.0
  0
LINE
  5
2CA
330
1D6
100
AcDbEntity
  8
0
  6
Continuous
 62
     7
370
    25
100
AcDbLine
 10
-13.6016662512
 20
12.0351528893
 30
0.0
 11
-13.6016662512
 21
14.0226811195
 31
0.0
  0
LINE
  5
2CB
330
1D6
100
AcDbEntity
  8
0
  6
Continuous
 62
     7
370
    25
100
AcDbLine
 10
-13.6016662512
 20
13.9678059808
 30
0.0
 11
-14.4925094401
 21
13.9678059808
 31
0.0
  0
LINE
  5
2CC
330
1D6
100
AcDbEntity
  8
0
  6
Continuous
 62
     7
370
    25
100
AcDbLine
 10
-14.4925094401
 20
14.0226811195
 30
0.0
 11
-14.4925094401
 21
1.1565478935
 31
0.0
  0
LINE
  5
2CD
330
1D6
100
AcDbEntity
  8
0
  6
Continuous
 62
     7
370
    25
100
AcDbLine
 10
-1.9208806261
 20
21.2801279548
 30
0.0
 11
-14.4925094401
 21
14.0226811195
 31
0.0
  0
LINE
  5
2CE
330
1D6
100
AcDbEntity
  8
0
  6
Continuous
 62
     7
370
    25
100
AcDbLine
 10
-1.4754590316
 20
21.0229915416
 30
0.0
 11
-1.9208806261
 21
21.2801279548
 31
0.0
  0
LINE
  5
2CF
330
1D6
100
AcDbEntity
  8
0
  6
Continuous
 62
     7
370
    25
100
AcDbLine
 10
-13.6016662512
 20
14.0226811195
 30
0.0
 11
-1.4754590316
 21
21.0229915416
 31
0.0
  0
LINE
  5
2D0
330
1D6
100
AcDbEntity
  8
0
  6
Continuous
 62
     7
370
    25
100
AcDbLine
 10
2.0159284041
 20
4.4925628063
 30
0.0
 11
14.5875572182
 21
11.7500096416
 31
0.0
  0
LINE
  5
2D1
330
1D6
100
AcDbEntity
  8
0
  6
Continuous
 62
     7
370
    25
100
AcDbLine
 10
2.0159284041
 20
5.0068356327
 30
0.0
 11
2.0159284041
 21
4.4925628063
 31
0.0
  0
LINE
  5
2D2
330
1D6
100
AcDbEntity
  8
0
  6
Continuous
 62
     7
370
    25
100
AcDbLine
 10
14.1421356237
 20
12.0071460548
 30
0.0
 11
2.0159284041
 21
5.0068356327
 31
0.0
  0
LINE
  5
2D3
330
1D6
100
AcDbEntity
  8
0
  6
Continuous
 62
     7
370
    25
100
AcDbLine
 10
14.5875572182
 20
11.7500096416
 30
0.0
 11
14.1421356237
 21
12.0071460548
 31
0.0
  0
LINE
  5
2D4
330
1D6
100
AcDbEntity
  8
0
  6
Continuous
 62
     7
370
    25
100
AcDbLine
 10
-1.4197813323
 20
11.9253176415
 30
0.0
 11
-1.8652029268
 21
11.6681812283
 31
0.0
  0
LINE
  5
2D5
330
1D6
100
AcDbEntity
  8
0
  6
Continuous
 62
     7
370
    25
100
AcDbLine
 10
-2.324543946
 20
8.3518882018
 30
0.0
 11
2.7313767462
 21
5.4331673129
 31
0.0
  0
LINE
  5
2D6
330
1D6
100
AcDbEntity
  8
0
  6
Continuous
 62
     7
370
    25
100
AcDbLine
 10
-2.324543946
 20
10.9236702865
 30
0.0
 11
-2.324543946
 21
8.3518882018
 31
0.0
  0
LINE
  5
2D7
330
1D6
100
AcDbEntity
  8
0
  6
Continuous
 62
     7
370
    25
100
AcDbLine
 10
-2.324543946
 20
10.9236702865
 30
0.0
 11
2.7421266908
 21
7.9987435867
 31
0.0
  0
LINE
  5
2D8
330
1D6
100
AcDbEntity
  8
0
  6
Continuous
 62
     7
370
    25
100
AcDbLine
 10
3.2432259846
 20
8.2880220515
 30
0.0
 11
2.7421266908
 21
7.9987435867
 31
0.0
  0
LINE
  5
2D9
330
1D6
100
AcDbEntity
  8
0
  6
Continuous
 62
     7
370
    25
100
AcDbLine
 10
-1.8234446523
 20
11.2129487513
 30
0.0
 11
-2.324543946
 21
10.9236702865
 31
0.0
  0
LINE
  5
2DA
330
1D6
100
AcDbEntity
  8
0
  6
Continuous
 62
     7
370
    25
100
AcDbLine
 10
3.2432259846
 20
8.2880220515
 30
0.0
 11
-1.8234446523
 21
11.2129487513
 31
0.0
  0
LINE
  5
2DB
330
1D6
100
AcDbEntity
  8
0
  6
Continuous
 62
     7
370
    25
100
AcDbLine
 10
1.9487194757
 20
-7.7944422999
 30
0.0
 11
1.9487194757
 21
-7.2800858829
 31
0.0
  0
LINE
  5
2DC
330
1D6
100
AcDbEntity
  8
0
  6
Continuous
 62
     7
370
    25
100
AcDbLine
 10
1.9208806261
 20
-6.811208253
 30
0.0
 11
1.9765583254
 21
-6.7790662014
 31
0.0
  0
LINE
  5
2DD
330
1D6
100
AcDbEntity
  8
0
  6
Continuous
 62
     7
370
    25
100
AcDbLine
 10
1.9208806261
 20
-3.4357442669
 30
0.0
 11
1.9765583254
 21
-3.4036022153
 31
0.0
  0
LINE
  5
2DE
330
1D6
100
AcDbEntity
  8
0
  6
Continuous
 62
     7
370
    25
100
AcDbLine
 10
1.9765583254
 20
-2.8250452856
 30
0.0
 11
1.9208806261
 21
-2.8571873373
 31
0.0
  0
LINE
  5
2DF
330
1D6
100
AcDbEntity
  8
0
  6
Continuous
 62
     7
370
    25
100
AcDbLine
 10
1.9487194757
 20
1.8497405177
 30
0.0
 11
1.9487194757
 21
5.0001735714
 31
0.0
  0
LINE
  5
2E0
330
1D6
100
AcDbEntity
  8
0
  6
Continuous
 62
     7
370
    25
100
AcDbLine
 10
1.9765583254
 20
5.0483918733
 30
0.0
 11
2.1435914233
 21
5.1448180282
 31
0.0
  0
LINE
  5
2E1
330
1D6
100
AcDbEntity
  8
0
  6
Continuous
 62
     7
370
    25
100
AcDbLine
 10
-13.5296809314
 20
13.9999532569
 30
0.0
 11
1.9765583254
 21
5.0483918733
 31
0.0
  0
LINE
  5
2E2
330
1D6
100
AcDbEntity
  8
0
  6
Continuous
 62
     7
370
    25
100
AcDbLine
 10
1.9487194757
 20
5.0001735714
 30
0.0
 11
-13.557519781
 21
13.951734955
 31
0.0
  0
LINE
  5
2E3
330
1D6
100
AcDbEntity
  8
0
  6
Continuous
 62
     7
370
    25
100
AcDbLine
 10
-13.3626478334
 20
14.0963794118
 30
0.0
 11
-13.5296809314
 21
13.9999532569
 31
0.0
  0
LINE
  5
2E4
330
1D6
100
AcDbEntity
  8
0
  6
Continuous
 62
     7
370
    25
100
AcDbLine
 10
2.1435914233
 20
5.1448180282
 30
0.0
 11
-13.3626478334
 21
14.0963794118
 31
0.0
  0
LINE
  5
2E5
330
1D6
100
AcDbEntity
  8
0
  6
Continuous
 62
     8
370
    25
100
AcDbLine
 10
-14.4925094401
 20
1.1731901095
 30
0.0
 11
-14.4762018196
 21
1.1731901095
 31
0.0
  0
LINE
  5
2E6
330
1D6
100
AcDbEntity
  8
0
  6
Continuous
 62
     8
370
    25
100
AcDbLine
 10
-1.447620182
 20
20.9747732397
 30
0.0
 11
-13.3524532327
 21
14.1022594051
 31
0.0
  0
LINE
  5
2E7
330
1D6
100
AcDbEntity
  8
0
  6
Continuous
 62
     8
370
    25
100
AcDbLine
 10
-13.5677098571
 20
13.9779944009
 30
0.0
 11
-13.5738274016
 21
13.9744628176
 31
0.0
  0
LINE
  5
2E8
330
1D6
100
AcDbEntity
  8
0
  6
Continuous
 62
     8
370
    25
100
AcDbLine
 10
-13.5738274016
 20
13.9744628176
 30
0.0
 11
-13.5738274016
 21
12.0190818635
 31
0.0
  0
LINE
  5
2E9
330
1D6
100
AcDbEntity
  8
0
  6
Continuous
 62
     8
370
    25
100
AcDbLine
 10
-1.447620182
 20
11.9225587593
 30
0.0
 11
-1.447620182
 21
20.9747732397
 31
0.0
  0
LINE
  5
2EA
330
1D6
100
AcDbEntity
  8
0
  6
Continuous
 62
     8
370
    25
100
AcDbLine
 10
5.7776702592
 20
7.1917551253
 30
0.0
 11
-1.8930417764
 21
11.6199629264
 31
0.0
  0
LINE
  5
2EB
330
1D6
100
AcDbEntity
  8
0
  6
Continuous
 62
     8
370
    25
100
AcDbLine
 10
-1.8652029268
 20
11.6681812283
 30
0.0
 11
5.8333524835
 21
7.2238997892
 31
0.0
  0
LINE
  5
2EC
330
1D6
100
AcDbEntity
  8
0
  6
Continuous
 62
     8
370
    25
100
AcDbLine
 10
-1.8930417764
 20
11.6199629264
 30
0.0
 11
-1.8930417764
 21
11.5424518004
 31
0.0
  0
LINE
  5
2ED
330
1D6
100
AcDbEntity
  8
0
  6
Continuous
 62
     8
370
    25
100
AcDbLine
 10
6.2787740779
 20
7.4810362024
 30
0.0
 11
-1.4197813323
 21
11.9253176415
 31
0.0
  0
LINE
  5
2EE
330
1D6
100
AcDbEntity
  8
0
  6
Continuous
 62
     8
370
    25
100
AcDbLine
 10
1.9487194757
 20
-7.2800858829
 30
0.0
 11
1.9208806261
 21
-7.2640148571
 31
0.0
  0
LINE
  5
2EF
330
1D6
100
AcDbEntity
  8
0
  6
Continuous
 62
     8
370
    25
100
AcDbLine
 10
1.9208806261
 20
-7.1997255294
 30
0.0
 11
1.9765583254
 21
-7.2318675811
 31
0.0
  0
LINE
  5
2F0
330
1D6
100
AcDbEntity
  8
0
  6
Continuous
 62
     8
370
    25
100
AcDbLine
 10
1.9208806261
 20
-7.7783712741
 30
0.0
 11
1.9487194757
 21
-7.7944422999
 31
0.0
  0
LINE
  5
2F1
330
1D6
100
AcDbEntity
  8
0
  6
Continuous
 62
     8
370
    25
100
AcDbLine
 10
-13.557519781
 20
13.951734955
 30
0.0
 11
-13.557519781
 21
12.0096676745
 31
0.0
  0
LINE
  5
2F2
330
1D6
100
AcDbEntity
  8
0
  6
Continuous
 62
     8
370
    25
100
AcDbLine
 10
1.9208806261
 20
1.8658115435
 30
0.0
 11
1.9487194757
 21
1.8497405177
 31
0.0
  0
ARC
  5
2F3
330
1D6
100
AcDbEntity
  8
0
  6
Continuous
 62
     7
370
    25
100
AcDbCircle
 10
1.8815105473
 20
-8.3020582894
 30
0.0
 40
0.039370078740161
100
AcDbArc
 50
240.0026882664
 51
360.0
  0
ARC
  5
2F4
330
1D6
100
AcDbEntity
  8
0
  6
Continuous
 62
     7
370
    25
100
AcDbCircle
 10
-14.4368317408
 20
1.1183201952
 30
0.0
 40
0.0393700787401598
100
AcDbArc
 50
180.0
 51
240.0026882663
  0
ARC
  5
2F5
330
1D6
100
AcDbEntity
  8
0
  6
Continuous
 62
     7
370
    25
100
AcDbCircle
 10
-14.4925094401
 20
13.9905338435
 30
0.0
 40
0.0393700787401681
100
AcDbArc
 50
119.9973117337
 51
180.0
  0
ARC
  5
2F6
330
1D6
100
AcDbEntity
  8
0
  6
Continuous
 62
     7
370
    25
100
AcDbCircle
 10
-14.4925094401
 20
1.1959179722
 30
0.0
 40
0.0393700787401539
100
AcDbArc
 50
180.0
 51
270.0
  0
ARC
  5
2F7
330
1D6
100
AcDbEntity
  8
0
  6
Continuous
 62
     7
370
    25
100
AcDbCircle
 10
-1.4754590316
 20
20.9908442656
 30
0.0
 40
0.0393700787401461
100
AcDbArc
 50
360.0
 51
60.0026882664
  0
ARC
  5
2F8
330
1D6
100
AcDbEntity
  8
0
  6
Continuous
 62
     7
370
    25
100
AcDbCircle
 10
-1.9208806261
 20
21.2479806787
 30
0.0
 40
0.0393700787401691
100
AcDbArc
 50
60.0026882664
 51
119.9973117336
  0
ARC
  5
2F9
330
1D6
100
AcDbEntity
  8
0
  6
Continuous
 62
     7
370
    25
100
AcDbCircle
 10
2.0159284041
 20
4.9746883566
 30
0.0
 40
0.0393700787401596
100
AcDbArc
 50
119.9973117337
 51
180.0
  0
ARC
  5
2FA
330
1D6
100
AcDbEntity
  8
0
  6
Continuous
 62
     7
370
    25
100
AcDbCircle
 10
14.5875572182
 20
11.7178623655
 30
0.0
 40
0.0393700787401151
100
AcDbArc
 50
30.0038964361
 51
60.0026882664
  0
ARC
  5
2FB
330
1D6
100
AcDbEntity
  8
0
  6
Continuous
 62
     7
370
    25
100
AcDbCircle
 10
14.1421356237
 20
11.9749987787
 30
0.0
 40
0.0393700787401678
100
AcDbArc
 50
60.0026882663
 51
119.9973117336
  0
ARC
  5
2FC
330
1D6
100
AcDbEntity
  8
0
  6
Continuous
 62
     7
370
    25
100
AcDbCircle
 10
-1.8652029268
 20
11.6360339523
 30
0.0
 40
0.0393700787401639
100
AcDbArc
 50
119.9973117337
 51
180.0
  0
ARC
  5
2FD
330
1D6
100
AcDbEntity
  8
0
  6
Continuous
 62
     7
370
    25
100
AcDbCircle
 10
-1.4197813323
 20
11.8931703654
 30
0.0
 40
0.0393700787401688
100
AcDbArc
 50
60.0026882664
 51
119.9973117336
  0
ARC
  5
2FE
330
1D6
100
AcDbEntity
  8
0
  6
Continuous
 62
     7
370
    25
100
AcDbCircle
 10
1.9765583254
 20
-7.7783712741
 30
0.0
 40
0.0393700787401325
100
AcDbArc
 50
240.0026882663
 51
270.0
  0
ARC
  5
2FF
330
1D6
100
AcDbEntity
  8
0
  6
Continuous
 62
     7
370
    25
100
AcDbCircle
 10
2.1435914233
 20
5.1126707522
 30
0.0
 40
0.0393700787401497
100
AcDbArc
 50
5.5347458071
 51
60.0026882664
  0
ARC
  5
300
330
1D6
100
AcDbEntity
  8
0
  6
Continuous
 62
     7
370
    25
100
AcDbCircle
 10
1.9765583254
 20
1.8658115435
 30
0.0
 40
0.0393700787400995
100
AcDbArc
 50
240.0026882663
 51
270.0
  0
ARC
  5
301
330
1D6
100
AcDbEntity
  8
0
  6
Continuous
 62
     7
370
    25
100
AcDbCircle
 10
-13.5296809314
 20
13.9678059808
 30
0.0
 40
0.039370078740172
100
AcDbArc
 50
119.9973117337
 51
180.0
  0
ARC
  5
302
330
1D6
100
AcDbEntity
  8
0
  6
Continuous
 62
     7
370
    25
100
AcDbCircle
 10
-13.3626478334
 20
14.0642321357
 30
0.0
 40
0.0393700787401483
100
AcDbArc
 50
60.0026882663
 51
119.9973117337
  0
ARC
  5
303
330
1D6
100
AcDbEntity
  8
0
  6
Continuous
 62
     7
370
    25
100
AcDbCircle
 10
-13.600531986
 20
14.0246018556
 30
0.0
 40
0.0568071998465681
100
AcDbArc
 50
268.8559032542
 51
298.0402391154
  0
ARC
  5
304
330
1D6
100
AcDbEntity
  8
0
  6
Continuous
 62
     7
370
    25
100
AcDbCircle
 10
-13.6342689804
 20
13.9717123904
 30
0.0
 40
0.0605041262823866
100
AcDbArc
 50
2.6054784857
 51
57.39452166
  0
ARC
  5
305
330
1D6
100
AcDbEntity
  8
0
  6
Continuous
 62
     7
370
    25
100
AcDbCircle
 10
-1.5080617608
 20
20.9720228125
 30
0.0
 40
0.0605041262823625
100
AcDbArc
 50
2.6054784857
 51
57.39452166
  0
ARC
  5
306
330
1D6
100
AcDbEntity
  8
0
  6
Continuous
 62
     7
370
    25
100
AcDbCircle
 10
2.0126482751
 20
4.4563984268
 30
0.0
 40
0.0363128296283009
100
AcDbArc
 50
84.8174221345
 51
173.6486598634
  0
ARC
  5
307
330
1D6
100
AcDbEntity
  8
0
  6
Continuous
 62
     7
370
    25
100
AcDbCircle
 10
2.0126482751
 20
4.9706712531
 30
0.0
 40
0.0363128296283026
100
AcDbArc
 50
84.8174221345
 51
173.6486598634
  0
ARC
  5
308
330
1D6
100
AcDbEntity
  8
0
  6
Continuous
 62
     7
370
    25
100
AcDbCircle
 10
-1.8326001976
 20
11.6172124992
 30
0.0
 40
0.0605041262823629
100
AcDbArc
 50
122.60547834
 51
177.3945215143
  0
ARC
  5
309
330
1D6
100
AcDbEntity
  8
0
  6
Continuous
 62
     7
370
    25
100
AcDbCircle
 10
2.0091610545
 20
-7.2828363102
 30
0.0
 40
0.0605041262823658
100
AcDbArc
 50
122.60547834
 51
177.3945215143
  0
ARC
  5
30A
330
1D6
100
AcDbEntity
  8
0
  6
Continuous
 62
     7
370
    25
100
AcDbCircle
 10
2.0091610545
 20
4.9974231441
 30
0.0
 40
0.0605041262823677
100
AcDbArc
 50
122.60547834
 51
177.3945215143
  0
ARC
  5
30B
330
1D6
100
AcDbEntity
  8
0
  6
Continuous
 62
     7
370
    25
100
AcDbCircle
 10
-13.4970782022
 20
13.9489845277
 30
0.0
 40
0.0605041262823945
100
AcDbArc
 50
122.60547834
 51
177.3945215143
  0
ARC
  5
30C
330
1D6
100
AcDbEntity
  8
0
  6
Continuous
 62
     8
370
    25
100
AcDbCircle
 10
1.8729076949
 20
-8.3202837868
 30
0.0
 40
0.0193562738972966
100
AcDbArc
 50
173.6093872136
 51
235.078432393
  0
ARC
  5
30D
330
1D6
100
AcDbEntity
  8
0
  6
Continuous
 62
     8
370
    25
100
AcDbCircle
 10
-14.4454345932
 20
1.1000946977
 30
0.0
 40
0.0193562738973003
100
AcDbArc
 50
173.6093872136
 51
235.078432393
  0
ARC
  5
30E
330
1D6
100
AcDbEntity
  8
0
  6
Continuous
 62
     8
370
    25
100
AcDbCircle
 10
-14.4569217618
 20
1.1199815207
 30
0.0
 40
0.0193515019933912
100
AcDbArc
 50
184.9249021695
 51
246.3952387881
  0
ARC
  5
30F
330
1D6
100
AcDbEntity
  8
0
  6
Continuous
 62
     8
370
    25
100
AcDbCircle
 10
-14.5040417258
 20
14.0065834294
 30
0.0
 40
0.0198022533819607
100
AcDbArc
 50
54.3824225248
 51
114.3071190461
  0
ARC
  5
310
330
1D6
100
AcDbEntity
  8
0
  6
Continuous
 62
     8
370
    25
100
AcDbCircle
 10
-1.9324129117
 20
21.2640302647
 30
0.0
 40
0.0198022533819522
100
AcDbArc
 50
54.3824225248
 51
114.3071190461
  0
ARC
  5
311
330
1D6
100
AcDbEntity
  8
0
  6
Continuous
 62
     8
370
    25
100
AcDbCircle
 10
-1.4557919868
 20
20.9928090836
 30
0.0
 40
0.0198007589958067
100
AcDbArc
 50
294.3746582936
 51
354.3052007488
  0
ARC
  5
312
330
1D6
100
AcDbEntity
  8
0
  6
Continuous
 62
     8
370
    25
100
AcDbCircle
 10
-1.463926746
 20
21.0068938515
 30
0.0
 40
0.0198022533819586
100
AcDbArc
 50
65.6928809539
 51
125.6175774752
  0
ARC
  5
313
330
1D6
100
AcDbEntity
  8
0
  6
Continuous
 62
     8
370
    25
100
AcDbCircle
 10
-1.9093483404
 20
21.2640302647
 30
0.0
 40
0.0198022533819587
100
AcDbArc
 50
65.6928809539
 51
125.6175774752
  0
ARC
  5
314
330
1D6
100
AcDbEntity
  8
0
  6
Continuous
 62
     8
370
    25
100
AcDbCircle
 10
1.9966689581
 20
4.4626733704
 30
0.0
 40
0.0202369808157263
100
AcDbArc
 50
186.4058275526
 51
244.9018361571
  0
ARC
  5
315
330
1D6
100
AcDbEntity
  8
0
  6
Continuous
 62
     8
370
    25
100
AcDbCircle
 10
1.9858693287
 20
4.4443733575
 30
0.0
 40
0.056795871232448
100
AcDbArc
 50
28.8567998287
 51
58.0453714773
  0
ARC
  5
316
330
1D6
100
AcDbEntity
  8
0
  6
Continuous
 62
     8
370
    25
100
AcDbCircle
 10
14.5574981428
 20
11.7018201928
 30
0.0
 40
0.0567958712324798
100
AcDbArc
 50
28.8567998288
 51
58.0453714773
  0
ARC
  5
317
330
1D6
100
AcDbEntity
  8
0
  6
Continuous
 62
     8
370
    25
100
AcDbCircle
 10
2.0043961185
 20
4.9907379425
 30
0.0
 40
0.019802253381959
100
AcDbArc
 50
54.3824225248
 51
114.3071190461
  0
ARC
  5
318
330
1D6
100
AcDbEntity
  8
0
  6
Continuous
 62
     8
370
    25
100
AcDbCircle
 10
14.1306033381
 20
11.9910483646
 30
0.0
 40
0.0198022533819641
100
AcDbArc
 50
54.3824225248
 51
114.3071190461
  0
ARC
  5
319
330
1D6
100
AcDbEntity
  8
0
  6
Continuous
 62
     8
370
    25
100
AcDbCircle
 10
14.5990895038
 20
11.7339119515
 30
0.0
 40
0.0198022533819617
100
AcDbArc
 50
65.6928809539
 51
125.6175774752
  0
ARC
  5
31A
330
1D6
100
AcDbEntity
  8
0
  6
Continuous
 62
     8
370
    25
100
AcDbCircle
 10
14.1536679094
 20
11.9910483646
 30
0.0
 40
0.0198022533819445
100
AcDbArc
 50
65.6928809539
 51
125.6175774752
  0
ARC
  5
31B
330
1D6
100
AcDbEntity
  8
0
  6
Continuous
 62
     8
370
    25
100
AcDbCircle
 10
-1.4082490467
 20
11.9092199514
 30
0.0
 40
0.0198022533819748
100
AcDbArc
 50
65.6928809539
 51
125.6175774752
  0
ARC
  5
31C
330
1D6
100
AcDbEntity
  8
0
  6
Continuous
 62
     8
370
    25
100
AcDbCircle
 10
-1.8848699715
 20
11.6379987702
 30
0.0
 40
0.0198007589958144
100
AcDbArc
 50
185.6947992512
 51
245.6253417064
  0
ARC
  5
31D
330
1D6
100
AcDbEntity
  8
0
  6
Continuous
 62
     8
370
    25
100
AcDbCircle
 10
-1.8767352124
 20
11.6520835382
 30
0.0
 40
0.0198022533819593
100
AcDbArc
 50
54.3824225248
 51
114.3071190461
  0
ARC
  5
31E
330
1D6
100
AcDbEntity
  8
0
  6
Continuous
 62
     8
370
    25
100
AcDbCircle
 10
-1.4313136179
 20
11.9092199514
 30
0.0
 40
0.0198022533819639
100
AcDbArc
 50
54.3824225248
 51
114.3071190461
  0
ARC
  5
31F
330
1D6
100
AcDbEntity
  8
0
  6
Continuous
 62
     8
370
    25
100
AcDbCircle
 10
1.9754240601
 20
-7.229946845
 30
0.0
 40
0.0568071998465292
100
AcDbArc
 50
241.9597608846
 51
271.1440967458
  0
ARC
  5
320
330
1D6
100
AcDbEntity
  8
0
  6
Continuous
 62
     8
370
    25
100
AcDbCircle
 10
1.9754240601
 20
-7.7443032619
 30
0.0
 40
0.0568071998465549
100
AcDbArc
 50
241.9597608846
 51
271.1440967458
  0
ARC
  5
321
330
1D6
100
AcDbEntity
  8
0
  6
Continuous
 62
     8
370
    25
100
AcDbCircle
 10
1.9680108892
 20
-7.796571699
 30
0.0
 40
0.0194085799221771
100
AcDbArc
 50
173.701152483
 51
234.9866671236
  0
ARC
  5
322
330
1D6
100
AcDbEntity
  8
0
  6
Continuous
 62
     8
370
    25
100
AcDbCircle
 10
1.942682504
 20
4.9963853192
 30
0.0
 40
0.0620665202661276
100
AcDbArc
 50
15.0197433969
 51
56.9207443129
  0
ARC
  5
323
330
1D6
100
AcDbEntity
  8
0
  6
Continuous
 62
     8
370
    25
100
AcDbCircle
 10
1.9761633675
 20
5.0528853834
 30
0.0
 40
0.0594281274013848
100
AcDbArc
 50
242.4966996037
 51
275.1026363461
  0
ARC
  5
324
330
1D6
100
AcDbEntity
  8
0
  6
Continuous
 62
     8
370
    25
100
AcDbCircle
 10
1.9754240601
 20
1.8998795556
 30
0.0
 40
0.0568071998465362
100
AcDbArc
 50
241.9597608846
 51
271.1440967458
  0
ARC
  5
325
330
1D6
100
AcDbEntity
  8
0
  6
Continuous
 62
     8
370
    25
100
AcDbCircle
 10
2.1106433861
 20
5.0934848129
 30
0.0
 40
0.0609973126904627
100
AcDbArc
 50
14.6347164038
 51
57.305771306
  0
ARC
  5
326
330
1D6
100
AcDbEntity
  8
0
  6
Continuous
 62
     8
370
    25
100
AcDbCircle
 10
2.1551237089
 20
5.1287203381
 30
0.0
 40
0.0198022533819565
100
AcDbArc
 50
65.6928809539
 51
125.6175774752
  0
ARC
  5
327
330
1D6
100
AcDbEntity
  8
0
  6
Continuous
 62
     8
370
    25
100
AcDbCircle
 10
-13.3511155478
 20
14.0802817217
 30
0.0
 40
0.019802253381958
100
AcDbArc
 50
65.6928809539
 51
125.6175774752
  0
ARC
  5
328
330
1D6
100
AcDbEntity
  8
0
  6
Continuous
 62
     8
370
    25
100
AcDbCircle
 10
1.9674472535
 20
1.8473561071
 30
0.0
 40
0.0188789585205338
100
AcDbArc
 50
172.7441704387
 51
235.943649168
  0
ARC
  5
329
330
1D6
100
AcDbEntity
  8
0
  6
Continuous
 62
     8
370
    25
100
AcDbCircle
 10
-13.5493479761
 20
13.9697707988
 30
0.0
 40
0.0198007589958245
100
AcDbArc
 50
185.6947992512
 51
245.6253417064
  0
ARC
  5
32A
330
1D6
100
AcDbEntity
  8
0
  6
Continuous
 62
     8
370
    25
100
AcDbCircle
 10
-13.541213217
 20
13.9838555667
 30
0.0
 40
0.0198022533819544
100
AcDbArc
 50
54.3824225248
 51
114.3071190461
  0
ARC
  5
32B
330
1D6
100
AcDbEntity
  8
0
  6
Continuous
 62
     8
370
    25
100
AcDbCircle
 10
-13.3741801191
 20
14.0802817217
 30
0.0
 40
0.0198022533819459
100
AcDbArc
 50
54.3824225248
 51
114.3071190461
  0
VIEWPORT
  5
332
330
1D6
100
AcDbEntity
  8
0
100
AcDbViewport
 10
0.0
 20
0.0
 30
0.0
 40
8.4
 41
6.4
 68
     1
 69
     1
 12
0.0
 22
7.874015748
 13
0.0
 23
0.0
 14
0.5
 24
0.5
 15
0.5
 25
0.5
 16
0.0
 26
0.0
 36
1.0
 17
0.0
 27
0.0
 37
0.0
 42
50.0
 43
0.0
 44
0.0
 45
30.4431946007
 50
0.0
 51
0.0
 72
   100
 90
   557152
  1

281
     0
 71
     1
 74
     0
110
0.0
120
0.0
130
0.0
111
1.0
121
0.0
131
0.0
112
0.0
122
1.0
132
0.0
 79
     0
146
0.0
  0
ENDBLK
  5
1D9
330
1D6
100
AcDbEntity
  8
0
100
AcDbBlockEnd
  0
ENDSEC
  0
SECTION
  2
ENTITIES
  0
LINE
  5
C6
330
1F
100
AcDbEntity
  8
0
  6
Continuous
 62
     7
370
    25
100
AcDbLine
 10
-11.6732283465
 20
0.0
 30
0.0
 11
11.6732283465
 21
0.0
 31
0.0
  0
LINE
  5
C7
330
1F
100
AcDbEntity
  8
0
  6
Continuous
 62
     7
370
    25
100
AcDbLine
 10
11.5781805684
 20
13.9831327904
 30
0.0
 11
-11.5781805684
 21
13.9831327904
 31
0.0
  0
LINE
  5
C8
330
1F
100
AcDbEntity
  8
0
  6
Continuous
 62
     7
370
    25
100
AcDbLine
 10
11.5781805684
 20
0.0393700787
 30
0.0
 11
11.5781805684
 21
13.9831327904
 31
0.0
  0
LINE
  5
C9
330
1F
100
AcDbEntity
  8
0
  6
Continuous
 62
     7
370
    25
100
AcDbLine
 10
-11.5781805684
 20
13.9831327904
 30
0.0
 11
-11.5781805684
 21
0.0393700787
 31
0.0
  0
LINE
  5
CA
330
1F
100
AcDbEntity
  8
0
  6
Continuous
 62
     7
370
    25
100
AcDbLine
 10
-12.342519685
 20
0.6299212598
 30
0.0
 11
-12.342519685
 21
15.1181102362
 31
0.0
  0
LINE
  5
CB
330
1F
100
AcDbEntity
  8
0
  6
Continuous
 62
     7
370
    25
100
AcDbLine
 10
-12.342519685
 20
15.1181102362
 30
0.0
 11
-18.9566929134
 21
15.1181102362
 31
0.0
  0
LINE
  5
CC
330
1F
100
AcDbEntity
  8
0
  6
Continuous
 62
     7
370
    25
100
AcDbLine
 10
-18.9566929134
 20
15.1181102362
 30
0.0
 11
-18.9566929134
 21
0.6299212598
 31
0.0
  0
LINE
  5
CD
330
1F
100
AcDbEntity
  8
0
  6
Continuous
 62
     7
370
    25
100
AcDbLine
 10
-18.9566929134
 20
0.6299212598
 30
0.0
 11
-12.342519685
 21
0.6299212598
 31
0.0
  0
LINE
  5
CE
330
1F
100
AcDbEntity
  8
0
  6
Continuous
 62
     7
370
    25
100
AcDbLine
 10
-19.5866141732
 20
0.0
 30
0.0
 11
-11.7125984252
 21
0.0
 31
0.0
  0
LINE
  5
CF
330
1F
100
AcDbEntity
  8
0
  6
Continuous
 62
     7
370
    25
100
AcDbLine
 10
-19.5866141732
 20
15.7480314961
 30
0.0
 11
-19.5866141732
 21
0.0
 31
0.0
  0
LINE
  5
D0
330
1F
100
AcDbEntity
  8
0
  6
Continuous
 62
     7
370
    25
100
AcDbLine
 10
-11.7125984252
 20
15.7480314961
 30
0.0
 11
-19.5866141732
 21
15.7480314961
 31
0.0
  0
LINE
  5
D1
330
1F
100
AcDbEntity
  8
0
  6
Continuous
 62
     7
370
    25
100
AcDbLine
 10
-11.7125984252
 20
0.0
 30
0.0
 11
-11.7125984252
 21
15.7480314961
 31
0.0
  0
LINE
  5
D2
330
1F
100
AcDbEntity
  8
0
  6
Continuous
 62
     7
370
    25
100
AcDbLine
 10
-12.342519685
 20
7.5590551181
 30
0.0
 11
-18.9566929134
 21
7.5590551181
 31
0.0
  0
LINE
  5
D3
330
1F
100
AcDbEntity
  8
0
  6
Continuous
 62
     7
370
    25
100
AcDbLine
 10
-12.342519685
 20
8.188976378
 30
0.0
 11
-18.9566929134
 21
8.188976378
 31
0.0
  0
LINE
  5
D4
330
1F
100
AcDbEntity
  8
0
  6
Continuous
 62
     7
370
    25
100
AcDbLine
 10
18.9566929134
 20
0.6299212598
 30
0.0
 11
18.9566929134
 21
15.1181102362
 31
0.0
  0
LINE
  5
D5
330
1F
100
AcDbEntity
  8
0
  6
Continuous
 62
     7
370
    25
100
AcDbLine
 10
18.9566929134
 20
15.1181102362
 30
0.0
 11
12.342519685
 21
15.1181102362
 31
0.0
  0
LINE
  5
D6
330
1F
100
AcDbEntity
  8
0
  6
Continuous
 62
     7
370
    25
100
AcDbLine
 10
12.342519685
 20
15.1181102362
 30
0.0
 11
12.342519685
 21
0.6299212598
 31
0.0
  0
LINE
  5
D7
330
1F
100
AcDbEntity
  8
0
  6
Continuous
 62
     7
370
    25
100
AcDbLine
 10
12.342519685
 20
0.6299212598
 30
0.0
 11
18.9566929134
 21
0.6299212598
 31
0.0
  0
LINE
  5
D8
330
1F
100
AcDbEntity
  8
0
  6
Continuous
 62
     7
370
    25
100
AcDbLine
 10
11.7125984252
 20
15.7480314961
 30
0.0
 11
11.7125984252
 21
0.0
 31
0.0
  0
LINE
  5
D9
330
1F
100
AcDbEntity
  8
0
  6
Continuous
 62
     7
370
    25
100
AcDbLine
 10
19.5866141732
 20
15.7480314961
 30
0.0
 11
11.7125984252
 21
15.7480314961
 31
0.0
  0
LINE
  5
DA
330
1F
100
AcDbEntity
  8
0
  6
Continuous
 62
     7
370
    25
100
AcDbLine
 10
11.7125984252
 20
0.0
 30
0.0
 11
19.5866141732
 21
0.0
 31
0.0
  0
LINE
  5
DB
330
1F
100
AcDbEntity
  8
0
  6
Continuous
 62
     7
370
    25
100
AcDbLine
 10
19.5866141732
 20
0.0
 30
0.0
 11
19.5866141732
 21
15.7480314961
 31
0.0
  0
LINE
  5
DC
330
1F
100
AcDbEntity
  8
0
  6
Continuous
 62
     7
370
    25
100
AcDbLine
 10
18.9566929134
 20
7.5590551181
 30
0.0
 11
12.342519685
 21
7.5590551181
 31
0.0
  0
LINE
  5
DD
330
1F
100
AcDbEntity
  8
0
  6
Continuous
 62
     7
370
    25
100
AcDbLine
 10
18.9566929134
 20
8.188976378
 30
0.0
 11
12.342519685
 21
8.188976378
 31
0.0
  0
LINE
  5
DE
330
1F
100
AcDbEntity
  8
0
  6
Continuous
 62
     7
370
    25
100
AcDbLine
 10
11.5388104897
 20
13.9437627116
 30
0.0
 11
-11.5388104897
 21
13.9437627116
 31
0.0
  0
LINE
  5
DF
330
1F
100
AcDbEntity
  8
0
  6
Continuous
 62
     7
370
    25
100
AcDbLine
 10
11.5388104897
 20
0.0
 30
0.0
 11
11.5388104897
 21
13.9437627116
 31
0.0
  0
LINE
  5
E0
330
1F
100
AcDbEntity
  8
0
  6
Continuous
 62
     7
370
    25
100
AcDbLine
 10
-11.5388104897
 20
13.9437627116
 30
0.0
 11
-11.5388104897
 21
0.0
 31
0.0
  0
LINE
  5
E1
330
1F
100
AcDbEntity
  8
0
  6
Continuous
 62
     7
370
    25
100
AcDbLine
 10
-11.5388104897
 20
13.9437627116
 30
0.0
 11
-11.5781805684
 21
13.9831327904
 31
0.0
  0
LINE
  5
E2
330
1F
100
AcDbEntity
  8
0
  6
Continuous
 62
     7
370
    25
100
AcDbLine
 10
11.5388104897
 20
13.9437627116
 30
0.0
 11
11.5781805684
 21
13.9831327904
 31
0.0
  0
LINE
  5
E3
330
1F
100
AcDbEntity
  8
0
  6
Continuous
 62
     7
370
    25
100
AcDbLine
 10
-11.6453894968
 20
15.7086614173
 30
0.0
 11
-11.6453894968
 21
0.0393700787
 31
0.0
  0
LINE
  5
E4
330
1F
100
AcDbEntity
  8
0
  6
Continuous
 62
     7
370
    25
100
AcDbLine
 10
-11.6732283465
 20
15.7480314961
 30
0.0
 11
-11.0433070866
 21
15.7480314961
 31
0.0
  0
LINE
  5
E5
330
1F
100
AcDbEntity
  8
0
  6
Continuous
 62
     7
370
    25
100
AcDbLine
 10
-11.0039370079
 20
15.7086614173
 30
0.0
 11
-11.0039370079
 21
13.9831327904
 31
0.0
  0
LINE
  5
E6
330
1F
100
AcDbEntity
  8
0
  6
Continuous
 62
     7
370
    25
100
AcDbLine
 10
-11.7125984252
 20
0.0393700787
 30
0.0
 11
11.7125984252
 21
0.0393700787
 31
0.0
  0
LINE
  5
E7
330
1F
100
AcDbEntity
  8
0
  6
Continuous
 62
     7
370
    25
100
AcDbLine
 10
11.6453894968
 20
0.0393700787
 30
0.0
 11
11.6453894968
 21
15.7086614173
 31
0.0
  0
LINE
  5
E8
330
1F
100
AcDbEntity
  8
0
  6
Continuous
 62
     7
370
    25
100
AcDbLine
 10
11.7125984252
 20
15.7086614173
 30
0.0
 11
-11.7125984252
 21
15.7086614173
 31
0.0
  0
LINE
  5
E9
330
1F
100
AcDbEntity
  8
0
  6
Continuous
 62
     7
370
    25
100
AcDbLine
 10
11.0433070866
 20
15.7480314961
 30
0.0
 11
11.6732283465
 21
15.7480314961
 31
0.0
  0
LINE
  5
EA
330
1F
100
AcDbEntity
  8
0
  6
Continuous
 62
     7
370
    25
100
AcDbLine
 10
11.0039370079
 20
13.9831327904
 30
0.0
 11
11.0039370079
 21
15.7086614173
 31
0.0
  0
LINE
  5
EB
330
1F
100
AcDbEntity
  8
0
  6
Continuous
 62
     7
370
    25
100
AcDbLine
 10
-10.9645669291
 20
15.7480314961
 30
0.0
 11
-10.9645669291
 21
13.9831327904
 31
0.0
  0
LINE
  5
EC
330
1F
100
AcDbEntity
  8
0
  6
Continuous
 62
     7
370
    25
100
AcDbLine
 10
-10.9645669291
 20
15.7480314961
 30
0.0
 11
10.9645669291
 21
15.7480314961
 31
0.0
  0
LINE
  5
ED
330
1F
100
AcDbEntity
  8
0
  6
Continuous
 62
     7
370
    25
100
AcDbLine
 10
10.9645669291
 20
13.9831327904
 30
0.0
 11
10.9645669291
 21
15.7480314961
 31
0.0
  0
LINE
  5
EE
330
1F
100
AcDbEntity
  8
0
  6
Continuous
 62
     8
370
    25
100
AcDbLine
 10
-11.015468237
 20
13.9831327904
 30
0.0
 11
-11.015468237
 21
15.7086614173
 31
0.0
  0
LINE
  5
EF
330
1F
100
AcDbEntity
  8
0
  6
Continuous
 62
     8
370
    25
100
AcDbLine
 10
11.015468237
 20
15.7086614173
 30
0.0
 11
11.015468237
 21
13.9831327904
 31
0.0
  0
ARC
  5
F0
330
1F
100
AcDbEntity
  8
0
  6
Continuous
 62
     7
370
    25
100
AcDbCircle
 10
11.5388104897
 20
0.0393700787
 30
0.0
 40
0.0393700787401595
100
AcDbArc
 50
270.0
 51
360.0
  0
ARC
  5
F1
330
1F
100
AcDbEntity
  8
0
  6
Continuous
 62
     7
370
    25
100
AcDbCircle
 10
-11.5388104897
 20
0.0393700787
 30
0.0
 40
0.0393700787401595
100
AcDbArc
 50
180.0
 51
270.0
  0
ARC
  5
F2
330
1F
100
AcDbEntity
  8
0
  6
Continuous
 62
     7
370
    25
100
AcDbCircle
 10
-11.6732283465
 20
15.7086614173
 30
0.0
 40
0.0393700787401627
100
AcDbArc
 50
90.0
 51
180.0
  0
ARC
  5
F3
330
1F
100
AcDbEntity
  8
0
  6
Continuous
 62
     7
370
    25
100
AcDbCircle
 10
-11.6801880589
 20
15.7135826772
 30
0.0
 40
0.0351448249436182
100
AcDbArc
 50
351.9505330245
 51
78.578246341
  0
ARC
  5
F4
330
1F
100
AcDbEntity
  8
0
  6
Continuous
 62
     7
370
    25
100
AcDbCircle
 10
-11.6732283465
 20
0.0393700787
 30
0.0
 40
0.039370078740161
100
AcDbArc
 50
180.0
 51
270.0
  0
ARC
  5
F5
330
1F
100
AcDbEntity
  8
0
  6
Continuous
 62
     7
370
    25
100
AcDbCircle
 10
-11.6801880589
 20
0.0344488189
 30
0.0
 40
0.0351448249436113
100
AcDbArc
 50
281.421753659
 51
8.0494669755
  0
ARC
  5
F6
330
1F
100
AcDbEntity
  8
0
  6
Continuous
 62
     7
370
    25
100
AcDbCircle
 10
-11.050266799
 20
15.7135826772
 30
0.0
 40
0.0351448249436185
100
AcDbArc
 50
351.9505330245
 51
78.578246341
  0
ARC
  5
F7
330
1F
100
AcDbEntity
  8
0
  6
Continuous
 62
     7
370
    25
100
AcDbCircle
 10
-11.0433070866
 20
15.7086614173
 30
0.0
 40
0.0393700787401574
100
AcDbArc
 50
0.0
 51
90.0
  0
ARC
  5
F8
330
1F
100
AcDbEntity
  8
0
  6
Continuous
 62
     7
370
    25
100
AcDbCircle
 10
11.6801880589
 20
0.0344488189
 30
0.0
 40
0.0351448249436125
100
AcDbArc
 50
171.9505330245
 51
258.578246341
  0
ARC
  5
F9
330
1F
100
AcDbEntity
  8
0
  6
Continuous
 62
     7
370
    25
100
AcDbCircle
 10
11.6732283465
 20
0.0393700787
 30
0.0
 40
0.0393700787401592
100
AcDbArc
 50
270.0
 51
0.0
  0
ARC
  5
FA
330
1F
100
AcDbEntity
  8
0
  6
Continuous
 62
     7
370
    25
100
AcDbCircle
 10
11.6801880589
 20
15.7135826772
 30
0.0
 40
0.0351448249436154
100
AcDbArc
 50
101.421753659
 51
188.0494669755
  0
ARC
  5
FB
330
1F
100
AcDbEntity
  8
0
  6
Continuous
 62
     7
370
    25
100
AcDbCircle
 10
11.6732283465
 20
15.7086614173
 30
0.0
 40
0.0393700787401574
100
AcDbArc
 50
0.0
 51
90.0
  0
ARC
  5
FC
330
1F
100
AcDbEntity
  8
0
  6
Continuous
 62
     7
370
    25
100
AcDbCircle
 10
11.050266799
 20
15.7135826772
 30
0.0
 40
0.0351448249436154
100
AcDbArc
 50
101.421753659
 51
188.0494669755
  0
ARC
  5
FD
330
1F
100
AcDbEntity
  8
0
  6
Continuous
 62
     7
370
    25
100
AcDbCircle
 10
11.0433070866
 20
15.7086614173
 30
0.0
 40
0.0393700787401574
100
AcDbArc
 50
90.0
 51
180.0
  0
ARC
  5
FE
330
1F
100
AcDbEntity
  8
0
  6
Continuous
 62
     7
370
    25
100
AcDbCircle
 10
-10.9645669291
 20
15.7086614173
 30
0.0
 40
0.0393700787401574
100
AcDbArc
 50
90.0
 51
180.0
  0
ARC
  5
FF
330
1F
100
AcDbEntity
  8
0
  6
Continuous
 62
     7
370
    25
100
AcDbCircle
 10
10.9645669291
 20
15.7086614173
 30
0.0
 40
0.0393700787401539
100
AcDbArc
 50
360.0
 51
90.0
  0
LINE
  5
104
330
1B
100
AcDbEntity
 67
     1
  8
0
  6
Continuous
 62
     7
370
    25
100
AcDbLine
 10
8.9173228346
 20
15.7480314961
 30
0.0
 11
-8.9960629921
 21
15.7480314961
 31
0.0
  0
LINE
  5
105
330
1B
100
AcDbEntity
 67
     1
  8
0
  6
Continuous
 62
     7
370
    25
100
AcDbLine
 10
8.9173228346
 20
0.0
 30
0.0
 11
-8.9960629921
 21
0.0
 31
0.0
  0
LINE
  5
106
330
1B
100
AcDbEntity
 67
     1
  8
0
  6
Continuous
 62
     7
370
    25
100
AcDbLine
 10
-8.9960629921
 20
15.7480314961
 30
0.0
 11
-8.9960629921
 21
0.0
 31
0.0
  0
LINE
  5
107
330
1B
100
AcDbEntity
 67
     1
  8
0
  6
Continuous
 62
     7
370
    25
100
AcDbLine
 10
8.9173228346
 20
15.7480314961
 30
0.0
 11
8.9173228346
 21
0.0
 31
0.0
  0
VIEWPORT
  5
32C
330
1B
100
AcDbEntity
 67
     1
  8
0
100
AcDbViewport
 10
0.0
 20
0.0
 30
0.0
 40
8.4
 41
6.4
 68
     1
 69
     1
 12
0.0
 22
7.874015748
 13
0.0
 23
0.0
 14
0.5
 24
0.5
 15
0.5
 25
0.5
 16
0.0
 26
0.0
 36
1.0
 17
0.0
 27
0.0
 37
0.0
 42
50.0
 43
0.0
 44
0.0
 45
30.4431946007
 50
0.0
 51
0.0
 72
   100
 90
   557152
  1

281
     0
 71
     1
 74
     0
110
0.0
120
0.0
130
0.0
111
1.0
121
0.0
131
0.0
112
0.0
122
1.0
132
0.0
 79
     0
146
0.0
  0
ENDSEC
  0
SECTION
  2
OBJECTS
  0
DICTIONARY
  5
C
330
0
100
AcDbDictionary
281
     1
  3
ACAD_GROUP
350
D
  3
ACAD_LAYOUT
350
1A
  3
ACAD_MLINESTYLE
350
17
  3
ACAD_PLOTSETTINGS
350
19
  3
ACAD_PLOTSTYLENAME
350
E
  3
ACAD_SCALELIST
350
47
  0
DICTIONARY
  5
D
102
{ACAD_REACTORS
330
C
102
}
330
C
100
AcDbDictionary
281
     1
  0
DICTIONARY
  5
1A
102
{ACAD_REACTORS
330
C
102
}
330
C
100
AcDbDictionary
281
     1
  3
_Isometric
350
1D7
  3
_Left
350
1E
  3
_Right
350
26
  3
_Top
350
111
  3
Model
350
22
  0
DICTIONARY
  5
17
102
{ACAD_REACTORS
330
C
102
}
330
C
100
AcDbDictionary
281
     1
  3
Standard
350
18
  0
DICTIONARY
  5
19
102
{ACAD_REACTORS
330
C
102
}
330
C
100
AcDbDictionary
281
     1
  0
ACDBDICTIONARYWDFLT
  5
E
102
{ACAD_REACTORS
330
C
102
}
330
C
100
AcDbDictionary
281
     1
  3
Normal
350
F
100
AcDbDictionaryWithDefault
340
F
  0
DICTIONARY
  5
47
102
{ACAD_REACTORS
330
C
102
}
330
C
100
AcDbDictionary
281
     1
  3
A0
350
48
  3
A1
350
49
  3
A2
350
4A
  3
A3
350
4B
  3
A4
350
4C
  3
A5
350
4D
  3
A6
350
4E
  3
A7
350
4F
  3
A8
350
50
  3
A9
350
51
  3
B0
350
52
  3
B1
350
53
  3
B2
350
54
  3
B3
350
55
  3
B4
350
56
  3
B5
350
57
  3
B6
350
58
  3
B7
350
59
  3
B8
350
5A
  3
B9
350
5B
  3
C0
350
5C
  3
C1
350
5D
  3
C2
350
5E
  3
C3
350
5F
  3
C4
350
60
  3
C5
350
61
  3
C6
350
62
  3
C7
350
63
  3
C8
350
64
  3
C9
350
65
  3
D0
350
66
  3
D1
350
67
  3
D2
350
68
  0
LAYOUT
  5
1D7
102
{ACAD_REACTORS
330
1A
102
}
330
1A
100
AcDbPlotSettings
  1

  2
none_device
  4
Letter_(8.50_x_11.00_Inches)
  6

 40
6.35
 41
6.35
 42
6.35001
 43
6.35001
 44
215.9
 45
279.4
 46
0.0
 47
0.0
 48
0.0
 49
0.0
140
0.0
141
0.0
142
1.0
143
1.9685040339
 70
   688
 72
     0
 73
     1
 74
     1
  7

 75
     0
147
0.507999975
148
228.5
149
0.0
100
AcDbLayout
  1
_Isometric
 70
     1
 71
     4
 10
0.0
 20
0.0
 11
0.0
 21
0.0
 12
0.0
 22
0.0
 32
0.0
 14
0.0
 24
0.0
 34
0.0
 15
0.0
 25
0.0
 35
0.0
146
0.0
 13
0.0
 23
0.0
 33
0.0
 16
1.0
 26
0.0
 36
0.0
 17
0.0
 27
1.0
 37
0.0
 76
     0
330
1D6
331
332
  0
LAYOUT
  5
1E
102
{ACAD_REACTORS
330
1A
102
}
330
1A
100
AcDbPlotSettings
  1

  2
none_device
  4
Letter_(8.50_x_11.00_Inches)
  6

 40
6.35
 41
6.35
 42
6.35001
 43
6.35001
 44
215.9
 45
279.4
 46
0.0
 47
0.0
 48
0.0
 49
0.0
140
0.0
141
0.0
142
1.0
143
1.9685040339
 70
   688
 72
     0
 73
     1
 74
     1
  7

 75
     0
147
0.507999975
148
228.5
149
0.0
100
AcDbLayout
  1
_Left
 70
     1
 71
     1
 10
-9.4881897756
 20
-0.4921260085
 11
12.1653545971
 21
16.2401582795
 12
0.0
 22
0.0
 32
0.0
 14
-8.9960629921
 24
0.0
 34
0.0
 15
8.9173228346
 25
15.7480314961
 35
0.0
146
0.0
 13
0.0
 23
0.0
 33
0.0
 16
1.0
 26
0.0
 36
0.0
 17
0.0
 27
1.0
 37
0.0
 76
     0
330
1B
331
32C
  0
LAYOUT
  5
26
102
{ACAD_REACTORS
330
1A
102
}
330
1A
100
AcDbPlotSettings
  1

  2
none_device
  4
Letter_(8.50_x_11.00_Inches)
  6

 40
6.35
 41
6.35
 42
6.35001
 43
6.35001
 44
215.9
 45
279.4
 46
0.0
 47
0.0
 48
0.0
 49
0.0
140
0.0
141
0.0
142
1.0
143
1.9685040339
 70
   688
 72
     0
 73
     1
 74
     1
  7

 75
     0
147
0.507999975
148
228.5
149
0.0
100
AcDbLayout
  1
_Right
 70
     1
 71
     2
 10
0.0
 20
0.0
 11
0.0
 21
0.0
 12
0.0
 22
0.0
 32
0.0
 14
0.0
 24
0.0
 34
0.0
 15
0.0
 25
0.0
 35
0.0
146
0.0
 13
0.0
 23
0.0
 33
0.0
 16
1.0
 26
0.0
 36
0.0
 17
0.0
 27
1.0
 37
0.0
 76
     0
330
23
331
32E
  0
LAYOUT
  5
111
102
{ACAD_REACTORS
330
1A
102
}
330
1A
100
AcDbPlotSettings
  1

  2
none_device
  4
Letter_(8.50_x_11.00_Inches)
  6

 40
6.35
 41
6.35
 42
6.35001
 43
6.35001
 44
215.9
 45
279.4
 46
0.0
 47
0.0
 48
0.0
 49
0.0
140
0.0
141
0.0
142
1.0
143
1.9685040339
 70
   688
 72
     0
 73
     1
 74
     1
  7

 75
     0
147
0.507999975
148
228.5
149
0.0
100
AcDbLayout
  1
_Top
 70
     1
 71
     3
 10
0.0
 20
0.0
 11
0.0
 21
0.0
 12
0.0
 22
0.0
 32
0.0
 14
0.0
 24
0.0
 34
0.0
 15
0.0
 25
0.0
 35
0.0
146
0.0
 13
0.0
 23
0.0
 33
0.0
 16
1.0
 26
0.0
 36
0.0
 17
0.0
 27
1.0
 37
0.0
 76
     0
330
110
331
330
  0
LAYOUT
  5
22
102
{ACAD_REACTORS
330
1A
102
}
330
1A
100
AcDbPlotSettings
  1

  2
none_device
  4
ANSI_A_(11.00_x_8.50_Inches)
  6

 40
6.35
 41
19.05
 42
6.35000508
 43
19.05000254
 44
279.4
 45
215.9
 46
133.34999746
 47
33.3008027501
 48
0.0
 49
0.0
140
0.0
141
0.0
142
0.2779959799
143
1.0
 70
  1696
 72
     0
 73
     0
 74
     0
  7

 75
     0
147
0.5913241897
148
-39.4088153714
149
0.0
100
AcDbLayout
  1
Model
 70
     1
 71
     0
 10
0.0
 20
0.0
 11
12.0
 21
9.0
 12
0.0
 22
0.0
 32
0.0
 14
-19.5866141732
 24
0.0
 34
0.0
 15
19.5866141732
 25
15.7480314961
 35
0.0
146
0.0
 13
0.0
 23
0.0
 33
0.0
 16
1.0
 26
0.0
 36
0.0
 17
0.0
 27
1.0
 37
0.0
 76
     0
330
1F
331
29
  0
MLINESTYLE
  5
18
102
{ACAD_REACTORS
330
17
102
}
330
17
100
AcDbMlineStyle
  2
Standard
 70
     0
  3

 62
   256
 51
90.0
 52
90.0
 71
     2
 49
0.5
 62
   256
  6
BYLAYER
 49
-0.5
 62
   256
  6
BYLAYER
  0
ACDBPLACEHOLDER
  5
F
102
{ACAD_REACTORS
330
E
102
}
330
E
  0
SCALE
  5
48
102
{ACAD_REACTORS
330
47
102
}
330
47
100
AcDbScale
 70
     0
300
1:1
140
1.0
141
1.0
290
     1
  0
SCALE
  5
49
102
{ACAD_REACTORS
330
47
102
}
330
47
100
AcDbScale
 70
     0
300
1:2
140
1.0
141
2.0
290
     0
  0
SCALE
  5
4A
102
{ACAD_REACTORS
330
47
102
}
330
47
100
AcDbScale
 70
     0
300
1:4
140
1.0
141
4.0
290
     0
  0
SCALE
  5
4B
102
{ACAD_REACTORS
330
47
102
}
330
47
100
AcDbScale
 70
     0
300
1:5
140
1.0
141
5.0
290
     0
  0
SCALE
  5
4C
102
{ACAD_REACTORS
330
47
102
}
330
47
100
AcDbScale
 70
     0
300
1:8
140
1.0
141
8.0
290
     0
  0
SCALE
  5
4D
102
{ACAD_REACTORS
330
47
102
}
330
47
100
AcDbScale
 70
     0
300
1:10
140
1.0
141
10.0
290
     0
  0
SCALE
  5
4E
102
{ACAD_REACTORS
330
47
102
}
330
47
100
AcDbScale
 70
     0
300
1:16
140
1.0
141
16.0
290
     0
  0
SCALE
  5
4F
102
{ACAD_REACTORS
330
47
102
}
330
47
100
AcDbScale
 70
     0
300
1:20
140
1.0
141
20.0
290
     0
  0
SCALE
  5
50
102
{ACAD_REACTORS
330
47
102
}
330
47
100
AcDbScale
 70
     0
300
1:30
140
1.0
141
30.0
290
     0
  0
SCALE
  5
51
102
{ACAD_REACTORS
330
47
102
}
330
47
100
AcDbScale
 70
     0
300
1:40
140
1.0
141
40.0
290
     0
  0
SCALE
  5
52
102
{ACAD_REACTORS
330
47
102
}
330
47
100
AcDbScale
 70
     0
300
1:50
140
1.0
141
50.0
290
     0
  0
SCALE
  5
53
102
{ACAD_REACTORS
330
47
102
}
330
47
100
AcDbScale
 70
     0
300
1:100
140
1.0
141
100.0
290
     0
  0
SCALE
  5
54
102
{ACAD_REACTORS
330
47
102
}
330
47
100
AcDbScale
 70
     0
300
2:1
140
2.0
141
1.0
290
     0
  0
SCALE
  5
55
102
{ACAD_REACTORS
330
47
102
}
330
47
100
AcDbScale
 70
     0
300
4:1
140
4.0
141
1.0
290
     0
  0
SCALE
  5
56
102
{ACAD_REACTORS
330
47
102
}
330
47
100
AcDbScale
 70
     0
300
8:1
140
8.0
141
1.0
290
     0
  0
SCALE
  5
57
102
{ACAD_REACTORS
330
47
102
}
330
47
100
AcDbScale
 70
     0
300
10:1
140
10.0
141
1.0
290
     0
  0
SCALE
  5
58
102
{ACAD_REACTORS
330
47
102
}
330
47
100
AcDbScale
 70
     0
300
100:1
140
100.0
141
1.0
290
     0
  0
SCALE
  5
59
102
{ACAD_REACTORS
330
47
102
}
330
47
100
AcDbScale
 70
     0
300
1/128" = 1'-0"
140
0.0078125
141
12.0
290
     0
  0
SCALE
  5
5A
102
{ACAD_REACTORS
330
47
102
}
330
47
100
AcDbScale
 70
     0
300
1/64" = 1'-0"
140
0.015625
141
12.0
290
     0
  0
SCALE
  5
5B
102
{ACAD_REACTORS
330
47
102
}
330
47
100
AcDbScale
 70
     0
300
1/32" = 1'-0"
140
0.03125
141
12.0
290
     0
  0
SCALE
  5
5C
102
{ACAD_REACTORS
330
47
102
}
330
47
100
AcDbScale
 70
     0
300
1/16" = 1'-0"
140
0.0625
141
12.0
290
     0
  0
SCALE
  5
5D
102
{ACAD_REACTORS
330
47
102
}
330
47
100
AcDbScale
 70
     0
300
3/32" = 1'-0"
140
0.09375
141
12.0
290
     0
  0
SCALE
  5
5E
102
{ACAD_REACTORS
330
47
102
}
330
47
100
AcDbScale
 70
     0
300
1/8" = 1'-0"
140
0.125
141
12.0
290
     0
  0
SCALE
  5
5F
102
{ACAD_REACTORS
330
47
102
}
330
47
100
AcDbScale
 70
     0
300
3/16" = 1'-0"
140
0.1875
141
12.0
290
     0
  0
SCALE
  5
60
102
{ACAD_REACTORS
330
47
102
}
330
47
100
AcDbScale
 70
     0
300
1/4" = 1'-0"
140
0.25
141
12.0
290
     0
  0
SCALE
  5
61
102
{ACAD_REACTORS
330
47
102
}
330
47
100
AcDbScale
 70
     0
300
3/8" = 1'-0"
140
0.375
141
12.0
290
     0
  0
SCALE
  5
62
102
{ACAD_REACTORS
330
47
102
}
330
47
100
AcDbScale
 70
     0
300
1/2" = 1'-0"
140
0.5
141
12.0
290
     0
  0
SCALE
  5
63
102
{ACAD_REACTORS
330
47
102
}
330
47
100
AcDbScale
 70
     0
300
3/4" = 1'-0"
140
0.75
141
12.0
290
     0
  0
SCALE
  5
64
102
{ACAD_REACTORS
330
47
102
}
330
47
100
AcDbScale
 70
     0
300
1" = 1'-0"
140
1.0
141
12.0
290
     0
  0
SCALE
  5
65
102
{ACAD_REACTORS
330
47
102
}
330
47
100
AcDbScale
 70
     0
300
1-1/2" = 1'-0"
140
1.5
141
12.0
290
     0
  0
SCALE
  5
66
102
{ACAD_REACTORS
330
47
102
}
330
47
100
AcDbScale
 70
     0
300
3" = 1'-0"
140
3.0
141
12.0
290
     0
  0
SCALE
  5
67
102
{ACAD_REACTORS
330
47
102
}
330
47
100
AcDbScale
 70
     0
300
6" = 1'-0"
140
6.0
141
12.0
290
     0
  0
SCALE
  5
68
102
{ACAD_REACTORS
330
47
102
}
330
47
100
AcDbScale
 70
     0
300
1'-0" = 1'-0"
140
12.0
141
12.0
290
     0
  0
ENDSEC
  0
EOF
