  0
SECTION
  2
HEADER
  9
$ACADVER
  1
AC1015
  9
$ACADMAINTVER
 70
     6
  9
$DWGCODEPAGE
  3
ANSI_1252
  9
$INSBASE
 10
0.0
 20
0.0
 30
0.0
  9
$EXTMIN
 10
-508.2847443432
 20
-232.5
 30
0.0
  9
$EXTMAX
 10
508.2847443432
 20
233.2847443432
 30
0.0
  9
$LIMMIN
 10
0.0
 20
0.0
  9
$LIMMAX
 10
420.0
 20
297.0
  9
$ORTHOMODE
 70
     0
  9
$REGENMODE
 70
     1
  9
$FILLMODE
 70
     1
  9
$QTEXTMODE
 70
     0
  9
$MIRRTEXT
 70
     1
  9
$LTSCALE
 40
1.0
  9
$ATTMODE
 70
     1
  9
$TEXTSIZE
 40
3.5
  9
$TRACEWID
 40
1.0
  9
$TEXTSTYLE
  7
Standard
  9
$CLAYER
  8
0
  9
$CELTYPE
  6
ByLayer
  9
$CECOLOR
 62
   256
  9
$CELTSCALE
 40
1.0
  9
$DISPSILH
 70
     0
  9
$DIMSCALE
 40
1.0
  9
$DIMASZ
 40
3.302
  9
$DIMEXO
 40
1.0
  9
$DIMDLI
 40
3.75
  9
$DIMRND
 40
0.0
  9
$DIMDLE
 40
0.0
  9
$DIMEXE
 40
1.0
  9
$DIMTP
 40
0.0
  9
$DIMTM
 40
0.0
  9
$DIMTXT
 40
3.5
  9
$DIMCEN
 40
2.5
  9
$DIMTSZ
 40
0.0
  9
$DIMTOL
 70
     0
  9
$DIMLIM
 70
     0
  9
$DIMTIH
 70
     1
  9
$DIMTOH
 70
     1
  9
$DIMSE1
 70
     0
  9
$DIMSE2
 70
     0
  9
$DIMTAD
 70
     1
  9
$DIMZIN
 70
     1
  9
$DIMBLK
  1

  9
$DIMASO
 70
     1
  9
$DIMSHO
 70
     1
  9
$DIMPOST
  1

  9
$DIMAPOST
  1

  9
$DIMALT
 70
     0
  9
$DIMALTD
 70
     3
  9
$DIMALTF
 40
0.0393700787
  9
$DIMLFAC
 40
1.0
  9
$DIMTOFL
 70
     1
  9
$DIMTVP
 40
0.0
  9
$DIMTIX
 70
     0
  9
$DIMSOXD
 70
     0
  9
$DIMSAH
 70
     0
  9
$DIMBLK1
  1

  9
$DIMBLK2
  1

  9
$DIMSTYLE
  2
ISO-25
  9
$DIMCLRD
 70
     0
  9
$DIMCLRE
 70
     0
  9
$DIMCLRT
 70
     0
  9
$DIMTFAC
 40
1.0
  9
$DIMGAP
 40
1.524
  9
$DIMJUST
 70
     0
  9
$DIMSD1
 70
     0
  9
$DIMSD2
 70
     0
  9
$DIMTOLJ
 70
     0
  9
$DIMTZIN
 70
     1
  9
$DIMALTZ
 70
     0
  9
$DIMALTTZ
 70
     0
  9
$DIMUPT
 70
     0
  9
$DIMDEC
 70
     2
  9
$DIMTDEC
 70
     2
  9
$DIMALTU
 70
     2
  9
$DIMALTTD
 70
     3
  9
$DIMTXSTY
  7
Standard
  9
$DIMAUNIT
 70
     0
  9
$DIMADEC
 70
     2
  9
$DIMALTRND
 40
0.0
  9
$DIMAZIN
 70
     0
  9
$DIMDSEP
 70
    44
  9
$DIMATFIT
 70
     3
  9
$DIMFRAC
 70
     0
  9
$DIMLDRBLK
  1

  9
$DIMLUNIT
 70
     2
  9
$DIMLWD
 70
    -2
  9
$DIMLWE
 70
    -2
  9
$DIMTMOVE
 70
     0
  9
$LUNITS
 70
     2
  9
$LUPREC
 70
     2
  9
$SKETCHINC
 40
1.0
  9
$FILLETRAD
 40
10.0
  9
$AUNITS
 70
     0
  9
$AUPREC
 70
     2
  9
$MENU
  1
.
  9
$ELEVATION
 40
0.0
  9
$PELEVATION
 40
0.0
  9
$THICKNESS
 40
0.0
  9
$LIMCHECK
 70
     0
  9
$CHAMFERA
 40
0.0
  9
$CHAMFERB
 40
0.0
  9
$CHAMFERC
 40
0.0
  9
$CHAMFERD
 40
0.0
  9
$SKPOLY
 70
     0
  9
$TDCREATE
 40
2460411.621083183
  9
$TDUCREATE
 40
2460411.579416516
  9
$TDUPDATE
 40
2460411.621117558
  9
$TDUUPDATE
 40
2460411.579450891
  9
$TDINDWG
 40
0.0000000116
  9
$TDUSRTIMER
 40
0.0000000116
  9
$USRTIMER
 70
     1
  9
$ANGBASE
 50
0.0
  9
$ANGDIR
 70
     0
  9
$PDMODE
 70
     0
  9
$PDSIZE
 40
-1.0
  9
$PLINEWID
 40
0.0
  9
$SPLFRAME
 70
     0
  9
$SPLINETYPE
 70
     6
  9
$SPLINESEGS
 70
     8
  9
$HANDSEED
  5
3F0
  9
$SURFTAB1
 70
     6
  9
$SURFTAB2
 70
     6
  9
$SURFTYPE
 70
     6
  9
$SURFU
 70
     6
  9
$SURFV
 70
     6
  9
$UCSBASE
  2

  9
$UCSNAME
  2

  9
$UCSORG
 10
0.0
 20
0.0
 30
0.0
  9
$UCSXDIR
 10
1.0
 20
0.0
 30
0.0
  9
$UCSYDIR
 10
0.0
 20
1.0
 30
0.0
  9
$UCSORTHOREF
  2

  9
$UCSORTHOVIEW
 70
     0
  9
$UCSORGTOP
 10
0.0
 20
0.0
 30
0.0
  9
$UCSORGBOTTOM
 10
0.0
 20
0.0
 30
0.0
  9
$UCSORGLEFT
 10
0.0
 20
0.0
 30
0.0
  9
$UCSORGRIGHT
 10
0.0
 20
0.0
 30
0.0
  9
$UCSORGFRONT
 10
0.0
 20
0.0
 30
0.0
  9
$UCSORGBACK
 10
0.0
 20
0.0
 30
0.0
  9
$PUCSBASE
  2

  9
$PUCSNAME
  2

  9
$PUCSORG
 10
0.0
 20
0.0
 30
0.0
  9
$PUCSXDIR
 10
1.0
 20
0.0
 30
0.0
  9
$PUCSYDIR
 10
0.0
 20
1.0
 30
0.0
  9
$PUCSORTHOREF
  2

  9
$PUCSORTHOVIEW
 70
     0
  9
$PUCSORGTOP
 10
0.0
 20
0.0
 30
0.0
  9
$PUCSORGBOTTOM
 10
0.0
 20
0.0
 30
0.0
  9
$PUCSORGLEFT
 10
0.0
 20
0.0
 30
0.0
  9
$PUCSORGRIGHT
 10
0.0
 20
0.0
 30
0.0
  9
$PUCSORGFRONT
 10
0.0
 20
0.0
 30
0.0
  9
$PUCSORGBACK
 10
0.0
 20
0.0
 30
0.0
  9
$USERI1
 70
     0
  9
$USERI2
 70
     0
  9
$USERI3
 70
     0
  9
$USERI4
 70
     0
  9
$USERI5
 70
     0
  9
$USERR1
 40
0.0
  9
$USERR2
 40
0.0
  9
$USERR3
 40
0.0
  9
$USERR4
 40
0.0
  9
$USERR5
 40
0.0
  9
$WORLDVIEW
 70
     1
  9
$SHADEDGE
 70
     3
  9
$SHADEDIF
 70
    70
  9
$TILEMODE
 70
     1
  9
$MAXACTVP
 70
    64
  9
$PINSBASE
 10
0.0
 20
0.0
 30
0.0
  9
$PLIMCHECK
 70
     0
  9
$PEXTMIN
 10
-508.2847443432
 20
-153.0
 30
0.0
  9
$PEXTMAX
 10
508.2847443432
 20
16.0
 30
0.0
  9
$PLIMMIN
 10
-587.3952103889
 20
-182.6664247671
  9
$PLIMMAX
 10
587.3952103889
 20
647.9934687121
  9
$UNITMODE
 70
     0
  9
$VISRETAIN
 70
     1
  9
$PLINEGEN
 70
     0
  9
$PSLTSCALE
 70
     1
  9
$TREEDEPTH
 70
  3020
  9
$CMLSTYLE
  2
Standard
  9
$CMLJUST
 70
     0
  9
$CMLSCALE
 40
20.0
  9
$PROXYGRAPHICS
 70
     1
  9
$MEASUREMENT
 70
     1
  9
$CELWEIGHT
370
    -1
  9
$ENDCAPS
280
     0
  9
$JOINSTYLE
280
     0
  9
$LWDISPLAY
290
     1
  9
$INSUNITS
 70
     4
  9
$HYPERLINKBASE
  1

  9
$STYLESHEET
  1

  9
$XEDIT
290
     1
  9
$CEPSNTYPE
380
     0
  9
$PSTYLEMODE
290
     1
  9
$FINGERPRINTGUID
  2
{6bd2b7ae-3bf2-4aa5-ab41-7a4662bce9eb}
  9
$VERSIONGUID
  2
{FAEB1C32-E019-11D5-929B-00C0DF256EC4}
  9
$EXTNAMES
290
     1
  9
$PSVPSCALE
 40
0.0
  9
$OLESTARTUP
290
     0
  0
ENDSEC
  0
SECTION
  2
CLASSES
  0
CLASS
  1
ACDBDICTIONARYWDFLT
  2
AcDbDictionaryWithDefault
  3
ObjectDBX Classes
 90
        0
280
     0
281
     0
  0
CLASS
  1
VISUALSTYLE
  2
AcDbVisualStyle
  3
ObjectDBX Classes
 90
     4095
280
     0
281
     0
  0
CLASS
  1
MATERIAL
  2
AcDbMaterial
  3
ObjectDBX Classes
 90
     1153
280
     0
281
     0
  0
CLASS
  1
SCALE
  2
AcDbScale
  3
ObjectDBX Classes
 90
     1153
280
     0
281
     0
  0
CLASS
  1
TABLESTYLE
  2
AcDbTableStyle
  3
ObjectDBX Classes
 90
     4095
280
     0
281
     0
  0
CLASS
  1
MLEADERSTYLE
  2
AcDbMLeaderStyle
  3
ACDB_MLEADERSTYLE_CLASS
 90
     4095
280
     0
281
     0
  0
CLASS
  1
SUN
  2
AcDbSun
  3
SCENEOE
 90
     1153
280
     0
281
     0
  0
CLASS
  1
ACDBPLACEHOLDER
  2
AcDbPlaceHolder
  3
ObjectDBX Classes
 90
        0
280
     0
281
     0
  0
CLASS
  1
LAYOUT
  2
AcDbLayout
  3
ObjectDBX Classes
 90
        0
280
     0
281
     0
  0
ENDSEC
  0
SECTION
  2
TABLES
  0
TABLE
  2
VPORT
  5
8
330
0
100
AcDbSymbolTable
 70
     1
  0
VPORT
  5
29
330
8
100
AcDbSymbolTableRecord
100
AcDbViewportTableRecord
  2
*Active
 70
     0
 10
0.0
 20
0.0
 11
1.0
 21
1.0
 12
0.0
 22
0.3923721716
 13
0.0
 23
0.0
 14
10.0
 24
10.0
 15
10.0
 25
10.0
 16
0.0
 26
0.0
 36
1.0
 17
0.0
 27
0.0
 37
0.0
 40
475.1004392301
 41
2.1824877286
 42
50.0
 43
0.0
 44
0.0
 50
0.0
 51
0.0
 71
     0
 72
   100
 73
     1
 74
     3
 75
     0
 76
     0
 77
     0
 78
     0
281
     0
 65
     1
110
0.0
120
0.0
130
0.0
111
1.0
121
0.0
131
0.0
112
0.0
122
1.0
132
0.0
 79
     0
146
0.0
  0
ENDTAB
  0
TABLE
  2
LTYPE
  5
5
330
0
100
AcDbSymbolTable
 70
     6
  0
LTYPE
  5
14
330
5
100
AcDbSymbolTableRecord
100
AcDbLinetypeTableRecord
  2
ByBlock
 70
     0
  3

 72
    65
 73
     0
 40
0.0
  0
LTYPE
  5
15
330
5
100
AcDbSymbolTableRecord
100
AcDbLinetypeTableRecord
  2
ByLayer
 70
     0
  3

 72
    65
 73
     0
 40
0.0
  0
LTYPE
  5
16
330
5
100
AcDbSymbolTableRecord
100
AcDbLinetypeTableRecord
  2
Continuous
 70
     0
  3
Solid line
 72
    65
 73
     0
 40
0.0
  0
LTYPE
  5
6E
330
5
100
AcDbSymbolTableRecord
100
AcDbLinetypeTableRecord
  2
HIDDEN
 70
     0
  3
Hidden __ __ __ __ __ __ __ __ __ __ __ __ __ __
 72
    65
 73
     2
 40
1.905
 49
1.27
 74
     0
 49
-0.635
 74
     0
  0
LTYPE
  5
6F
330
5
100
AcDbSymbolTableRecord
100
AcDbLinetypeTableRecord
  2
PHANTOM
 70
     0
  3
Phantom ______  __  __  ______  __  __  ______
 72
    65
 73
     6
 40
12.7
 49
6.35
 74
     0
 49
-1.27
 74
     0
 49
1.27
 74
     0
 49
-1.27
 74
     0
 49
1.27
 74
     0
 49
-1.27
 74
     0
  0
LTYPE
  5
70
330
5
100
AcDbSymbolTableRecord
100
AcDbLinetypeTableRecord
  2
CENTER
 70
     0
  3
Center ____ _ ____ _ ____ _ ____ _ ____ _ ____
 72
    65
 73
     4
 40
10.16
 49
6.35
 74
     0
 49
-1.27
 74
     0
 49
1.27
 74
     0
 49
-1.27
 74
     0
  0
LTYPE
  5
71
330
5
100
AcDbSymbolTableRecord
100
AcDbLinetypeTableRecord
  2
CENTERX2
 70
     0
  3
Center (2x) ________  __  ________  __  _____
 72
    65
 73
     4
 40
20.32
 49
12.7
 74
     0
 49
-2.54
 74
     0
 49
2.54
 74
     0
 49
-2.54
 74
     0
  0
LTYPE
  5
72
330
5
100
AcDbSymbolTableRecord
100
AcDbLinetypeTableRecord
  2
DOT2
 70
     0
  3
Dot (.5x) ........................................
 72
    65
 73
     2
 40
0.635
 49
0.0
 74
     0
 49
-0.635
 74
     0
  0
ENDTAB
  0
TABLE
  2
LAYER
  5
2
330
0
100
AcDbSymbolTable
 70
     1
  0
LAYER
  5
10
330
2
100
AcDbSymbolTableRecord
100
AcDbLayerTableRecord
  2
0
 70
     0
 62
     7
  6
Continuous
370
    -3
390
F
  0
ENDTAB
  0
TABLE
  2
STYLE
  5
3
330
0
100
AcDbSymbolTable
 70
     1
  0
STYLE
  5
11
330
3
100
AcDbSymbolTableRecord
100
AcDbTextStyleTableRecord
  2
Standard
 70
     0
 40
0.0
 41
1.0
 50
0.0
 71
     0
 42
3.5
  3
txt
  4

  0
ENDTAB
  0
TABLE
  2
VIEW
  5
6
330
0
100
AcDbSymbolTable
 70
     0
  0
ENDTAB
  0
TABLE
  2
UCS
  5
7
330
0
100
AcDbSymbolTable
 70
     0
  0
ENDTAB
  0
TABLE
  2
APPID
  5
9
330
0
100
AcDbSymbolTable
 70
     1
  0
APPID
  5
12
330
9
100
AcDbSymbolTableRecord
100
AcDbRegAppTableRecord
  2
ACAD
 70
     0
  0
ENDTAB
  0
TABLE
  2
DIMSTYLE
  5
A
330
0
100
AcDbSymbolTable
 70
     1
100
AcDbDimStyleTable
  0
DIMSTYLE
105
27
330
A
100
AcDbSymbolTableRecord
100
AcDbDimStyleTableRecord
  2
ISO-25
 70
     0
 41
2.5
 42
0.625
 43
3.75
 44
1.25
 73
     0
 74
     0
 77
     1
 78
     8
140
2.5
141
2.5
143
0.0393700787
147
0.625
171
     3
172
     1
178
     0
271
     2
272
     2
274
     3
278
    44
283
     0
284
     8
340
11
  0
ENDTAB
  0
TABLE
  2
BLOCK_RECORD
  5
1
330
0
100
AcDbSymbolTable
 70
     3
  0
BLOCK_RECORD
  5
1F
330
1
100
AcDbSymbolTableRecord
100
AcDbBlockTableRecord
  2
*Model_Space
340
22
  0
BLOCK_RECORD
  5
1B
330
1
100
AcDbSymbolTableRecord
100
AcDbBlockTableRecord
  2
*Paper_Space
340
1E
  0
BLOCK_RECORD
  5
23
330
1
100
AcDbSymbolTableRecord
100
AcDbBlockTableRecord
  2
*Paper_Space0
340
26
  0
BLOCK_RECORD
  5
28B
330
1
100
AcDbSymbolTableRecord
100
AcDbBlockTableRecord
  2
*Paper_Space1
340
28C
  0
BLOCK_RECORD
  5
2D9
330
1
100
AcDbSymbolTableRecord
100
AcDbBlockTableRecord
  2
*Paper_Space2
340
2DA
  0
ENDTAB
  0
ENDSEC
  0
SECTION
  2
BLOCKS
  0
BLOCK
  5
20
330
1F
100
AcDbEntity
  8
0
100
AcDbBlockBegin
  2
*Model_Space
 70
     0
 10
0.0
 20
0.0
 30
0.0
  3
*Model_Space
  1

  0
ENDBLK
  5
21
330
1F
100
AcDbEntity
  8
0
100
AcDbBlockEnd
  0
BLOCK
  5
1C
330
1B
100
AcDbEntity
 67
     1
  8
0
100
AcDbBlockBegin
  2
*Paper_Space
 70
     0
 10
0.0
 20
0.0
 30
0.0
  3
*Paper_Space
  1

  0
ENDBLK
  5
1D
330
1B
100
AcDbEntity
 67
     1
  8
0
100
AcDbBlockEnd
  0
BLOCK
  5
24
330
23
100
AcDbEntity
  8
0
100
AcDbBlockBegin
  2
*Paper_Space0
 70
     0
 10
0.0
 20
0.0
 30
0.0
  3
*Paper_Space0
  1

  0
SPLINE
  5
24A
330
23
100
AcDbEntity
  8
0
  6
Continuous
 62
     7
370
    25
100
AcDbSpline
210
0.0
220
0.0
230
1.0
 70
     8
 71
     3
 72
    36
 73
    32
 74
     0
 42
0.000000001
 43
0.00000001
 40
0.0
 40
0.0
 40
0.0
 40
0.0
 40
0.1250000000000004
 40
0.1250000000000004
 40
0.1562500000000011
 40
0.1562500000000011
 40
0.1875000000000018
 40
0.1875000000000018
 40
0.2500000000000023
 40
0.2500000000000023
 40
0.3125000000000028
 40
0.3125000000000028
 40
0.343750000000003
 40
0.343750000000003
 40
0.3750000000000024
 40
0.3750000000000024
 40
0.4999999999999984
 40
0.4999999999999984
 40
0.5624999999999959
 40
0.5624999999999959
 40
0.5937499999999951
 40
0.5937499999999951
 40
0.6249999999999943
 40
0.6249999999999943
 40
0.7499999999999958
 40
0.7499999999999958
 40
0.8124999999999969
 40
0.8124999999999969
 40
0.874999999999998
 40
0.874999999999998
 40
1.0
 40
1.0
 40
1.0
 40
1.0
 10
-137.5007433698064
 20
-0.1039722664370468
 30
0.0
 10
-139.8088234626207
 20
-0.1113752609589042
 30
0.0
 10
-142.0915484356205
 20
-0.1179578085007821
 30
0.0
 10
-144.9133254479653
 20
-0.125154452017287
 30
0.0
 10
-145.4769866056661
 20
-0.1265447503109307
 30
0.0
 10
-146.5912978784388
 20
-0.12920090164531
 30
0.0
 10
-147.1430025471914
 20
-0.1304696074488632
 30
0.0
 10
-148.7820647094927
 20
-0.1341049981776893
 30
0.0
 10
-149.8534103039194
 20
-0.136301178871992
 30
0.0
 10
-151.9540022485373
 20
-0.1402748408950716
 30
0.0
 10
-152.9832442744044
 20
-0.1420539707615298
 30
0.0
 10
-154.4950195688745
 20
-0.1444163809838223
 30
0.0
 10
-154.9935876987256
 20
-0.1451527726671203
 30
0.0
 10
-155.9798087432448
 20
-0.1465239151135361
 30
0.0
 10
-156.4676333922646
 20
-0.1471585818118293
 30
0.0
 10
-158.852457814476
 20
-0.1500492470018489
 30
0.0
 10
-160.6101943872657
 20
-0.1514961433053824
 30
0.0
 10
-163.0265316016281
 20
-0.1524524318208126
 30
0.0
 10
-163.7950030096557
 20
-0.1525669659893092
 30
0.0
 10
-164.8905092713671
 20
-0.15242178230232
 30
0.0
 10
-165.2454370139839
 20
-0.1523202081409325
 30
0.0
 10
-165.9285282502802
 20
-0.1520136170590908
 30
0.0
 10
-166.2576527015095
 20
-0.1518085416048476
 30
0.0
 10
-167.8421375150151
 20
-0.1505280307600443
 30
0.0
 10
-168.9157432789927
 20
-0.1486906013941913
 30
0.0
 10
-170.2331117091554
 20
-0.1446462080934019
 30
0.0
 10
-170.6244212325335
 20
-0.1430687133901626
 30
0.0
 10
-171.2916126230973
 20
-0.1395034916256976
 30
0.0
 10
-171.5693708748506
 20
-0.1375136251659942
 30
0.0
 10
-172.2384640029211
 20
-0.1309116966252549
 30
0.0
 10
-172.4668441541378
 20
-0.1256596314082453
 30
0.0
 10
-172.4701054718721
 20
-0.119538520624865
 30
0.0
  0
SPLINE
  5
250
330
23
100
AcDbEntity
  8
0
  6
Continuous
 62
     7
370
    25
100
AcDbSpline
210
0.0
220
0.0
230
1.0
 70
     8
 71
     3
 72
    26
 73
    22
 74
     0
 42
0.000000001
 43
0.00000001
 40
0.0
 40
0.0
 40
0.0
 40
0.0
 40
0.1250000000000013
 40
0.1250000000000013
 40
0.2500000000000026
 40
0.2500000000000026
 40
0.3750000000000039
 40
0.3750000000000039
 40
0.5000000000000052
 40
0.5000000000000052
 40
0.6250000000000066
 40
0.6250000000000066
 40
0.6875000000000054
 40
0.6875000000000054
 40
0.7500000000000042
 40
0.7500000000000042
 40
0.8125000000000031
 40
0.8125000000000031
 40
0.875000000000002
 40
0.875000000000002
 40
1.0
 40
1.0
 40
1.0
 40
1.0
 10
62.94436524219221
 20
-149.0
 30
0.0
 10
62.65138780497437
 20
-149.0000000000001
 30
0.0
 10
62.35479454331951
 20
-148.9651127021993
 30
0.0
 10
61.75457201250274
 20
-148.8319068764122
 30
0.0
 10
61.44911006885491
 20
-148.7327367513271
 30
0.0
 10
60.84086553899943
 20
-148.4742851692644
 30
0.0
 10
60.53982631029022
 20
-148.3161917323262
 30
0.0
 10
59.94585251931204
 20
-147.9419233314484
 30
0.0
 10
59.65286997454675
 20
-147.7258586252433
 30
0.0
 10
59.07948883484293
 20
-147.2270743418424
 30
0.0
 10
58.80307850479982
 20
-146.9474351986223
 30
0.0
 10
58.41792499049718
 20
-146.4824454206696
 30
0.0
 10
58.29411455645417
 20
-146.3194615516866
 30
0.0
 10
58.05763373322372
 20
-145.9751416717644
 30
0.0
 10
57.94432679367346
 20
-145.7925914452064
 30
0.0
 10
57.73588647350361
 20
-145.4130526711878
 30
0.0
 10
57.64056148013399
 20
-145.2160678480281
 30
0.0
 10
57.47078365719279
 20
-144.8056753869582
 30
0.0
 10
57.39586803260273
 20
-144.5905833022991
 30
0.0
 10
57.21253252653104
 20
-143.928335696829
 30
0.0
 10
57.14648808654088
 20
-143.4724762045376
 30
0.0
 10
57.14648808654087
 20
-143.0
 30
0.0
  0
SPLINE
  5
252
330
23
100
AcDbEntity
  8
0
  6
Continuous
 62
     7
370
    25
100
AcDbSpline
210
0.0
220
0.0
230
1.0
 70
     8
 71
     3
 72
    22
 73
    18
 74
     0
 42
0.000000001
 43
0.00000001
 40
0.0
 40
0.0
 40
0.0
 40
0.0
 40
0.0625000000000034
 40
0.0625000000000034
 40
0.1250000000000067
 40
0.1250000000000067
 40
0.250000000000006
 40
0.250000000000006
 40
0.3750000000000053
 40
0.3750000000000053
 40
0.5000000000000046
 40
0.5000000000000046
 40
0.7500000000000012
 40
0.7500000000000012
 40
0.8750000000000006
 40
0.8750000000000006
 40
1.0
 40
1.0
 40
1.0
 40
1.0
 10
57.77844931952909
 20
-143.0
 30
0.0
 10
57.77844931952912
 20
-143.2129207756099
 30
0.0
 10
57.7983940509969
 20
-143.4215575682923
 30
0.0
 10
57.87419710943212
 20
-143.8310885615591
 30
0.0
 10
57.93063736037236
 20
-144.0332124482306
 30
0.0
 10
58.14446325916467
 20
-144.6155621275904
 30
0.0
 10
58.33950574239434
 20
-144.9619271306618
 30
0.0
 10
58.79381180225045
 20
-145.5969435284119
 30
0.0
 10
59.04729849851033
 20
-145.876557432828
 30
0.0
 10
59.58141354418002
 20
-146.3781599313837
 30
0.0
 10
59.8653859104116
 20
-146.6022667734808
 30
0.0
 10
60.734666212691
 20
-147.195112187139
 30
0.0
 10
61.33167552784716
 20
-147.4861807690063
 30
0.0
 10
62.23875198886539
 20
-147.7903511614055
 30
0.0
 10
62.5411309009543
 20
-147.8678973228884
 30
0.0
 10
63.13758031221433
 20
-147.9725065484667
 30
0.0
 10
63.43282882810323
 20
-148.0
 30
0.0
 10
63.72498999199201
 20
-148.0
 30
0.0
  0
SPLINE
  5
258
330
23
100
AcDbEntity
  8
0
  6
Continuous
 62
     8
370
    25
100
AcDbSpline
210
0.0
220
0.0
230
1.0
 70
     8
 71
     3
 72
     9
 73
     5
 74
     0
 42
0.000000001
 43
0.00000001
 40
0.0
 40
0.0
 40
0.0
 40
0.0
 40
0.8411985633641952
 40
1.0
 40
1.0
 40
1.0
 40
1.0
 10
232.5000000000017
 20
0.1026117887960309
 30
0.0
 10
232.3339719698082
 20
0.0981084170897789
 30
0.0
 10
232.136601173632
 20
0.0927548990235505
 30
0.0
 10
231.9391713142853
 20
0.0915796313143008
 30
0.0
 10
231.9078191689864
 20
0.0913929971136374
 30
0.0
  0
LWPOLYLINE
  5
25C
330
23
100
AcDbEntity
  8
0
  6
Continuous
 62
     8
370
    25
100
AcDbPolyline
 90
        3
 70
   128
 43
0.0
 10
62.5
 20
-0.103840599
 10
-37.500526563
 20
-0.0237209986
 10
-137.5007433698
 20
-0.1039722664
  0
LINE
  5
262
330
23
100
AcDbEntity
  8
0
  6
Continuous
 62
     7
370
    25
100
AcDbLine
 10
-172.5
 20
0.0
 30
0.0
 11
-140.5
 21
-128.0
 31
0.0
  0
LINE
  5
263
330
23
100
AcDbEntity
  8
0
  6
Continuous
 62
     7
370
    25
100
AcDbLine
 10
-83.5
 20
-127.9585790305
 30
0.0
 11
190.5
 21
-127.9585790305
 31
0.0
  0
LINE
  5
264
330
23
100
AcDbEntity
  8
0
  6
Continuous
 62
     7
370
    25
100
AcDbLine
 10
71.5
 20
-152.0
 30
0.0
 11
71.5
 21
-149.0
 31
0.0
  0
LINE
  5
265
330
23
100
AcDbEntity
  8
0
  6
Continuous
 62
     7
370
    25
100
AcDbLine
 10
-6.5
 20
-128.0
 30
0.0
 11
-6.5
 21
-152.0
 31
0.0
  0
LINE
  5
266
330
23
100
AcDbEntity
  8
0
  6
Continuous
 62
     7
370
    25
100
AcDbLine
 10
-223.2970785305
 20
0.0
 30
0.0
 11
-223.2970785305
 21
1.0523359562
 31
0.0
  0
LINE
  5
267
330
23
100
AcDbEntity
  8
0
  6
Continuous
 62
     7
370
    25
100
AcDbLine
 10
231.5
 20
0.0
 30
0.0
 11
-232.2847443432
 21
0.0
 31
0.0
  0
LINE
  5
268
330
23
100
AcDbEntity
  8
0
  6
Continuous
 62
     7
370
    25
100
AcDbLine
 10
230.5
 20
0.0
 30
0.0
 11
230.5
 21
16.0
 31
0.0
  0
LINE
  5
269
330
23
100
AcDbEntity
  8
0
  6
Continuous
 62
     7
370
    25
100
AcDbLine
 10
-223.2970785305
 20
1.0523359562
 30
0.0
 11
230.5
 21
1.0523359562
 31
0.0
  0
LINE
  5
26A
330
23
100
AcDbEntity
  8
0
  6
Continuous
 62
     7
370
    25
100
AcDbLine
 10
232.5
 20
14.0
 30
0.0
 11
232.5
 21
1.0
 31
0.0
  0
LINE
  5
26B
330
23
100
AcDbEntity
  8
0
  6
Continuous
 62
     7
370
    25
100
AcDbLine
 10
230.5
 20
11.2616797812
 30
0.0
 11
-222.7620294927
 21
11.2616797812
 31
0.0
  0
LINE
  5
26C
330
23
100
AcDbEntity
  8
0
  6
Continuous
 62
     7
370
    25
100
AcDbLine
 10
-222.7620294927
 20
11.2616797812
 30
0.0
 11
-223.2970785305
 21
1.0523359562
 31
0.0
  0
LINE
  5
26D
330
23
100
AcDbEntity
  8
0
  6
Continuous
 62
     7
370
    25
100
AcDbLine
 10
-233.283373878
 20
1.0523359562
 30
0.0
 11
-232.7483248402
 21
11.2616797812
 31
0.0
  0
LINE
  5
26E
330
23
100
AcDbEntity
  8
0
  6
Continuous
 62
     7
370
    25
100
AcDbLine
 10
-222.7620294927
 20
16.0
 30
0.0
 11
-222.7620294927
 21
11.2616797812
 31
0.0
  0
LINE
  5
26F
330
23
100
AcDbEntity
  8
0
  6
Continuous
 62
     7
370
    25
100
AcDbLine
 10
-227.7551771664
 20
16.0
 30
0.0
 11
230.5
 21
16.0
 31
0.0
  0
LINE
  5
270
330
23
100
AcDbEntity
  8
0
  6
Continuous
 62
     7
370
    25
100
AcDbLine
 10
232.5
 20
-128.0
 30
0.0
 11
-140.5
 21
-128.0
 31
0.0
  0
LINE
  5
271
330
23
100
AcDbEntity
  8
0
  6
Continuous
 62
     7
370
    25
100
AcDbLine
 10
232.5
 20
-128.0
 30
0.0
 11
232.5
 21
0.82499
 31
0.0
  0
LINE
  5
272
330
23
100
AcDbEntity
  8
0
  6
Continuous
 62
     7
370
    25
100
AcDbLine
 10
70.4999999728
 20
-153.0
 30
0.0
 11
-5.5
 21
-153.0
 31
0.0
  0
LINE
  5
273
330
23
100
AcDbEntity
  8
0
  6
Continuous
 62
     7
370
    25
100
AcDbLine
 10
57.1464880865
 20
-143.0
 30
0.0
 11
102.8004714505
 21
-143.0
 31
0.0
  0
LINE
  5
274
330
23
100
AcDbEntity
  8
0
  6
Continuous
 62
     7
370
    25
100
AcDbLine
 10
102.8004714505
 20
-143.0
 30
0.0
 11
102.8004714505
 21
-148.0
 31
0.0
  0
LINE
  5
275
330
23
100
AcDbEntity
  8
0
  6
Continuous
 62
     7
370
    25
100
AcDbLine
 10
102.8004714505
 20
-148.0
 30
0.0
 11
63.724989992
 21
-148.0
 31
0.0
  0
LINE
  5
276
330
23
100
AcDbEntity
  8
0
  6
Continuous
 62
     8
370
    25
100
AcDbLine
 10
-137.5003757155
 20
0.0
 30
0.0
 11
-137.5007433698
 21
-0.1039722664
 31
0.0
  0
LINE
  5
277
330
23
100
AcDbEntity
  8
0
  6
Continuous
 62
     8
370
    25
100
AcDbLine
 10
232.5
 20
-0.103840599
 30
0.0
 11
231.8342411255
 21
-0.103840599
 31
0.0
  0
LINE
  5
278
330
23
100
AcDbEntity
  8
0
  6
Continuous
 62
     8
370
    25
100
AcDbLine
 10
-6.5
 20
-152.0
 30
0.0
 11
71.5
 21
-152.0
 31
0.0
  0
LINE
  5
279
330
23
100
AcDbEntity
  8
0
  6
Continuous
 62
     8
370
    25
100
AcDbLine
 10
71.5
 20
-149.0
 30
0.0
 11
62.9443652422
 21
-149.0
 31
0.0
  0
LINE
  5
27A
330
23
100
AcDbEntity
  8
0
  6
Continuous
 62
     8
370
    25
100
AcDbLine
 10
57.1464880865
 20
-143.0
 30
0.0
 11
57.1464880865
 21
-128.0
 31
0.0
  0
LINE
  5
27B
330
23
100
AcDbEntity
  8
0
  6
Continuous
 62
     8
370
    25
100
AcDbLine
 10
57.7784493195
 20
-128.0
 30
0.0
 11
57.7784493195
 21
-143.0
 31
0.0
  0
ARC
  5
27C
330
23
100
AcDbEntity
  8
0
  6
Continuous
 62
     7
370
    25
100
AcDbCircle
 10
70.5
 20
-152.0
 30
0.0
 40
1.000000000000028
100
AcDbArc
 50
270.0
 51
360.0
  0
ARC
  5
27D
330
23
100
AcDbEntity
  8
0
  6
Continuous
 62
     7
370
    25
100
AcDbCircle
 10
-5.5
 20
-152.0
 30
0.0
 40
1.000000000000028
100
AcDbArc
 50
180.0
 51
270.0
  0
ARC
  5
27E
330
23
100
AcDbEntity
  8
0
  6
Continuous
 62
     7
370
    25
100
AcDbCircle
 10
72.5
 20
-149.0
 30
0.0
 40
1.000000000000014
100
AcDbArc
 50
90.0
 51
180.0
  0
ARC
  5
27F
330
23
100
AcDbEntity
  8
0
  6
Continuous
 62
     7
370
    25
100
AcDbCircle
 10
-232.2847443432
 20
1.0
 30
0.0
 40
1.000000000000054
100
AcDbArc
 50
177.0
 51
270.0
  0
ARC
  5
280
330
23
100
AcDbEntity
  8
0
  6
Continuous
 62
     7
370
    25
100
AcDbCircle
 10
-228.2902262042
 20
-477.5714413809
 30
0.0
 40
478.6498216401504
100
AcDbArc
 50
89.4022948214
 51
90.5977051786
  0
ARC
  5
281
330
23
100
AcDbEntity
  8
0
  6
Continuous
 62
     7
370
    25
100
AcDbCircle
 10
231.0201863571
 20
-17.3097401572
 30
0.0
 40
18.36944291592897
100
AcDbArc
 50
85.3793344727
 51
91.622720287
  0
ARC
  5
282
330
23
100
AcDbEntity
  8
0
  6
Continuous
 62
     7
370
    25
100
AcDbCircle
 10
231.5
 20
1.0
 30
0.0
 40
1.000000000000001
100
AcDbArc
 50
270.0
 51
0.0
  0
ARC
  5
283
330
23
100
AcDbEntity
  8
0
  6
Continuous
 62
     7
370
    25
100
AcDbCircle
 10
230.9986304738
 20
1.6295145422
 30
0.0
 40
9.645062962009366
100
AcDbArc
 50
81.0448095014
 51
92.9633983002
  0
ARC
  5
284
330
23
100
AcDbEntity
  8
0
  6
Continuous
 62
     7
370
    25
100
AcDbCircle
 10
-227.7551771664
 20
-84.4918926964
 30
0.0
 40
95.88366996480599
100
AcDbArc
 50
87.0149687808
 51
92.9850312192
  0
ARC
  5
285
330
23
100
AcDbEntity
  8
0
  6
Continuous
 62
     7
370
    25
100
AcDbCircle
 10
-227.7551771664
 20
11.0
 30
0.0
 40
5.000000000000071
100
AcDbArc
 50
90.0
 51
177.0
  0
ARC
  5
286
330
23
100
AcDbEntity
  8
0
  6
Continuous
 62
     7
370
    25
100
AcDbCircle
 10
230.5
 20
14.0
 30
0.0
 40
1.999999999999979
100
AcDbArc
 50
0.0
 51
90.0
  0
ARC
  5
287
330
23
100
AcDbEntity
  8
0
  6
Continuous
 62
     7
370
    25
100
AcDbCircle
 10
63.8500901122
 20
-148.90234375
 30
0.0
 40
0.9109743592594609
100
AcDbArc
 50
97.8931209029
 51
186.1539201034
  0
ARC
  5
288
330
23
100
AcDbEntity
  8
0
  6
Continuous
 62
     7
370
    25
100
AcDbCircle
 10
102.8004714505
 20
-118.0
 30
0.0
 40
30.00000000000003
100
AcDbArc
 50
270.0
 51
340.5287793655
  0
ARC
  5
289
330
23
100
AcDbEntity
  8
0
  6
Continuous
 62
     8
370
    25
100
AcDbCircle
 10
-171.5000085268
 20
0.1231441328
 30
0.0
 40
0.9999914764849299
100
AcDbArc
 50
187.0736549958
 51
194.0450491739
  0
ARC
  5
28A
330
23
100
AcDbEntity
  8
0
  6
Continuous
 62
     8
370
    25
100
AcDbCircle
 10
102.8004714505
 20
-118.0
 30
0.0
 40
24.99999999999999
100
AcDbArc
 50
270.0
 51
336.4218215218
  0
VIEWPORT
  5
3EA
330
23
100
AcDbEntity
  8
0
100
AcDbViewport
 10
0.0
 20
0.0
 30
0.0
 40
205.6
 41
156.0
 68
     1
 69
     1
 12
0.0
 22
0.3923721716
 13
0.0
 23
0.0
 14
10.0
 24
10.0
 15
10.0
 25
10.0
 16
0.0
 26
0.0
 36
1.0
 17
0.0
 27
0.0
 37
0.0
 42
50.0
 43
0.0
 44
0.0
 45
786.7535848239
 50
0.0
 51
0.0
 72
   100
 90
   557152
  1

281
     0
 71
     1
 74
     0
110
0.0
120
0.0
130
0.0
111
1.0
121
0.0
131
0.0
112
0.0
122
1.0
132
0.0
 79
     0
146
0.0
  0
ENDBLK
  5
25
330
23
100
AcDbEntity
  8
0
100
AcDbBlockEnd
  0
BLOCK
  5
28D
330
28B
100
AcDbEntity
  8
0
100
AcDbBlockBegin
  2
*Paper_Space1
 70
     0
 10
0.0
 20
0.0
 30
0.0
  3
*Paper_Space1
  1

  0
SPLINE
  5
28F
330
28B
100
AcDbEntity
  8
0
  6
Continuous
 62
     7
370
    25
100
AcDbSpline
210
0.0
220
0.0
230
1.0
 70
    24
 71
     3
 72
     9
 73
     5
 74
     0
 42
0.000000001
 43
0.00000001
 40
0.0
 40
0.0
 40
0.0
 40
0.0
 40
0.5002550989927628
 40
1.0
 40
1.0
 40
1.0
 40
1.0
 10
227.5
 20
-128.0
 30
0.0
 10
232.0821629359567
 20
-106.6721143344559
 30
0.0
 10
241.2418155715473
 20
-64.03809479425199
 30
0.0
 10
250.4154986553922
 20
-21.33876989490167
 30
0.0
 10
255.0
 20
0.0
 30
0.0
  0
SPLINE
  5
2AD
330
28B
100
AcDbEntity
  8
0
  6
Continuous
 62
     7
370
    25
100
AcDbSpline
210
0.0
220
0.0
230
1.0
 70
     8
 71
     3
 72
    36
 73
    32
 74
     0
 42
0.000000001
 43
0.00000001
 40
0.0
 40
0.0
 40
0.0
 40
0.0
 40
0.1250000000000007
 40
0.1250000000000007
 40
0.1562500000000008
 40
0.1562500000000008
 40
0.187500000000001
 40
0.187500000000001
 40
0.2500000000000018
 40
0.2500000000000018
 40
0.3125000000000026
 40
0.3125000000000026
 40
0.3437500000000033
 40
0.3437500000000033
 40
0.375000000000004
 40
0.375000000000004
 40
0.5000000000000034
 40
0.5000000000000034
 40
0.5625000000000037
 40
0.5625000000000037
 40
0.5937500000000044
 40
0.5937500000000044
 40
0.6250000000000051
 40
0.6250000000000051
 40
0.7500000000000041
 40
0.7500000000000041
 40
0.8125000000000037
 40
0.8125000000000037
 40
0.8750000000000031
 40
0.8750000000000031
 40
1.0
 40
1.0
 40
1.0
 40
1.0
 10
-220.0007271695318
 20
-0.1195385205845917
 30
0.0
 10
-222.3087816510757
 20
-0.1256598028426814
 30
0.0
 10
-224.5915538494254
 20
-0.1309472033608483
 30
0.0
 10
-227.4133854371871
 20
-0.1365001932219362
 30
0.0
 10
-227.9770663839132
 20
-0.1375599470141986
 30
0.0
 10
-229.0914294477513
 20
-0.1395580296960908
 30
0.0
 10
-229.6431596913049
 20
-0.140498587559143
 30
0.0
 10
-231.2823041379067
 20
-0.1431516599339488
 30
0.0
 10
-232.3537113614703
 20
-0.1446958559183642
 30
0.0
 10
-234.454496962641
 20
-0.1473671811834804
 30
0.0
 10
-235.4838765878025
 20
-0.1484972640967419
 30
0.0
 10
-236.9958819093623
 20
-0.14988571323718
 30
0.0
 10
-237.4945308613963
 20
-0.1502972562404115
 30
0.0
 10
-238.480918904871
 20
-0.1510172240952318
 30
0.0
 10
-238.9688324161726
 20
-0.1513254164154931
 30
0.0
 10
-241.3541239464436
 20
-0.1525952783847512
 30
0.0
 10
-243.11228737936
 20
-0.15277017692987
 30
0.0
 10
-245.5293743011278
 20
-0.1518047559123242
 30
0.0
 10
-246.2981044649673
 20
-0.1512774283575907
 30
0.0
 10
-247.3940147398644
 20
-0.1501607611198302
 30
0.0
 10
-247.749066414653
 20
-0.1497344652159616
 30
0.0
 10
-248.4324165738293
 20
-0.1487815352202437
 30
0.0
 10
-248.7616734023504
 20
-0.1482539834022772
 30
0.0
 10
-250.346833528797
 20
-0.1453623307793583
 30
0.0
 10
-251.4210725533421
 20
-0.1422399392411178
 30
0.0
 10
-252.7390190044846
 20
-0.1362294048484203
 30
0.0
 10
-253.1304605294078
 20
-0.1339885862712276
 30
0.0
 10
-253.7979049357751
 20
-0.1291091395295152
 30
0.0
 10
-254.0757941914409
 20
-0.1264663412830075
 30
0.0
 10
-254.745376519771
 20
-0.1179149151952913
 30
0.0
 10
-254.9743051875347
 20
-0.1113751493031501
 30
0.0
 10
-254.9776520435849
 20
-0.1039722664845089
 30
0.0
  0
SPLINE
  5
2AE
330
28B
100
AcDbEntity
  8
0
  6
Continuous
 62
     7
370
    25
100
AcDbSpline
210
0.0
220
0.0
230
1.0
 70
     8
 71
     3
 72
    36
 73
    32
 74
     0
 42
0.000000001
 43
0.00000001
 40
0.0
 40
0.0
 40
0.0
 40
0.0
 40
0.1250000000000004
 40
0.1250000000000004
 40
0.1562500000000011
 40
0.1562500000000011
 40
0.1875000000000018
 40
0.1875000000000018
 40
0.2500000000000023
 40
0.2500000000000023
 40
0.3125000000000028
 40
0.3125000000000028
 40
0.343750000000003
 40
0.343750000000003
 40
0.3750000000000024
 40
0.3750000000000024
 40
0.4999999999999984
 40
0.4999999999999984
 40
0.5624999999999959
 40
0.5624999999999959
 40
0.5937499999999951
 40
0.5937499999999951
 40
0.6249999999999943
 40
0.6249999999999943
 40
0.7499999999999958
 40
0.7499999999999958
 40
0.8124999999999969
 40
0.8124999999999969
 40
0.874999999999998
 40
0.874999999999998
 40
1.0
 40
1.0
 40
1.0
 40
1.0
 10
254.9776520436063
 20
-0.1039722664370468
 30
0.0
 10
254.9743051380295
 20
-0.1113752609589042
 30
0.0
 10
254.7453302155299
 20
-0.1179578085007821
 30
0.0
 10
254.1776520470954
 20
-0.125154452017287
 30
0.0
 10
254.0496524372388
 20
-0.1265447503109307
 30
0.0
 10
253.7675294554801
 20
-0.12920090164531
 30
0.0
 10
253.6132414748855
 20
-0.1304696074488632
 30
0.0
 10
253.1114285869195
 20
-0.1341049981776893
 30
0.0
 10
252.7250516564417
 20
-0.136301178871992
 30
0.0
 10
251.8501463520994
 20
-0.1402748408950716
 30
0.0
 10
251.3616074933695
 20
-0.1420539707615298
 30
0.0
 10
250.5509401618606
 20
-0.1444163809838223
 30
0.0
 10
250.2677193465787
 20
-0.1451527726671203
 30
0.0
 10
249.6747925937173
 20
-0.1465239151135361
 30
0.0
 10
249.3648552286085
 20
-0.1471585818118293
 30
0.0
 10
247.7660018753782
 20
-0.1500492470018489
 30
0.0
 10
246.3183455062293
 20
-0.1514961433053824
 30
0.0
 10
243.8995215623678
 20
-0.1524524318208126
 30
0.0
 10
243.0517282958467
 20
-0.1525669659893092
 30
0.0
 10
241.7158073387525
 20
-0.15242178230232
 30
0.0
 10
241.2604757932939
 20
-0.1523202081409325
 30
0.0
 10
240.3383287585543
 20
-0.1520136170590908
 30
0.0
 10
239.8703626409395
 20
-0.1518085416048476
 30
0.0
 10
237.496606419954
 20
-0.1505280307600443
 30
0.0
 10
235.4899593077017
 20
-0.1486906013941913
 30
0.0
 10
232.3173784467539
 20
-0.1446462080934019
 30
0.0
 10
231.2268797226776
 20
-0.1430687133901626
 30
0.0
 10
229.0327750978577
 20
-0.1395034916256976
 30
0.0
 10
227.9261448653844
 20
-0.1375136251659942
 30
0.0
 10
224.5780917781968
 20
-0.1309116966252549
 30
0.0
 10
222.3087170122828
 20
-0.1256596314082453
 30
0.0
 10
220.0007271847889
 20
-0.119538520624865
 30
0.0
  0
SPLINE
  5
2B2
330
28B
100
AcDbEntity
  8
0
  6
Continuous
 62
     7
370
    25
100
AcDbSpline
210
0.0
220
0.0
230
1.0
 70
     8
 71
     3
 72
     9
 73
     5
 74
     0
 42
0.000000001
 43
0.00000001
 40
0.0
 40
0.0
 40
0.0
 40
0.0
 40
0.6973645878762739
 40
1.0
 40
1.0
 40
1.0
 40
1.0
 10
254.9776904962989
 20
-0.1038405990452518
 30
0.0
 10
254.9879395601634
 20
-0.0811785430893525
 30
0.0
 10
255.0026364117712
 20
-0.0486818313981258
 30
0.0
 10
254.9913411074141
 20
-0.0736769682139898
 30
0.0
 10
254.9879227483248
 20
-0.0812413817453395
 30
0.0
  0
LINE
  5
2BA
330
28B
100
AcDbEntity
  8
0
  6
Continuous
 62
     7
370
    25
100
AcDbLine
 10
-255.0
 20
0.0
 30
0.0
 11
-227.5
 21
-128.0
 31
0.0
  0
LINE
  5
2BB
330
28B
100
AcDbEntity
  8
0
  6
Continuous
 62
     7
370
    25
100
AcDbLine
 10
39.0
 20
-152.0
 30
0.0
 11
39.0
 21
-128.0
 31
0.0
  0
LINE
  5
2BC
330
28B
100
AcDbEntity
  8
0
  6
Continuous
 62
     7
370
    25
100
AcDbLine
 10
-39.0
 20
-128.0
 30
0.0
 11
-39.0
 21
-152.0
 31
0.0
  0
LINE
  5
2BD
330
28B
100
AcDbEntity
  8
0
  6
Continuous
 62
     7
370
    25
100
AcDbLine
 10
507.2847443432
 20
0.0
 30
0.0
 11
-507.2847443432
 21
0.0
 31
0.0
  0
LINE
  5
2BE
330
28B
100
AcDbEntity
  8
0
  6
Continuous
 62
     7
370
    25
100
AcDbLine
 10
-498.2970785305
 20
0.0
 30
0.0
 11
-498.2970785305
 21
1.0523359562
 31
0.0
  0
LINE
  5
2BF
330
28B
100
AcDbEntity
  8
0
  6
Continuous
 62
     7
370
    25
100
AcDbLine
 10
-498.2970785305
 20
1.0523359562
 30
0.0
 11
498.2970785305
 21
1.0523359562
 31
0.0
  0
LINE
  5
2C0
330
28B
100
AcDbEntity
  8
0
  6
Continuous
 62
     7
370
    25
100
AcDbLine
 10
498.2970785305
 20
0.0
 30
0.0
 11
498.2970785305
 21
1.0523359562
 31
0.0
  0
LINE
  5
2C1
330
28B
100
AcDbEntity
  8
0
  6
Continuous
 62
     7
370
    25
100
AcDbLine
 10
507.7483248402
 20
11.2616797812
 30
0.0
 11
508.283373878
 21
1.0523359562
 31
0.0
  0
LINE
  5
2C2
330
28B
100
AcDbEntity
  8
0
  6
Continuous
 62
     7
370
    25
100
AcDbLine
 10
498.2970785305
 20
1.0523359562
 30
0.0
 11
497.7620294927
 21
11.2616797812
 31
0.0
  0
LINE
  5
2C3
330
28B
100
AcDbEntity
  8
0
  6
Continuous
 62
     7
370
    25
100
AcDbLine
 10
497.7620294927
 20
11.2616797812
 30
0.0
 11
-497.7620294927
 21
11.2616797812
 31
0.0
  0
LINE
  5
2C4
330
28B
100
AcDbEntity
  8
0
  6
Continuous
 62
     7
370
    25
100
AcDbLine
 10
-497.7620294927
 20
11.2616797812
 30
0.0
 11
-498.2970785305
 21
1.0523359562
 31
0.0
  0
LINE
  5
2C5
330
28B
100
AcDbEntity
  8
0
  6
Continuous
 62
     7
370
    25
100
AcDbLine
 10
-508.283373878
 20
1.0523359562
 30
0.0
 11
-507.7483248402
 21
11.2616797812
 31
0.0
  0
LINE
  5
2C6
330
28B
100
AcDbEntity
  8
0
  6
Continuous
 62
     7
370
    25
100
AcDbLine
 10
-502.7551771664
 20
16.0
 30
0.0
 11
502.7551771664
 21
16.0
 31
0.0
  0
LINE
  5
2C7
330
28B
100
AcDbEntity
  8
0
  6
Continuous
 62
     7
370
    25
100
AcDbLine
 10
497.7620294927
 20
16.0
 30
0.0
 11
497.7620294927
 21
11.2616797812
 31
0.0
  0
LINE
  5
2C8
330
28B
100
AcDbEntity
  8
0
  6
Continuous
 62
     7
370
    25
100
AcDbLine
 10
-497.7620294927
 20
16.0
 30
0.0
 11
-497.7620294927
 21
11.2616797812
 31
0.0
  0
LINE
  5
2C9
330
28B
100
AcDbEntity
  8
0
  6
Continuous
 62
     7
370
    25
100
AcDbLine
 10
227.5
 20
-128.0
 30
0.0
 11
-227.5
 21
-128.0
 31
0.0
  0
LINE
  5
2CA
330
28B
100
AcDbEntity
  8
0
  6
Continuous
 62
     7
370
    25
100
AcDbLine
 10
38.0
 20
-153.0
 30
0.0
 11
-38.0
 21
-153.0
 31
0.0
  0
LINE
  5
2CB
330
28B
100
AcDbEntity
  8
0
  6
Continuous
 62
     8
370
    25
100
AcDbLine
 10
-220.0003689793
 20
0.0
 30
0.0
 11
-220.0007271695
 21
-0.1195385206
 31
0.0
  0
LINE
  5
2CC
330
28B
100
AcDbEntity
  8
0
  6
Continuous
 62
     8
370
    25
100
AcDbLine
 10
220.0003689943
 20
0.0
 30
0.0
 11
220.0007271848
 21
-0.1195385206
 31
0.0
  0
LINE
  5
2CD
330
28B
100
AcDbEntity
  8
0
  6
Continuous
 62
     8
370
    25
100
AcDbLine
 10
254.9879227483
 20
-0.0812413817
 30
0.0
 11
254.9776520436
 21
-0.1039722664
 31
0.0
  0
LINE
  5
2CE
330
28B
100
AcDbEntity
  8
0
  6
Continuous
 62
     8
370
    25
100
AcDbLine
 10
-39.0
 20
-152.0
 30
0.0
 11
39.0
 21
-152.0
 31
0.0
  0
ARC
  5
2CF
330
28B
100
AcDbEntity
  8
0
  6
Continuous
 62
     7
370
    25
100
AcDbCircle
 10
38.0
 20
-152.0
 30
0.0
 40
1.0
100
AcDbArc
 50
270.0
 51
0.0
  0
ARC
  5
2D0
330
28B
100
AcDbEntity
  8
0
  6
Continuous
 62
     7
370
    25
100
AcDbCircle
 10
-38.0
 20
-152.0
 30
0.0
 40
1.000000000000007
100
AcDbArc
 50
180.0
 51
270.0
  0
ARC
  5
2D1
330
28B
100
AcDbEntity
  8
0
  6
Continuous
 62
     7
370
    25
100
AcDbCircle
 10
-507.2847443432
 20
1.0
 30
0.0
 40
0.9999999999995113
100
AcDbArc
 50
177.0
 51
270.0
  0
ARC
  5
2D2
330
28B
100
AcDbEntity
  8
0
  6
Continuous
 62
     7
370
    25
100
AcDbCircle
 10
-503.2902262042
 20
-477.5714413808
 30
0.0
 40
478.6498216400553
100
AcDbArc
 50
89.4022948214
 51
90.5977051786
  0
ARC
  5
2D3
330
28B
100
AcDbEntity
  8
0
  6
Continuous
 62
     7
370
    25
100
AcDbCircle
 10
503.2902262042
 20
-477.5714413809
 30
0.0
 40
478.6498216401586
100
AcDbArc
 50
89.4022948214
 51
90.5977051786
  0
ARC
  5
2D4
330
28B
100
AcDbEntity
  8
0
  6
Continuous
 62
     7
370
    25
100
AcDbCircle
 10
507.2847443432
 20
1.0
 30
0.0
 40
0.9999999999999438
100
AcDbArc
 50
270.0
 51
3.0
  0
ARC
  5
2D5
330
28B
100
AcDbEntity
  8
0
  6
Continuous
 62
     7
370
    25
100
AcDbCircle
 10
502.7551771664
 20
-84.4918926964
 30
0.0
 40
95.8836699648062
100
AcDbArc
 50
87.0149687808
 51
92.9850312192
  0
ARC
  5
2D6
330
28B
100
AcDbEntity
  8
0
  6
Continuous
 62
     7
370
    25
100
AcDbCircle
 10
-502.7551771664
 20
-84.4918926964
 30
0.0
 40
95.88366996482176
100
AcDbArc
 50
87.0149687808
 51
92.9850312192
  0
ARC
  5
2D7
330
28B
100
AcDbEntity
  8
0
  6
Continuous
 62
     7
370
    25
100
AcDbCircle
 10
502.7551771664
 20
11.0
 30
0.0
 40
4.999999999999829
100
AcDbArc
 50
3.0
 51
90.0
  0
ARC
  5
2D8
330
28B
100
AcDbEntity
  8
0
  6
Continuous
 62
     7
370
    25
100
AcDbCircle
 10
-502.7551771664
 20
11.0
 30
0.0
 40
5.000000000000098
100
AcDbArc
 50
90.0
 51
177.0
  0
VIEWPORT
  5
3EC
330
28B
100
AcDbEntity
  8
0
100
AcDbViewport
 10
0.0
 20
0.0
 30
0.0
 40
205.6
 41
156.0
 68
     1
 69
     1
 12
0.0
 22
0.3923721716
 13
0.0
 23
0.0
 14
10.0
 24
10.0
 15
10.0
 25
10.0
 16
0.0
 26
0.0
 36
1.0
 17
0.0
 27
0.0
 37
0.0
 42
50.0
 43
0.0
 44
0.0
 45
786.7535848239
 50
0.0
 51
0.0
 72
   100
 90
   557152
  1

281
     0
 71
     1
 74
     0
110
0.0
120
0.0
130
0.0
111
1.0
121
0.0
131
0.0
112
0.0
122
1.0
132
0.0
 79
     0
146
0.0
  0
ENDBLK
  5
28E
330
28B
100
AcDbEntity
  8
0
100
AcDbBlockEnd
  0
BLOCK
  5
2DB
330
2D9
100
AcDbEntity
  8
0
100
AcDbBlockBegin
  2
*Paper_Space2
 70
     0
 10
0.0
 20
0.0
 30
0.0
  3
*Paper_Space2
  1

  0
SPLINE
  5
2DD
330
2D9
100
AcDbEntity
  8
0
  6
Continuous
 62
     7
370
    25
100
AcDbSpline
210
0.0
220
0.0
230
1.0
 70
     8
 71
     3
 72
    11
 73
     7
 74
     0
 42
0.000000001
 43
0.00000001
 40
0.0
 40
0.0
 40
0.0
 40
0.0
 40
0.1877989790816076
 40
0.4781614750923934
 40
0.7811584749825297
 40
1.0
 40
1.0
 40
1.0
 40
1.0
 10
193.8012263302421
 20
-301.2156728837281
 30
0.0
 10
193.9390067363747
 20
-301.2830913670693
 30
0.0
 10
194.2898141931425
 20
-301.4547478989662
 30
0.0
 10
194.9613198708398
 20
-301.5502130580073
 30
0.0
 10
195.6685985832902
 20
-301.4770030933282
 30
0.0
 10
196.0544964394344
 20
-301.2932802583153
 30
0.0
 10
196.2163290204126
 20
-301.2162330809306
 30
0.0
  0
SPLINE
  5
2E0
330
2D9
100
AcDbEntity
  8
0
  6
Continuous
 62
     7
370
    25
100
AcDbSpline
210
0.0
220
0.0
230
1.0
 70
     8
 71
     3
 72
    13
 73
     9
 74
     0
 42
0.000000001
 43
0.00000001
 40
0.0
 40
0.0
 40
0.0
 40
0.0
 40
0.1058335805269178
 40
0.2921244609820594
 40
0.4919770405698383
 40
0.699228859097175
 40
0.9045467053841215
 40
0.9999999999999999
 40
0.9999999999999999
 40
0.9999999999999999
 40
0.9999999999999999
 10
182.5265165176977
 20
-290.6242173921872
 30
0.0
 10
182.6067527370358
 20
-290.6751070528477
 30
0.0
 10
182.8282227299123
 20
-290.8155739501785
 30
0.0
 10
183.2361180276785
 20
-291.2059295696974
 30
0.0
 10
183.6697648457587
 20
-291.8104554088119
 30
0.0
 10
183.9962037205063
 20
-292.509571743714
 30
0.0
 10
184.1343882767909
 20
-293.0789918984911
 30
0.0
 10
184.1445661565306
 20
-293.347263844242
 30
0.0
 10
184.1477962275754
 20
-293.4324031331979
 30
0.0
  0
SPLINE
  5
2E2
330
2D9
100
AcDbEntity
  8
0
  6
Continuous
 62
     7
370
    25
100
AcDbSpline
210
0.0
220
0.0
230
1.0
 70
     8
 71
     3
 72
    11
 73
     7
 74
     0
 42
0.000000001
 43
0.00000001
 40
0.0
 40
0.0
 40
0.0
 40
0.0
 40
0.1877997874752785
 40
0.4778617568459045
 40
0.7807326382501578
 40
1.0
 40
1.0
 40
1.0
 40
1.0
 10
184.1477962275753
 20
-294.2489439450835
 30
0.0
 10
184.1583029266339
 20
-294.4019456881525
 30
0.0
 10
184.1850375131758
 20
-294.7912628579234
 30
0.0
 10
184.4380216531763
 20
-295.4199300446414
 30
0.0
 10
184.8549353372513
 20
-295.9955884192684
 30
0.0
 10
185.2070684426782
 20
-296.2379570859177
 30
0.0
 10
185.3549436424439
 20
-296.3397376752613
 30
0.0
  0
SPLINE
  5
2E4
330
2D9
100
AcDbEntity
  8
0
  6
Continuous
 62
     7
370
    25
100
AcDbSpline
210
0.0
220
0.0
230
1.0
 70
     8
 71
     3
 72
    12
 73
     8
 74
     0
 42
0.000000001
 43
0.00000001
 40
0.0
 40
0.0
 40
0.0
 40
0.0
 40
0.0239472061416464
 40
0.1163772965576504
 40
0.2282345560657075
 40
0.5626745066426923
 40
0.9999999999999999
 40
0.9999999999999999
 40
0.9999999999999999
 40
0.9999999999999999
 10
17.57334029047891
 20
-196.3766048152432
 30
0.0
 10
17.57219929025952
 20
-196.3796433003027
 30
0.0
 10
17.56665432104187
 20
-196.3944095604991
 30
0.0
 10
17.65791202042996
 20
-196.3919576378016
 30
0.0
 10
17.96872879081837
 20
-196.3658363145555
 30
0.0
 10
18.68246888384764
 20
-196.3273721945403
 30
0.0
 10
19.20047749184486
 20
-196.4420891633298
 30
0.0
 10
19.49401016013963
 20
-196.5070942181255
 30
0.0
  0
SPLINE
  5
2E5
330
2D9
100
AcDbEntity
  8
0
  6
Continuous
 62
     7
370
    25
100
AcDbSpline
210
0.0
220
0.0
230
1.0
 70
     8
 71
     3
 72
    27
 73
    23
 74
     0
 42
0.000000001
 43
0.00000001
 40
0.0
 40
0.0
 40
0.0
 40
0.0
 40
0.0361254752776283
 40
0.0915137507321148
 40
0.1412742622413953
 40
0.1940170501136728
 40
0.2478155730908027
 40
0.3029617196635311
 40
0.3590891243761283
 40
0.4157670335193405
 40
0.4725038376947514
 40
0.528723168592238
 40
0.5840518666602873
 40
0.6385903314151448
 40
0.6937034961382815
 40
0.7494477272129948
 40
0.804980676189976
 40
0.8471043753082343
 40
0.8883594117798682
 40
0.931258790942467
 40
0.9957584566826372
 40
1.0
 40
1.0
 40
1.0
 40
1.0
 10
133.2996589592737
 20
-121.3079608743463
 30
0.0
 10
132.8129515756559
 20
-121.5848521531156
 30
0.0
 10
131.5800150442588
 20
-122.2862784809484
 30
0.0
 10
129.6022051986958
 20
-123.2333791005672
 30
0.0
 10
127.2311989018291
 20
-124.2074209810119
 30
0.0
 10
124.6865288420012
 20
-125.0702488165247
 30
0.0
 10
121.8999051485115
 20
-125.843036608754
 30
0.0
 10
118.9205151897219
 20
-126.4981146554617
 30
0.0
 10
115.7819882887914
 20
-127.0187718946571
 30
0.0
 10
112.532905441895
 20
-127.3891091852145
 30
0.0
 10
109.2295055567541
 20
-127.597769810454
 30
0.0
 10
105.9293844028778
 20
-127.6392104047309
 30
0.0
 10
102.6800102617201
 20
-127.5136661236354
 30
0.0
 10
99.4927863670012
 20
-127.2215791543997
 30
0.0
 10
96.36489130625557
 20
-126.7749458780069
 30
0.0
 10
93.31359338343073
 20
-126.1739720987029
 30
0.0
 10
90.62322899619205
 20
-125.4885600767464
 30
0.0
 10
88.28505269126052
 20
-124.7672614469645
 30
0.0
 10
86.32230455094444
 20
-124.051333242234
 30
0.0
 10
84.14264867652133
 20
-123.0955407939802
 30
0.0
 10
82.57789167019158
 20
-122.3347455659204
 30
0.0
 10
81.63597215604463
 20
-121.8081498388581
 30
0.0
 10
81.57785283467248
 20
-121.7756572682779
 30
0.0
  0
SPLINE
  5
2E6
330
2D9
100
AcDbEntity
  8
0
  6
Continuous
 62
     7
370
    25
100
AcDbSpline
210
0.0
220
0.0
230
1.0
 70
     8
 71
     3
 72
    18
 73
    14
 74
     0
 42
0.000000001
 43
0.00000001
 40
0.0
 40
0.0
 40
0.0
 40
0.0
 40
0.0028088910319105
 40
0.0063036909177194
 40
0.0099095687305721
 40
0.5388020839804267
 40
0.8032483416053542
 40
0.9354714704178176
 40
0.9685272526209336
 40
0.9933190892732704
 40
0.9963338496751531
 40
0.9995518275561186
 40
1.0
 40
1.0
 40
1.0
 40
1.0
 10
81.55576056421387
 20
-121.8027226551782
 30
0.0
 10
81.2847813356659
 20
-121.6569871058386
 30
0.0
 10
80.67665190576537
 20
-121.3299285448888
 30
0.0
 10
79.64573143361076
 20
-120.7240744001289
 30
0.0
 10
24.07642768008106
 20
-88.76329217485721
 30
0.0
 10
-58.61244196770489
 20
-40.88490685716442
 30
0.0
 10
-154.6707116258428
 20
14.53959721379697
 30
0.0
 10
-199.1827127225658
 20
40.23729414199558
 30
0.0
 10
-218.9642524993527
 20
51.65788175548398
 30
0.0
 10
-225.2007936081772
 20
55.25690405475476
 30
0.0
 10
-228.488146252149
 20
57.1557845177804
 30
0.0
 10
-229.1091432033194
 20
57.51309565294795
 30
0.0
 10
-229.4303741548819
 20
57.71751057060275
 30
0.0
 10
-229.4696433740507
 20
57.74249948952136
 30
0.0
  0
SPLINE
  5
2E7
330
2D9
100
AcDbEntity
  8
0
  6
Continuous
 62
     7
370
    25
100
AcDbSpline
210
0.0
220
0.0
230
1.0
 70
     8
 71
     3
 72
    16
 73
    12
 74
     0
 42
0.000000001
 43
0.00000001
 40
0.0
 40
0.0
 40
0.0
 40
0.0
 40
0.0056119546987467
 40
0.0198017944487072
 40
0.0353446268734873
 40
0.0508874592982679
 40
0.6015839264123667
 40
0.8769321599694164
 40
0.9457692183586789
 40
0.9754000297909177
 40
1.0
 40
1.0
 40
1.0
 40
1.0
 10
274.5009246287056
 20
-39.71974929521899
 30
0.0
 10
274.2732137439781
 20
-39.86716496624305
 30
0.0
 10
273.469735388368
 20
-40.38732148439682
 30
0.0
 10
271.8176965160925
 20
-41.319916577131
 30
0.0
 10
269.6775502749568
 20
-42.56293207592552
 30
0.0
 10
242.2576257406194
 20
-58.37244168484654
 30
0.0
 10
202.5716108306119
 20
-81.29510389449821
 30
0.0
 10
160.3472002584755
 20
-105.6879459580663
 30
0.0
 10
142.7467572855025
 20
-115.8293947542828
 30
0.0
 10
136.9183636661288
 20
-119.2122460512094
 30
0.0
 10
134.4028240107162
 20
-120.6343771548574
 30
0.0
 10
133.2617340483365
 20
-121.2794791011015
 30
0.0
  0
SPLINE
  5
2E8
330
2D9
100
AcDbEntity
  8
0
  6
Continuous
 62
     7
370
    25
100
AcDbSpline
210
0.0
220
0.0
230
1.0
 70
     8
 71
     3
 72
    26
 73
    22
 74
     0
 42
0.000000001
 43
0.00000001
 40
0.0
 40
0.0
 40
0.0
 40
0.0
 40
0.0058572850351078
 40
0.0651247267151089
 40
0.1243340042159212
 40
0.1821198241489954
 40
0.2386780518573054
 40
0.2945955687161909
 40
0.3502886359354139
 40
0.4059506092755159
 40
0.4616655697580385
 40
0.5174696409721069
 40
0.5733591111727284
 40
0.6293128565236304
 40
0.6853028276951904
 40
0.7412984252225439
 40
0.7972592387766678
 40
0.853151701695462
 40
0.908944850048293
 40
0.9646123467949012
 40
1.0
 40
1.0
 40
1.0
 40
1.0
 10
-30.24356096176385
 20
-96.89287638077248
 30
0.0
 10
-30.23870087293461
 20
-96.93473137044093
 30
0.0
 10
-30.18466355787849
 20
-97.40009966778075
 30
0.0
 10
-30.37142426979349
 20
-98.28868740853878
 30
0.0
 10
-30.83412275620366
 20
-99.54808182593439
 30
0.0
 10
-31.63680958251823
 20
-100.7704073784162
 30
0.0
 10
-32.71662253355019
 20
-101.924072988797
 30
0.0
 10
-34.06231647756602
 20
-102.9897272302017
 30
0.0
 10
-35.65010956946657
 20
-103.9502997482235
 30
0.0
 10
-37.45549483948466
 20
-104.7882622630586
 30
0.0
 10
-39.44779628642661
 20
-105.4869197169615
 30
0.0
 10
-41.59215110427409
 20
-106.0318009729654
 30
0.0
 10
-43.85006484454075
 20
-106.4113744667891
 30
0.0
 10
-46.1802913468774
 20
-106.6174754599509
 30
0.0
 10
-48.5398476817033
 20
-106.6455727023692
 30
0.0
 10
-50.8850029675223
 20
-106.4949662581141
 30
0.0
 10
-53.17175010726524
 20
-106.1686261204641
 30
0.0
 10
-55.35869463637011
 20
-105.6741221761854
 30
0.0
 10
-57.40071839245682
 20
-105.0201297003722
 30
0.0
 10
-59.05081048445107
 20
-104.3245059389607
 30
0.0
 10
-59.95847088120762
 20
-103.8259554867373
 30
0.0
 10
-60.31122381572543
 20
-103.6321989499804
 30
0.0
  0
SPLINE
  5
2E9
330
2D9
100
AcDbEntity
  8
0
  6
Continuous
 62
     7
370
    25
100
AcDbSpline
210
0.0
220
0.0
230
1.0
 70
     8
 71
     3
 72
    14
 73
    10
 74
     0
 42
0.000000001
 43
0.00000001
 40
0.0
 40
0.0
 40
0.0
 40
0.0
 40
0.0839538594652399
 40
0.2441421949351645
 40
0.4042844583466077
 40
0.564867106965624
 40
0.7270197217342012
 40
0.8924100816759174
 40
1.0
 40
1.0
 40
1.0
 40
1.0
 10
-60.31122381572543
 20
-103.6321989499804
 30
0.0
 10
-60.5867754129513
 20
-103.4663925350407
 30
0.0
 10
-61.38809380609163
 20
-102.9842188465936
 30
0.0
 10
-62.53385697614404
 20
-102.1062471708405
 30
0.0
 10
-63.64035352260291
 20
-100.9914808777755
 30
0.0
 10
-64.46771990404504
 20
-99.82202086815691
 30
0.0
 10
-64.99927476768369
 20
-98.61844882250631
 30
0.0
 10
-65.25308408302239
 20
-97.54273966366371
 30
0.0
 10
-65.2025207874264
 20
-96.86831479759853
 30
0.0
 10
-65.182592238456
 20
-96.60250322792524
 30
0.0
  0
SPLINE
  5
2EA
330
2D9
100
AcDbEntity
  8
0
  6
Continuous
 62
     7
370
    25
100
AcDbSpline
210
0.0
220
0.0
230
1.0
 70
     8
 71
     3
 72
    13
 73
     9
 74
     0
 42
0.000000001
 43
0.00000001
 40
0.0
 40
0.0
 40
0.0
 40
0.0
 40
0.1793572035200041
 40
0.3706648683794742
 40
0.5608784376865081
 40
0.7547568695332735
 40
0.9726472672896774
 40
1.0
 40
1.0
 40
1.0
 40
1.0
 10
519.4420767237292
 20
-102.6732875414576
 30
0.0
 10
519.3830008455473
 20
-102.2404178998515
 30
0.0
 10
519.2609128993652
 20
-101.3458367758015
 30
0.0
 10
518.7242475761777
 20
-100.0835683820628
 30
0.0
 10
517.9620970095468
 20
-98.91824292410377
 30
0.0
 10
516.9519756510778
 20
-97.86981965632374
 30
0.0
 10
516.0903819744443
 20
-97.24124072428681
 30
0.0
 10
515.5753739788609
 20
-96.93936782821103
 30
0.0
 10
515.5179335277459
 20
-96.90569900077786
 30
0.0
  0
SPLINE
  5
2EC
330
2D9
100
AcDbEntity
  8
0
  6
Continuous
 62
     7
370
    25
100
AcDbSpline
210
0.0
220
0.0
230
1.0
 70
     8
 71
     3
 72
    13
 73
     9
 74
     0
 42
0.000000001
 43
0.00000001
 40
0.0
 40
0.0
 40
0.0
 40
0.0
 40
0.1171199094225498
 40
0.3386991574334905
 40
0.5595777711526556
 40
0.7747804544430238
 40
0.9813314756209836
 40
1.0
 40
1.0
 40
1.0
 40
1.0
 10
517.0993205319431
 20
-115.9744250640751
 30
0.0
 10
517.3265064368194
 20
-115.8353213236826
 30
0.0
 10
517.9835055323767
 20
-115.4330471083157
 30
0.0
 10
518.8882743514342
 20
-114.6503490898044
 30
0.0
 10
519.6972015563201
 20
-113.5994090999578
 30
0.0
 10
520.1399460857934
 20
-112.459649827168
 30
0.0
 10
520.2983211169674
 20
-111.626121991831
 30
0.0
 10
520.2185976699568
 20
-111.2112430343403
 30
0.0
 10
520.2119893664437
 20
-111.1768535770972
 30
0.0
  0
SPLINE
  5
2EE
330
2D9
100
AcDbEntity
  8
0
  6
Continuous
 62
     7
370
    25
100
AcDbSpline
210
0.0
220
0.0
230
1.0
 70
     8
 71
     3
 72
    26
 73
    22
 74
     0
 42
0.000000001
 43
0.00000001
 40
0.0
 40
0.0
 40
0.0
 40
0.0
 40
0.0058572850351126
 40
0.0651247267151153
 40
0.1243340042159249
 40
0.182119824148999
 40
0.2386780518573079
 40
0.294595568716195
 40
0.3502886359354174
 40
0.4059506092755207
 40
0.4616655697580456
 40
0.5174696409721106
 40
0.5733591111727321
 40
0.6293128565236343
 40
0.6853028276951948
 40
0.741298425222549
 40
0.7972592387766717
 40
0.8531517016954656
 40
0.9089448500482914
 40
0.9646123467949049
 40
1.0
 40
1.0
 40
1.0
 40
1.0
 10
-100.9542390804185
 20
-56.07247078963673
 30
0.0
 10
-100.9493789915893
 20
-56.11432577930524
 30
0.0
 10
-100.8953416765331
 20
-56.57969407664508
 30
0.0
 10
-101.0821023884482
 20
-57.46828181740318
 30
0.0
 10
-101.5448008748582
 20
-58.72767623479876
 30
0.0
 10
-102.3474877011728
 20
-59.95000178728058
 30
0.0
 10
-103.4273006522047
 20
-61.10366739766134
 30
0.0
 10
-104.7729945962206
 20
-62.16932163906613
 30
0.0
 10
-106.3607876881211
 20
-63.12989415708793
 30
0.0
 10
-108.1661729581393
 20
-63.96785667192304
 30
0.0
 10
-110.1584744050812
 20
-64.66651412582594
 30
0.0
 10
-112.3028292229287
 20
-65.21139538182993
 30
0.0
 10
-114.5607429631954
 20
-65.59096887565353
 30
0.0
 10
-116.890969465532
 20
-65.79706986881538
 30
0.0
 10
-119.250525800358
 20
-65.82516711123368
 30
0.0
 10
-121.595681086177
 20
-65.67456066697858
 30
0.0
 10
-123.88242822592
 20
-65.34822052932859
 30
0.0
 10
-126.0693727550247
 20
-64.85371658504988
 30
0.0
 10
-128.1113965111115
 20
-64.19972410923668
 30
0.0
 10
-129.7614886031057
 20
-63.50410034782518
 30
0.0
 10
-130.6691489998623
 20
-63.0055498956018
 30
0.0
 10
-131.0219019343801
 20
-62.81179335884489
 30
0.0
  0
SPLINE
  5
2EF
330
2D9
100
AcDbEntity
  8
0
  6
Continuous
 62
     7
370
    25
100
AcDbSpline
210
0.0
220
0.0
230
1.0
 70
     8
 71
     3
 72
    14
 73
    10
 74
     0
 42
0.000000001
 43
0.00000001
 40
0.0
 40
0.0
 40
0.0
 40
0.0
 40
0.0839538594652403
 40
0.2441421949351651
 40
0.4042844583466096
 40
0.5648671069656261
 40
0.7270197217342058
 40
0.8924100816759047
 40
0.9999999999999999
 40
0.9999999999999999
 40
0.9999999999999999
 40
0.9999999999999999
 10
-131.0219019343801
 20
-62.81179335884489
 30
0.0
 10
-131.297453531606
 20
-62.64598694390515
 30
0.0
 10
-132.0987719247462
 20
-62.16381325545807
 30
0.0
 10
-133.2445350947987
 20
-61.28584157970504
 30
0.0
 10
-134.3510316412575
 20
-60.17107528663997
 30
0.0
 10
-135.1783980226997
 20
-59.0016152770214
 30
0.0
 10
-135.7099528863383
 20
-57.79804323137083
 30
0.0
 10
-135.963762201677
 20
-56.72233407252831
 30
0.0
 10
-135.913198906081
 20
-56.0479092064631
 30
0.0
 10
-135.8932703571106
 20
-55.78209763678977
 30
0.0
  0
SPLINE
  5
2F0
330
2D9
100
AcDbEntity
  8
0
  6
Continuous
 62
     7
370
    25
100
AcDbSpline
210
0.0
220
0.0
230
1.0
 70
     8
 71
     3
 72
    16
 73
    12
 74
     0
 42
0.000000001
 43
0.00000001
 40
0.0
 40
0.0
 40
0.0
 40
0.0
 40
0.0467810103399156
 40
0.1816119176475652
 40
0.3163804246433261
 40
0.4512856731772264
 40
0.5864079626588937
 40
0.7217350556664985
 40
0.8572144648196646
 40
0.992777773095754
 40
0.9999999999999999
 40
0.9999999999999999
 40
0.9999999999999999
 40
0.9999999999999999
 10
-132.4537478665143
 20
-61.84060744833895
 30
0.0
 10
-132.301348822334
 20
-61.71797226215278
 30
0.0
 10
-131.7097095554578
 20
-61.24188140450543
 30
0.0
 10
-130.4188321717476
 20
-60.51013672705396
 30
0.0
 10
-128.6167509283778
 20
-59.67434497340006
 30
0.0
 10
-126.6117492173252
 20
-58.98464736317237
 30
0.0
 10
-124.4614884979894
 20
-58.44830967163275
 30
0.0
 10
-122.1981570229429
 20
-58.07623350580133
 30
0.0
 10
-119.8664108332554
 20
-57.88533790101776
 30
0.0
 10
-118.2487553092058
 20
-57.85746850211956
 30
0.0
 10
-117.4251968671246
 20
-57.89552651873739
 30
0.0
 10
-117.3835405051541
 20
-57.89745152907678
 30
0.0
  0
SPLINE
  5
2F1
330
2D9
100
AcDbEntity
  8
0
  6
Continuous
 62
     7
370
    25
100
AcDbSpline
210
0.0
220
0.0
230
1.0
 70
     8
 71
     3
 72
    15
 73
    11
 74
     0
 42
0.000000001
 43
0.00000001
 40
0.0
 40
0.0
 40
0.0
 40
0.0
 40
0.1301271387143082
 40
0.2838389645904285
 40
0.4469750166039368
 40
0.6036038645342984
 40
0.7564257111876219
 40
0.8679083952620715
 40
0.9915153817584166
 40
1.0
 40
1.0
 40
1.0
 40
1.0
 10
281.6364397589174
 20
-32.40701532159393
 30
0.0
 10
281.5533993935589
 20
-32.64652637430153
 30
0.0
 10
281.3722681433413
 20
-33.16895828112871
 30
0.0
 10
280.82471896982
 20
-34.15774741442129
 30
0.0
 10
279.9968298757658
 20
-35.30648385667245
 30
0.0
 10
278.8705115349576
 20
-36.53048174897317
 30
0.0
 10
277.5908252697535
 20
-37.66592944489364
 30
0.0
 10
276.2362500032689
 20
-38.66495867439669
 30
0.0
 10
275.2315633057887
 20
-39.33343561792101
 30
0.0
 10
274.6172999430072
 20
-39.69937385001273
 30
0.0
 10
274.5778440658277
 20
-39.72287910006594
 30
0.0
  0
SPLINE
  5
2F3
330
2D9
100
AcDbEntity
  8
0
  6
Continuous
 62
     7
370
    25
100
AcDbSpline
210
0.0
220
0.0
230
1.0
 70
     8
 71
     3
 72
    26
 73
    22
 74
     0
 42
0.000000001
 43
0.00000001
 40
0.0
 40
0.0
 40
0.0
 40
0.0
 40
0.005857285035108
 40
0.0651247267151092
 40
0.1243340042159214
 40
0.1821198241489956
 40
0.2386780518573056
 40
0.2945955687161911
 40
0.3502886359354141
 40
0.405950609275516
 40
0.4616655697580387
 40
0.5174696409721071
 40
0.5733591111727286
 40
0.6293128565236307
 40
0.6853028276951905
 40
0.7412984252225441
 40
0.7972592387766679
 40
0.853151701695462
 40
0.908944850048293
 40
0.9646123467949012
 40
1.0
 40
1.0
 40
1.0
 40
1.0
 10
-171.6649171990731
 20
-15.25206519850143
 30
0.0
 10
-171.6600571102439
 20
-15.29392018816988
 30
0.0
 10
-171.6060197951877
 20
-15.75928848550969
 30
0.0
 10
-171.7927805071028
 20
-16.64787622626771
 30
0.0
 10
-172.2554789935128
 20
-17.90727064366332
 30
0.0
 10
-173.0581658198276
 20
-19.12959619614518
 30
0.0
 10
-174.1379787708595
 20
-20.28326180652593
 30
0.0
 10
-175.4836727148753
 20
-21.34891604793068
 30
0.0
 10
-177.0714658067759
 20
-22.30948856595245
 30
0.0
 10
-178.876851076794
 20
-23.14745108078753
 30
0.0
 10
-180.8691525237359
 20
-23.84610853469044
 30
0.0
 10
-183.0135073415834
 20
-24.39098979069442
 30
0.0
 10
-185.27142108185
 20
-24.770563284518
 30
0.0
 10
-187.6016475841866
 20
-24.97666427767986
 30
0.0
 10
-189.9612039190126
 20
-25.00476152009817
 30
0.0
 10
-192.3063592048316
 20
-24.85415507584306
 30
0.0
 10
-194.5931063445746
 20
-24.52781493819308
 30
0.0
 10
-196.7800508736794
 20
-24.03331099391433
 30
0.0
 10
-198.8220746297661
 20
-23.37931851810123
 30
0.0
 10
-200.4721667217604
 20
-22.68369475668965
 30
0.0
 10
-201.3798271185169
 20
-22.18514430446628
 30
0.0
 10
-201.7325800530347
 20
-21.99138776770936
 30
0.0
  0
SPLINE
  5
2F4
330
2D9
100
AcDbEntity
  8
0
  6
Continuous
 62
     7
370
    25
100
AcDbSpline
210
0.0
220
0.0
230
1.0
 70
     8
 71
     3
 72
    14
 73
    10
 74
     0
 42
0.000000001
 43
0.00000001
 40
0.0
 40
0.0
 40
0.0
 40
0.0
 40
0.0839538594652399
 40
0.2441421949351646
 40
0.4042844583466079
 40
0.5648671069656244
 40
0.7270197217342016
 40
0.892410081675918
 40
1.0
 40
1.0
 40
1.0
 40
1.0
 10
-201.7325800530347
 20
-21.99138776770936
 30
0.0
 10
-202.0081316502606
 20
-21.82558135276961
 30
0.0
 10
-202.8094500434009
 20
-21.34340766432258
 30
0.0
 10
-203.9552132134533
 20
-20.46543598856947
 30
0.0
 10
-205.0617097599123
 20
-19.35066969550445
 30
0.0
 10
-205.8890761413543
 20
-18.18120968588586
 30
0.0
 10
-206.4206310049929
 20
-16.97763764023525
 30
0.0
 10
-206.6744403203317
 20
-15.90192848139271
 30
0.0
 10
-206.6238770247357
 20
-15.22750361532749
 30
0.0
 10
-206.6039484757653
 20
-14.96169204565422
 30
0.0
  0
SPLINE
  5
2F5
330
2D9
100
AcDbEntity
  8
0
  6
Continuous
 62
     7
370
    25
100
AcDbSpline
210
0.0
220
0.0
230
1.0
 70
     8
 71
     3
 72
    10
 73
     6
 74
     0
 42
0.000000001
 43
0.00000001
 40
0.0
 40
0.0
 40
0.0
 40
0.0
 40
0.41676899523872
 40
0.9455859673591501
 40
1.0
 40
1.0
 40
1.0
 40
1.0
 10
-347.8781379848449
 20
15.57239314372744
 30
0.0
 10
-347.6033721907294
 20
15.32698546628736
 30
0.0
 10
-346.979970061027
 20
14.770192473717
 30
0.0
 10
-346.4376201032489
 20
14.02316744798225
 30
0.0
 10
-346.2752066542648
 20
13.5130189445852
 30
0.0
 10
-346.2600538749335
 20
13.46542333137379
 30
0.0
  0
SPLINE
  5
2F7
330
2D9
100
AcDbEntity
  8
0
  6
Continuous
 62
     7
370
    25
100
AcDbSpline
210
0.0
220
0.0
230
1.0
 70
     8
 71
     3
 72
    16
 73
    12
 74
     0
 42
0.000000001
 43
0.00000001
 40
0.0
 40
0.0
 40
0.0
 40
0.0
 40
0.0556339310454053
 40
0.170938314163377
 40
0.2715289922274902
 40
0.3623242314356503
 40
0.4584901215203317
 40
0.5991836344460622
 40
0.7351230125873818
 40
0.8822126697462118
 40
1.0
 40
1.0
 40
1.0
 40
1.0
 10
-229.3888902312303
 20
57.75099670674816
 30
0.0
 10
-229.6777175983344
 20
57.92959095097913
 30
0.0
 10
-230.56515557529
 20
58.47833159278655
 30
0.0
 10
-231.8110833837616
 20
59.34591538697265
 30
0.0
 10
-233.0582689930086
 20
60.30661583010004
 30
0.0
 10
-233.9865882198485
 20
61.1348585062436
 30
0.0
 10
-234.8101696584429
 20
62.01637469277864
 30
0.0
 10
-235.5907950451446
 20
63.04526565654673
 30
0.0
 10
-236.1707540590682
 20
64.08126107238853
 30
0.0
 10
-236.5326114288659
 20
64.97315596046182
 30
0.0
 10
-236.6269134244673
 20
65.48888809169745
 30
0.0
 10
-236.6688482879223
 20
65.71822742184361
 30
0.0
  0
SPLINE
  5
2F8
330
2D9
100
AcDbEntity
  8
0
  6
Continuous
 62
     7
370
    25
100
AcDbSpline
210
0.0
220
0.0
230
1.0
 70
     8
 71
     3
 72
    10
 73
     6
 74
     0
 42
0.000000001
 43
0.00000001
 40
0.0
 40
0.0
 40
0.0
 40
0.0
 40
0.4692757670860637
 40
0.8311699890475368
 40
0.9999999999999999
 40
0.9999999999999999
 40
0.9999999999999999
 40
0.9999999999999999
 10
-511.4106034665708
 20
109.841140415633
 30
0.0
 10
-511.4105001815273
 20
109.8473013109002
 30
0.0
 10
-511.4103172455342
 20
109.8582133409067
 30
0.0
 10
-511.1612059232398
 20
109.8221113701052
 30
0.0
 10
-510.9758416359813
 20
109.7235007831465
 30
0.0
 10
-510.916874939706
 20
109.6921315230981
 30
0.0
  0
SPLINE
  5
2F9
330
2D9
100
AcDbEntity
  8
0
  6
Continuous
 62
     7
370
    25
100
AcDbSpline
210
0.0
220
0.0
230
1.0
 70
     8
 71
     3
 72
    11
 73
     7
 74
     0
 42
0.000000001
 43
0.00000001
 40
0.0
 40
0.0
 40
0.0
 40
0.0
 40
0.2588342488546221
 40
0.5285447108874456
 40
0.7988990788411324
 40
1.0
 40
1.0
 40
1.0
 40
1.0
 10
-520.9843727096721
 20
124.4355094611965
 30
0.0
 10
-521.2329618338773
 20
124.2679902355653
 30
0.0
 10
-521.7405857954059
 20
123.9259126277098
 30
0.0
 10
-522.2492737909931
 20
123.1435697293296
 30
0.0
 10
-522.5348666094495
 20
122.3402786476492
 30
0.0
 10
-522.5846973046768
 20
121.7946167456175
 30
0.0
 10
-522.6059527639825
 20
121.5618627312413
 30
0.0
  0
SPLINE
  5
2FB
330
2D9
100
AcDbEntity
  8
0
  6
Continuous
 62
     7
370
    25
100
AcDbSpline
210
0.0
220
0.0
230
1.0
 70
     8
 71
     3
 72
    11
 73
     7
 74
     0
 42
0.000000001
 43
0.00000001
 40
0.0
 40
0.0
 40
0.0
 40
0.0
 40
0.3182942013587442
 40
0.6655990270565741
 40
0.9936213858641907
 40
1.0
 40
1.0
 40
1.0
 40
1.0
 10
-513.7453020644521
 20
107.2422436873147
 30
0.0
 10
-513.5936623696817
 20
107.1686628563598
 30
0.0
 10
-513.2765619233917
 20
107.0147947391132
 30
0.0
 10
-512.7577002185443
 20
107.0032402436227
 30
0.0
 10
-512.3798543401449
 20
107.0767169263811
 30
0.0
 10
-512.248476308012
 20
107.1924942627114
 30
0.0
 10
-512.2459703052167
 20
107.1947026861726
 30
0.0
  0
SPLINE
  5
2FF
330
2D9
100
AcDbEntity
  8
0
  6
Continuous
 62
     7
370
    25
100
AcDbSpline
210
0.0
220
0.0
230
1.0
 70
     8
 71
     3
 72
    11
 73
     7
 74
     0
 42
0.000000001
 43
0.00000001
 40
0.0
 40
0.0
 40
0.0
 40
0.0
 40
0.0503296505019662
 40
0.3744496261282032
 40
0.6693397254780213
 40
1.0
 40
1.0
 40
1.0
 40
1.0
 10
-522.9685425532545
 20
113.4844753452388
 30
0.0
 10
-522.9747569037601
 20
113.4571737213088
 30
0.0
 10
-523.020991304362
 20
113.2540512523205
 30
0.0
 10
-522.9045403282481
 20
112.8746281876172
 30
0.0
 10
-522.6333678384991
 20
112.4224793492336
 30
0.0
 10
-522.3443545596391
 20
112.2234068302797
 30
0.0
 10
-522.1915847522503
 20
112.1181788957815
 30
0.0
  0
SPLINE
  5
300
330
2D9
100
AcDbEntity
  8
0
  6
Continuous
 62
     7
370
    25
100
AcDbSpline
210
0.0
220
0.0
230
1.0
 70
     8
 71
     3
 72
    15
 73
    11
 74
     0
 42
0.000000001
 43
0.00000001
 40
0.0
 40
0.0
 40
0.0
 40
0.0
 40
0.0888477525318026
 40
0.2249690767710918
 40
0.3627580740982618
 40
0.5012522474568145
 40
0.6408346853565394
 40
0.7829630707779528
 40
0.9295196304004366
 40
1.0
 40
1.0
 40
1.0
 40
1.0
 10
-188.4238794151188
 20
309.4712596343589
 30
0.0
 10
-188.7425257371378
 20
309.6414803333859
 30
0.0
 10
-189.5493617778748
 20
310.0724917255279
 30
0.0
 10
-190.9776132966048
 20
310.5650359874684
 30
0.0
 10
-192.6909655905027
 20
310.9111929644621
 30
0.0
 10
-194.4749776077835
 20
311.0247689748629
 30
0.0
 10
-196.2770778418138
 20
310.9048066844134
 30
0.0
 10
-198.053588697395
 20
310.535845327784
 30
0.0
 10
-199.4581463263698
 20
310.0280208012146
 30
0.0
 10
-200.2331698293069
 20
309.6077409277611
 30
0.0
 10
-200.4848502374805
 20
309.4712596343589
 30
0.0
  0
SPLINE
  5
315
330
2D9
100
AcDbEntity
  8
0
  6
Continuous
 62
     7
370
    25
100
AcDbSpline
210
0.0
220
0.0
230
1.0
 70
     8
 71
     3
 72
    33
 73
    29
 74
     0
 42
0.000000001
 43
0.00000001
 40
0.0
 40
0.0
 40
0.0
 40
0.0
 40
0.0279081616516074
 40
0.0556271412606941
 40
0.0832133070613597
 40
0.1107238436939196
 40
0.1382164077296222
 40
0.1657487686512686
 40
0.1933784463149413
 40
0.2211623561710754
 40
0.2491564729673869
 40
0.331343151752958
 40
0.4138097775275971
 40
0.4981305192475988
 40
0.5160438218997393
 40
0.5609162309957207
 40
0.5870252241425209
 40
0.6078286013413837
 40
0.6235286759904343
 40
0.6492710435195864
 40
0.6754616423971874
 40
0.7075590549478331
 40
0.7487362179711018
 40
0.8038130660895823
 40
0.8743854619443441
 40
0.9210346754284878
 40
0.9628850093946631
 40
1.0
 40
1.0
 40
1.0
 40
1.0
 10
15.9101248164315
 20
-198.9158371463675
 30
0.0
 10
15.91099528399809
 20
-198.8567627442215
 30
0.0
 10
15.91273031846208
 20
-198.7390143896689
 30
0.0
 10
15.92403234329015
 20
-198.5682929635008
 30
0.0
 10
15.94171793223725
 20
-198.4028513368993
 30
0.0
 10
15.96639971065503
 20
-198.2430481698344
 30
0.0
 10
15.99791391407868
 20
-198.0887904824371
 30
0.0
 10
16.03630601078926
 20
-197.9401071443742
 30
0.0
 10
16.08155456188953
 20
-197.7969872460889
 30
0.0
 10
16.13369525686315
 20
-197.6594555522126
 30
0.0
 10
16.23039812980942
 20
-197.4427084828747
 30
0.0
 10
16.39516821982179
 20
-197.1714691288113
 30
0.0
 10
16.66435704950545
 20
-196.894008267604
 30
0.0
 10
16.89823994467168
 20
-196.7396550607441
 30
0.0
 10
17.10205552461899
 20
-196.6493998870936
 30
0.0
 10
17.22563139058575
 20
-196.5956799383547
 30
0.0
 10
17.35107276503084
 20
-196.5360630409427
 30
0.0
 10
17.43026630792466
 20
-196.4839935268807
 30
0.0
 10
17.49940404913783
 20
-196.4173540279773
 30
0.0
 10
17.53986006943789
 20
-196.2970650569266
 30
0.0
 10
17.50249054719313
 20
-196.0940477262985
 30
0.0
 10
17.39244843137025
 20
-195.8565664272201
 30
0.0
 10
17.21253968632536
 20
-195.5722363409198
 30
0.0
 10
16.95304924971738
 20
-195.228682366639
 30
0.0
 10
16.67275387609027
 20
-194.8917855374299
 30
0.0
 10
16.40894401022722
 20
-194.5894575148248
 30
0.0
 10
16.19764158321635
 20
-194.3559656716196
 30
0.0
 10
16.06152038878092
 20
-194.2164158039595
 30
0.0
 10
15.99754120703156
 20
-194.1508250898671
 30
0.0
  0
LWPOLYLINE
  5
319
330
2D9
100
AcDbEntity
  8
0
  6
Continuous
 62
     7
370
    25
100
AcDbPolyline
 90
       36
 70
   128
 43
0.0
 10
-28.2842712475
 20
-278.0039476837
 10
-35.3097874284
 20
-269.0774629105
 10
-42.4658827404
 20
-260.3360496208
 10
-49.7453186806
 20
-251.7885498914
 10
-57.1407319853
 20
-243.4436096525
 10
-64.6446420778
 20
-235.3096699424
 10
-72.2494586351
 20
-227.3949583686
 10
-79.9474892657
 20
-219.7074807865
 10
-87.730947291
 20
-212.2550132001
 10
-95.5919596207
 20
-205.0450938977
 10
-103.5225747174
 20
-198.0850158257
 10
-111.5147706394
 20
-191.3818192125
 10
-119.5604631551
 20
-184.9422844468
 10
-127.6515139199
 20
-178.7729252191
 10
-135.7797387091
 20
-172.8799819331
 10
-143.9369156955
 20
-167.2694153936
 10
-152.1147937665
 20
-161.9469007768
 10
-160.30510087
 20
-156.9178218897
 10
-168.4995523817
 20
-152.1872657247
 10
-176.6898594852
 20
-147.7600173137
 10
-184.8677375563
 20
-143.6405548878
 10
-193.0249145427
 20
-139.8330453482
 10
-201.1531393318
 20
-136.3413400505
 10
-209.2441900967
 20
-133.1689709094
 10
-217.2898826123
 20
-130.3191468261
 10
-225.2820785343
 20
-127.7947504426
 10
-233.2126936311
 20
-125.5983352253
 10
-241.0737059608
 20
-123.7321228827
 10
-248.857163986
 20
-122.1980011181
 10
-256.5551946167
 20
-120.9975217196
 10
-264.160011174
 20
-120.1318989909
 10
-271.6639212664
 20
-119.6020085232
 10
-279.0593345711
 20
-119.4083863088
 10
-286.3387705114
 20
-119.5512281998
 10
-293.4948658234
 20
-120.0303897092
 10
-300.5203820043
 20
-120.8453861578
  0
SPLINE
  5
31D
330
2D9
100
AcDbEntity
  8
0
  6
Continuous
 62
     7
370
    25
100
AcDbSpline
210
0.0
220
0.0
230
1.0
 70
     8
 71
     3
 72
    37
 73
    33
 74
     0
 42
0.000000001
 43
0.00000001
 40
0.0
 40
0.0
 40
0.0
 40
0.0
 40
0.0275370259289235
 40
0.0575896536932509
 40
0.0901890154489859
 40
0.1253594810562368
 40
0.1954813064131298
 40
0.2507833526997909
 40
0.292023566519181
 40
0.3241628806547366
 40
0.3502726261844308
 40
0.3757108873559971
 40
0.3914819435646986
 40
0.4123369685673019
 40
0.4384908147450571
 40
0.4723632189069485
 40
0.4932483369287887
 40
0.5011462070580719
 40
0.5295336178264219
 40
0.5576097774547302
 40
0.5854296984894968
 40
0.6130499246082546
 40
0.6405282322869709
 40
0.6679232959387508
 40
0.6952943253247226
 40
0.7227006859801351
 40
0.7502015146342903
 40
0.8005781183112681
 40
0.8504096259240175
 40
0.9000312459037771
 40
0.9497824293409158
 40
1.0
 40
1.0
 40
1.0
 40
1.0
 10
-344.8021944587536
 20
14.13442883370417
 30
0.0
 10
-344.8497599605134
 20
14.14091605489713
 30
0.0
 10
-344.9492362358804
 20
14.15448312720544
 30
0.0
 10
-345.1021363890777
 20
14.16580921970462
 30
0.0
 10
-345.2659881392196
 20
14.17197496085765
 30
0.0
 10
-345.4941495834587
 20
14.1723355544176
 30
0.0
 10
-345.7552633128289
 20
14.15951587138072
 30
0.0
 10
-346.0141772969387
 20
14.1148303805798
 30
0.0
 10
-346.1947235025905
 20
14.0383650329341
 30
0.0
 10
-346.3054904374426
 20
13.92910024519693
 30
0.0
 10
-346.3447372540942
 20
13.77171860215381
 30
0.0
 10
-346.3060564446627
 20
13.60574313292409
 30
0.0
 10
-346.2375909566167
 20
13.45949065684461
 30
0.0
 10
-346.1584030273063
 20
13.31548442663677
 30
0.0
 10
-346.047967478874
 20
13.13521232209404
 30
0.0
 10
-345.9353144390799
 20
12.95655483044134
 30
0.0
 10
-345.8487304526398
 20
12.81771738226983
 30
0.0
 10
-345.7694735008047
 20
12.69120541265191
 30
0.0
 10
-345.684740677152
 20
12.54568291819654
 30
0.0
 10
-345.5773793832261
 20
12.35326795016975
 30
0.0
 10
-345.4764512866865
 20
12.15997382184587
 30
0.0
 10
-345.3815347586201
 20
11.96610291281794
 30
0.0
 10
-345.2927440902341
 20
11.77157800454366
 30
0.0
 10
-345.2100494630924
 20
11.57642227771705
 30
0.0
 10
-345.1334666163683
 20
11.38063428697127
 30
0.0
 10
-345.0629703945446
 20
11.18421272055378
 30
0.0
 10
-344.9809504861005
 20
10.93295286344947
 30
0.0
 10
-344.8949179675255
 20
10.62905918642325
 30
0.0
 10
-344.815114503362
 20
10.27628918933755
 30
0.0
 10
-344.7582423243301
 20
9.931472615013412
 30
0.0
 10
-344.722285638258
 20
9.593526885591563
 30
0.0
 10
-344.7172869385545
 20
9.377182090045414
 30
0.0
 10
-344.714775928411
 20
9.268505032345956
 30
0.0
  0
SPLINE
  5
329
330
2D9
100
AcDbEntity
  8
0
  6
Continuous
 62
     7
370
    25
100
AcDbSpline
210
0.0
220
0.0
230
1.0
 70
     8
 71
     3
 72
    25
 73
    21
 74
     0
 42
0.000000001
 43
0.00000001
 40
0.0
 40
0.0
 40
0.0
 40
0.0
 40
0.0039062499999998
 40
0.0039062499999998
 40
0.0078124999999997
 40
0.0156249999999996
 40
0.0312499999999995
 40
0.0624999999999994
 40
0.1249999999999994
 40
0.2499999999999996
 40
0.4999999999999999
 40
0.7500000000000001
 40
0.8750000000000003
 40
0.9375000000000002
 40
0.9687500000000001
 40
0.9843750000000001
 40
0.9921875000000001
 40
0.99609375
 40
0.99609375
 40
1.0
 40
1.0
 40
1.0
 40
1.0
 10
76.70576355983214
 20
-122.4052211136666
 30
0.0
 10
76.29328475299705
 20
-122.1752387523092
 30
0.0
 10
75.89031648991768
 20
-121.9397651322214
 30
0.0
 10
75.07945217782606
 20
-121.4716631286822
 30
0.0
 10
73.86315570968853
 20
-120.7695101233734
 30
0.0
 10
71.0251306173679
 20
-119.1311531109862
 30
0.0
 10
65.34908043272648
 20
-115.8544390862118
 30
0.0
 10
53.99698006344369
 20
-109.3010110366631
 30
0.0
 10
31.29277932487789
 20
-96.19415493756551
 30
0.0
 10
-14.11562215225341
 20
-69.98044273937045
 30
0.0
 10
-78.98476711958415
 20
-32.53228245623471
 30
0.0
 10
-143.8539120869145
 20
4.915877826901137
 30
0.0
 10
-189.262313564046
 20
31.12959002509615
 30
0.0
 10
-211.9665143026117
 20
44.23644612419367
 30
0.0
 10
-223.3186146718946
 20
50.78987417374249
 30
0.0
 10
-228.994664856536
 20
54.0665881985168
 30
0.0
 10
-231.8326899488567
 20
55.70494521090399
 30
0.0
 10
-233.0489864169941
 20
56.40709821621279
 30
0.0
 10
-233.8598507290857
 20
56.875200219752
 30
0.0
 10
-234.2677472469614
 20
57.10782887674687
 30
0.0
 10
-234.6661314066574
 20
57.34594773927426
 30
0.0
  0
SPLINE
  5
32A
330
2D9
100
AcDbEntity
  8
0
  6
Continuous
 62
     7
370
    25
100
AcDbSpline
210
0.0
220
0.0
230
1.0
 70
     8
 71
     3
 72
    35
 73
    31
 74
     0
 42
0.000000001
 43
0.00000001
 40
0.0
 40
0.0
 40
0.0
 40
0.0
 40
0.0156249999999996
 40
0.0156249999999996
 40
0.0312499999999992
 40
0.0312499999999992
 40
0.062499999999999
 40
0.1249999999999981
 40
0.1249999999999981
 40
0.1874999999999973
 40
0.1874999999999973
 40
0.2499999999999964
 40
0.2499999999999964
 40
0.374999999999994
 40
0.374999999999994
 40
0.4374999999999936
 40
0.4374999999999936
 40
0.4687499999999943
 40
0.4687499999999943
 40
0.499999999999995
 40
0.499999999999995
 40
0.6249999999999961
 40
0.6249999999999961
 40
0.6874999999999972
 40
0.6874999999999972
 40
0.7499999999999983
 40
0.7499999999999983
 40
0.8749999999999992
 40
0.8749999999999992
 40
1.0
 40
1.0
 40
1.0
 40
1.0
 10
138.2164373267151
 20
-121.8335454347111
 30
0.0
 10
137.9632235381416
 20
-121.9797226433853
 30
0.0
 10
137.7108548133697
 20
-122.1265742658565
 30
0.0
 10
137.2002384759994
 20
-122.4155857904213
 30
0.0
 10
136.9422976199923
 20
-122.5579905034717
 30
0.0
 10
136.1606310701322
 20
-122.9789446542524
 30
0.0
 10
134.5659063865565
 20
-123.7958005074652
 30
0.0
 10
132.8792124907903
 20
-124.5392591740731
 30
0.0
 10
130.5507966793036
 20
-125.4670989093604
 30
0.0
 10
129.3465350045073
 20
-125.8990533628042
 30
0.0
 10
126.8555514079313
 20
-126.6971538323761
 30
0.0
 10
125.5621906504085
 20
-127.0647109185657
 30
0.0
 10
121.6366692910505
 20
-128.0457156046215
 30
0.0
 10
118.9424546940962
 20
-128.5448059942179
 30
0.0
 10
114.7870319928543
 20
-129.0644832106859
 30
0.0
 10
113.3828730581049
 20
-129.1995467466076
 30
0.0
 10
111.2468053603591
 20
-129.3422856209608
 30
0.0
 10
110.5320970416169
 20
-129.3796144605477
 30
0.0
 10
109.108122681287
 20
-129.4337540310912
 30
0.0
 10
108.3972398394019
 20
-129.4506773423963
 30
0.0
 10
104.8482834379982
 20
-129.4851484788126
 30
0.0
 10
102.0264694929521
 20
-129.3533057069246
 30
0.0
 10
97.82003032759556
 20
-128.9140692398929
 30
0.0
 10
96.41579828132016
 20
-128.7259470377091
 30
0.0
 10
93.67255919031454
 20
-128.27500080024
 30
0.0
 10
92.3283547255559
 20
-128.012105797419
 30
0.0
 10
88.37644662588953
 20
-127.1132571819876
 30
0.0
 10
85.84635655134214
 20
-126.3687967745199
 30
0.0
 10
81.01459100998873
 20
-124.5784328036743
 30
0.0
 10
78.77130761395235
 20
-123.5568892507501
 30
0.0
 10
76.70576355983214
 20
-122.4052211136666
 30
0.0
  0
SPLINE
  5
32B
330
2D9
100
AcDbEntity
  8
0
  6
Continuous
 62
     7
370
    25
100
AcDbSpline
210
0.0
220
0.0
230
1.0
 70
     8
 71
     3
 72
    16
 73
    12
 74
     0
 42
0.000000001
 43
0.00000001
 40
0.0
 40
0.0
 40
0.0
 40
0.0
 40
0.0078124999999999
 40
0.0078124999999999
 40
0.0156249999999999
 40
0.0312500000000001
 40
0.0625
 40
0.1250000000000001
 40
0.2500000000000002
 40
0.5000000000000001
 40
1.0
 40
1.0
 40
1.0
 40
1.0
 10
279.7653807235825
 20
-40.11248476769959
 30
0.0
 10
279.4038827363203
 20
-40.3294089210473
 30
0.0
 10
279.0338295249373
 20
-40.54139527074702
 30
0.0
 10
278.2965656914388
 20
-40.96700862239082
 30
0.0
 10
277.1906699411909
 20
-41.60542864985654
 30
0.0
 10
274.6102465239461
 20
-43.09507538060985
 30
0.0
 10
269.4493996894562
 20
-46.07436884211636
 30
0.0
 10
259.1277060204765
 20
-52.03295576512942
 30
0.0
 10
238.4843186825171
 20
-63.95012961115548
 30
0.0
 10
197.1975440065991
 20
-87.78447730320806
 30
0.0
 10
161.8088799986686
 20
-108.2139181821098
 30
0.0
 10
138.216437326715
 20
-121.8335454347111
 30
0.0
  0
SPLINE
  5
32C
330
2D9
100
AcDbEntity
  8
0
  6
Continuous
 62
     7
370
    25
100
AcDbSpline
210
0.0
220
0.0
230
1.0
 70
     8
 71
     3
 72
    30
 73
    26
 74
     0
 42
0.000000001
 43
0.00000001
 40
0.0
 40
0.0
 40
0.0
 40
0.0
 40
0.1250000000000003
 40
0.1250000000000003
 40
0.1874999999999998
 40
0.1874999999999998
 40
0.2499999999999993
 40
0.2499999999999993
 40
0.3749999999999984
 40
0.3749999999999984
 40
0.4374999999999976
 40
0.4374999999999976
 40
0.4999999999999968
 40
0.4999999999999968
 40
0.6249999999999951
 40
0.6249999999999951
 40
0.6874999999999956
 40
0.6874999999999956
 40
0.7499999999999959
 40
0.7499999999999959
 40
0.8749999999999977
 40
0.8749999999999977
 40
0.9374999999999989
 40
0.9374999999999989
 40
1.0
 40
1.0
 40
1.0
 40
1.0
 10
279.6189661035033
 20
-5.236792628931259
 30
0.0
 10
281.5761677705847
 20
-6.399158857296499
 30
0.0
 10
283.3051133540387
 20
-7.652099907853399
 30
0.0
 10
285.578683337796
 20
-9.658431260463091
 30
0.0
 10
286.2821944002837
 20
-10.34877338019693
 30
0.0
 10
287.5780997149149
 20
-11.7735501370667
 30
0.0
 10
288.1726730353558
 20
-12.51127827195185
 30
0.0
 10
289.752813148956
 20
-14.74707496839681
 30
0.0
 10
290.5470827586956
 20
-16.27822507499044
 30
0.0
 10
291.3565175593386
 20
-18.63481821644873
 30
0.0
 10
291.5624083471241
 20
-19.43036788780642
 30
0.0
 10
291.8402856242724
 20
-21.04245471166477
 30
0.0
 10
291.9109011038904
 20
-21.8473364678899
 30
0.0
 10
291.9222061716099
 20
-24.25102120620944
 30
0.0
 10
291.6653636402467
 20
-25.84233742500775
 30
0.0
 10
290.879564660954
 20
-28.21243421248439
 30
0.0
 10
290.5481803780435
 20
-29.00328187372325
 30
0.0
 10
289.7619053659677
 20
-30.548433428568
 30
0.0
 10
289.3067600472141
 20
-31.30545310136848
 30
0.0
 10
287.7593881783546
 20
-33.53086925692427
 30
0.0
 10
286.4884700512284
 20
-34.95443679400989
 30
0.0
 10
284.2070119475572
 20
-36.99569031310681
 30
0.0
 10
283.3916418289202
 20
-37.65353137263853
 30
0.0
 10
281.6581336319078
 20
-38.91954764273032
 30
0.0
 10
280.7387418859455
 20
-39.52839978386231
 30
0.0
 10
279.7653807235825
 20
-40.11248476769959
 30
0.0
  0
SPLINE
  5
32D
330
2D9
100
AcDbEntity
  8
0
  6
Continuous
 62
     7
370
    25
100
AcDbSpline
210
0.0
220
0.0
230
1.0
 70
     8
 71
     3
 72
    25
 73
    21
 74
     0
 42
0.000000001
 43
0.00000001
 40
0.0
 40
0.0
 40
0.0
 40
0.0
 40
0.00390625
 40
0.00390625
 40
0.0078125
 40
0.0156249999999999
 40
0.0312499999999998
 40
0.0624999999999998
 40
0.1249999999999999
 40
0.2499999999999999
 40
0.5000000000000001
 40
0.7500000000000002
 40
0.8750000000000003
 40
0.9375000000000003
 40
0.9687500000000004
 40
0.9843750000000003
 40
0.9921875000000001
 40
0.9960937500000001
 40
0.9960937500000001
 40
1.0
 40
1.0
 40
1.0
 40
1.0
 10
-31.70246869763592
 20
174.4852461905287
 30
0.0
 10
-31.29135555872557
 20
174.2545509806381
 30
0.0
 10
-30.88867590507252
 20
174.0189866801507
 30
0.0
 10
-30.07794300084218
 20
173.5509605367551
 30
0.0
 10
-28.86184364449657
 20
172.8489213216616
 30
0.0
 10
-26.02427847969033
 20
171.210829819777
 30
0.0
 10
-20.34914815007791
 20
167.9346468160078
 30
0.0
 10
-8.998887490852898
 20
161.3822808084692
 30
0.0
 10
13.70163382759687
 20
148.2775487933922
 30
0.0
 10
59.10267646449699
 20
122.0680847632378
 30
0.0
 10
123.9613088029255
 20
84.62599329158903
 30
0.0
 10
188.8199411413538
 20
47.18390181994017
 30
0.0
 10
234.2209837782538
 20
20.97443778978592
 30
0.0
 10
256.9215050967038
 20
7.869705774708802
 30
0.0
 10
268.2717657559286
 20
1.3173397671703
 30
0.0
 10
273.946896085541
 20
-1.958843236598895
 30
0.0
 10
276.7844612503474
 20
-3.596934738483673
 30
0.0
 10
278.000560606693
 20
-4.298973953577049
 30
0.0
 10
278.8112935109233
 20
-4.767000096972673
 30
0.0
 10
279.2193471310838
 20
-4.999462155752629
 30
0.0
 10
279.6189661035033
 20
-5.236792628931272
 30
0.0
  0
SPLINE
  5
32E
330
2D9
100
AcDbEntity
  8
0
  6
Continuous
 62
     7
370
    25
100
AcDbSpline
210
0.0
220
0.0
230
1.0
 70
     8
 71
     3
 72
    32
 73
    28
 74
     0
 42
0.000000001
 43
0.00000001
 40
0.0
 40
0.0
 40
0.0
 40
0.0
 40
0.1249999999999998
 40
0.1249999999999998
 40
0.1875000000000003
 40
0.1875000000000003
 40
0.2500000000000008
 40
0.2500000000000008
 40
0.3750000000000018
 40
0.3750000000000018
 40
0.4375000000000019
 40
0.4375000000000019
 40
0.5000000000000019
 40
0.5000000000000019
 40
0.6250000000000001
 40
0.6250000000000001
 40
0.65625
 40
0.65625
 40
0.6874999999999998
 40
0.6874999999999998
 40
0.7499999999999994
 40
0.7499999999999994
 40
0.8750000000000004
 40
0.8750000000000004
 40
0.9375000000000002
 40
0.9375000000000002
 40
1.0
 40
1.0
 40
1.0
 40
1.0
 10
-92.11548530232014
 20
174.5697695488733
 30
0.0
 10
-90.09193414448931
 20
175.6935896288149
 30
0.0
 10
-87.9130250741688
 20
176.6855035763382
 30
0.0
 10
-84.42647652272446
 20
177.9881252759218
 30
0.0
 10
-83.22725928817314
 20
178.39088858527
 30
0.0
 10
-80.7530541028502
 20
179.132082322771
 30
0.0
 10
-79.47226398879647
 20
179.471736821976
 30
0.0
 10
-75.59161609766454
 20
180.3731678837139
 30
0.0
 10
-72.93554785842994
 20
180.8243976227062
 30
0.0
 10
-68.84968592438462
 20
181.2803351734251
 30
0.0
 10
-67.47074078064747
 20
181.3954287035298
 30
0.0
 10
-64.67717215623478
 20
181.5481626452075
 30
0.0
 10
-63.2822635061243
 20
181.5850551744075
 30
0.0
 10
-59.11829106273182
 20
181.5802281789565
 30
0.0
 10
-56.36303955064854
 20
181.4243443117436
 30
0.0
 10
-52.94513095306615
 20
181.0368665003884
 30
0.0
 10
-52.2628621702012
 20
180.9497018842434
 30
0.0
 10
-50.90102070344187
 20
180.75551737094
 30
0.0
 10
-50.22497669772998
 20
180.6489778838074
 30
0.0
 10
-48.22022638556157
 20
180.3029754321366
 30
0.0
 10
-46.91102024963076
 20
180.0365845159556
 30
0.0
 10
-43.06351508235305
 20
179.1325591666821
 30
0.0
 10
-40.60382624285393
 20
178.3920393303017
 30
0.0
 10
-37.07944648896512
 20
177.0651058607487
 30
0.0
 10
-35.94370845275302
 20
176.5910829595634
 30
0.0
 10
-33.75926475717461
 20
175.5840103261655
 30
0.0
 10
-32.70921614316457
 20
175.0501802470482
 30
0.0
 10
-31.70246869763592
 20
174.4852461905287
 30
0.0
  0
LWPOLYLINE
  5
32F
330
2D9
100
AcDbEntity
  8
0
  6
Continuous
 62
     7
370
    25
100
AcDbPolyline
 90
        6
 70
   128
 43
0.0
 10
-233.6758527868
 20
92.8553038671
 10
-219.5337171631
 20
101.0193849853
 10
-162.9651746682
 20
133.6757094582
 10
-127.5431860071
 20
154.1243882499
 10
-109.9141699593
 20
164.3970095358
 10
-92.1154853023
 20
174.5697695489
  0
SPLINE
  5
330
330
2D9
100
AcDbEntity
  8
0
  6
Continuous
 62
     7
370
    25
100
AcDbSpline
210
0.0
220
0.0
230
1.0
 70
     8
 71
     3
 72
    44
 73
    40
 74
     0
 42
0.000000001
 43
0.00000001
 40
0.0
 40
0.0
 40
0.0
 40
0.0
 40
0.1249999999999949
 40
0.1249999999999949
 40
0.1874999999999929
 40
0.1874999999999929
 40
0.2187499999999924
 40
0.2187499999999924
 40
0.2499999999999919
 40
0.2499999999999919
 40
0.3749999999999917
 40
0.3749999999999917
 40
0.406249999999992
 40
0.406249999999992
 40
0.4374999999999922
 40
0.4374999999999922
 40
0.4999999999999933
 40
0.4999999999999933
 40
0.6249999999999939
 40
0.6249999999999939
 40
0.6562499999999939
 40
0.6562499999999939
 40
0.687499999999994
 40
0.687499999999994
 40
0.749999999999995
 40
0.749999999999995
 40
0.8124999999999961
 40
0.8124999999999961
 40
0.8437499999999968
 40
0.8437499999999968
 40
0.8749999999999973
 40
0.8749999999999973
 40
0.9374999999999984
 40
0.9374999999999984
 40
0.9687499999999992
 40
0.9687499999999992
 40
0.9843749999999996
 40
0.9843749999999996
 40
1.0
 40
1.0
 40
1.0
 40
1.0
 10
-234.6661314066574
 20
57.34594773927427
 30
0.0
 10
-236.660694040056
 20
58.53812110747979
 30
0.0
 10
-238.4160911137107
 20
59.82451801367524
 30
0.0
 10
-240.7149353469702
 20
61.88579766469297
 30
0.0
 10
-241.4243451093892
 20
62.5952964820469
 30
0.0
 10
-242.4012739026892
 20
63.69389312885205
 30
0.0
 10
-242.7128493950721
 20
64.06638012458427
 30
0.0
 10
-243.3045096571547
 20
64.82048822893677
 30
0.0
 10
-243.5831263594289
 20
65.20020655423734
 30
0.0
 10
-244.8913958731317
 20
67.1119255859524
 30
0.0
 10
-245.6682871686108
 20
68.6830484058553
 30
0.0
 10
-246.3068943815964
 20
70.69841693670077
 30
0.0
 10
-246.4178672442482
 20
71.10408296727098
 30
0.0
 10
-246.6054640258318
 20
71.92073151525567
 30
0.0
 10
-246.6821451590451
 20
72.3327424358189
 30
0.0
 10
-246.8588544013861
 20
73.56931252749084
 30
0.0
 10
-246.9056993775428
 20
74.3905820035919
 30
0.0
 10
-246.8379680495171
 20
76.84526107628349
 30
0.0
 10
-246.5185894985217
 20
78.46969316219678
 30
0.0
 10
-245.7694276944109
 20
80.48489370322771
 30
0.0
 10
-245.6013600712809
 20
80.88827676267026
 30
0.0
 10
-245.232239241972
 20
81.6867964710533
 30
0.0
 10
-245.0313522864209
 20
82.08192753821524
 30
0.0
 10
-244.3806065572364
 20
83.25516065276373
 30
0.0
 10
-243.8825130767662
 20
84.02106471937716
 30
0.0
 10
-242.7608001193007
 20
85.52112882859171
 30
0.0
 10
-242.1374131840192
 20
86.25534767821249
 30
0.0
 10
-241.1065801825042
 20
87.33246126506384
 30
0.0
 10
-240.7469759900421
 20
87.68745464028042
 30
0.0
 10
-239.995268184886
 20
88.38922267582778
 30
0.0
 10
-239.6022913861191
 20
88.7366734714833
 30
0.0
 10
-238.3839295762954
 20
89.75821941174985
 30
0.0
 10
-237.5178706957568
 20
90.41361966412688
 30
0.0
 10
-236.137327940661
 20
91.3579278114778
 30
0.0
 10
-235.6635697641834
 20
91.66623109861267
 30
0.0
 10
-234.9322736692412
 20
92.11884737380511
 30
0.0
 10
-234.6850669883093
 20
92.26808055753592
 30
0.0
 10
-234.1837565863536
 20
92.56326224717222
 30
0.0
 10
-233.9292517834921
 20
92.70901974003455
 30
0.0
 10
-233.675852786809
 20
92.85530386707443
 30
0.0
  0
LWPOLYLINE
  5
331
330
2D9
100
AcDbEntity
  8
0
  6
Continuous
 62
     7
370
    25
100
AcDbPolyline
 90
       46
 70
   128
 43
0.0
 10
-131.5218613007
 20
-62.8613014093
 10
-133.2151427846
 20
-61.7368041045
 10
-134.6208504308
 20
-60.4872071497
 10
-135.7116237389
 20
-59.136832528
 10
-136.4662320473
 20
-57.7119637456
 10
-136.8699877634
 20
-56.2403342525
 10
-136.9150322417
 20
-54.7505876429
 10
-136.6004887425
 20
-53.2717201398
 10
-135.9324794973
 20
-51.8325162172
 10
-134.9240065462
 20
-50.4609883423
 10
-133.5946986681
 20
-49.183831745
 10
-131.9704293287
 20
-48.0259048258
 10
-130.0828130832
 20
-47.0097453151
 10
-127.9685902346
 20
-46.1551316019
 10
-125.6689117258
 20
-45.4786977699
 10
-123.2285381831
 20
-44.9936098344
 10
-120.6949687017
 20
-44.7093094801
 10
-118.1175163297
 20
-44.6313302901
 10
-115.5463482455
 20
-44.7611900407
 10
-113.0315093114
 20
-45.0963611594
 10
-110.6219480065
 20
-45.6303199217
 10
-108.364563701
 20
-46.3526734278
 10
-106.3032938124
 20
-47.2493618881
 10
-104.4782586146
 20
-48.302932282
 10
-102.9249803418
 20
-49.4928780599
 10
-101.6736917886
 20
-50.796038281
 10
-100.7487478634
 20
-52.1870484138
 10
-100.1681515477
 20
-53.6388340283
 10
-99.9432034884
 20
-55.123137769
 10
-100.0782820434
 20
-56.6110693519
 10
-100.5707580624
 20
-58.0736678812
 10
-101.4110460599
 20
-59.4824655403
 10
-102.5827907858
 20
-60.8100416852
 10
-104.0631855618
 20
-62.0305565563
 10
-105.8234161876
 20
-63.1202542199
 10
-107.8292217763
 20
-64.0579249507
 10
-110.0415616036
 20
-64.8253180543
 10
-112.4173749913
 20
-65.407497097
 10
-114.9104194343
 20
-65.7931306258
 10
-117.4721706583
 20
-65.9747127228
 10
-120.0527670896
 20
-65.948709099
 10
-122.6019803541
 20
-65.7156258853
 10
-125.0701929153
 20
-65.2799997815
 10
-127.4093638233
 20
-64.650309754
 10
-129.5739637771
 20
-63.8388120031
 10
-131.5218613007
 20
-62.8613014093
  0
LWPOLYLINE
  5
332
330
2D9
100
AcDbEntity
  8
0
  6
Continuous
 62
     7
370
    25
100
AcDbPolyline
 90
       46
 70
   128
 43
0.0
 10
-60.811183182
 20
-103.6817070005
 10
-62.504464666
 20
-102.5572096957
 10
-63.9101723122
 20
-101.3076127408
 10
-65.0009456203
 20
-99.9572381192
 10
-65.7555539286
 20
-98.5323693367
 10
-66.1593096448
 20
-97.0607398436
 10
-66.2043541231
 20
-95.570993234
 10
-65.8898106239
 20
-94.092125731
 10
-65.2218013787
 20
-92.6529218083
 10
-64.2133284276
 20
-91.2813939334
 10
-62.8840205494
 20
-90.0042373361
 10
-61.25975121
 20
-88.846310417
 10
-59.3721349645
 20
-87.8301509063
 10
-57.2579121159
 20
-86.975537193
 10
-54.9582336071
 20
-86.2991033611
 10
-52.5178600645
 20
-85.8140154255
 10
-49.9842905831
 20
-85.5297150712
 10
-47.406838211
 20
-85.4517358813
 10
-44.8356701268
 20
-85.5815956318
 10
-42.3208311927
 20
-85.9167667505
 10
-39.9112698879
 20
-86.4507255129
 10
-37.6538855823
 20
-87.1730790189
 10
-35.5926156938
 20
-88.0697674793
 10
-33.767580496
 20
-89.1233378731
 10
-32.2143022231
 20
-90.313283651
 10
-30.9630136699
 20
-91.6164438721
 10
-30.0380697448
 20
-93.0074540049
 10
-29.4574734291
 20
-94.4592396194
 10
-29.2325253697
 20
-95.9435433601
 10
-29.3676039247
 20
-97.431474943
 10
-29.8600799437
 20
-98.8940734724
 10
-30.7003679412
 20
-100.3028711314
 10
-31.8721126671
 20
-101.6304472763
 10
-33.3525074431
 20
-102.8509621474
 10
-35.1127380689
 20
-103.9406598111
 10
-37.1185436576
 20
-104.8783305418
 10
-39.3308834849
 20
-105.6457236455
 10
-41.7066968726
 20
-106.2279026881
 10
-44.1997413156
 20
-106.6135362169
 10
-46.7614925396
 20
-106.7951183139
 10
-49.3420889709
 20
-106.7691146901
 10
-51.8913022355
 20
-106.5360314765
 10
-54.3595147967
 20
-106.1004053726
 10
-56.6986857046
 20
-105.4707153452
 10
-58.8632856584
 20
-104.6592175942
 10
-60.811183182
 20
-103.6817070005
  0
LWPOLYLINE
  5
333
330
2D9
100
AcDbEntity
  8
0
  6
Continuous
 62
     7
370
    25
100
AcDbPolyline
 90
       46
 70
   128
 43
0.0
 10
-202.2325394194
 20
-22.0408958182
 10
-203.9258209033
 20
-20.9163985134
 10
-205.3315285495
 20
-19.6668015585
 10
-206.4223018576
 20
-18.3164269369
 10
-207.1769101659
 20
-16.8915581545
 10
-207.5806658821
 20
-15.4199286614
 10
-207.6257103604
 20
-13.9301820517
 10
-207.3111668612
 20
-12.4513145487
 10
-206.643157616
 20
-11.0121106261
 10
-205.6346846649
 20
-9.6405827511
 10
-204.3053767867
 20
-8.3634261539
 10
-202.6811074474
 20
-7.2054992347
 10
-200.7934912018
 20
-6.189339724
 10
-198.6792683532
 20
-5.3347260108
 10
-196.3795898445
 20
-4.6582921788
 10
-193.9392163018
 20
-4.1732042432
 10
-191.4056468204
 20
-3.888903889
 10
-188.8281944483
 20
-3.810924699
 10
-186.2570263642
 20
-3.9407844495
 10
-183.74218743
 20
-4.2759555683
 10
-181.3326261252
 20
-4.8099143306
 10
-179.0752418196
 20
-5.5322678366
 10
-177.0139719311
 20
-6.428956297
 10
-175.1889367333
 20
-7.4825266908
 10
-173.6356584604
 20
-8.6724724688
 10
-172.3843699072
 20
-9.9756326898
 10
-171.4594259821
 20
-11.3666428226
 10
-170.8788296664
 20
-12.8184284372
 10
-170.653881607
 20
-14.3027321779
 10
-170.788960162
 20
-15.7906637608
 10
-171.2814361811
 20
-17.2532622901
 10
-172.1217241785
 20
-18.6620599492
 10
-173.2934689044
 20
-19.989636094
 10
-174.7738636804
 20
-21.2101509651
 10
-176.5340943062
 20
-22.2998486288
 10
-178.5398998949
 20
-23.2375193596
 10
-180.7522397222
 20
-24.0049124632
 10
-183.1280531099
 20
-24.5870915058
 10
-185.6210975529
 20
-24.9727250346
 10
-188.1828487769
 20
-25.1543071316
 10
-190.7634452082
 20
-25.1283035078
 10
-193.3126584728
 20
-24.8952202942
 10
-195.780871034
 20
-24.4595941904
 10
-198.120041942
 20
-23.8299041629
 10
-200.2846418957
 20
-23.018406412
 10
-202.2325394194
 20
-22.0408958182
  0
LWPOLYLINE
  5
334
330
2D9
100
AcDbEntity
  8
0
  6
Continuous
 62
     7
370
    25
100
AcDbPolyline
 90
        3
 70
   128
 43
0.0
 10
16.6168985634
 20
-198.5189385106
 10
16.2620476327
 20
-198.7210475438
 10
15.9101248164
 20
-198.9158371464
  0
SPLINE
  5
339
330
2D9
100
AcDbEntity
  8
0
  6
Continuous
 62
     7
370
    25
100
AcDbSpline
210
0.0
220
0.0
230
1.0
 70
     8
 71
     3
 72
    11
 73
     7
 74
     0
 42
0.000000001
 43
0.00000001
 40
0.0
 40
0.0
 40
0.0
 40
0.0
 40
0.0006473055626669
 40
0.0006473055626669
 40
0.0006473055626669
 40
0.000647365562667
 40
0.000647365562667
 40
0.000647365562667
 40
0.000647365562667
 10
-85.36010867302463
 20
164.1868352787212
 30
0.0
 10
-85.5147582467966
 20
164.0959345306045
 30
0.0
 10
-85.66796033454057
 20
164.004175008352
 30
0.0
 10
-85.8196860278687
 20
163.9116091215418
 30
0.0
 10
-85.8197000916156
 20
163.9116005414313
 30
0.0
 10
-85.81971415533731
 20
163.9115919613068
 30
0.0
 10
-85.81972821907156
 20
163.9115833811896
 30
0.0
  0
SPLINE
  5
33A
330
2D9
100
AcDbEntity
  8
0
  6
Continuous
 62
     7
370
    25
100
AcDbSpline
210
0.0
220
0.0
230
1.0
 70
     8
 71
     3
 72
    30
 73
    26
 74
     0
 42
0.000000001
 43
0.00000001
 40
0.0
 40
0.0
 40
0.0
 40
0.0
 40
0.0625000000000013
 40
0.0625000000000013
 40
0.1250000000000027
 40
0.1250000000000027
 40
0.2500000000000038
 40
0.2500000000000038
 40
0.3125000000000039
 40
0.3125000000000039
 40
0.3750000000000041
 40
0.3750000000000041
 40
0.5000000000000043
 40
0.5000000000000043
 40
0.562500000000005
 40
0.562500000000005
 40
0.6250000000000057
 40
0.6250000000000057
 40
0.7500000000000048
 40
0.7500000000000048
 40
0.8125000000000037
 40
0.8125000000000037
 40
0.8750000000000024
 40
0.8750000000000024
 40
1.0
 40
1.0
 40
1.0
 40
1.0
 10
-38.46306310451003
 20
164.2917914716558
 30
0.0
 10
-39.24238278387013
 20
164.7481736662039
 30
0.0
 10
-40.05565977313365
 20
165.1801901093276
 30
0.0
 10
-41.74876296414572
 20
165.9934808166952
 30
0.0
 10
-42.62955068782917
 20
166.3757298166063
 30
0.0
 10
-45.36373306853322
 20
167.4449916810056
 30
0.0
 10
-47.27324659286381
 20
168.0390580816025
 30
0.0
 10
-50.26156853066801
 20
168.7615830876573
 30
0.0
 10
-51.27869214114543
 20
168.9738514256732
 30
0.0
 10
-53.35590156580561
 20
169.340103525346
 30
0.0
 10
-54.41959206362067
 20
169.4941945625567
 30
0.0
 10
-57.60778689787463
 20
169.8590092864417
 30
0.0
 10
-59.7495061747875
 20
169.9772028228502
 30
0.0
 10
-62.98624452323419
 20
169.9688214344354
 30
0.0
 10
-64.07048022976272
 20
169.9349443935176
 30
0.0
 10
-66.24207462387088
 20
169.8030930864776
 30
0.0
 10
-67.31371118110533
 20
169.7057213074261
 30
0.0
 10
-70.48838628761531
 20
169.3245478515547
 30
0.0
 10
-72.55116884730373
 20
168.9511440434999
 30
0.0
 10
-75.56347417827004
 20
168.2085034648761
 30
0.0
 10
-76.55751859943034
 20
167.929233993218
 30
0.0
 10
-78.476844408785
 20
167.3201709081192
 30
0.0
 10
-79.4066215627155
 20
166.9893520177349
 30
0.0
 10
-82.10850099442793
 20
165.9202458014483
 30
0.0
 10
-83.79548128939929
 20
165.1065002750517
 30
0.0
 10
-85.36010867302471
 20
164.1868352787212
 30
0.0
  0
SPLINE
  5
33B
330
2D9
100
AcDbEntity
  8
0
  6
Continuous
 62
     7
370
    25
100
AcDbSpline
210
0.0
220
0.0
230
1.0
 70
     8
 71
     3
 72
    11
 73
     7
 74
     0
 42
0.000000001
 43
0.00000001
 40
-0.000000059990744
 40
-0.000000059990744
 40
-0.000000059990744
 40
-0.000000059990744
 40
0.0
 40
0.0
 40
0.0
 40
0.0004734263788336
 40
0.0004734263788336
 40
0.0004734263788336
 40
0.0004734263788336
 10
-38.12737137610922
 20
164.0924688026097
 30
0.0
 10
-38.127385455701
 20
164.0924770001296
 30
0.0
 10
-38.12739953119143
 20
164.092485751759
 30
0.0
 10
-38.12741360875152
 20
164.0924942263231
 30
0.0
 10
-38.23850888542367
 20
164.1593725796131
 30
0.0
 10
-38.35039580296025
 20
164.2258116796694
 30
0.0
 10
-38.46306310451003
 20
164.2917914716558
 30
0.0
  0
SPLINE
  5
33D
330
2D9
100
AcDbEntity
  8
0
  6
Continuous
 62
     7
370
    25
100
AcDbSpline
210
0.0
220
0.0
230
1.0
 70
     8
 71
     3
 72
    11
 73
     7
 74
     0
 42
0.000000001
 43
0.00000001
 40
0.0
 40
0.0
 40
0.0
 40
0.0
 40
0.0004734263643026
 40
0.0004734263643026
 40
0.0004734263643026
 40
0.0004734863643025
 40
0.0004734863643025
 40
0.0004734863643025
 40
0.0004734863643025
 10
272.6639206137588
 20
-15.31799312717146
 30
0.0
 10
272.553456286552
 20
-15.25516177169053
 30
0.0
 10
272.4421903204165
 20
-15.19277745402195
 30
0.0
 10
272.3301446939478
 20
-15.13083930574588
 30
0.0
 10
272.3301304937721
 20
-15.13083145597416
 30
0.0
 10
272.3301162935712
 20
-15.13082360621687
 30
0.0
 10
272.3301020933828
 20
-15.13081575645213
 30
0.0
  0
SPLINE
  5
33F
330
2D9
100
AcDbEntity
  8
0
  6
Continuous
 62
     7
370
    25
100
AcDbSpline
210
0.0
220
0.0
230
1.0
 70
     8
 71
     3
 72
    36
 73
    32
 74
     0
 42
0.000000001
 43
0.00000001
 40
0.0
 40
0.0
 40
0.0
 40
0.0
 40
0.0312500000000005
 40
0.0312500000000005
 40
0.062500000000001
 40
0.062500000000001
 40
0.1250000000000004
 40
0.1250000000000004
 40
0.1874999999999998
 40
0.1874999999999998
 40
0.2499999999999992
 40
0.2499999999999992
 40
0.3124999999999986
 40
0.3124999999999986
 40
0.374999999999998
 40
0.374999999999998
 40
0.4999999999999977
 40
0.4999999999999977
 40
0.5624999999999987
 40
0.5624999999999987
 40
0.6249999999999997
 40
0.6249999999999997
 40
0.7500000000000007
 40
0.7500000000000007
 40
0.8750000000000018
 40
0.8750000000000018
 40
0.9375000000000023
 40
0.9375000000000023
 40
0.9687500000000011
 40
0.9687500000000011
 40
1.0
 40
1.0
 40
1.0
 40
1.0
 10
-75.04706450791842
 20
65.28331640341783
 30
0.0
 10
-74.85722254689311
 20
65.38060632614277
 30
0.0
 10
-74.66058879393809
 20
65.47613612206618
 30
0.0
 10
-74.26166884170988
 20
65.6598312550023
 30
0.0
 10
-74.0579697615301
 20
65.74870651977612
 30
0.0
 10
-73.43471176534054
 20
66.00835157929875
 30
0.0
 10
-73.00398200937697
 20
66.17281422049773
 30
0.0
 10
-72.11075819427784
 20
66.47705742988222
 30
0.0
 10
-71.6470615086385
 20
66.61824222391132
 30
0.0
 10
-70.7041208040102
 20
66.87282781856402
 30
0.0
 10
-70.22326237764067
 20
66.98751273130397
 30
0.0
 10
-69.24298247100974
 20
67.19085551240073
 30
0.0
 10
-68.74350621049041
 20
67.2796027197407
 30
0.0
 10
-67.72556174601095
 20
67.43121786627539
 30
0.0
 10
-67.20432351874545
 20
67.49452048148083
 30
0.0
 10
-65.63429610522043
 20
67.64244194689012
 30
0.0
 10
-64.58297576314904
 20
67.68622595960292
 30
0.0
 10
-62.99915470801716
 20
67.67341357395526
 30
0.0
 10
-62.47006631512857
 20
67.65592195721268
 30
0.0
 10
-61.40955243638575
 20
67.59385103177178
 30
0.0
 10
-60.87825408472056
 20
67.54897350438992
 30
0.0
 10
-59.31731210949362
 20
67.37591325287184
 30
0.0
 10
-58.3076547664522
 20
67.20946050753892
 30
0.0
 10
-56.34946788242452
 20
66.77166986413171
 30
0.0
 10
-55.39389446096298
 20
66.49795296926138
 30
0.0
 10
-54.06379162975765
 20
66.02245965107053
 30
0.0
 10
-53.63546001768918
 20
65.85230491552915
 30
0.0
 10
-53.01497536351999
 20
65.58334825751194
 30
0.0
 10
-52.81206486385962
 20
65.4912359391178
 30
0.0
 10
-52.41441318721039
 20
65.30123104993174
 30
0.0
 10
-52.21829283181731
 20
65.20262110458603
 30
0.0
 10
-52.02874321795193
 20
65.10243098189878
 30
0.0
  0
LWPOLYLINE
  5
342
330
2D9
100
AcDbEntity
  8
0
  6
Continuous
 62
     7
370
    25
100
AcDbPolyline
 90
       14
 70
   128
 43
0.0
 10
-33.9984844277
 20
-102.9315185837
 10
-35.3553390593
 20
-102.0510139778
 10
-37.2423485661
 20
-101.1070890817
 10
-39.3428504625
 20
-100.3278022792
 10
-41.6140845871
 20
-99.7290176023
 10
-44.0098151629
 20
-99.3229245803
 10
-46.4812720241
 20
-99.117790096
 10
-48.9781434361
 20
-99.117790096
 10
-51.4496002973
 20
-99.3229245803
 10
-53.8453308731
 20
-99.7290176023
 10
-56.1165649977
 20
-100.3278022792
 10
-58.217066894
 20
-101.1070890817
 10
-60.1040764009
 20
-102.0510139778
 10
-61.4294979177
 20
-102.9086202593
  0
SPLINE
  5
347
330
2D9
100
AcDbEntity
  8
0
  6
Continuous
 62
     7
370
    25
100
AcDbSpline
210
0.0
220
0.0
230
1.0
 70
     8
 71
     3
 72
    11
 73
     7
 74
     0
 42
0.000000001
 43
0.00000001
 40
0.0
 40
0.0
 40
0.0
 40
0.0
 40
0.222331503139891
 40
0.4449319137981516
 40
0.6622800739654416
 40
1.0
 40
1.0
 40
1.0
 40
1.0
 10
-117.1489369387123
 20
-57.48265039668182
 30
0.0
 10
-117.1338938860555
 20
-57.54184502231906
 30
0.0
 10
-117.1037895863345
 20
-57.66030586884499
 30
0.0
 10
-117.1322811355463
 20
-57.78876317358532
 30
0.0
 10
-117.2181080823344
 20
-57.88301738646551
 30
0.0
 10
-117.3208735137841
 20
-57.89039645582963
 30
0.0
 10
-117.3833990575342
 20
-57.89488610101333
 30
0.0
  0
SPLINE
  5
348
330
2D9
100
AcDbEntity
  8
0
  6
Continuous
 62
     7
370
    25
100
AcDbSpline
210
0.0
220
0.0
230
1.0
 70
     8
 71
     3
 72
    32
 73
    28
 74
     0
 42
0.000000001
 43
0.00000001
 40
0.0
 40
0.0
 40
0.0
 40
0.0
 40
0.0312500000000006
 40
0.0312500000000006
 40
0.0625000000000012
 40
0.0625000000000012
 40
0.1250000000000024
 40
0.1250000000000024
 40
0.1875000000000036
 40
0.1875000000000036
 40
0.2500000000000047
 40
0.2500000000000047
 40
0.3750000000000097
 40
0.3750000000000097
 40
0.4375000000000072
 40
0.4375000000000072
 40
0.5000000000000046
 40
0.5000000000000046
 40
0.6250000000000046
 40
0.6250000000000046
 40
0.7500000000000046
 40
0.7500000000000046
 40
0.8750000000000047
 40
0.8750000000000047
 40
0.9375000000000023
 40
0.9375000000000023
 40
1.0
 40
1.0
 40
1.0
 40
1.0
 10
-58.55393150373277
 20
54.76401417382482
 30
0.0
 10
-58.63802269433315
 20
54.81255898485303
 30
0.0
 10
-58.72211388493352
 20
54.86110379588126
 30
0.0
 10
-58.89029626613424
 20
54.9581934179377
 30
0.0
 10
-58.97433495359307
 20
55.00677693280593
 30
0.0
 10
-59.23485519110434
 20
55.14633215567135
 30
0.0
 10
-59.41827587886235
 20
55.23218852635126
 30
0.0
 10
-59.79898232015245
 20
55.39368033084827
 30
0.0
 10
-59.99694728483109
 20
55.46881506929538
 30
0.0
 10
-60.40903424319885
 20
55.60717403843753
 30
0.0
 10
-60.6233877388099
 20
55.67026013495037
 30
0.0
 10
-61.27338153762581
 20
55.83869561860194
 30
0.0
 10
-61.72182873597053
 20
55.92403553489396
 30
0.0
 10
-62.4177183693341
 20
56.01065388320231
 30
0.0
 10
-62.65522780661458
 20
56.03254217198278
 30
0.0
 10
-63.13023861616061
 20
56.06057187088605
 30
0.0
 10
-63.36711103693032
 20
56.06683343117076
 30
0.0
 10
-64.07583577254805
 20
56.06243694698605
 30
0.0
 10
-64.54697675612987
 20
56.02876188125109
 30
0.0
 10
-65.47950019673719
 20
55.90068569105792
 30
0.0
 10
-65.92622780406353
 20
55.80882490158531
 30
0.0
 10
-66.78315699288984
 20
55.57307882300235
 30
0.0
 10
-67.19497486369164
 20
55.42681083202149
 30
0.0
 10
-67.75842682266796
 20
55.17577073426659
 30
0.0
 10
-67.93756992758702
 20
55.08612728365898
 30
0.0
 10
-68.27708687390634
 20
54.89393674013422
 30
0.0
 10
-68.44404326770437
 20
54.7959150726046
 30
0.0
 10
-68.61229617043968
 20
54.69878473933277
 30
0.0
  0
LWPOLYLINE
  5
34C
330
2D9
100
AcDbEntity
  8
0
  6
Continuous
 62
     7
370
    25
100
AcDbPolyline
 90
       14
 70
   128
 43
0.0
 10
-202.8541024219
 20
-21.2701690733
 10
-201.5254326382
 20
-20.4102027956
 10
-199.6384231314
 20
-19.4662778995
 10
-197.537921235
 20
-18.6869910969
 10
-195.2666871104
 20
-18.08820642
 10
-192.8709565346
 20
-17.682113398
 10
-190.3994996734
 20
-17.4769789137
 10
-187.9026282614
 20
-17.4769789137
 10
-185.4311714002
 20
-17.682113398
 10
-183.0354408244
 20
-18.08820642
 10
-180.7642066998
 20
-18.6869910969
 10
-178.6637048035
 20
-19.4662778995
 10
-176.7766952966
 20
-20.4102027956
 10
-175.4212242222
 20
-21.2896966438
  0
SPLINE
  5
35B
330
2D9
100
AcDbEntity
  8
0
  6
Continuous
 62
     8
370
    25
100
AcDbSpline
210
0.0
220
0.0
230
1.0
 70
     8
 71
     3
 72
    12
 73
     8
 74
     0
 42
0.000000001
 43
0.00000001
 40
0.0
 40
0.0
 40
0.0
 40
0.0
 40
0.3300055667244987
 40
0.6153045048247325
 40
0.7931107582145105
 40
0.9248775571562294
 40
1.0
 40
1.0
 40
1.0
 40
1.0
 10
15.99754120703156
 20
-194.1508250898671
 30
0.0
 10
16.36589466642915
 20
-194.3819099429199
 30
0.0
 10
17.0526998775799
 20
-194.8127740416423
 30
0.0
 10
17.94418208130361
 20
-195.4296026734095
 30
0.0
 10
18.63471223793328
 20
-195.9179892150984
 30
0.0
 10
19.09749465828014
 20
-196.2587075585328
 30
0.0
 10
19.37649440295322
 20
-196.432097381011
 30
0.0
 10
19.47780050370418
 20
-196.4950560293989
 30
0.0
  0
SPLINE
  5
35D
330
2D9
100
AcDbEntity
  8
0
  6
Continuous
 62
     8
370
    25
100
AcDbSpline
210
0.0
220
0.0
230
1.0
 70
     8
 71
     3
 72
     9
 73
     5
 74
     0
 42
0.000000001
 43
0.00000001
 40
0.0
 40
0.0
 40
0.0
 40
0.0
 40
0.505536153242541
 40
0.9999999999999999
 40
0.9999999999999999
 40
0.9999999999999999
 40
0.9999999999999999
 10
16.6168985634057
 20
-198.5189385105894
 30
0.0
 10
16.67176363986417
 20
-198.0170365115356
 30
0.0
 10
16.78029213205332
 20
-197.0242252242824
 30
0.0
 10
17.36708402507792
 20
-196.5449104718824
 30
0.0
 10
17.65723140174891
 20
-196.3079066556031
 30
0.0
  0
SPLINE
  5
362
330
2D9
100
AcDbEntity
  8
0
  6
Continuous
 62
     8
370
    25
100
AcDbSpline
210
0.0
220
0.0
230
1.0
 70
     8
 71
     3
 72
    15
 73
    11
 74
     0
 42
0.000000001
 43
0.00000001
 40
0.0
 40
0.0
 40
0.0
 40
0.0
 40
0.0000020096750229
 40
0.1148247747897424
 40
0.2308611049035026
 40
0.4185927847986239
 40
0.6117299618485893
 40
0.7991105464955409
 40
0.991888964228552
 40
1.0
 40
1.0
 40
1.0
 40
1.0
 10
-227.241084448927
 20
82.27077220322217
 30
0.0
 10
-227.2410985087305
 20
82.27076362547838
 30
0.0
 10
-228.0444193184583
 20
81.78066572904854
 30
0.0
 10
-229.5763438879632
 20
80.74617740127911
 30
0.0
 10
-232.0220451929694
 20
78.71353283109335
 30
0.0
 10
-234.3659128106056
 20
76.07773700636207
 30
0.0
 10
-236.2000721151801
 20
72.83256990901317
 30
0.0
 10
-237.0088865179838
 20
69.43381493705776
 30
0.0
 10
-237.1785475247432
 20
67.07956697320303
 30
0.0
 10
-236.8144712614998
 20
65.89941738772356
 30
0.0
 10
-236.7997714574873
 20
65.85176811925027
 30
0.0
  0
SPLINE
  5
363
330
2D9
100
AcDbEntity
  8
0
  6
Continuous
 62
     8
370
    25
100
AcDbSpline
210
0.0
220
0.0
230
1.0
 70
     8
 71
     3
 72
    13
 73
     9
 74
     0
 42
0.000000001
 43
0.00000001
 40
0.0
 40
0.0
 40
0.0
 40
0.0
 40
0.1188813049263661
 40
0.296885452000386
 40
0.4701102514670088
 40
0.6484613583692976
 40
0.8216938050903656
 40
1.0
 40
1.0
 40
1.0
 40
1.0
 10
281.5448928798303
 20
-32.44936928972915
 30
0.0
 10
281.7874886907825
 20
-31.71096742485526
 30
0.0
 10
282.3933296767353
 20
-29.86693676295438
 30
0.0
 10
282.2508122887984
 20
-26.89764361787703
 30
0.0
 10
281.2545338731238
 20
-23.63627992994305
 30
0.0
 10
279.2831512682188
 20
-20.57590251198266
 30
0.0
 10
276.4695742279658
 20
-17.71953879610327
 30
0.0
 10
273.9446193547791
 20
-16.12617401447608
 30
0.0
 10
272.6639206137588
 20
-15.31799312717146
 30
0.0
  0
LWPOLYLINE
  5
368
330
2D9
100
AcDbEntity
  8
0
  6
Continuous
 62
     8
370
    25
100
AcDbPolyline
 90
       24
 70
   128
 43
0.0
 10
-30.2300088367
 20
-96.8872096401
 10
-30.2742957244
 20
-96.2257661856
 10
-30.6296375756
 20
-94.7990245087
 10
-31.3330875426
 20
-93.4159986858
 10
-32.3703254127
 20
-92.1048431344
 10
-33.7202360139
 20
-90.8922492004
 10
-35.3553390593
 20
-89.8029017996
 10
-37.2423485661
 20
-88.8589769034
 10
-39.3428504625
 20
-88.0796901009
 10
-41.6140845871
 20
-87.480905424
 10
-44.0098151629
 20
-87.074812402
 10
-46.4812720241
 20
-86.8696779177
 10
-48.9781434361
 20
-86.8696779177
 10
-51.4496002973
 20
-87.074812402
 10
-53.8453308731
 20
-87.480905424
 10
-56.1165649977
 20
-88.0796901009
 10
-58.217066894
 20
-88.8589769034
 10
-60.1040764009
 20
-89.8029017996
 10
-61.7391794463
 20
-90.8922492004
 10
-63.0890900475
 20
-92.1048431344
 10
-64.1263279176
 20
-93.4159986858
 10
-64.8297778846
 20
-94.7990245087
 10
-65.1851197358
 20
-96.2257661856
 10
-65.2167270639
 20
-96.5574327601
  0
LWPOLYLINE
  5
36E
330
2D9
100
AcDbEntity
  8
0
  6
Continuous
 62
     8
370
    25
100
AcDbPolyline
 90
       24
 70
   128
 43
0.0
 10
-100.9406869554
 20
-56.066804049
 10
-100.9849738431
 20
-55.4053605945
 10
-101.3403156943
 20
-53.9786189176
 10
-102.0437656613
 20
-52.5955930947
 10
-103.0810035313
 20
-51.2844375433
 10
-104.4309141326
 20
-50.0718436093
 10
-106.066017178
 20
-48.9824962084
 10
-107.9530266848
 20
-48.0385713123
 10
-110.0535285811
 20
-47.2592845098
 10
-112.3247627058
 20
-46.6604998329
 10
-114.7204932816
 20
-46.2544068109
 10
-117.1919501428
 20
-46.0492723266
 10
-119.6888215547
 20
-46.0492723266
 10
-122.1602784159
 20
-46.2544068109
 10
-124.5560089917
 20
-46.6604998329
 10
-126.8272431163
 20
-47.2592845098
 10
-128.9277450127
 20
-48.0385713123
 10
-130.8147545195
 20
-48.9824962084
 10
-132.4498575649
 20
-50.0718436093
 10
-133.7997681662
 20
-51.2844375433
 10
-134.8370060362
 20
-52.5955930947
 10
-135.5404560032
 20
-53.9786189176
 10
-135.8957978544
 20
-55.4053605945
 10
-135.9274051826
 20
-55.737027169
  0
LWPOLYLINE
  5
373
330
2D9
100
AcDbEntity
  8
0
  6
Continuous
 62
     8
370
    25
100
AcDbPolyline
 90
       24
 70
   128
 43
0.0
 10
-171.6513650741
 20
-15.2463984579
 10
-171.6956519617
 20
-14.5849550033
 10
-172.0509938129
 20
-13.1582133264
 10
-172.7544437799
 20
-11.7751875035
 10
-173.79168165
 20
-10.4640319521
 10
-175.1415922512
 20
-9.2514380182
 10
-176.7766952966
 20
-8.1620906173
 10
-178.6637048035
 20
-7.2181657212
 10
-180.7642066998
 20
-6.4388789187
 10
-183.0354408244
 20
-5.8400942418
 10
-185.4311714002
 20
-5.4340012197
 10
-187.9026282614
 20
-5.2288667355
 10
-190.3994996734
 20
-5.2288667355
 10
-192.8709565346
 20
-5.4340012197
 10
-195.2666871104
 20
-5.8400942418
 10
-197.537921235
 20
-6.4388789187
 10
-199.6384231314
 20
-7.2181657212
 10
-201.5254326382
 20
-8.1620906173
 10
-203.1605356836
 20
-9.2514380182
 10
-204.5104462848
 20
-10.4640319521
 10
-205.5476841549
 20
-11.7751875035
 10
-206.2511341219
 20
-13.1582133264
 10
-206.6064759731
 20
-14.5849550033
 10
-206.6380833012
 20
-14.9166215778
  0
SPLINE
  5
374
330
2D9
100
AcDbEntity
  8
0
  6
Continuous
 62
     8
370
    25
100
AcDbSpline
210
0.0
220
0.0
230
1.0
 70
     8
 71
     3
 72
    12
 73
     8
 74
     0
 42
0.000000001
 43
0.00000001
 40
0.0
 40
0.0
 40
0.0
 40
0.0
 40
0.0292364739559329
 40
0.0754874869815317
 40
0.2505111773117824
 40
0.5008046234493646
 40
1.0
 40
1.0
 40
1.0
 40
1.0
 10
-347.872231241355
 20
15.56991625138018
 30
0.0
 10
-347.8610014677923
 20
15.5637919106438
 30
0.0
 10
-347.8320066106529
 20
15.54797909093435
 30
0.0
 10
-347.6486114038493
 20
15.47585529482047
 30
0.0
 10
-347.1917980615947
 20
15.29302777826121
 30
0.0
 10
-346.2002144025653
 20
14.86053662919096
 30
0.0
 10
-345.3610908496261
 20
14.42471011908827
 30
0.0
 10
-344.8021944587771
 20
14.13442883371685
 30
0.0
  0
LINE
  5
380
330
2D9
100
AcDbEntity
  8
0
  6
Continuous
 62
     7
370
    25
100
AcDbLine
 10
196.2163290204
 20
-301.2162330809
 30
0.0
 11
517.0993205319
 21
-115.9744250641
 31
0.0
  0
LINE
  5
381
330
2D9
100
AcDbEntity
  8
0
  6
Continuous
 62
     7
370
    25
100
AcDbLine
 10
185.3549436424
 20
-296.3397376753
 30
0.0
 11
193.8012263302
 21
-301.2156728837
 31
0.0
  0
LINE
  5
382
330
2D9
100
AcDbEntity
  8
0
  6
Continuous
 62
     7
370
    25
100
AcDbLine
 10
19.4763327865
 20
-196.4973498709
 30
0.0
 11
182.5265165177
 21
-290.6242173922
 31
0.0
  0
LINE
  5
383
330
2D9
100
AcDbEntity
  8
0
  6
Continuous
 62
     7
370
    25
100
AcDbLine
 10
184.1477962276
 20
-293.4324031332
 30
0.0
 11
184.1477962276
 21
-294.2489439451
 31
0.0
  0
LINE
  5
384
330
2D9
100
AcDbEntity
  8
0
  6
Continuous
 62
     7
370
    25
100
AcDbLine
 10
520.2175060253
 20
-111.0780477173
 30
0.0
 11
519.4544654591
 21
-102.6715564067
 31
0.0
  0
LINE
  5
385
330
2D9
100
AcDbEntity
  8
0
  6
Continuous
 62
     7
370
    25
100
AcDbLine
 10
515.5179335277
 20
-96.9056990008
 30
0.0
 11
-188.4238794151
 21
309.4712596344
 31
0.0
  0
LINE
  5
386
330
2D9
100
AcDbEntity
  8
0
  6
Continuous
 62
     7
370
    25
100
AcDbLine
 10
-126.6892442263
 20
-59.0452230877
 30
0.0
 11
-125.7082717625
 21
-64.9032955732
 31
0.0
  0
LINE
  5
387
330
2D9
100
AcDbEntity
  8
0
  6
Continuous
 62
     7
370
    25
100
AcDbLine
 10
-510.9168749397
 20
109.6921315231
 30
0.0
 11
-347.8723443522
 21
15.5685274922
 31
0.0
  0
LINE
  5
388
330
2D9
100
AcDbEntity
  8
0
  6
Continuous
 62
     7
370
    25
100
AcDbLine
 10
-200.4848502375
 20
309.4712596344
 30
0.0
 11
-520.9895049461
 21
124.4478608048
 31
0.0
  0
LINE
  5
389
330
2D9
100
AcDbEntity
  8
0
  6
Continuous
 62
     7
370
    25
100
AcDbLine
 10
-512.2454239655
 20
107.1927356368
 30
0.0
 11
-509.4163745631
 21
108.8259110937
 31
0.0
  0
LINE
  5
38A
330
2D9
100
AcDbEntity
  8
0
  6
Continuous
 62
     7
370
    25
100
AcDbLine
 10
-522.1915847523
 20
112.1181788958
 30
0.0
 11
-513.7453020645
 21
107.2422436873
 31
0.0
  0
LINE
  5
38B
330
2D9
100
AcDbEntity
  8
0
  6
Continuous
 62
     7
370
    25
100
AcDbLine
 10
-522.605952764
 20
121.5618627312
 30
0.0
 11
-522.9837588127
 21
113.4553143645
 31
0.0
  0
LINE
  5
38C
330
2D9
100
AcDbEntity
  8
0
  6
Continuous
 62
     7
370
    25
100
AcDbLine
 10
516.5488252757
 20
-107.1369404883
 30
0.0
 11
196.0441705671
 21
-292.1603393178
 31
0.0
  0
LINE
  5
38D
330
2D9
100
AcDbEntity
  8
0
  6
Continuous
 62
     7
370
    25
100
AcDbLine
 10
192.5134819875
 20
-286.2530843472
 30
0.0
 11
513.0181366962
 21
-101.2296855176
 31
0.0
  0
LINE
  5
38E
330
2D9
100
AcDbEntity
  8
0
  6
Continuous
 62
     7
370
    25
100
AcDbLine
 10
-513.2453426981
 20
108.1084252498
 30
0.0
 11
-513.2453426981
 21
108.9249660616
 31
0.0
  0
LINE
  5
38F
330
2D9
100
AcDbEntity
  8
0
  6
Continuous
 62
     7
370
    25
100
AcDbLine
 10
-522.3987321671
 20
112.5760237023
 30
0.0
 11
-513.9524494793
 21
107.7000884938
 31
0.0
  0
LINE
  5
390
330
2D9
100
AcDbEntity
  8
0
  6
Continuous
 62
     7
370
    25
100
AcDbLine
 10
-522.0223348246
 20
120.652345593
 30
0.0
 11
-522.3987321671
 21
112.5760237023
 31
0.0
  0
LINE
  5
391
330
2D9
100
AcDbEntity
  8
0
  6
Continuous
 62
     7
370
    25
100
AcDbLine
 10
191.0992684252
 20
-288.7025740828
 30
0.0
 11
-519.9039216769
 21
121.7508308168
 31
0.0
  0
LINE
  5
392
330
2D9
100
AcDbEntity
  8
0
  6
Continuous
 62
     7
370
    25
100
AcDbLine
 10
193.5940789154
 20
-300.7578280773
 30
0.0
 11
193.2176815729
 21
-292.2469270651
 31
0.0
  0
LINE
  5
393
330
2D9
100
AcDbEntity
  8
0
  6
Continuous
 62
     7
370
    25
100
AcDbLine
 10
185.1477962276
 20
-295.8818928688
 30
0.0
 11
193.5940789154
 21
-300.7578280773
 31
0.0
  0
LINE
  5
394
330
2D9
100
AcDbEntity
  8
0
  6
Continuous
 62
     7
370
    25
100
AcDbLine
 10
184.4406894464
 20
-293.8406071891
 30
0.0
 11
184.4406894464
 21
-294.657148001
 31
0.0
  0
LINE
  5
395
330
2D9
100
AcDbEntity
  8
0
  6
Continuous
 62
     7
370
    25
100
AcDbLine
 10
15.997541207
 20
-194.1508250899
 30
0.0
 11
182.3193691028
 21
-290.1663725857
 31
0.0
  0
LINE
  5
396
330
2D9
100
AcDbEntity
  8
0
  6
Continuous
 62
     7
370
    25
100
AcDbLine
 10
15.8941273753
 20
-199.0751605139
 30
0.0
 11
-3.5355339059
 21
-292.2910896406
 31
0.0
  0
LINE
  5
397
330
2D9
100
AcDbEntity
  8
0
  6
Continuous
 62
     7
370
    25
100
AcDbLine
 10
-3.5355339059
 20
-292.2910896406
 30
0.0
 11
-28.2842712475
 21
-278.0039476837
 31
0.0
  0
LINE
  5
398
330
2D9
100
AcDbEntity
  8
0
  6
Continuous
 62
     7
370
    25
100
AcDbLine
 10
-300.5203820043
 20
-120.8453861578
 30
0.0
 11
-325.2691193458
 21
-106.5582442009
 31
0.0
  0
LINE
  5
399
330
2D9
100
AcDbEntity
  8
0
  6
Continuous
 62
     7
370
    25
100
AcDbLine
 10
-325.2691193458
 20
-106.5582442009
 30
0.0
 11
-344.6987806271
 21
9.0906943411
 31
0.0
  0
LINE
  5
39A
330
2D9
100
AcDbEntity
  8
0
  6
Continuous
 62
     7
370
    25
100
AcDbLine
 10
-511.1240223546
 20
110.1499763296
 30
0.0
 11
-344.8021944588
 21
14.1344288337
 31
0.0
  0
LINE
  5
39B
330
2D9
100
AcDbEntity
  8
0
  6
Continuous
 62
     7
370
    25
100
AcDbLine
 10
196.0441705671
 20
-292.1603393178
 30
0.0
 11
196.42250737
 21
-300.7150944008
 31
0.0
  0
LINE
  5
39C
330
2D9
100
AcDbEntity
  8
0
  6
Continuous
 62
     7
370
    25
100
AcDbLine
 10
-518.4897081145
 20
124.2003205524
 30
0.0
 11
192.5134819875
 21
-286.2530843472
 31
0.0
  0
LINE
  5
39D
330
2D9
100
AcDbEntity
  8
0
  6
Continuous
 62
     7
370
    25
100
AcDbLine
 10
517.3054988815
 20
-115.4732863839
 30
0.0
 11
516.5488252757
 21
-107.1369404883
 31
0.0
  0
LINE
  5
39E
330
2D9
100
AcDbEntity
  8
0
  6
Continuous
 62
     7
370
    25
100
AcDbLine
 10
196.42250737
 20
-300.7150944008
 30
0.0
 11
517.3054988815
 21
-115.4732863839
 31
0.0
  0
LINE
  5
39F
330
2D9
100
AcDbEntity
  8
0
  6
Continuous
 62
     7
370
    25
100
AcDbLine
 10
513.0181366962
 20
-97.1532392533
 30
0.0
 11
-190.9236762467
 21
309.2237193819
 31
0.0
  0
LINE
  5
3A0
330
2D9
100
AcDbEntity
  8
0
  6
Continuous
 62
     7
370
    25
100
AcDbLine
 10
-197.9850534059
 20
309.2237193819
 30
0.0
 11
-518.4897081145
 21
124.2003205524
 31
0.0
  0
LINE
  5
3A1
330
2D9
100
AcDbEntity
  8
0
  6
Continuous
 62
     7
370
    25
100
AcDbLine
 10
90.9392014469
 20
-237.7519858189
 30
0.0
 11
-3.5355339059
 21
-292.2910896406
 31
0.0
  0
LINE
  5
3A2
330
2D9
100
AcDbEntity
  8
0
  6
Continuous
 62
     7
370
    25
100
AcDbLine
 10
-236.7997714575
 20
65.8517681193
 30
0.0
 11
-236.7506773034
 21
65.6898565808
 31
0.0
  0
LINE
  5
3A3
330
2D9
100
AcDbEntity
  8
0
  6
Continuous
 62
     7
370
    25
100
AcDbLine
 10
-85.8197282191
 20
163.9115833812
 30
0.0
 11
-227.2410844489
 21
82.2707722032
 31
0.0
  0
LINE
  5
3A4
330
2D9
100
AcDbEntity
  8
0
  6
Continuous
 62
     7
370
    25
100
AcDbLine
 10
272.3301020934
 20
-15.1308157565
 30
0.0
 11
-38.1273713761
 21
164.0924688026
 31
0.0
  0
LINE
  5
3A5
330
2D9
100
AcDbEntity
  8
0
  6
Continuous
 62
     7
370
    25
100
AcDbLine
 10
-52.028743218
 20
65.1024309819
 30
0.0
 11
202.0740990862
 21
-81.5880174863
 31
0.0
  0
LINE
  5
3A6
330
2D9
100
AcDbEntity
  8
0
  6
Continuous
 62
     7
370
    25
100
AcDbLine
 10
-158.8072933111
 20
16.9295655539
 30
0.0
 11
-75.0470645079
 21
65.2833164034
 31
0.0
  0
LINE
  5
3A7
330
2D9
100
AcDbEntity
  8
0
  6
Continuous
 62
     7
370
    25
100
AcDbLine
 10
-65.2167270639
 20
-96.5574327601
 30
0.0
 11
-65.2297077301
 21
-96.946472778
 31
0.0
  0
LINE
  5
3A8
330
2D9
100
AcDbEntity
  8
0
  6
Continuous
 62
     7
370
    25
100
AcDbLine
 10
-135.9274051826
 20
-55.737027169
 30
0.0
 11
-135.9403858487
 21
-56.1260671869
 31
0.0
  0
LINE
  5
3A9
330
2D9
100
AcDbEntity
  8
0
  6
Continuous
 62
     7
370
    25
100
AcDbLine
 10
-110.4552465004
 20
-64.7097658078
 30
0.0
 11
-115.7402773989
 21
-61.658782412
 31
0.0
  0
LINE
  5
3AA
330
2D9
100
AcDbEntity
  8
0
  6
Continuous
 62
     7
370
    25
100
AcDbLine
 10
-206.6380833012
 20
-14.9166215778
 30
0.0
 11
-206.6510639674
 21
-15.3056615957
 31
0.0
  0
LINE
  5
3AB
330
2D9
100
AcDbEntity
  8
0
  6
Continuous
 62
     7
370
    25
100
AcDbLine
 10
-511.8311291358
 20
108.9249660616
 30
0.0
 11
-511.8311291358
 21
108.1084252498
 31
0.0
  0
LINE
  5
3AC
330
2D9
100
AcDbEntity
  8
0
  6
Continuous
 62
     8
370
    25
100
AcDbLine
 10
19.7975525106
 20
-196.6827860705
 30
0.0
 11
16.6168985634
 21
-198.5189385106
 31
0.0
  0
LINE
  5
3AD
330
2D9
100
AcDbEntity
  8
0
  6
Continuous
 62
     8
370
    25
100
AcDbLine
 10
19.9179215007
 20
-196.7522736094
 30
0.0
 11
15.8941273753
 21
-199.0751605139
 31
0.0
  0
LINE
  5
3AE
330
2D9
100
AcDbEntity
  8
0
  6
Continuous
 62
     8
370
    25
100
AcDbLine
 10
-42.2514199502
 20
-99.5998206854
 30
0.0
 11
-42.4485699357
 21
-106.1449356744
 31
0.0
  0
LINE
  5
3AF
330
2D9
100
AcDbEntity
  8
0
  6
Continuous
 62
     8
370
    25
100
AcDbLine
 10
-49.4097109309
 20
-106.5597618392
 30
0.0
 11
-49.1858259991
 21
-99.1270825023
 31
0.0
  0
LINE
  5
3B0
330
2D9
100
AcDbEntity
  8
0
  6
Continuous
 62
     8
370
    25
100
AcDbLine
 10
189.8572031354
 20
-88.6406813986
 30
0.0
 11
-58.5539315037
 21
54.7640141738
 31
0.0
  0
LINE
  5
3B1
330
2D9
100
AcDbEntity
  8
0
  6
Continuous
 62
     8
370
    25
100
AcDbLine
 10
-68.6122961704
 20
54.6987847393
 30
0.0
 11
-146.42244252
 21
9.7799433762
 31
0.0
  0
LINE
  5
3B2
330
2D9
100
AcDbEntity
  8
0
  6
Continuous
 62
     8
370
    25
100
AcDbLine
 10
-125.6036749165
 20
-58.7650291596
 30
0.0
 11
-124.5311759223
 21
-65.1696705543
 31
0.0
  0
LINE
  5
3B3
330
2D9
100
AcDbEntity
  8
0
  6
Continuous
 62
     8
370
    25
100
AcDbLine
 10
-510.7095452639
 20
109.5724426489
 30
0.0
 11
-511.8311291358
 21
108.9249660616
 31
0.0
  0
LINE
  5
3B4
330
2D9
100
AcDbEntity
  8
0
  6
Continuous
 62
     8
370
    25
100
AcDbLine
 10
-511.8311291358
 20
108.1084252498
 30
0.0
 11
-510.0023235487
 21
109.164172243
 31
0.0
  0
ARC
  5
3B5
330
2D9
100
AcDbEntity
  8
0
  6
Continuous
 62
     7
370
    25
100
AcDbCircle
 10
188.5884038769
 20
-292.6085351155
 30
0.0
 40
4.643379412537911
100
AcDbArc
 50
4.4664914494
 51
57.2659196393
  0
ARC
  5
3B6
330
2D9
100
AcDbEntity
  8
0
  6
Continuous
 62
     7
370
    25
100
AcDbCircle
 10
194.1697006279
 20
-288.8422957873
 30
0.0
 40
3.073609615144055
100
AcDbArc
 50
122.60547834
 51
177.3945215143
  0
ARC
  5
3B7
330
2D9
100
AcDbEntity
  8
0
  6
Continuous
 62
     7
370
    25
100
AcDbCircle
 10
188.3287077404
 20
-292.7630194017
 30
0.0
 40
7.73896568756326
100
AcDbArc
 50
4.4664914493
 51
57.2659196393
  0
ARC
  5
3B8
330
2D9
100
AcDbEntity
  8
0
  6
Continuous
 62
     7
370
    25
100
AcDbCircle
 10
194.5421994439
 20
-289.3073246502
 30
0.0
 40
3.224222378908815
100
AcDbArc
 50
245.7447579081
 51
297.7645863135
  0
ARC
  5
3B9
330
2D9
100
AcDbEntity
  8
0
  6
Continuous
 62
     7
370
    25
100
AcDbCircle
 10
508.8333624491
 20
-107.7396205722
 30
0.0
 40
7.738965687562179
100
AcDbArc
 50
4.4664914493
 51
57.2659196393
  0
ARC
  5
3BA
330
2D9
100
AcDbEntity
  8
0
  6
Continuous
 62
     7
370
    25
100
AcDbCircle
 10
-511.9521195959
 20
109.1347476523
 30
0.0
 40
1.310127592285555
100
AcDbArc
 50
50.7967147643
 51
189.2140369905
  0
ARC
  5
3BB
330
2D9
100
AcDbEntity
  8
0
  6
Continuous
 62
     7
370
    25
100
AcDbCircle
 10
-513.6764170656
 20
108.0384980529
 30
0.0
 40
0.4367091974284867
100
AcDbArc
 50
230.7967147643
 51
9.2140369905
  0
ARC
  5
3BC
330
2D9
100
AcDbEntity
  8
0
  6
Continuous
 62
     7
370
    25
100
AcDbCircle
 10
-520.7329905007
 20
120.7577708234
 30
0.0
 40
1.293647272232653
100
AcDbArc
 50
50.1427513332
 51
184.6744789353
  0
ARC
  5
3BD
330
2D9
100
AcDbEntity
  8
0
  6
Continuous
 62
     7
370
    25
100
AcDbCircle
 10
185.9759055478
 20
-294.5872871487
 30
0.0
 40
1.536804807572084
100
AcDbArc
 50
182.6054784857
 51
237.39452166
  0
ARC
  5
3BE
330
2D9
100
AcDbEntity
  8
0
  6
Continuous
 62
     7
370
    25
100
AcDbCircle
 10
179.8350411423
 20
-294.0501897459
 30
0.0
 40
4.610414422716518
100
AcDbArc
 50
2.6054784857
 51
57.39452166
  0
ARC
  5
3BF
330
2D9
100
AcDbEntity
  8
0
  6
Continuous
 62
     7
370
    25
100
AcDbCircle
 10
15.1145902958
 20
-198.9175546186
 30
0.0
 40
0.7953097991602447
100
AcDbArc
 50
348.5700816179
 51
0.1332340936
  0
ARC
  5
3C0
330
2D9
100
AcDbEntity
  8
0
  6
Continuous
 62
     7
370
    25
100
AcDbCircle
 10
-343.6185241089
 20
9.2761161934
 30
0.0
 40
1.096054473280877
100
AcDbArc
 50
180.4046048882
 51
189.7396875177
  0
ARC
  5
3C1
330
2D9
100
AcDbEntity
  8
0
  6
Continuous
 62
     7
370
    25
100
AcDbCircle
 10
194.9658248053
 20
-297.9255948753
 30
0.0
 40
3.146940052949057
100
AcDbArc
 50
244.1575306856
 51
297.5736589596
  0
ARC
  5
3C2
330
2D9
100
AcDbEntity
  8
0
  6
Continuous
 62
     7
370
    25
100
AcDbCircle
 10
-516.8334894742
 20
121.6111091123
 30
0.0
 40
3.073609615144465
100
AcDbArc
 50
122.60547834
 51
177.3945215143
  0
ARC
  5
3C3
330
2D9
100
AcDbEntity
  8
0
  6
Continuous
 62
     7
370
    25
100
AcDbCircle
 10
-194.4543648263
 20
302.414661788
 30
0.0
 40
7.670008289585102
100
AcDbArc
 50
62.591986056
 51
117.408013944
  0
ARC
  5
3C4
330
2D9
100
AcDbEntity
  8
0
  6
Continuous
 62
     7
370
    25
100
AcDbCircle
 10
512.2459991964
 20
-99.1914623855
 30
0.0
 40
2.179575613537907
100
AcDbArc
 50
290.7481276285
 51
69.2518723715
  0
ARC
  5
3C5
330
2D9
100
AcDbEntity
  8
0
  6
Continuous
 62
     7
370
    25
100
AcDbCircle
 10
515.493080302
 20
-111.1102172592
 30
0.0
 40
4.724535246369704
100
AcDbArc
 50
292.5579946416
 51
0.3901321784
  0
ARC
  5
3C6
330
2D9
100
AcDbEntity
  8
0
  6
Continuous
 62
     7
370
    25
100
AcDbCircle
 10
-117.6626106617
 20
-86.4815354048
 30
0.0
 40
24.89707676241092
100
AcDbArc
 50
66.339454663
 51
85.5717165278
  0
ARC
  5
3C7
330
2D9
100
AcDbEntity
  8
0
  6
Continuous
 62
     7
370
    25
100
AcDbCircle
 10
68.0288598216
 20
2.654401997
 30
0.0
 40
194.6979236756409
100
AcDbArc
 50
197.9913626853
 51
199.2883758826
  0
ARC
  5
3C8
330
2D9
100
AcDbEntity
  8
0
  6
Continuous
 62
     7
370
    25
100
AcDbCircle
 10
287.8649094125
 20
-18.3654414906
 30
0.0
 40
15.50345129277684
100
AcDbArc
 50
122.1324258283
 51
168.6637919797
  0
ARC
  5
3C9
330
2D9
100
AcDbEntity
  8
0
  6
Continuous
 62
     7
370
    25
100
AcDbCircle
 10
-22.8999529959
 20
161.3085244564
 30
0.0
 40
15.84645948900837
100
AcDbArc
 50
123.7443232093
 51
169.1486966162
  0
ARC
  5
3CA
330
2D9
100
AcDbEntity
  8
0
  6
Continuous
 62
     7
370
    25
100
AcDbCircle
 10
-67.0742447623
 20
67.9171230261
 30
0.0
 40
15.67163075448017
100
AcDbArc
 50
302.9343358625
 51
348.9342414715
  0
ARC
  5
3CB
330
2D9
100
AcDbEntity
  8
0
  6
Continuous
 62
     7
370
    25
100
AcDbCircle
 10
-242.1932131357
 20
79.7053199376
 30
0.0
 40
15.66740261363439
100
AcDbArc
 50
10.4050949545
 51
57.0685144432
  0
ARC
  5
3CC
330
2D9
100
AcDbEntity
  8
0
  6
Continuous
 62
     7
370
    25
100
AcDbCircle
 10
-101.0223642463
 20
161.3856794808
 30
0.0
 40
15.91077381671139
100
AcDbArc
 50
10.140001775
 51
55.9579118148
  0
ARC
  5
3CD
330
2D9
100
AcDbEntity
  8
0
  6
Continuous
 62
     7
370
    25
100
AcDbCircle
 10
-60.0949358216
 20
67.8487686688
 30
0.0
 40
15.66740261363412
100
AcDbArc
 50
190.4050949545
 51
237.0685144432
  0
ARC
  5
3CE
330
2D9
100
AcDbEntity
  8
0
  6
Continuous
 62
     7
370
    25
100
AcDbCircle
 10
-512.5382359169
 20
110.2896771466
 30
0.0
 40
1.537021907912265
100
AcDbArc
 50
242.6096722366
 51
297.3903277634
  0
ARC
  5
3CF
330
2D9
100
AcDbEntity
  8
0
  6
Continuous
 62
     7
370
    25
100
AcDbCircle
 10
-512.5382359169
 20
109.4731363347
 30
0.0
 40
1.53702190791229
100
AcDbArc
 50
242.6096722366
 51
297.3903277634
  0
ARC
  5
3D0
330
2D9
100
AcDbEntity
  8
0
  6
Continuous
 62
     8
370
    25
100
AcDbCircle
 10
194.0947512795
 20
-300.8070956599
 30
0.0
 40
0.5030905593801933
100
AcDbArc
 50
174.3800255914
 51
234.2973185446
  0
ARC
  5
3D1
330
2D9
100
AcDbEntity
  8
0
  6
Continuous
 62
     8
370
    25
100
AcDbCircle
 10
195.9133355826
 20
-300.7986004932
 30
0.0
 40
0.5159740076633718
100
AcDbArc
 50
305.9683681157
 51
9.3138092239
  0
ARC
  5
3D2
330
2D9
100
AcDbEntity
  8
0
  6
Continuous
 62
     8
370
    25
100
AcDbCircle
 10
516.7963547268
 20
-115.5567966864
 30
0.0
 40
0.5159474207459614
100
AcDbArc
 50
305.9587654593
 51
9.3147672091
  0
ARC
  5
3D3
330
2D9
100
AcDbEntity
  8
0
  6
Continuous
 62
     8
370
    25
100
AcDbCircle
 10
185.6377981299
 20
-295.9359796061
 30
0.0
 40
0.4929779300175937
100
AcDbArc
 50
173.7011524826
 51
234.986667124
  0
ARC
  5
3D4
330
2D9
100
AcDbEntity
  8
0
  6
Continuous
 62
     8
370
    25
100
AcDbCircle
 10
182.8218983077
 20
-290.2153045626
 30
0.0
 40
0.50490587251174
100
AcDbArc
 50
174.4385613426
 51
233.6284657309
  0
ARC
  5
3D5
330
2D9
100
AcDbEntity
  8
0
  6
Continuous
 62
     8
370
    25
100
AcDbCircle
 10
184.6494868381
 20
-293.381039243
 30
0.0
 40
0.5047762354053646
100
AcDbArc
 50
186.3717738045
 51
245.5660818996
  0
ARC
  5
3D6
330
2D9
100
AcDbEntity
  8
0
  6
Continuous
 62
     8
370
    25
100
AcDbCircle
 10
184.6483061095
 20
-294.198975148
 30
0.0
 40
0.5030179341237776
100
AcDbArc
 50
185.7240052147
 51
245.6227958879
  0
ARC
  5
3D7
330
2D9
100
AcDbEntity
  8
0
  6
Continuous
 62
     8
370
    25
100
AcDbCircle
 10
135.2882908793
 20
-125.8356546878
 30
0.0
 40
4.958923279428362
100
AcDbArc
 50
53.8089016784
 51
113.7309275204
  0
ARC
  5
3D8
330
2D9
100
AcDbEntity
  8
0
  6
Continuous
 62
     8
370
    25
100
AcDbCircle
 10
79.6115897781
 20
-126.1310772665
 30
0.0
 40
4.725021701803454
100
AcDbArc
 50
65.8390900528
 51
127.9509648813
  0
ARC
  5
3D9
330
2D9
100
AcDbEntity
  8
0
  6
Continuous
 62
     8
370
    25
100
AcDbCircle
 10
-231.7614981415
 20
53.3370223484
 30
0.0
 40
4.950593620446697
100
AcDbArc
 50
62.6077661383
 51
125.9248930802
  0
ARC
  5
3DA
330
2D9
100
AcDbEntity
  8
0
  6
Continuous
 62
     8
370
    25
100
AcDbCircle
 10
276.8490949443
 20
-44.3638739868
 30
0.0
 40
5.155485722868779
100
AcDbArc
 50
55.5514100403
 51
116.7618986361
  0
ARC
  5
3DB
330
2D9
100
AcDbEntity
  8
0
  6
Continuous
 62
     8
370
    25
100
AcDbCircle
 10
514.4708433314
 20
-99.078049548
 30
0.0
 40
2.411483203109794
100
AcDbArc
 50
64.2488229943
 51
127.0428468661
  0
ARC
  5
3DC
330
2D9
100
AcDbEntity
  8
0
  6
Continuous
 62
     8
370
    25
100
AcDbCircle
 10
514.4647573038
 20
-102.6028040138
 30
0.0
 40
4.990163612590576
100
AcDbArc
 50
294.6853774734
 51
359.2125749514
  0
ARC
  5
3DD
330
2D9
100
AcDbEntity
  8
0
  6
Continuous
 62
     8
370
    25
100
AcDbCircle
 10
-189.4708948102
 20
307.2986658223
 30
0.0
 40
2.411722436279929
100
AcDbArc
 50
64.2696746482
 51
127.0407837809
  0
ARC
  5
3DE
330
2D9
100
AcDbEntity
  8
0
  6
Continuous
 62
     8
370
    25
100
AcDbCircle
 10
-119.16891049
 20
-80.8211801483
 30
0.0
 40
23.42578203852869
100
AcDbArc
 50
85.0533192651
 51
125.2021354422
  0
ARC
  5
3DF
330
2D9
100
AcDbEntity
  8
0
  6
Continuous
 62
     8
370
    25
100
AcDbCircle
 10
-510.6340204522
 20
110.0958895922
 30
0.0
 40
0.4929779300645634
100
AcDbArc
 50
173.7011524859
 51
234.9866671207
  0
ARC
  5
3E0
330
2D9
100
AcDbEntity
  8
0
  6
Continuous
 62
     8
370
    25
100
AcDbCircle
 10
-510.8528697645
 20
109.0334885549
 30
0.0
 40
0.9842603969939807
100
AcDbArc
 50
124.6700059337
 51
186.3301830991
  0
ARC
  5
3E1
330
2D9
100
AcDbEntity
  8
0
  6
Continuous
 62
     8
370
    25
100
AcDbCircle
 10
-521.5693749133
 20
121.5850186678
 30
0.0
 40
1.03684702137638
100
AcDbArc
 50
181.2881705975
 51
244.0961127746
  0
ARC
  5
3E2
330
2D9
100
AcDbEntity
  8
0
  6
Continuous
 62
     8
370
    25
100
AcDbCircle
 10
-519.9500098015
 20
122.1985293437
 30
0.0
 40
2.477831523758717
100
AcDbArc
 50
53.8893423958
 51
114.8234775055
  0
ARC
  5
3E3
330
2D9
100
AcDbEntity
  8
0
  6
Continuous
 62
     8
370
    25
100
AcDbCircle
 10
-199.4378348424
 20
307.2986658223
 30
0.0
 40
2.411722436279458
100
AcDbArc
 50
52.9592162191
 51
115.7303253518
  0
ARC
  5
3E4
330
2D9
100
AcDbEntity
  8
0
  6
Continuous
 62
     8
370
    25
100
AcDbCircle
 10
-512.832534504
 20
108.0099010392
 30
0.0
 40
1.006240394556217
100
AcDbArc
 50
305.7136853158
 51
5.619015504
  0
ARC
  5
3E5
330
2D9
100
AcDbEntity
  8
0
  6
Continuous
 62
     8
370
    25
100
AcDbCircle
 10
-513.4517817428
 20
107.6508200752
 30
0.0
 40
0.5030860358549754
100
AcDbArc
 50
174.3798792278
 51
234.2989982719
  0
ARC
  5
3E6
330
2D9
100
AcDbEntity
  8
0
  6
Continuous
 62
     8
370
    25
100
AcDbCircle
 10
-521.9087302646
 20
112.521936965
 30
0.0
 40
0.4929779301373939
100
AcDbArc
 50
173.7011524909
 51
234.9866671157
  0
ARC
  5
3E7
330
2D9
100
AcDbEntity
  8
0
  6
Continuous
 62
     8
370
    25
100
AcDbCircle
 10
-521.9474455384
 20
113.5105483825
 30
0.0
 40
1.037784177627354
100
AcDbArc
 50
183.0508965041
 51
244.2238716283
  0
VIEWPORT
  5
3EE
330
2D9
100
AcDbEntity
  8
0
100
AcDbViewport
 10
0.0
 20
0.0
 30
0.0
 40
205.6
 41
156.0
 68
     1
 69
     1
 12
0.0
 22
0.3923721716
 13
0.0
 23
0.0
 14
10.0
 24
10.0
 15
10.0
 25
10.0
 16
0.0
 26
0.0
 36
1.0
 17
0.0
 27
0.0
 37
0.0
 42
50.0
 43
0.0
 44
0.0
 45
786.7535848239
 50
0.0
 51
0.0
 72
   100
 90
   557152
  1

281
     0
 71
     1
 74
     0
110
0.0
120
0.0
130
0.0
111
1.0
121
0.0
131
0.0
112
0.0
122
1.0
132
0.0
 79
     0
146
0.0
  0
ENDBLK
  5
2DC
330
2D9
100
AcDbEntity
  8
0
100
AcDbBlockEnd
  0
ENDSEC
  0
SECTION
  2
ENTITIES
  0
SPLINE
  5
73
330
1F
100
AcDbEntity
  8
0
  6
Continuous
 62
     7
370
    25
100
AcDbSpline
210
0.0
220
0.0
230
1.0
 70
     8
 71
     3
 72
     9
 73
     5
 74
     0
 42
0.000000001
 43
0.00000001
 40
0.0
 40
0.0
 40
0.0
 40
0.0
 40
0.5436310449336395
 40
1.0
 40
1.0
 40
1.0
 40
1.0
 10
-10.85362978620404
 20
-100.6968330840487
 30
0.0
 10
-10.87089022841569
 20
-100.690990870876
 30
0.0
 10
-10.90264051635915
 20
-100.6802442197655
 30
0.0
 10
-10.88816321623169
 20
-100.6875928983998
 30
0.0
 10
-10.88155622590035
 20
-100.6909466071892
 30
0.0
  0
SPLINE
  5
78
330
1F
100
AcDbEntity
  8
0
  6
Continuous
 62
     7
370
    25
100
AcDbSpline
210
0.0
220
0.0
230
1.0
 70
     8
 71
     3
 72
    11
 73
     7
 74
     0
 42
0.000000001
 43
0.00000001
 40
-0.0000000599833208
 40
-0.0000000599833208
 40
-0.0000000599833208
 40
-0.0000000599833208
 40
0.0
 40
0.0
 40
0.0
 40
0.0006473055792606
 40
0.0006473055792606
 40
0.0006473055792606
 40
0.0006473055792606
 10
253.2202370249214
 20
131.8528134583368
 30
0.0
 10
253.2202371302364
 20
131.8528334524997
 30
0.0
 10
253.2202372355136
 20
131.8528534361008
 30
0.0
 10
253.220237340783
 20
131.8528734249829
 30
0.0
 10
253.2213733480306
 20
132.0685819708892
 30
0.0
 10
253.2204415684445
 20
132.2843106670757
 30
0.0
 10
253.2174233711193
 20
132.5
 30
0.0
  0
SPLINE
  5
7A
330
1F
100
AcDbEntity
  8
0
  6
Continuous
 62
     7
370
    25
100
AcDbSpline
210
0.0
220
0.0
230
1.0
 70
     8
 71
     3
 72
    16
 73
    12
 74
     0
 42
0.000000001
 43
0.00000001
 40
0.0
 40
0.0
 40
0.0
 40
0.0
 40
0.0078124999999999
 40
0.0078124999999999
 40
0.0156249999999999
 40
0.0312500000000001
 40
0.0625
 40
0.1250000000000001
 40
0.2500000000000002
 40
0.5000000000000001
 40
1.0
 40
1.0
 40
1.0
 40
1.0
 10
262.9594821604975
 20
132.6885135412655
 30
0.0
 10
262.9695700163607
 20
132.1671903290455
 30
0.0
 10
262.9675602102041
 20
131.6458658648646
 30
0.0
 10
262.9675602102041
 20
130.6032173524838
 30
0.0
 10
262.9675602102041
 20
129.0392445839125
 30
0.0
 10
262.9675602102042
 20
125.3899747905797
 30
0.0
 10
262.9675602102042
 20
118.0914352039139
 30
0.0
 10
262.9675602102041
 20
103.4943560305823
 30
0.0
 10
262.9675602102039
 20
74.30019768391941
 30
0.0
 10
262.9675602102047
 20
15.91188099059338
 30
0.0
 10
262.9675602102043
 20
-34.13524760368599
 30
0.0
 10
262.9675602102042
 20
-67.49999999987233
 30
0.0
  0
SPLINE
  5
7C
330
1F
100
AcDbEntity
  8
0
  6
Continuous
 62
     7
370
    25
100
AcDbSpline
210
0.0
220
0.0
230
1.0
 70
     8
 71
     3
 72
    30
 73
    26
 74
     0
 42
0.000000001
 43
0.00000001
 40
0.0
 40
0.0
 40
0.0
 40
0.0
 40
0.0625000000000005
 40
0.0625000000000005
 40
0.125000000000001
 40
0.125000000000001
 40
0.2500000000000026
 40
0.2500000000000026
 40
0.3125000000000034
 40
0.3125000000000034
 40
0.3750000000000043
 40
0.3750000000000043
 40
0.5000000000000063
 40
0.5000000000000063
 40
0.5625000000000062
 40
0.5625000000000062
 40
0.6250000000000062
 40
0.6250000000000062
 40
0.7500000000000037
 40
0.7500000000000037
 40
0.8125000000000032
 40
0.8125000000000032
 40
0.8750000000000027
 40
0.8750000000000027
 40
1.0
 40
1.0
 40
1.0
 40
1.0
 10
253.2174233711194
 20
132.5
 30
0.0
 10
253.2021548878703
 20
133.5911310997374
 30
0.0
 10
253.1334249171647
 20
134.6764281020831
 30
0.0
 10
252.8912174023385
 20
136.8356623384875
 30
0.0
 10
252.7179132943808
 20
137.9110051209788
 30
0.0
 10
252.0425923026713
 20
141.111410840773
 30
0.0
 10
251.393602471921
 20
143.1676102377664
 30
0.0
 10
250.135302408829
 20
146.1409747231139
 30
0.0
 10
249.6676818029109
 20
147.1133263507025
 30
0.0
 10
248.6337838671125
 20
149.0196033582428
 30
0.0
 10
248.0650917690254
 20
149.9562650031979
 30
0.0
 10
246.2459854883933
 20
152.6486783433566
 30
0.0
 10
244.8745672189378
 20
154.306992436794
 30
0.0
 10
242.5816397330421
 20
156.5914309161784
 30
0.0
 10
241.7766739490745
 20
157.31949314983
 30
0.0
 10
240.0890974663278
 20
158.7022303830057
 30
0.0
 10
239.2182913527796
 20
159.3463428479713
 30
0.0
 10
236.5287912840646
 20
161.1438585054468
 30
0.0
 10
234.633356849732
 20
162.163037083789
 30
0.0
 10
231.6335537205611
 20
163.41780218343
 30
0.0
 10
230.6033312387932
 20
163.791289748621
 30
0.0
 10
228.5328634203981
 20
164.430522364013
 30
0.0
 10
227.4881899172064
 20
164.6981423570056
 30
0.0
 10
224.3265074230985
 20
165.3486404225347
 30
0.0
 10
222.1826336771397
 20
165.5834654398267
 30
0.0
 10
219.9999999946415
 20
165.6050145071571
 30
0.0
  0
SPLINE
  5
7E
330
1F
100
AcDbEntity
  8
0
  6
Continuous
 62
     7
370
    25
100
AcDbSpline
210
0.0
220
0.0
230
1.0
 70
     8
 71
     3
 72
    30
 73
    26
 74
     0
 42
0.000000001
 43
0.00000001
 40
0.0
 40
0.0
 40
0.0
 40
0.0
 40
0.1250000000000003
 40
0.1250000000000003
 40
0.1874999999999998
 40
0.1874999999999998
 40
0.2499999999999993
 40
0.2499999999999993
 40
0.3749999999999984
 40
0.3749999999999984
 40
0.4374999999999976
 40
0.4374999999999976
 40
0.4999999999999968
 40
0.4999999999999968
 40
0.6249999999999951
 40
0.6249999999999951
 40
0.6874999999999956
 40
0.6874999999999956
 40
0.7499999999999959
 40
0.7499999999999959
 40
0.8749999999999977
 40
0.8749999999999977
 40
0.9374999999999989
 40
0.9374999999999989
 40
1.0
 40
1.0
 40
1.0
 40
1.0
 10
220.1374976731585
 20
175.3034364871587
 30
0.0
 10
222.9452045879355
 20
175.2636307142674
 30
0.0
 10
225.7024531480017
 20
174.951480446927
 30
0.0
 10
229.7676202117997
 20
174.1016268891628
 30
0.0
 10
231.1106622462258
 20
173.7534997405864
 30
0.0
 10
233.7721828014068
 20
172.9246660569082
 30
0.0
 10
235.0962362877156
 20
172.4414662241922
 30
0.0
 10
238.9521413452628
 20
170.820216745748
 30
0.0
 10
241.3892462240191
 20
169.5063787212664
 30
0.0
 10
244.8481411868574
 20
167.1921974313541
 30
0.0
 10
245.9681789228083
 20
166.3633332398572
 30
0.0
 10
248.1392768525761
 20
164.5852131241079
 30
0.0
 10
249.1750911624113
 20
163.6492641832617
 30
0.0
 10
252.1273046204787
 20
160.713038505287
 30
0.0
 10
253.8948570989562
 20
158.5822558355613
 30
0.0
 10
256.2422917518076
 20
155.1235336088953
 30
0.0
 10
256.9766592550871
 20
153.9205179583665
 30
0.0
 10
258.313300373972
 20
151.4719160536489
 30
0.0
 10
258.9187204646266
 20
150.2228232803623
 30
0.0
 10
260.5504256992331
 20
146.4028037627801
 30
0.0
 10
261.3954468464246
 20
143.760432963541
 30
0.0
 10
262.2824980402115
 20
139.6469127775565
 30
0.0
 10
262.5117190713732
 20
138.2645842662645
 30
0.0
 10
262.8366586271117
 20
135.4880939078261
 30
0.0
 10
262.9323198319236
 20
134.0922164267405
 30
0.0
 10
262.9594821604975
 20
132.6885135412655
 30
0.0
  0
SPLINE
  5
7F
330
1F
100
AcDbEntity
  8
0
  6
Continuous
 62
     7
370
    25
100
AcDbSpline
210
0.0
220
0.0
230
1.0
 70
     8
 71
     3
 72
    30
 73
    26
 74
     0
 42
0.000000001
 43
0.00000001
 40
0.0
 40
0.0
 40
0.0
 40
0.0
 40
0.0625000000000013
 40
0.0625000000000013
 40
0.1250000000000027
 40
0.1250000000000027
 40
0.2500000000000038
 40
0.2500000000000038
 40
0.3125000000000039
 40
0.3125000000000039
 40
0.3750000000000041
 40
0.3750000000000041
 40
0.5000000000000043
 40
0.5000000000000043
 40
0.562500000000005
 40
0.562500000000005
 40
0.6250000000000057
 40
0.6250000000000057
 40
0.7500000000000048
 40
0.7500000000000048
 40
0.8125000000000037
 40
0.8125000000000037
 40
0.8750000000000024
 40
0.8750000000000024
 40
1.0
 40
1.0
 40
1.0
 40
1.0
 10
-219.999999999916
 20
165.6050145071051
 30
0.0
 10
-221.0913496026013
 20
165.594239649815
 30
0.0
 10
-222.1770648726368
 20
165.5298075716681
 30
0.0
 10
-224.3375167586215
 20
165.2958499624264
 30
0.0
 10
-225.4137847447159
 20
165.1264960041159
 30
0.0
 10
-228.6167378904525
 20
164.4627313450593
 30
0.0
 10
-230.6751516600869
 20
163.8206851910506
 30
0.0
 10
-233.6527705764106
 20
162.5721786941944
 30
0.0
 10
-234.6266744163729
 20
162.1076525296097
 30
0.0
 10
-236.5363841999938
 20
161.0797445729869
 30
0.0
 10
-237.4748568285796
 20
160.5139316733953
 30
0.0
 10
-240.1730140937205
 20
158.7033005644464
 30
0.0
 10
-241.8355374478419
 20
157.3369754703618
 30
0.0
 10
-244.1268358569697
 20
155.0508346092631
 30
0.0
 10
-244.8574771426444
 20
154.248135053956
 30
0.0
 10
-246.2452993451105
 20
152.564859012301
 30
0.0
 10
-246.8919968143338
 20
151.6960335283485
 30
0.0
 10
-248.6979308764266
 20
149.0122989986867
 30
0.0
 10
-249.7229556130669
 20
147.1201086631889
 30
0.0
 10
-250.9875576263351
 20
144.1246676233958
 30
0.0
 10
-251.3645142409681
 20
143.0958331360226
 30
0.0
 10
-252.0107506025856
 20
141.027732907438
 30
0.0
 10
-252.2819954070414
 20
139.9840742508206
 30
0.0
 10
-252.9439290156298
 20
136.8249733231844
 30
0.0
 10
-253.1868875348472
 20
134.6821814297972
 30
0.0
 10
-253.2174233711183
 20
132.5000000000848
 30
0.0
  0
SPLINE
  5
81
330
1F
100
AcDbEntity
  8
0
  6
Continuous
 62
     7
370
    25
100
AcDbSpline
210
0.0
220
0.0
230
1.0
 70
     8
 71
     3
 72
    32
 73
    28
 74
     0
 42
0.000000001
 43
0.00000001
 40
0.0
 40
0.0
 40
0.0
 40
0.0
 40
0.1249999999999998
 40
0.1249999999999998
 40
0.1875000000000003
 40
0.1875000000000003
 40
0.2500000000000008
 40
0.2500000000000008
 40
0.3750000000000018
 40
0.3750000000000018
 40
0.4375000000000019
 40
0.4375000000000019
 40
0.5000000000000019
 40
0.5000000000000019
 40
0.6250000000000001
 40
0.6250000000000001
 40
0.65625
 40
0.65625
 40
0.6874999999999998
 40
0.6874999999999998
 40
0.7499999999999994
 40
0.7499999999999994
 40
0.8750000000000004
 40
0.8750000000000004
 40
0.9375000000000002
 40
0.9375000000000002
 40
1.0
 40
1.0
 40
1.0
 40
1.0
 10
-262.9594821604954
 20
132.6885135413741
 30
0.0
 10
-262.9051574451865
 20
135.4959223176253
 30
0.0
 10
-262.5794092309378
 20
138.2516168618016
 30
0.0
 10
-261.7095992345997
 20
142.3125311127883
 30
0.0
 10
-261.3549603473976
 20
143.6538415029203
 30
0.0
 10
-260.5133046812992
 20
146.3112403659995
 30
0.0
 10
-260.0236844906003
 20
147.6329309251487
 30
0.0
 10
-258.3837947573219
 20
151.4811060703037
 30
0.0
 10
-257.0583720890406
 20
153.9119311285364
 30
0.0
 10
-254.7276990965402
 20
157.3595394971468
 30
0.0
 10
-253.8936131202329
 20
158.4755764448811
 30
0.0
 10
-252.105342184507
 20
160.6380081452195
 30
0.0
 10
-251.1641816511125
 20
161.6695463430828
 30
0.0
 10
-248.2138960211636
 20
164.6080070159274
 30
0.0
 10
-246.0747003375923
 20
166.3653253884933
 30
0.0
 10
-243.1832611032359
 20
168.3075388477895
 30
0.0
 10
-242.5940582353731
 20
168.683209745838
 30
0.0
 10
-241.3932386407669
 20
169.408324823325
 30
0.0
 10
-240.7847055097694
 20
169.7558622939663
 30
0.0
 10
-238.9433223205101
 20
170.7496241853473
 30
0.0
 10
-237.6912775205647
 20
171.3490764587773
 30
0.0
 10
-233.8633601355311
 20
172.9623530626084
 30
0.0
 10
-231.2170513254022
 20
173.7945695685168
 30
0.0
 10
-227.0996074324316
 20
174.661351322449
 30
0.0
 10
-225.7158993368364
 20
174.8838193609679
 30
0.0
 10
-222.9377236869959
 20
175.1949136116549
 30
0.0
 10
-221.5413506909799
 20
175.2835336067228
 30
0.0
 10
-220.1374976799681
 20
175.3034364870622
 30
0.0
  0
SPLINE
  5
83
330
1F
100
AcDbEntity
  8
0
  6
Continuous
 62
     7
370
    25
100
AcDbSpline
210
0.0
220
0.0
230
1.0
 70
     8
 71
     3
 72
    11
 73
     7
 74
     0
 42
0.000000001
 43
0.00000001
 40
0.0
 40
0.0
 40
0.0
 40
0.0
 40
0.0004734263643026
 40
0.0004734263643026
 40
0.0004734263643026
 40
0.0004734863643025
 40
0.0004734863643025
 40
0.0004734863643025
 40
0.0004734863643025
 10
219.9999999946415
 20
165.6050145071571
 30
0.0
 10
219.8422221093082
 20
165.6065722427962
 30
0.0
 10
219.6844291944462
 20
165.6070113193189
 30
0.0
 10
219.5266447510646
 20
165.6063393181439
 30
0.0
 10
219.5266247541499
 20
165.6063392329774
 30
0.0
 10
219.5266047572354
 20
165.6063391477751
 30
0.0
 10
219.5265847603209
 20
165.6063390625908
 30
0.0
  0
SPLINE
  5
85
330
1F
100
AcDbEntity
  8
0
  6
Continuous
 62
     7
370
    25
100
AcDbSpline
210
0.0
220
0.0
230
1.0
 70
     8
 71
     3
 72
    11
 73
     7
 74
     0
 42
0.000000001
 43
0.00000001
 40
-0.000000059990744
 40
-0.000000059990744
 40
-0.000000059990744
 40
-0.000000059990744
 40
0.0
 40
0.0
 40
0.0
 40
0.0004734263788336
 40
0.0004734263788336
 40
0.0004734263788336
 40
0.0004734263788336
 10
-219.5265847603209
 20
165.6063390625909
 30
0.0
 10
-219.5266047570541
 20
165.6063391477745
 30
0.0
 10
-219.5266247479803
 20
165.6063392329511
 30
0.0
 10
-219.5266447418101
 20
165.6063393181045
 30
0.0
 10
-219.6844291900345
 20
165.6070113193436
 30
0.0
 10
-219.8422221097402
 20
165.6065722428169
 30
0.0
 10
-219.999999999916
 20
165.6050145071051
 30
0.0
  0
SPLINE
  5
86
330
1F
100
AcDbEntity
  8
0
  6
Continuous
 62
     7
370
    25
100
AcDbSpline
210
0.0
220
0.0
230
1.0
 70
     8
 71
     3
 72
    25
 73
    21
 74
     0
 42
0.000000001
 43
0.00000001
 40
0.0
 40
0.0
 40
0.0
 40
0.0
 40
0.00390625
 40
0.00390625
 40
0.0078125
 40
0.0156249999999999
 40
0.0312499999999998
 40
0.0624999999999998
 40
0.1249999999999999
 40
0.2499999999999999
 40
0.5000000000000001
 40
0.7500000000000002
 40
0.8750000000000003
 40
0.9375000000000003
 40
0.9687500000000004
 40
0.9843750000000003
 40
0.9921875000000001
 40
0.9960937500000001
 40
0.9960937500000001
 40
1.0
 40
1.0
 40
1.0
 40
1.0
 10
-220.1374976799681
 20
175.3034364870622
 30
0.0
 10
-219.564223399026
 20
175.3115639828369
 30
0.0
 10
-218.9909484527455
 20
175.3077640640442
 30
0.0
 10
-217.8443989841207
 20
175.3077640640442
 30
0.0
 10
-216.1245747811836
 20
175.3077640640442
 30
0.0
 10
-212.1116516409972
 20
175.3077640640442
 30
0.0
 10
-204.0858053606244
 20
175.3077640640442
 30
0.0
 10
-188.0341127998786
 20
175.3077640640442
 30
0.0
 10
-155.9307276783873
 20
175.3077640640442
 30
0.0
 10
-91.72395743540383
 20
175.3077640640441
 30
0.0
 10
0.0000000545720182
 20
175.3077640640443
 30
0.0
 10
91.72395754454777
 20
175.3077640640442
 30
0.0
 10
155.930727787531
 20
175.3077640640442
 30
0.0
 10
188.0341129090226
 20
175.3077640640442
 30
0.0
 10
204.0858054697682
 20
175.3077640640441
 30
0.0
 10
212.1116517501409
 20
175.3077640640442
 30
0.0
 10
216.1245748903276
 20
175.3077640640441
 30
0.0
 10
217.8443990932646
 20
175.3077640640442
 30
0.0
 10
218.9909485618893
 20
175.3077640640441
 30
0.0
 10
219.5642236099847
 20
175.3115639797552
 30
0.0
 10
220.1374976731585
 20
175.3034364871586
 30
0.0
  0
CIRCLE
  5
87
330
1F
100
AcDbEntity
  8
0
  6
Continuous
 62
     7
370
    25
100
AcDbCircle
 10
-100.0
 20
-167.5
 30
0.0
 40
18.50000000000011
  0
CIRCLE
  5
88
330
1F
100
AcDbEntity
  8
0
  6
Continuous
 62
     7
370
    25
100
AcDbCircle
 10
-100.0
 20
-167.5
 30
0.0
 40
17.5
  0
SPLINE
  5
89
330
1F
100
AcDbEntity
  8
0
  6
Continuous
 62
     7
370
    25
100
AcDbSpline
210
0.0
220
0.0
230
1.0
 70
     8
 71
     3
 72
    11
 73
     7
 74
     0
 42
0.000000001
 43
0.00000001
 40
-0.0000000599894305
 40
-0.0000000599894305
 40
-0.0000000599894305
 40
-0.0000000599894305
 40
0.0
 40
0.0
 40
0.0
 40
0.0005731566386119
 40
0.0005731566386119
 40
0.0005731566386119
 40
0.0005731566386119
 10
219.4269034195884
 20
-101.7358712332115
 30
0.0
 10
219.4269234160409
 20
-101.7358712643675
 30
0.0
 10
219.4269434054969
 20
-101.7358712955307
 30
0.0
 10
219.4269633984512
 20
-101.7358713266632
 30
0.0
 10
219.6179819559522
 20
-101.7361687763513
 30
0.0
 10
219.8090083689135
 20
-101.7348204973026
 30
0.0
 10
219.999999999916
 20
-101.7318181492311
 30
0.0
  0
SPLINE
  5
8B
330
1F
100
AcDbEntity
  8
0
  6
Continuous
 62
     7
370
    25
100
AcDbSpline
210
0.0
220
0.0
230
1.0
 70
     8
 71
     3
 72
    25
 73
    21
 74
     0
 42
0.000000001
 43
0.00000001
 40
0.0
 40
0.0
 40
0.0
 40
0.0
 40
0.0039062499999998
 40
0.0039062499999998
 40
0.0078124999999997
 40
0.0156249999999996
 40
0.0312499999999995
 40
0.0624999999999994
 40
0.1249999999999994
 40
0.2499999999999996
 40
0.4999999999999999
 40
0.7500000000000001
 40
0.8750000000000003
 40
0.9375000000000002
 40
0.9687500000000001
 40
0.9843750000000001
 40
0.9921875000000001
 40
0.99609375
 40
0.99609375
 40
1.0
 40
1.0
 40
1.0
 40
1.0
 10
220.1731784018622
 20
-111.6948472633631
 30
0.0
 10
219.5998116000628
 20
-111.7048135843813
 30
0.0
 10
219.0264436484889
 20
-111.7013288156602
 30
0.0
 10
217.8797083410846
 20
-111.7013288156603
 30
0.0
 10
216.1596053799781
 20
-111.7013288156603
 30
0.0
 10
212.1460318040631
 20
-111.7013288156603
 30
0.0
 10
204.1188846522328
 20
-111.7013288156602
 30
0.0
 10
188.0645903485725
 20
-111.7013288156603
 30
0.0
 10
155.9560017412515
 20
-111.7013288156603
 30
0.0
 10
91.73882452660968
 20
-111.7013288156602
 30
0.0
 10
-0.0000000657358311
 20
-111.7013288156604
 30
0.0
 10
-91.73882465808121
 20
-111.7013288156602
 30
0.0
 10
-155.956001872723
 20
-111.7013288156602
 30
0.0
 10
-188.064590480044
 20
-111.7013288156603
 30
0.0
 10
-204.1188847837045
 20
-111.7013288156602
 30
0.0
 10
-212.1460319355346
 20
-111.7013288156603
 30
0.0
 10
-216.1596055114497
 20
-111.7013288156602
 30
0.0
 10
-217.8797084725561
 20
-111.7013288156602
 30
0.0
 10
-219.0264437799605
 20
-111.7013288156603
 30
0.0
 10
-219.5998118023848
 20
-111.7048135808604
 30
0.0
 10
-220.1731784015534
 20
-111.6948472633686
 30
0.0
  0
SPLINE
  5
8D
330
1F
100
AcDbEntity
  8
0
  6
Continuous
 62
     7
370
    25
100
AcDbSpline
210
0.0
220
0.0
230
1.0
 70
     8
 71
     3
 72
    11
 73
     7
 74
     0
 42
0.000000001
 43
0.00000001
 40
0.0
 40
0.0
 40
0.0
 40
0.0
 40
0.0005731566278054
 40
0.0005731566278054
 40
0.0005731566278054
 40
0.0005732166278053
 40
0.0005732166278053
 40
0.0005732166278053
 40
0.0005732166278053
 10
-219.9999999996787
 20
-101.7318181492349
 30
0.0
 10
-219.8090083722772
 20
-101.7348204972484
 30
0.0
 10
-219.6179819629184
 20
-101.7361687763015
 30
0.0
 10
-219.4269634090189
 20
-101.7358713266797
 30
0.0
 10
-219.4269434125421
 20
-101.7358712955417
 30
0.0
 10
-219.4269234160653
 20
-101.7358712643676
 30
0.0
 10
-219.4269034195885
 20
-101.7358712332115
 30
0.0
  0
SPLINE
  5
93
330
1F
100
AcDbEntity
  8
0
  6
Continuous
 62
     7
370
    25
100
AcDbSpline
210
0.0
220
0.0
230
1.0
 70
     8
 71
     3
 72
    44
 73
    40
 74
     0
 42
0.000000001
 43
0.00000001
 40
0.0
 40
0.0
 40
0.0
 40
0.0
 40
0.1249999999999949
 40
0.1249999999999949
 40
0.1874999999999929
 40
0.1874999999999929
 40
0.2187499999999924
 40
0.2187499999999924
 40
0.2499999999999919
 40
0.2499999999999919
 40
0.3749999999999917
 40
0.3749999999999917
 40
0.406249999999992
 40
0.406249999999992
 40
0.4374999999999922
 40
0.4374999999999922
 40
0.4999999999999933
 40
0.4999999999999933
 40
0.6249999999999939
 40
0.6249999999999939
 40
0.6562499999999939
 40
0.6562499999999939
 40
0.687499999999994
 40
0.687499999999994
 40
0.749999999999995
 40
0.749999999999995
 40
0.8124999999999961
 40
0.8124999999999961
 40
0.8437499999999968
 40
0.8437499999999968
 40
0.8749999999999973
 40
0.8749999999999973
 40
0.9374999999999984
 40
0.9374999999999984
 40
0.9687499999999992
 40
0.9687499999999992
 40
0.9843749999999996
 40
0.9843749999999996
 40
1.0
 40
1.0
 40
1.0
 40
1.0
 10
-220.1731784015534
 20
-111.6948472633685
 30
0.0
 10
-223.0438136065603
 20
-111.6449495855165
 30
0.0
 10
-225.8607455225268
 20
-111.3105240184626
 30
0.0
 10
-230.0110891188346
 20
-110.4112371146135
 30
0.0
 10
-231.3817667735844
 20
-110.0438163671565
 30
0.0
 10
-233.4182061605571
 20
-109.3889629291414
 30
0.0
 10
-234.094774277499
 20
-109.1530290992307
 30
0.0
 10
-235.4368313780046
 20
-108.6477059656794
 30
0.0
 10
-236.0989516044909
 20
-108.379609258253
 30
0.0
 10
-239.3656596484832
 20
-106.9630737037785
 30
0.0
 10
-241.8394378841014
 20
-105.5879856747164
 30
0.0
 10
-244.759581122792
 20
-103.5709694176594
 30
0.0
 10
-245.3349420161391
 20
-103.1525478517299
 30
0.0
 10
-246.4678874773921
 20
-102.2849043032499
 30
0.0
 10
-247.0267721698744
 20
-101.8344631093359
 30
0.0
 10
-248.6663714664797
 20
-100.444768419846
 30
0.0
 10
-249.7054504429431
 20
-99.47193824399235
 30
0.0
 10
-252.6642385469787
 20
-96.41736357726542
 30
0.0
 10
-254.4281342653895
 20
-94.20179838050575
 30
0.0
 10
-256.3667708544116
 20
-91.20368700769828
 30
0.0
 10
-256.7420239678652
 20
-90.5907503822184
 30
0.0
 10
-257.4591050218998
 20
-89.3516536452208
 30
0.0
 10
-257.8010436824315
 20
-88.72561792764483
 30
0.0
 10
-258.7779639136839
 20
-86.82840426052346
 30
0.0
 10
-259.3638973628262
 20
-85.53806025597056
 30
0.0
 10
-260.4081214341418
 20
-82.90749450711759
 30
0.0
 10
-260.8666485195384
 20
-81.56736516323976
 30
0.0
 10
-261.4570718077003
 20
-79.51912386379351
 30
0.0
 10
-261.6376166743659
 20
-78.83002187106183
 30
0.0
 10
-261.9656589275889
 20
-77.43890424484525
 30
0.0
 10
-262.1133670613598
 20
-76.73544299256032
 30
0.0
 10
-262.5031238924998
 20
-74.62266236609025
 30
0.0
 10
-262.6935128664071
 20
-73.2074811775116
 30
0.0
 10
-262.8739836097666
 20
-71.07462814645959
 30
0.0
 10
-262.9166197776957
 20
-70.36199674007077
 30
0.0
 10
-262.9539148820011
 20
-69.29049278018772
 30
0.0
 10
-262.9619057439107
 20
-68.9328988773949
 30
0.0
 10
-262.9689871956539
 20
-68.21685745624728
 30
0.0
 10
-262.9675602102043
 20
-67.858360297801
 30
0.0
 10
-262.9675602102043
 20
-67.50000000000013
 30
0.0
  0
SPLINE
  5
96
330
1F
100
AcDbEntity
  8
0
  6
Continuous
 62
     7
370
    25
100
AcDbSpline
210
0.0
220
0.0
230
1.0
 70
     8
 71
     3
 72
    38
 73
    34
 74
     0
 42
0.000000001
 43
0.00000001
 40
0.0
 40
0.0
 40
0.0
 40
0.0
 40
0.00390625
 40
0.00390625
 40
0.0078125
 40
0.0156250000000001
 40
0.03125
 40
0.03125
 40
0.0625000000000001
 40
0.0625000000000001
 40
0.1250000000000002
 40
0.1250000000000002
 40
0.1875000000000004
 40
0.1875000000000004
 40
0.2500000000000006
 40
0.2500000000000006
 40
0.3125000000000007
 40
0.3125000000000007
 40
0.3750000000000008
 40
0.3750000000000008
 40
0.5000000000000003
 40
0.5000000000000003
 40
0.5625000000000007
 40
0.5625000000000007
 40
0.625000000000001
 40
0.625000000000001
 40
0.7500000000000001
 40
0.7500000000000001
 40
0.8124999999999998
 40
0.8124999999999998
 40
0.8749999999999994
 40
0.8749999999999994
 40
1.0
 40
1.0
 40
1.0
 40
1.0
 10
-253.2202370249215
 20
-68.14718653112118
 30
0.0
 10
-253.2198766486479
 20
-68.21558126179646
 30
0.0
 10
-253.219302264048
 20
-68.28460422128789
 30
0.0
 10
-253.2177350867516
 20
-68.42195366398288
 30
0.0
 10
-253.2147517869392
 20
-68.62790925092537
 30
0.0
 10
-253.2033613050537
 20
-69.10799206994156
 30
0.0
 10
-253.1860042640394
 20
-69.5186683427368
 30
0.0
 10
-253.1412096451097
 20
-70.338927510734
 30
0.0
 10
-253.0979290767476
 20
-70.884312319568
 30
0.0
 10
-252.9282831453104
 20
-72.51613246147069
 30
0.0
 10
-252.7624129902084
 20
-73.59828496702146
 30
0.0
 10
-252.3253576725151
 20
-75.75110655678807
 30
0.0
 10
-252.0551737270266
 20
-76.81250190210156
 30
0.0
 10
-251.4178025570891
 20
-78.89164394535145
 30
0.0
 10
-251.0503736371608
 20
-79.91185152881589
 30
0.0
 10
-250.2195472369847
 20
-81.91411848920167
 30
0.0
 10
-249.755803229747
 20
-82.89603242604899
 30
0.0
 10
-248.7295220533495
 20
-84.82062028914578
 30
0.0
 10
-248.1637611570255
 20
-85.76789697308661
 30
0.0
 10
-246.3480604854283
 20
-88.49672805465225
 30
0.0
 10
-244.9776881090118
 20
-90.17730770305826
 30
0.0
 10
-242.6860574829452
 20
-92.49351757996754
 30
0.0
 10
-241.8823029204107
 20
-93.23102219045687
 30
0.0
 10
-240.1934289042044
 20
-94.63550210102876
 30
0.0
 10
-239.3187210398786
 20
-95.29256064007565
 30
0.0
 10
-236.6207143791231
 20
-97.12387387557709
 30
0.0
 10
-234.7185753839522
 20
-98.16415142614649
 30
0.0
 10
-231.7074478687114
 20
-99.4489181561041
 30
0.0
 10
-230.6724954756213
 20
-99.83241502633676
 30
0.0
 10
-228.5901660082671
 20
-100.4913935842008
 30
0.0
 10
-227.5392112361178
 20
-100.7684874696456
 30
0.0
 10
-224.3575832511081
 20
-101.4459150724477
 30
0.0
 10
-222.1990820625484
 20
-101.6972490440191
 30
0.0
 10
-219.9999999996787
 20
-101.7318181492349
 30
0.0
  0
CIRCLE
  5
97
330
1F
100
AcDbEntity
  8
0
  6
Continuous
 62
     7
370
    25
100
AcDbCircle
 10
0.0
 20
-167.5
 30
0.0
 40
17.50000000000003
  0
CIRCLE
  5
98
330
1F
100
AcDbEntity
  8
0
  6
Continuous
 62
     7
370
    25
100
AcDbCircle
 10
0.0
 20
-167.5
 30
0.0
 40
18.50000000000011
  0
SPLINE
  5
99
330
1F
100
AcDbEntity
  8
0
  6
Continuous
 62
     7
370
    25
100
AcDbSpline
210
0.0
220
0.0
230
1.0
 70
     8
 71
     3
 72
    11
 73
     7
 74
     0
 42
0.000000001
 43
0.00000001
 40
0.0
 40
0.0
 40
0.0
 40
0.0
 40
0.0006473055626669
 40
0.0006473055626669
 40
0.0006473055626669
 40
0.000647365562667
 40
0.000647365562667
 40
0.000647365562667
 40
0.000647365562667
 10
-253.2174233711181
 20
132.5000000000848
 30
0.0
 10
-253.2204415683666
 20
132.2843106726897
 30
0.0
 10
-253.2213733479829
 20
132.0685819820346
 30
0.0
 10
-253.2202373408709
 20
131.8528734416575
 30
0.0
 10
-253.2202372355722
 20
131.8528534472172
 30
0.0
 10
-253.220237130238
 20
131.8528334527771
 30
0.0
 10
-253.2202370249215
 20
131.8528134583368
 30
0.0
  0
LWPOLYLINE
  5
9B
330
1F
100
AcDbEntity
  8
0
  6
Continuous
 62
     7
370
    25
100
AcDbPolyline
 90
        6
 70
   128
 43
0.0
 10
-262.9675602102
 20
-67.5
 10
-262.9675602102
 20
-47.5
 10
-262.9675602102
 20
32.5
 10
-262.9675602102
 20
82.5942567707
 10
-263.084667015
 20
107.6425571615
 10
-262.9594821605
 20
132.6885135414
  0
SPLINE
  5
AA
330
1F
100
AcDbEntity
  8
0
  6
Continuous
 62
     7
370
    25
100
AcDbSpline
210
0.0
220
0.0
230
1.0
 70
     8
 71
     3
 72
    35
 73
    31
 74
     0
 42
0.000000001
 43
0.00000001
 40
0.0
 40
0.0
 40
0.0
 40
0.0
 40
0.0156249999999996
 40
0.0156249999999996
 40
0.0312499999999992
 40
0.0312499999999992
 40
0.062499999999999
 40
0.1249999999999981
 40
0.1249999999999981
 40
0.1874999999999973
 40
0.1874999999999973
 40
0.2499999999999964
 40
0.2499999999999964
 40
0.374999999999994
 40
0.374999999999994
 40
0.4374999999999936
 40
0.4374999999999936
 40
0.4687499999999943
 40
0.4687499999999943
 40
0.499999999999995
 40
0.499999999999995
 40
0.6249999999999961
 40
0.6249999999999961
 40
0.6874999999999972
 40
0.6874999999999972
 40
0.7499999999999983
 40
0.7499999999999983
 40
0.8749999999999992
 40
0.8749999999999992
 40
1.0
 40
1.0
 40
1.0
 40
1.0
 10
262.9675602102042
 20
-67.4999999998723
 30
0.0
 10
262.9675602102043
 20
-67.85809837385287
 30
0.0
 10
262.9689838348951
 20
-68.21642527183495
 30
0.0
 10
262.9619272996822
 20
-68.93148928610029
 30
0.0
 10
262.953963912899
 20
-69.28830935617259
 30
0.0
 10
262.916859500335
 20
-70.35664837967397
 30
0.0
 10
262.7897672908475
 20
-72.48483744595045
 30
0.0
 10
262.5077404587602
 20
-74.5881559968276
 30
0.0
 10
261.9977919473714
 20
-77.37108470488728
 30
0.0
 10
261.6753416804777
 20
-78.75171763113653
 30
0.0
 10
260.8915256668059
 20
-81.49068440339155
 30
0.0
 10
260.4271939423506
 20
-82.85544100326615
 30
0.0
 10
258.853041824531
 20
-86.83281443123579
 30
0.0
 10
257.5592690463689
 20
-89.34923647603003
 30
0.0
 10
255.257482451813
 20
-92.92410502296346
 30
0.0
 10
254.4300284454876
 20
-94.08243162588802
 30
0.0
 10
253.0944381396736
 20
-95.7676972283732
 30
0.0
 10
252.6347862999699
 20
-96.31879558617564
 30
0.0
 10
251.694198720205
 20
-97.39201185926092
 30
0.0
 10
251.2122576268355
 20
-97.91541092214352
 30
0.0
 10
248.744989411746
 20
-100.4671249821899
 30
0.0
 10
246.5881743793432
 20
-102.3009575013649
 30
0.0
 10
243.0757618159436
 20
-104.7373482549099
 30
0.0
 10
241.8523931441339
 20
-105.4998635876617
 30
0.0
 10
239.3602762401543
 20
-106.8872726110144
 30
0.0
 10
238.0877659504938
 20
-107.5157545060181
 30
0.0
 10
234.1923654092621
 20
-109.2091959965866
 30
0.0
 10
231.4914486912123
 20
-110.0863669759873
 30
0.0
 10
225.8818978070072
 20
-111.3099644505711
 30
0.0
 10
223.0443911009437
 20
-111.6449395474286
 30
0.0
 10
220.1731784018623
 20
-111.6948472633631
 30
0.0
  0
CIRCLE
  5
AB
330
1F
100
AcDbEntity
  8
0
  6
Continuous
 62
     7
370
    25
100
AcDbCircle
 10
100.0
 20
-167.5
 30
0.0
 40
18.50000000000006
  0
CIRCLE
  5
AF
330
1F
100
AcDbEntity
  8
0
  6
Continuous
 62
     7
370
    25
100
AcDbCircle
 10
100.0
 20
-167.5
 30
0.0
 40
17.50000000000003
  0
SPLINE
  5
B0
330
1F
100
AcDbEntity
  8
0
  6
Continuous
 62
     7
370
    25
100
AcDbSpline
210
0.0
220
0.0
230
1.0
 70
     8
 71
     3
 72
    34
 73
    30
 74
     0
 42
0.000000001
 43
0.00000001
 40
0.0
 40
0.0
 40
0.0
 40
0.0
 40
0.1249999999999998
 40
0.1249999999999998
 40
0.2499999999999997
 40
0.2499999999999997
 40
0.3124999999999996
 40
0.3124999999999996
 40
0.3749999999999995
 40
0.3749999999999995
 40
0.4999999999999993
 40
0.4999999999999993
 40
0.5624999999999996
 40
0.5624999999999996
 40
0.6249999999999998
 40
0.6249999999999998
 40
0.7500000000000011
 40
0.7500000000000011
 40
0.8125000000000011
 40
0.8125000000000011
 40
0.8750000000000011
 40
0.8750000000000011
 40
0.9375000000000012
 40
0.9375000000000012
 40
0.968750000000001
 40
0.968750000000001
 40
0.9843750000000006
 40
0.9843750000000006
 40
1.0
 40
1.0
 40
1.0
 40
1.0
 10
219.999999999916
 20
-101.7318181492311
 30
0.0
 10
222.1991856688586
 20
-101.697247415334
 30
0.0
 10
224.3729797452981
 20
-101.4455799714931
 30
0.0
 10
228.6718422672552
 20
-100.5243257208113
 30
0.0
 10
230.744519797296
 20
-99.86182552050738
 30
0.0
 10
233.7353141329549
 20
-98.58263528271343
 30
0.0
 10
234.7127179952936
 20
-98.10773549824468
 30
0.0
 10
236.6277913836925
 20
-97.05921961707753
 30
0.0
 10
237.5690371208079
 20
-96.48255540353021
 30
0.0
 10
240.2755934543047
 20
-94.63811855104983
 30
0.0
 10
241.9406691259287
 20
-93.24926528798954
 30
0.0
 10
244.2318345577124
 20
-90.92995751640616
 30
0.0
 10
244.9614945189859
 20
-90.11693954411362
 30
0.0
 10
246.3475681499495
 20
-88.41108238457772
 30
0.0
 10
246.9927253211418
 20
-87.53131542906718
 30
0.0
 10
248.7923643146094
 20
-84.81594266610671
 30
0.0
 10
249.8105850387468
 20
-82.9040294840032
 30
0.0
 10
251.0620398157652
 20
-79.88153547808228
 30
0.0
 10
251.4346454958518
 20
-78.84282824356985
 30
0.0
 10
252.0716282873796
 20
-76.75237128141524
 30
0.0
 10
252.337450512134
 20
-75.6979829076105
 30
0.0
 10
252.7665236090129
 20
-73.57134732881387
 30
0.0
 10
252.9303742618715
 20
-72.49920595238714
 30
0.0
 10
253.0984680057713
 20
-70.87751181834624
 30
0.0
 10
253.1414830157962
 20
-70.33468317320168
 30
0.0
 10
253.1860753157264
 20
-69.5169838582662
 30
0.0
 10
253.1976119256326
 20
-69.24384017589706
 30
0.0
 10
253.2139688027268
 20
-68.69638802386055
 30
0.0
 10
253.2187957626895
 20
-68.42071925732488
 30
0.0
 10
253.2202370249214
 20
-68.14718653112118
 30
0.0
  0
SPLINE
  5
C5
330
1F
100
AcDbEntity
  8
0
  6
Continuous
 62
     7
370
    25
100
AcDbSpline
210
0.0
220
0.0
230
1.0
 70
     8
 71
     3
 72
    32
 73
    28
 74
     0
 42
0.000000001
 43
0.00000001
 40
0.0
 40
0.0
 40
0.0
 40
0.0
 40
0.0624999999999998
 40
0.0624999999999998
 40
0.1249999999999997
 40
0.1249999999999997
 40
0.2500000000000009
 40
0.2500000000000009
 40
0.3125000000000007
 40
0.3125000000000007
 40
0.3750000000000006
 40
0.3750000000000006
 40
0.5000000000000001
 40
0.5000000000000001
 40
0.5625000000000011
 40
0.5625000000000011
 40
0.6250000000000023
 40
0.6250000000000023
 40
0.7500000000000016
 40
0.7500000000000016
 40
0.8125000000000011
 40
0.8125000000000011
 40
0.8750000000000008
 40
0.8750000000000008
 40
0.9375000000000003
 40
0.9375000000000003
 40
1.0
 40
1.0
 40
1.0
 40
1.0
 10
229.2072214614099
 20
-78.56604167657777
 30
0.0
 10
229.1583334631375
 20
-79.06663113261801
 30
0.0
 10
229.0866820337853
 20
-79.56349363729629
 30
0.0
 10
228.8985577836864
 20
-80.5494205853635
 30
0.0
 10
228.7810845573942
 20
-81.0397779843831
 30
0.0
 10
228.3649235135182
 20
-82.48020593527342
 30
0.0
 10
228.003722837004
 20
-83.40595497318402
 30
0.0
 10
227.3370230265173
 20
-84.74265277189795
 30
0.0
 10
227.0934074346521
 20
-85.18011255198195
 30
0.0
 10
226.5643430279612
 20
-86.03452356781308
 30
0.0
 10
226.2822244744976
 20
-86.44589557906195
 30
0.0
 10
225.3843927429845
 20
-87.63365832959663
 30
0.0
 10
224.7176563496405
 20
-88.3640452007047
 30
0.0
 10
223.6137952840868
 20
-89.36625672449402
 30
0.0
 10
223.2270878797493
 20
-89.68582015515211
 30
0.0
 10
222.4242549383315
 20
-90.2879072693312
 30
0.0
 10
222.0119958001429
 20
-90.567749353854
 30
0.0
 10
220.7442103123663
 20
-91.34677406886647
 30
0.0
 10
219.8581552464695
 20
-91.78629841899432
 30
0.0
 10
218.4678374435489
 20
-92.32628448949603
 30
0.0
 10
217.9931259425173
 20
-92.48704441559629
 30
0.0
 10
217.0275434068537
 20
-92.76504216441259
 30
0.0
 10
216.5412769386631
 20
-92.88104889346586
 30
0.0
 10
215.5619695038821
 20
-93.06804152636565
 30
0.0
 10
215.0689536480467
 20
-93.13957295103168
 30
0.0
 10
214.0763974218759
 20
-93.23777712339813
 30
0.0
 10
213.5753002327538
 20
-93.26259811868458
 30
0.0
 10
213.0730965701969
 20
-93.26412876678857
 30
0.0
  0
SPLINE
  5
C6
330
1F
100
AcDbEntity
  8
0
  6
Continuous
 62
     7
370
    25
100
AcDbSpline
210
0.0
220
0.0
230
1.0
 70
     8
 71
     3
 72
     8
 73
     4
 74
     0
 42
0.000000001
 43
0.00000001
 40
0.0
 40
0.0
 40
0.0
 40
0.0
 40
1.0
 40
1.0
 40
1.0
 40
1.0
 10
229.2797629750784
 20
-76.85281345890681
 30
0.0
 10
229.2858089549989
 20
-77.42456251890535
 30
0.0
 10
229.262857778974
 20
-77.9963526950345
 30
0.0
 10
229.2072214614099
 20
-78.56604167657777
 30
0.0
  0
SPLINE
  5
C9
330
1F
100
AcDbEntity
  8
0
  6
Continuous
 62
     7
370
    25
100
AcDbSpline
210
0.0
220
0.0
230
1.0
 70
     8
 71
     3
 72
    34
 73
    30
 74
     0
 42
0.000000001
 43
0.00000001
 40
0.0
 40
0.0
 40
0.0
 40
0.0
 40
0.0625000000000017
 40
0.0625000000000017
 40
0.1250000000000034
 40
0.1250000000000034
 40
0.2500000000000036
 40
0.2500000000000036
 40
0.3125000000000022
 40
0.3125000000000022
 40
0.3750000000000008
 40
0.3750000000000008
 40
0.4374999999999994
 40
0.4374999999999994
 40
0.499999999999998
 40
0.499999999999998
 40
0.6249999999999998
 40
0.6249999999999998
 40
0.6874999999999998
 40
0.6874999999999998
 40
0.7499999999999998
 40
0.7499999999999998
 40
0.8124999999999999
 40
0.8124999999999999
 40
0.8749999999999999
 40
0.8749999999999999
 40
0.9375
 40
0.9375
 40
1.0
 40
1.0
 40
1.0
 40
1.0
 10
212.9734152294646
 20
139.3936609374092
 30
0.0
 10
213.5072997988749
 20
139.3891176407495
 30
0.0
 10
214.0410918427188
 20
139.3581854713325
 30
0.0
 10
215.1038666004814
 20
139.2411651069417
 30
0.0
 10
215.629880617195
 20
139.1578340166384
 30
0.0
 10
217.184770696966
 20
138.8345424713614
 30
0.0
 10
218.193459162738
 20
138.5206776940473
 30
0.0
 10
219.6653233508146
 20
137.9049274636513
 30
0.0
 10
220.1501300492287
 20
137.6740952021084
 30
0.0
 10
221.0858995948788
 20
137.1718379868241
 30
0.0
 10
221.5394239971405
 20
136.8997575789493
 30
0.0
 10
222.4178870312918
 20
136.3138843843907
 30
0.0
 10
222.8427957678008
 20
136.0000482813591
 30
0.0
 10
223.6634591889776
 20
135.3298301939887
 30
0.0
 10
224.0608887495158
 20
134.9718479783896
 30
0.0
 10
225.1958083695898
 20
133.8428185593018
 30
0.0
 10
225.8674537126236
 20
133.0276562233457
 30
0.0
 10
226.7527335867467
 20
131.7150109046432
 30
0.0
 10
227.0273250473553
 20
131.26237526057
 30
0.0
 10
227.5350735287356
 20
130.3266054289718
 30
0.0
 10
227.7676753137444
 20
129.8434267684748
 30
0.0
 10
228.1829192011216
 20
128.8620546288241
 30
0.0
 10
228.3668202751592
 20
128.3619734429858
 30
0.0
 10
228.6870715928968
 20
127.343020569044
 30
0.0
 10
228.8220010844396
 20
126.8264175399808
 30
0.0
 10
229.0401045431582
 20
125.7882925740064
 30
0.0
 10
229.1236307186076
 20
125.2653309572708
 30
0.0
 10
229.2417759871417
 20
124.212240360112
 30
0.0
 10
229.274120176621
 20
123.680802030409
 30
0.0
 10
229.2797629750784
 20
123.1471865316911
 30
0.0
  0
SPLINE
  5
CD
330
1F
100
AcDbEntity
  8
0
  6
Continuous
 62
     7
370
    25
100
AcDbSpline
210
0.0
220
0.0
230
1.0
 70
     8
 71
     3
 72
    36
 73
    32
 74
     0
 42
0.000000001
 43
0.00000001
 40
0.0
 40
0.0
 40
0.0
 40
0.0
 40
0.0312500000000005
 40
0.0312500000000005
 40
0.062500000000001
 40
0.062500000000001
 40
0.1250000000000004
 40
0.1250000000000004
 40
0.1874999999999998
 40
0.1874999999999998
 40
0.2499999999999992
 40
0.2499999999999992
 40
0.3124999999999986
 40
0.3124999999999986
 40
0.374999999999998
 40
0.374999999999998
 40
0.4999999999999977
 40
0.4999999999999977
 40
0.5624999999999987
 40
0.5624999999999987
 40
0.6249999999999997
 40
0.6249999999999997
 40
0.7500000000000007
 40
0.7500000000000007
 40
0.8750000000000018
 40
0.8750000000000018
 40
0.9375000000000023
 40
0.9375000000000023
 40
0.9687500000000011
 40
0.9687500000000011
 40
1.0
 40
1.0
 40
1.0
 40
1.0
 10
-229.2797629750785
 20
123.1471865316911
 30
0.0
 10
-229.2769536311255
 20
123.4128542637276
 30
0.0
 10
-229.2675745068534
 20
123.6815572597048
 30
0.0
 10
-229.2351194396839
 20
124.2132601992777
 30
0.0
 10
-229.2119955193469
 20
124.4782102807738
 30
0.0
 10
-229.1229259195115
 20
125.2705605920073
 30
0.0
 10
-229.038891706097
 20
125.7956702411941
 30
0.0
 10
-228.819013620983
 20
126.8390013896278
 30
0.0
 10
-228.6826790668712
 20
127.3584329771747
 30
0.0
 10
-228.3630912229608
 20
128.3723646662633
 30
0.0
 10
-228.1799872624587
 20
128.8692972139143
 30
0.0
 10
-227.7676160675595
 20
129.8432511578944
 30
0.0
 10
-227.5382235488653
 20
130.32022474091
 30
0.0
 10
-227.0322580093473
 20
131.2538500688015
 30
0.0
 10
-226.754226881039
 20
131.7129611107194
 30
0.0
 10
-225.8597139526616
 20
133.0388022438467
 30
0.0
 10
-225.1864402979726
 20
133.8523200753137
 30
0.0
 10
-224.0634588917419
 20
134.9691998856226
 30
0.0
 10
-223.6701460679622
 20
135.3241310427601
 30
0.0
 10
-222.8448379812259
 20
135.9986160664268
 30
0.0
 10
-222.4126106889939
 20
136.3177581087862
 30
0.0
 10
-221.0876724963562
 20
137.2003252275919
 30
0.0
 10
-220.1578230327656
 20
137.6983468718801
 30
0.0
 10
-218.206108352951
 20
138.5159266411185
 30
0.0
 10
-217.1759215258731
 20
138.8371247065148
 30
0.0
 10
-215.6177305002135
 20
139.1599831440965
 30
0.0
 10
-215.0943781904036
 20
139.2423832092671
 30
0.0
 10
-214.3036813708474
 20
139.3291842028814
 30
0.0
 10
-214.0391063005461
 20
139.3515679131476
 30
0.0
 10
-213.5078274101938
 20
139.382653417013
 30
0.0
 10
-213.2392169219882
 20
139.3913989952618
 30
0.0
 10
-212.9734152294646
 20
139.3936609374092
 30
0.0
  0
SPLINE
  5
D0
330
1F
100
AcDbEntity
  8
0
  6
Continuous
 62
     7
370
    25
100
AcDbSpline
210
0.0
220
0.0
230
1.0
 70
     8
 71
     3
 72
     8
 73
     4
 74
     0
 42
0.000000001
 43
0.00000001
 40
0.0
 40
0.0
 40
0.0
 40
0.0
 40
1.0
 40
1.0
 40
1.0
 40
1.0
 10
-229.2072214617211
 20
-78.5660416733921
 30
0.0
 10
-229.2628577790672
 20
-77.99635269286978
 30
0.0
 10
-229.2858089553347
 20
-77.42456251773424
 30
0.0
 10
-229.2797629750785
 20
-76.85281345890675
 30
0.0
  0
SPLINE
  5
D1
330
1F
100
AcDbEntity
  8
0
  6
Continuous
 62
     7
370
    25
100
AcDbSpline
210
0.0
220
0.0
230
1.0
 70
     8
 71
     3
 72
    32
 73
    28
 74
     0
 42
0.000000001
 43
0.00000001
 40
0.0
 40
0.0
 40
0.0
 40
0.0
 40
0.0624999999999986
 40
0.0624999999999986
 40
0.1249999999999973
 40
0.1249999999999973
 40
0.2499999999999979
 40
0.2499999999999979
 40
0.3124999999999986
 40
0.3124999999999986
 40
0.3749999999999992
 40
0.3749999999999992
 40
0.4999999999999994
 40
0.4999999999999994
 40
0.5624999999999996
 40
0.5624999999999996
 40
0.6249999999999996
 40
0.6249999999999996
 40
0.7499999999999997
 40
0.7499999999999997
 40
0.8124999999999998
 40
0.8124999999999998
 40
0.8749999999999999
 40
0.8749999999999999
 40
0.9374999999999999
 40
0.9374999999999999
 40
1.0
 40
1.0
 40
1.0
 40
1.0
 10
-213.073096570197
 20
-93.26412876678859
 30
0.0
 10
-213.575617715894
 20
-93.26259715105789
 30
0.0
 10
-214.0783233308755
 20
-93.23777862126646
 30
0.0
 10
-215.0789814603365
 20
-93.13838643586209
 30
0.0
 10
-215.5767450340134
 20
-93.06568801258787
 30
0.0
 10
-217.0464752793274
 20
-92.78362700411152
 30
0.0
 10
-218.0007389358103
 20
-92.50763248881908
 30
0.0
 10
-219.3950554724995
 20
-91.96619615041169
 30
0.0
 10
-219.8555122576753
 20
-91.76309154808986
 30
0.0
 10
-220.753386930982
 20
-91.3165868397057
 30
0.0
 10
-221.1890426100673
 20
-91.07434904162797
 30
0.0
 10
-222.4572480917757
 20
-90.29224950039901
 30
0.0
 10
-223.2508650632737
 20
-89.69677780061464
 30
0.0
 10
-224.3605246453315
 20
-88.68777538087997
 30
0.0
 10
-224.7175368885594
 20
-88.33084677304838
 30
0.0
 10
-225.388964805332
 20
-87.59306747856765
 30
0.0
 10
-225.7054391491402
 20
-87.21060315629036
 30
0.0
 10
-226.5987562222536
 20
-86.02364324266874
 30
0.0
 10
-227.119992299543
 20
-85.17988615067884
 30
0.0
 10
-227.7891716972941
 20
-83.83504515928223
 30
0.0
 10
-227.9925931452093
 20
-83.37397374065401
 30
0.0
 10
-228.3531454359351
 20
-82.4445384131666
 30
0.0
 10
-228.5119368220654
 20
-81.97389006003499
 30
0.0
 10
-228.7857983866852
 20
-81.02080896280965
 30
0.0
 10
-228.9008908050221
 20
-80.53830138114404
 30
0.0
 10
-229.0869000995312
 20
-79.56122775030731
 30
0.0
 10
-229.1583305509766
 20
-79.0666609528037
 30
0.0
 10
-229.2072214617212
 20
-78.56604167339205
 30
0.0
  0
SPLINE
  5
D4
330
1F
100
AcDbEntity
  8
0
  6
Continuous
 62
     7
370
    25
100
AcDbSpline
210
0.0
220
0.0
230
1.0
 70
     8
 71
     3
 72
    16
 73
    12
 74
     0
 42
0.000000001
 43
0.00000001
 40
0.0
 40
0.0
 40
0.0
 40
0.0
 40
0.0179880761985463
 40
0.1541790146069118
 40
0.2900936992484877
 40
0.4255621017588641
 40
0.5606118141397661
 40
0.6954538417839137
 40
0.8303881535215446
 40
0.9656734575262236
 40
1.0
 40
1.0
 40
1.0
 40
1.0
 10
-10.96298719125342
 20
-100.1544141878297
 30
0.0
 10
-10.93708770213537
 20
-100.1403412147254
 30
0.0
 10
-10.71509855404814
 20
-100.0197192481598
 30
0.0
 10
-9.11938770771809
 20
-99.81895846917689
 30
0.0
 10
-6.279777878567923
 20
-99.59743539663341
 30
0.0
 10
-2.616150142998327
 20
-99.47174017747942
 30
0.0
 10
1.29569129875368
 20
-99.45312853543459
 30
0.0
 10
5.08985721280188
 20
-99.54284783046097
 30
0.0
 10
8.213567028716815
 20
-99.73374710381539
 30
0.0
 10
10.14039624817317
 20
-99.92781717284518
 30
0.0
 10
10.54252652409315
 20
-100.0580619701998
 30
0.0
 10
10.62391082762475
 20
-100.0844212939217
 30
0.0
  0
SPLINE
  5
D5
330
1F
100
AcDbEntity
  8
0
  6
Continuous
 62
     7
370
    25
100
AcDbSpline
210
0.0
220
0.0
230
1.0
 70
     8
 71
     3
 72
    16
 73
    12
 74
     0
 42
0.000000001
 43
0.00000001
 40
0.0
 40
0.0
 40
0.0
 40
0.0
 40
0.094303753034518
 40
0.2177819036609204
 40
0.3410228937658224
 40
0.4638464223341918
 40
0.5863346863084898
 40
0.7087160987955705
 40
0.8312640613287475
 40
0.9541790165071655
 40
1.0
 40
1.0
 40
1.0
 40
1.0
 10
11.20258544486552
 20
-100.5912880993504
 30
0.0
 10
10.99994657414591
 20
-100.67230856695
 30
0.0
 10
10.53197920698436
 20
-100.8594144996572
 30
0.0
 10
8.34982250837582
 20
-101.10648002008
 30
0.0
 10
5.188771483219896
 20
-101.299804823942
 30
0.0
 10
1.406270227632722
 20
-101.3931290775794
 30
0.0
 10
-2.513167364846179
 20
-101.3773971436087
 30
0.0
 10
-6.156767226700162
 20
-101.254842677201
 30
0.0
 10
-9.079662132944707
 20
-101.0387685956512
 30
0.0
 10
-10.67709583032206
 20
-100.8145242136021
 30
0.0
 10
-11.0765570567058
 20
-100.671198124805
 30
0.0
 10
-11.18503250304103
 20
-100.6322772973833
 30
0.0
  0
SPLINE
  5
DE
330
1F
100
AcDbEntity
  8
0
  6
Continuous
 62
     7
370
    25
100
AcDbSpline
210
0.0
220
0.0
230
1.0
 70
     8
 71
     3
 72
    26
 73
    22
 74
     0
 42
0.000000001
 43
0.00000001
 40
0.0
 40
0.0
 40
0.0
 40
0.0
 40
0.0624999999999969
 40
0.0624999999999969
 40
0.1249999999999938
 40
0.1249999999999938
 40
0.2499999999999964
 40
0.2499999999999964
 40
0.3749999999999991
 40
0.3749999999999991
 40
0.4374999999999976
 40
0.4374999999999976
 40
0.4999999999999962
 40
0.4999999999999962
 40
0.6249999999999971
 40
0.6249999999999971
 40
0.7499999999999981
 40
0.7499999999999981
 40
0.874999999999999
 40
0.874999999999999
 40
1.0
 40
1.0
 40
1.0
 40
1.0
 10
212.4999999986137
 20
-83.29867118433977
 30
0.0
 10
212.7094688166561
 20
-83.29867118433977
 30
0.0
 10
212.919102004379
 20
-83.30015351020569
 30
0.0
 10
213.3376613271363
 20
-83.29674178834912
 30
0.0
 10
213.5457268720634
 20
-83.28408672913883
 30
0.0
 10
214.1661542328608
 20
-83.21212931941386
 30
0.0
 10
214.5779935648395
 20
-83.12664800183337
 30
0.0
 10
215.3823756400141
 20
-82.87499696871062
 30
0.0
 10
215.7675028377769
 20
-82.71498170996941
 30
0.0
 10
216.3190439109776
 20
-82.42256426635807
 30
0.0
 10
216.4986067114153
 20
-82.31650775516586
 30
0.0
 10
216.8485710699776
 20
-82.08603892799817
 30
0.0
 10
217.0199537299815
 20
-81.96070848252172
 30
0.0
 10
217.5096267233922
 20
-81.56269740261608
 30
0.0
 10
217.8042606310178
 20
-81.26822788529603
 30
0.0
 10
218.3312280334294
 20
-80.62224814352133
 30
0.0
 10
218.5654855217081
 20
-80.26658086178348
 30
0.0
 10
218.9581447981141
 20
-79.5255370185921
 30
0.0
 10
219.1176174618983
 20
-79.13929770185777
 30
0.0
 10
219.3662453725437
 20
-78.3368327050319
 30
0.0
 10
219.451711878597
 20
-77.92042239722248
 30
0.0
 10
219.4978723153537
 20
-77.49999999999979
 30
0.0
  0
SPLINE
  5
E1
330
1F
100
AcDbEntity
  8
0
  6
Continuous
 62
     7
370
    25
100
AcDbSpline
210
0.0
220
0.0
230
1.0
 70
     8
 71
     3
 72
    28
 73
    24
 74
     0
 42
0.000000001
 43
0.00000001
 40
0.0
 40
0.0
 40
0.0
 40
0.0
 40
0.1249999999999941
 40
0.1249999999999941
 40
0.1874999999999911
 40
0.1874999999999911
 40
0.2499999999999881
 40
0.2499999999999881
 40
0.3749999999999861
 40
0.3749999999999861
 40
0.499999999999984
 40
0.499999999999984
 40
0.6249999999999819
 40
0.6249999999999819
 40
0.6874999999999809
 40
0.6874999999999809
 40
0.7499999999999798
 40
0.7499999999999798
 40
0.8749999999999856
 40
0.8749999999999856
 40
0.9374999999999929
 40
0.9374999999999929
 40
1.0
 40
1.0
 40
1.0
 40
1.0
 10
-219.49787231549
 20
-77.4999999987592
 30
0.0
 10
-219.4517626609833
 20
-77.91995987957044
 30
0.0
 10
-219.367871303369
 20
-78.32915000283649
 30
0.0
 10
-219.1839486116
 20
-78.92637774395921
 30
0.0
 10
-219.1135058646251
 20
-79.12284965365124
 30
0.0
 10
-218.9539107802228
 20
-79.51046026313826
 30
0.0
 10
-218.8640409661072
 20
-79.70251030407496
 30
0.0
 10
-218.5699359961286
 20
-80.25938983629133
 30
0.0
 10
-218.3416095936669
 20
-80.60756405256232
 30
0.0
 10
-217.8165857348386
 20
-81.25499440573564
 30
0.0
 10
-217.5156246583768
 20
-81.556891699881
 30
0.0
 10
-216.867177218117
 20
-82.08579398539497
 30
0.0
 10
-216.5191297174981
 20
-82.31533824327182
 30
0.0
 10
-215.9640630405123
 20
-82.61130934167205
 30
0.0
 10
-215.7724530826713
 20
-82.70203664764749
 30
0.0
 10
-215.3847141066251
 20
-82.86387640070315
 30
0.0
 10
-215.1881943181945
 20
-82.93543388787027
 30
0.0
 10
-214.5910126069631
 20
-83.1231798280245
 30
0.0
 10
-214.1819379763607
 20
-83.20964974579435
 30
0.0
 10
-213.5525456180406
 20
-83.28360910587261
 30
0.0
 10
-213.3423235313113
 20
-83.29659464754978
 30
0.0
 10
-212.9212432153526
 20
-83.30024344724376
 30
0.0
 10
-212.7105970800376
 20
-83.29867118433981
 30
0.0
 10
-212.5
 20
-83.29867118433978
 30
0.0
  0
SPLINE
  5
E5
330
1F
100
AcDbEntity
  8
0
  6
Continuous
 62
     7
370
    25
100
AcDbSpline
210
0.0
220
0.0
230
1.0
 70
     8
 71
     3
 72
    32
 73
    28
 74
     0
 42
0.000000001
 43
0.00000001
 40
0.0
 40
0.0
 40
0.0
 40
0.0
 40
0.0312500000000006
 40
0.0312500000000006
 40
0.0625000000000012
 40
0.0625000000000012
 40
0.1250000000000024
 40
0.1250000000000024
 40
0.1875000000000036
 40
0.1875000000000036
 40
0.2500000000000047
 40
0.2500000000000047
 40
0.3750000000000097
 40
0.3750000000000097
 40
0.4375000000000072
 40
0.4375000000000072
 40
0.5000000000000046
 40
0.5000000000000046
 40
0.6250000000000046
 40
0.6250000000000046
 40
0.7500000000000046
 40
0.7500000000000046
 40
0.8750000000000047
 40
0.8750000000000047
 40
0.9375000000000023
 40
0.9375000000000023
 40
1.0
 40
1.0
 40
1.0
 40
1.0
 10
-212.4999999988006
 20
129.6922359359559
 30
0.0
 10
-212.6189229010237
 20
129.6922359359559
 30
0.0
 10
-212.7378458032469
 20
129.6922359359559
 30
0.0
 10
-212.9756916076931
 20
129.6922359359559
 30
0.0
 10
-213.094624792055
 20
129.6923204687495
 30
0.0
 10
-213.4497784836113
 20
129.6790429071446
 30
0.0
 10
-213.6846400400904
 20
129.6545084393766
 30
0.0
 10
-214.1516478385729
 20
129.5831160253038
 30
0.0
 10
-214.3836610648461
 20
129.5351645136538
 30
0.0
 10
-214.8445233481452
 20
129.4132478315521
 30
0.0
 10
-215.073366904286
 20
129.3389497670577
 30
0.0
 10
-215.7392947763475
 20
129.0856475933753
 30
0.0
 10
-216.160925782251
 20
128.8730784893714
 30
0.0
 10
-216.759090934636
 20
128.4871070843389
 30
0.0
 10
-216.9538459427311
 20
128.3459730250403
 30
0.0
 10
-217.324062257323
 20
128.0444226104984
 30
0.0
 10
-217.4992259971929
 20
127.8845981603636
 30
0.0
 10
-217.9949849087927
 20
127.3780689388636
 30
0.0
 10
-218.286884059837
 20
127.0036741211367
 30
0.0
 10
-218.7894000531988
 20
126.1874028175607
 30
0.0
 10
-218.9927659513102
 20
125.7590004747048
 30
0.0
 10
-219.3099463032739
 20
124.8642999458369
 30
0.0
 10
-219.4219851281283
 20
124.3939403525757
 30
0.0
 10
-219.5129124394051
 20
123.6880262617227
 30
0.0
 10
-219.5297834900078
 20
123.4515507037431
 30
0.0
 10
-219.5344483354142
 20
122.9760660790092
 30
0.0
 10
-219.5324397897958
 20
122.7379455369568
 30
0.0
 10
-219.5324397897957
 20
122.4999999999998
 30
0.0
  0
SPLINE
  5
E8
330
1F
100
AcDbEntity
  8
0
  6
Continuous
 62
     7
370
    25
100
AcDbSpline
210
0.0
220
0.0
230
1.0
 70
     8
 71
     3
 72
    34
 73
    30
 74
     0
 42
0.000000001
 43
0.00000001
 40
0.0
 40
0.0
 40
0.0
 40
0.0
 40
0.062499999999999
 40
0.062499999999999
 40
0.124999999999998
 40
0.124999999999998
 40
0.187499999999997
 40
0.187499999999997
 40
0.249999999999996
 40
0.249999999999996
 40
0.3750000000000033
 40
0.3750000000000033
 40
0.5000000000000105
 40
0.5000000000000105
 40
0.562500000000009
 40
0.562500000000009
 40
0.6250000000000074
 40
0.6250000000000074
 40
0.6875000000000059
 40
0.6875000000000059
 40
0.7500000000000043
 40
0.7500000000000043
 40
0.8749999999999987
 40
0.8749999999999987
 40
0.9374999999999959
 40
0.9374999999999959
 40
0.9687499999999979
 40
0.9687499999999979
 40
1.0
 40
1.0
 40
1.0
 40
1.0
 10
219.5324397897956
 20
122.4999999987641
 30
0.0
 10
219.5324397897956
 20
122.7370892490314
 30
0.0
 10
219.5343723124015
 20
122.9743825944518
 30
0.0
 10
219.5299089840637
 20
123.4480897195538
 30
0.0
 10
219.5133069502673
 20
123.6834256166576
 30
0.0
 10
219.4534346719419
 20
124.1512809612519
 30
0.0
 10
219.4119114879805
 20
124.3839849171106
 30
0.0
 10
219.302321470033
 20
124.8465895341658
 30
0.0
 10
219.2341575966741
 20
125.0770346200445
 30
0.0
 10
218.9959427646976
 20
125.7520728631635
 30
0.0
 10
218.7888158315201
 20
126.1876248567004
 30
0.0
 10
218.2930039600529
 20
126.9944520317536
 30
0.0
 10
218.0039491634255
 20
127.3679145288648
 30
0.0
 10
217.5042300416746
 20
127.8799690786567
 30
0.0
 10
217.3268685665875
 20
128.0418762640131
 30
0.0
 10
216.9593980266756
 20
128.3417053945125
 30
0.0
 10
216.7682117012602
 20
128.4806920614993
 30
0.0
 10
216.371533855202
 20
128.7376850499398
 30
0.0
 10
216.1661369419275
 20
128.8558301248525
 30
0.0
 10
215.7411655842419
 20
129.0713271643914
 30
0.0
 10
215.5214723908421
 20
129.1683296065835
 30
0.0
 10
214.8561870833786
 20
129.4218987223376
 30
0.0
 10
214.399660480017
 20
129.5444234549904
 30
0.0
 10
213.6939763441587
 20
129.6534568165864
 30
0.0
 10
213.4550271160444
 20
129.6787061644361
 30
0.0
 10
213.0971564263012
 20
129.6922945758396
 30
0.0
 10
212.9777236834065
 20
129.6922359359558
 30
0.0
 10
212.7388618404892
 20
129.6922359359558
 30
0.0
 10
212.6194309190305
 20
129.6922359359558
 30
0.0
 10
212.499999997572
 20
129.6922359359559
 30
0.0
  0
SPLINE
  5
EA
330
1F
100
AcDbEntity
  8
0
  6
Continuous
 62
     7
370
    25
100
AcDbSpline
210
0.0
220
0.0
230
1.0
 70
     8
 71
     3
 72
    19
 73
    15
 74
     0
 42
0.000000001
 43
0.00000001
 40
0.0
 40
0.0
 40
0.0
 40
0.0
 40
0.5000000000000001
 40
0.7500000000000002
 40
0.8750000000000002
 40
0.9375000000000002
 40
0.9687500000000002
 40
0.9843750000000003
 40
0.9921875000000003
 40
0.9960937500000003
 40
0.9960937500000003
 40
0.9980468750000002
 40
0.9980468750000002
 40
1.0
 40
1.0
 40
1.0
 40
1.0
 10
-219.5324397897957
 20
122.4999999999998
 30
0.0
 10
-219.5324397897958
 20
89.16666467535617
 30
0.0
 10
-219.5324397897956
 20
39.16666168839075
 30
0.0
 10
-219.5324397897957
 20
-19.16667512973567
 30
0.0
 10
-219.5324397897957
 20
-48.33334353879874
 30
0.0
 10
-219.5324397897957
 20
-62.9166777433303
 30
0.0
 10
-219.5324397897957
 20
-70.2083448455962
 30
0.0
 10
-219.5324397897957
 20
-73.8541783967294
 30
0.0
 10
-219.5324397897957
 20
-75.67709517229541
 30
0.0
 10
-219.5324397897957
 20
-76.45834521896698
 30
0.0
 10
-219.5324397897957
 20
-76.84897024230263
 30
0.0
 10
-219.5326830411133
 20
-76.9791786675002
 30
0.0
 10
-219.522085022892
 20
-77.23959168625674
 30
0.0
 10
-219.5121680471493
 20
-77.36979659932067
 30
0.0
 10
-219.49787231549
 20
-77.4999999987592
 30
0.0
  0
SPLINE
  5
EB
330
1F
100
AcDbEntity
  8
0
  6
Continuous
 62
     7
370
    25
100
AcDbSpline
210
0.0
220
0.0
230
1.0
 70
     8
 71
     3
 72
    19
 73
    15
 74
     0
 42
0.000000001
 43
0.00000001
 40
0.0
 40
0.0
 40
0.0
 40
0.0
 40
0.0019531249999999
 40
0.0019531249999999
 40
0.0039062499999998
 40
0.0039062499999998
 40
0.0078124999999998
 40
0.0156249999999999
 40
0.0312499999999997
 40
0.0624999999999996
 40
0.1249999999999997
 40
0.2499999999999998
 40
0.4999999999999998
 40
1.0
 40
1.0
 40
1.0
 40
1.0
 10
219.4978723153537
 20
-77.49999999999977
 30
0.0
 10
219.5121635213366
 20
-77.36983781998846
 30
0.0
 10
219.5220802661179
 20
-77.23966149041333
 30
0.0
 10
219.5326808739455
 20
-76.97927896672357
 30
0.0
 10
219.5324397897957
 20
-76.84906978078892
 30
0.0
 10
219.5324397897956
 20
-76.45844456240965
 30
0.0
 10
219.5324397897957
 20
-75.67719412565124
 30
0.0
 10
219.5324397897957
 20
-73.85427643988125
 30
0.0
 10
219.5324397897957
 20
-70.20844106834133
 30
0.0
 10
219.5324397897955
 20
-62.91677032526163
 30
0.0
 10
219.5324397897956
 20
-48.3334288391024
 30
0.0
 10
219.5324397897958
 20
-19.16674586678379
 30
0.0
 10
219.5324397897955
 20
39.16662007785362
 30
0.0
 10
219.5324397897955
 20
89.16664803039984
 30
0.0
 10
219.5324397897956
 20
122.4999999987641
 30
0.0
  0
CIRCLE
  5
ED
330
1F
100
AcDbEntity
  8
0
  6
Continuous
 62
     7
370
    25
100
AcDbCircle
 10
0.0
 20
-32.5
 30
0.0
 40
34.82842712474629
  0
CIRCLE
  5
EE
330
1F
100
AcDbEntity
  8
0
  6
Continuous
 62
     7
370
    25
100
AcDbCircle
 10
0.0
 20
-32.5
 30
0.0
 40
33.41421356237318
  0
CIRCLE
  5
EF
330
1F
100
AcDbEntity
  8
0
  6
Continuous
 62
     7
370
    25
100
AcDbCircle
 10
0.0
 20
-32.5
 30
0.0
 40
24.00000000000001
  0
SPLINE
  5
F1
330
1F
100
AcDbEntity
  8
0
  6
Continuous
 62
     8
370
    25
100
AcDbSpline
210
0.0
220
0.0
230
1.0
 70
     8
 71
     3
 72
    10
 73
     6
 74
     0
 42
0.000000001
 43
0.00000001
 40
0.0
 40
0.0
 40
0.0
 40
0.0
 40
0.4631603908212427
 40
0.8532447945404812
 40
1.0
 40
1.0
 40
1.0
 40
1.0
 10
10.62391082762475
 20
-100.0844212939217
 30
0.0
 10
10.94041494060894
 20
-100.160171370332
 30
0.0
 10
11.52348614489644
 20
-100.2997199147758
 30
0.0
 10
11.622244848392
 20
-100.4779894758168
 30
0.0
 10
11.29267858288931
 20
-100.5669649734008
 30
0.0
 10
11.20258544486552
 20
-100.5912880993504
 30
0.0
  0
SPLINE
  5
F2
330
1F
100
AcDbEntity
  8
0
  6
Continuous
 62
     8
370
    25
100
AcDbSpline
210
0.0
220
0.0
230
1.0
 70
     8
 71
     3
 72
     9
 73
     5
 74
     0
 42
0.000000001
 43
0.00000001
 40
0.0
 40
0.0
 40
0.0
 40
0.0
 40
0.2260798859523728
 40
1.0
 40
1.0
 40
1.0
 40
1.0
 10
-11.18503250304103
 20
-100.6322772973833
 30
0.0
 10
-11.23898746053017
 20
-100.6164060432933
 30
0.0
 10
-11.47764185148518
 20
-100.546204070114
 30
0.0
 10
-11.49004316011968
 20
-100.4728120845125
 30
0.0
 10
-11.49964078231243
 20
-100.4160125506456
 30
0.0
  0
SPLINE
  5
F3
330
1F
100
AcDbEntity
  8
0
  6
Continuous
 62
     8
370
    25
100
AcDbSpline
210
0.0
220
0.0
230
1.0
 70
     8
 71
     3
 72
    14
 73
    10
 74
     0
 42
0.000000001
 43
0.00000001
 40
0.0
 40
0.0
 40
0.0
 40
0.0
 40
0.1373231876740757
 40
0.2917376308771515
 40
0.4460190403834768
 40
0.6005302780966097
 40
0.7555360124764429
 40
0.9110845097593826
 40
1.0
 40
1.0
 40
1.0
 40
1.0
 10
9.221118762354958
 20
-100.9731982892387
 30
0.0
 10
8.671161872556006
 20
-100.8917144514111
 30
0.0
 10
7.502800412033323
 20
-100.718605290422
 30
0.0
 10
4.615516019370231
 20
-100.5406356170586
 30
0.0
 10
1.194929074820529
 20
-100.4494630313083
 30
0.0
 10
-2.404052609522495
 20
-100.4678964874613
 30
0.0
 10
-5.684818093181965
 20
-100.5957852629295
 30
0.0
 10
-8.103519837060878
 20
-100.7781689995746
 30
0.0
 10
-8.908829337189017
 20
-100.9313944599438
 30
0.0
 10
-9.201733374813044
 20
-100.9871250281313
 30
0.0
  0
LINE
  5
F4
330
1F
100
AcDbEntity
  8
0
  6
Continuous
 62
     7
370
    25
100
AcDbLine
 10
498.2970785305
 20
233.2847443432
 30
0.0
 11
-498.2970785305
 21
233.2847443432
 31
0.0
  0
LINE
  5
F5
330
1F
100
AcDbEntity
  8
0
  6
Continuous
 62
     7
370
    25
100
AcDbLine
 10
-508.2847443432
 20
223.2970785305
 30
0.0
 11
-508.2847443432
 21
-230.5
 31
0.0
  0
LINE
  5
F6
330
1F
100
AcDbEntity
  8
0
  6
Continuous
 62
     7
370
    25
100
AcDbLine
 10
508.2847443432
 20
-230.5
 30
0.0
 11
508.2847443432
 21
223.2970785305
 31
0.0
  0
LINE
  5
F7
330
1F
100
AcDbEntity
  8
0
  6
Continuous
 62
     7
370
    25
100
AcDbLine
 10
253.2202370249
 20
-68.1471865311
 30
0.0
 11
253.2202370249
 21
131.8528134583
 31
0.0
  0
LINE
  5
F8
330
1F
100
AcDbEntity
  8
0
  6
Continuous
 62
     7
370
    25
100
AcDbLine
 10
253.2174233711
 20
132.5
 30
0.0
 11
262.9594821605
 21
132.6885135413
 31
0.0
  0
LINE
  5
F9
330
1F
100
AcDbEntity
  8
0
  6
Continuous
 62
     7
370
    25
100
AcDbLine
 10
262.9675602102
 20
-67.4999999999
 30
0.0
 11
253.2202370249
 21
-67.4999999999
 31
0.0
  0
LINE
  5
FA
330
1F
100
AcDbEntity
  8
0
  6
Continuous
 62
     7
370
    25
100
AcDbLine
 10
219.9999999946
 20
165.6050145072
 30
0.0
 11
220.1374976732
 21
175.3034364872
 31
0.0
  0
LINE
  5
FB
330
1F
100
AcDbEntity
  8
0
  6
Continuous
 62
     7
370
    25
100
AcDbLine
 10
-253.2174233711
 20
132.5000000001
 30
0.0
 11
-262.9594821605
 21
132.6885135414
 31
0.0
  0
LINE
  5
FC
330
1F
100
AcDbEntity
  8
0
  6
Continuous
 62
     7
370
    25
100
AcDbLine
 10
-219.9999999999
 20
165.6050145071
 30
0.0
 11
-220.13749768
 21
175.3034364871
 31
0.0
  0
LINE
  5
FD
330
1F
100
AcDbEntity
  8
0
  6
Continuous
 62
     7
370
    25
100
AcDbLine
 10
219.5265847603
 20
165.6063390626
 30
0.0
 11
-219.5265847603
 21
165.6063390626
 31
0.0
  0
LINE
  5
FE
330
1F
100
AcDbEntity
  8
0
  6
Continuous
 62
     7
370
    25
100
AcDbLine
 10
220.1731784019
 20
-111.6948472634
 30
0.0
 11
219.9999999999
 21
-101.7318181492
 31
0.0
  0
LINE
  5
FF
330
1F
100
AcDbEntity
  8
0
  6
Continuous
 62
     7
370
    25
100
AcDbLine
 10
-220.1731784016
 20
-111.6948472634
 30
0.0
 11
-219.9999999997
 21
-101.7318181492
 31
0.0
  0
LINE
  5
100
330
1F
100
AcDbEntity
  8
0
  6
Continuous
 62
     7
370
    25
100
AcDbLine
 10
-219.4269034196
 20
-101.7358712332
 30
0.0
 11
219.4269034196
 21
-101.7358712332
 31
0.0
  0
LINE
  5
101
330
1F
100
AcDbEntity
  8
0
  6
Continuous
 62
     7
370
    25
100
AcDbLine
 10
506.2833719972
 20
-232.5
 30
0.0
 11
-506.2833719972
 21
-232.5
 31
0.0
  0
LINE
  5
102
330
1F
100
AcDbEntity
  8
0
  6
Continuous
 62
     7
370
    25
100
AcDbLine
 10
-502.7551771664
 20
222.7620294927
 30
0.0
 11
-502.7551771664
 21
-232.5
 31
0.0
  0
LINE
  5
103
330
1F
100
AcDbEntity
  8
0
  6
Continuous
 62
     7
370
    25
100
AcDbLine
 10
-508.2847443432
 20
-230.5
 30
0.0
 11
508.2847443432
 21
-230.5
 31
0.0
  0
LINE
  5
104
330
1F
100
AcDbEntity
  8
0
  6
Continuous
 62
     7
370
    25
100
AcDbLine
 10
502.7551771664
 20
-232.5
 30
0.0
 11
502.7551771664
 21
222.7620294927
 31
0.0
  0
LINE
  5
105
330
1F
100
AcDbEntity
  8
0
  6
Continuous
 62
     7
370
    25
100
AcDbLine
 10
-262.9675602102
 20
-67.5
 30
0.0
 11
-253.2202370249
 21
-67.5
 31
0.0
  0
LINE
  5
106
330
1F
100
AcDbEntity
  8
0
  6
Continuous
 62
     7
370
    25
100
AcDbLine
 10
-253.2202370249
 20
131.8528134583
 30
0.0
 11
-253.2202370249
 21
-68.1471865311
 31
0.0
  0
LINE
  5
107
330
1F
100
AcDbEntity
  8
0
  6
Continuous
 62
     7
370
    25
100
AcDbLine
 10
502.7551771664
 20
222.7620294927
 30
0.0
 11
507.7483248402
 21
222.7620294927
 31
0.0
  0
LINE
  5
108
330
1F
100
AcDbEntity
  8
0
  6
Continuous
 62
     7
370
    25
100
AcDbLine
 10
507.7483248402
 20
222.7620294927
 30
0.0
 11
507.7483248402
 21
-230.5
 31
0.0
  0
LINE
  5
109
330
1F
100
AcDbEntity
  8
0
  6
Continuous
 62
     7
370
    25
100
AcDbLine
 10
497.7620294927
 20
227.7551771664
 30
0.0
 11
497.7620294927
 21
232.7483248402
 31
0.0
  0
LINE
  5
10A
330
1F
100
AcDbEntity
  8
0
  6
Continuous
 62
     7
370
    25
100
AcDbLine
 10
497.7620294927
 20
227.7551771664
 30
0.0
 11
-497.7620294927
 21
227.7551771664
 31
0.0
  0
LINE
  5
10B
330
1F
100
AcDbEntity
  8
0
  6
Continuous
 62
     7
370
    25
100
AcDbLine
 10
-497.7620294927
 20
227.7551771664
 30
0.0
 11
-497.7620294927
 21
232.7483248402
 31
0.0
  0
LINE
  5
10C
330
1F
100
AcDbEntity
  8
0
  6
Continuous
 62
     7
370
    25
100
AcDbLine
 10
-497.7620294927
 20
232.7483248402
 30
0.0
 11
497.7620294927
 21
232.7483248402
 31
0.0
  0
LINE
  5
10D
330
1F
100
AcDbEntity
  8
0
  6
Continuous
 62
     7
370
    25
100
AcDbLine
 10
-502.7551771664
 20
222.7620294927
 30
0.0
 11
-507.7483248402
 21
222.7620294927
 31
0.0
  0
LINE
  5
10E
330
1F
100
AcDbEntity
  8
0
  6
Continuous
 62
     7
370
    25
100
AcDbLine
 10
-507.7483248402
 20
-230.5
 30
0.0
 11
-507.7483248402
 21
222.7620294927
 31
0.0
  0
LINE
  5
10F
330
1F
100
AcDbEntity
  8
0
  6
Continuous
 62
     7
370
    25
100
AcDbLine
 10
-507.7483248402
 20
222.7620294927
 30
0.0
 11
-508.283373878
 21
223.2970785305
 31
0.0
  0
LINE
  5
110
330
1F
100
AcDbEntity
  8
0
  6
Continuous
 62
     7
370
    25
100
AcDbLine
 10
-498.2970785305
 20
233.283373878
 30
0.0
 11
-497.7620294927
 21
232.7483248402
 31
0.0
  0
LINE
  5
111
330
1F
100
AcDbEntity
  8
0
  6
Continuous
 62
     7
370
    25
100
AcDbLine
 10
497.7620294927
 20
232.7483248402
 30
0.0
 11
498.2970785305
 21
233.283373878
 31
0.0
  0
LINE
  5
112
330
1F
100
AcDbEntity
  8
0
  6
Continuous
 62
     7
370
    25
100
AcDbLine
 10
508.283373878
 20
223.2970785305
 30
0.0
 11
507.7483248402
 21
222.7620294927
 31
0.0
  0
LINE
  5
113
330
1F
100
AcDbEntity
  8
0
  6
Continuous
 62
     7
370
    25
100
AcDbLine
 10
508.283373878
 20
-230.5
 30
0.0
 11
508.283373878
 21
223.2970785305
 31
0.0
  0
LINE
  5
114
330
1F
100
AcDbEntity
  8
0
  6
Continuous
 62
     7
370
    25
100
AcDbLine
 10
-508.283373878
 20
223.2970785305
 30
0.0
 11
-508.283373878
 21
-230.5
 31
0.0
  0
LINE
  5
115
330
1F
100
AcDbEntity
  8
0
  6
Continuous
 62
     7
370
    25
100
AcDbLine
 10
498.2970785305
 20
233.283373878
 30
0.0
 11
-498.2970785305
 21
233.283373878
 31
0.0
  0
LINE
  5
116
330
1F
100
AcDbEntity
  8
0
  6
Continuous
 62
     7
370
    25
100
AcDbLine
 10
229.2797629751
 20
123.1471865317
 30
0.0
 11
229.2797629751
 21
-76.8528134589
 31
0.0
  0
LINE
  5
117
330
1F
100
AcDbEntity
  8
0
  6
Continuous
 62
     7
370
    25
100
AcDbLine
 10
-212.9734152295
 20
139.3936609374
 30
0.0
 11
212.9734152295
 21
139.3936609374
 31
0.0
  0
LINE
  5
118
330
1F
100
AcDbEntity
  8
0
  6
Continuous
 62
     7
370
    25
100
AcDbLine
 10
-229.2797629751
 20
-76.8528134589
 30
0.0
 11
-229.2797629751
 21
123.1471865317
 31
0.0
  0
LINE
  5
119
330
1F
100
AcDbEntity
  8
0
  6
Continuous
 62
     7
370
    25
100
AcDbLine
 10
213.0730965702
 20
-93.2641287668
 30
0.0
 11
-213.0730965702
 21
-93.2641287668
 31
0.0
  0
LINE
  5
11A
330
1F
100
AcDbEntity
  8
0
  6
Continuous
 62
     7
370
    25
100
AcDbLine
 10
508.2847443432
 20
223.2970785305
 30
0.0
 11
508.283373878
 21
223.2970785305
 31
0.0
  0
LINE
  5
11B
330
1F
100
AcDbEntity
  8
0
  6
Continuous
 62
     7
370
    25
100
AcDbLine
 10
498.2970785305
 20
233.2847443432
 30
0.0
 11
498.2970785305
 21
233.283373878
 31
0.0
  0
LINE
  5
11C
330
1F
100
AcDbEntity
  8
0
  6
Continuous
 62
     7
370
    25
100
AcDbLine
 10
-498.2970785305
 20
233.2847443432
 30
0.0
 11
-498.2970785305
 21
233.283373878
 31
0.0
  0
LINE
  5
11D
330
1F
100
AcDbEntity
  8
0
  6
Continuous
 62
     7
370
    25
100
AcDbLine
 10
-508.2847443432
 20
223.2970785305
 30
0.0
 11
-508.283373878
 21
223.2970785305
 31
0.0
  0
LINE
  5
11E
330
1F
100
AcDbEntity
  8
0
  6
Continuous
 62
     7
370
    25
100
AcDbLine
 10
10.3169244025
 20
-153.3645456078
 30
0.0
 11
-10.3169244025
 21
-153.3645456078
 31
0.0
  0
LINE
  5
11F
330
1F
100
AcDbEntity
  8
0
  6
Continuous
 62
     7
370
    25
100
AcDbLine
 10
212.4999999986
 20
-93.2641287668
 30
0.0
 11
212.4999999986
 21
-83.2986711843
 31
0.0
  0
LINE
  5
120
330
1F
100
AcDbEntity
  8
0
  6
Continuous
 62
     7
370
    25
100
AcDbLine
 10
229.2072214614
 20
-78.5660416766
 30
0.0
 11
219.4978723154
 21
-77.5
 31
0.0
  0
LINE
  5
121
330
1F
100
AcDbEntity
  8
0
  6
Continuous
 62
     7
370
    25
100
AcDbLine
 10
-219.4978723155
 20
-77.4999999988
 30
0.0
 11
-229.2072214617
 21
-78.5660416734
 31
0.0
  0
LINE
  5
122
330
1F
100
AcDbEntity
  8
0
  6
Continuous
 62
     7
370
    25
100
AcDbLine
 10
-212.5
 20
-93.2641287668
 30
0.0
 11
-212.5
 21
-83.2986711843
 31
0.0
  0
LINE
  5
123
330
1F
100
AcDbEntity
  8
0
  6
Continuous
 62
     7
370
    25
100
AcDbLine
 10
-212.5
 20
-83.2986711843
 30
0.0
 11
212.4999999986
 21
-83.2986711843
 31
0.0
  0
LINE
  5
124
330
1F
100
AcDbEntity
  8
0
  6
Continuous
 62
     7
370
    25
100
AcDbLine
 10
-212.4999999988
 20
129.692235936
 30
0.0
 11
-212.4999999988
 21
139.3936609374
 31
0.0
  0
LINE
  5
125
330
1F
100
AcDbEntity
  8
0
  6
Continuous
 62
     7
370
    25
100
AcDbLine
 10
-219.5324397898
 20
122.5
 30
0.0
 11
-229.2797629751
 21
122.5
 31
0.0
  0
LINE
  5
126
330
1F
100
AcDbEntity
  8
0
  6
Continuous
 62
     7
370
    25
100
AcDbLine
 10
229.2797629751
 20
122.4999999988
 30
0.0
 11
219.5324397898
 21
122.4999999988
 31
0.0
  0
LINE
  5
127
330
1F
100
AcDbEntity
  8
0
  6
Continuous
 62
     7
370
    25
100
AcDbLine
 10
212.4999999976
 20
129.692235936
 30
0.0
 11
212.4999999976
 21
139.3936609374
 31
0.0
  0
LINE
  5
128
330
1F
100
AcDbEntity
  8
0
  6
Continuous
 62
     7
370
    25
100
AcDbLine
 10
212.4999999976
 20
129.692235936
 30
0.0
 11
-212.4999999988
 21
129.692235936
 31
0.0
  0
LINE
  5
129
330
1F
100
AcDbEntity
  8
0
  6
Continuous
 62
     8
370
    25
100
AcDbLine
 10
-11.4996407823
 20
-100.4160125506
 30
0.0
 11
-10.9629871913
 21
-100.1544141878
 31
0.0
  0
ARC
  5
12A
330
1F
100
AcDbEntity
  8
0
  6
Continuous
 62
     7
370
    25
100
AcDbCircle
 10
505.7496943651
 20
-230.5013695262
 30
0.0
 40
1.998630944352435
100
AcDbArc
 50
270.0393147922
 51
0.0392609127
  0
ARC
  5
12B
330
1F
100
AcDbEntity
  8
0
  6
Continuous
 62
     7
370
    25
100
AcDbCircle
 10
497.7643667674
 20
222.7643667674
 30
0.0
 40
4.990810946329476
100
AcDbArc
 50
359.9731674904
 51
90.0268325096
  0
ARC
  5
12C
330
1F
100
AcDbEntity
  8
0
  6
Continuous
 62
     7
370
    25
100
AcDbCircle
 10
497.7483594019
 20
222.7483594019
 30
0.0
 40
9.999974781924392
100
AcDbArc
 50
0.0783240726
 51
89.9216759274
  0
ARC
  5
12D
330
1F
100
AcDbEntity
  8
0
  6
Continuous
 62
     7
370
    25
100
AcDbCircle
 10
-497.7643667674
 20
222.7643667674
 30
0.0
 40
4.990810946329447
100
AcDbArc
 50
89.9731674904
 51
180.0268325096
  0
ARC
  5
12E
330
1F
100
AcDbEntity
  8
0
  6
Continuous
 62
     7
370
    25
100
AcDbCircle
 10
-505.7496943651
 20
-230.5013695262
 30
0.0
 40
1.998630944352662
100
AcDbArc
 50
179.9607390874
 51
269.9606852078
  0
ARC
  5
12F
330
1F
100
AcDbEntity
  8
0
  6
Continuous
 62
     7
370
    25
100
AcDbCircle
 10
-497.7483594019
 20
222.7483594019
 30
0.0
 40
9.999974781924335
100
AcDbArc
 50
90.0783240726
 51
179.9216759274
  0
ARC
  5
130
330
1F
100
AcDbEntity
  8
0
  6
Continuous
 62
     7
370
    25
100
AcDbCircle
 10
-498.2980911517
 20
223.2980911517
 30
0.0
 40
9.985282777608882
100
AcDbArc
 50
89.9941895561
 51
180.0058104439
  0
ARC
  5
131
330
1F
100
AcDbEntity
  8
0
  6
Continuous
 62
     7
370
    25
100
AcDbCircle
 10
498.2980911517
 20
223.2980911517
 30
0.0
 40
9.985282777608939
100
AcDbArc
 50
359.9941895561
 51
90.0058104439
  0
ARC
  5
132
330
1F
100
AcDbEntity
  8
0
  6
Continuous
 62
     7
370
    25
100
AcDbCircle
 10
506.2833729376
 20
-230.4999990596
 30
0.0
 40
2.000000940376759
100
AcDbArc
 50
269.9999730602
 51
359.9999730602
  0
ARC
  5
133
330
1F
100
AcDbEntity
  8
0
  6
Continuous
 62
     7
370
    25
100
AcDbCircle
 10
-506.283372899
 20
-230.499999021
 30
0.0
 40
2.000000979012737
100
AcDbArc
 50
180.0000280466
 51
270.0000258329
  0
SPLINE
  5
134
330
1B
100
AcDbEntity
 67
     1
  8
0
  6
Continuous
 62
     7
370
    25
100
AcDbSpline
210
0.0
220
0.0
230
1.0
 70
     8
 71
     3
 72
    12
 73
     8
 74
     0
 42
0.000000001
 43
0.00000001
 40
0.0
 40
0.0
 40
0.0
 40
0.0
 40
0.1661616041496602
 40
0.3054617123537787
 40
0.5637806666937699
 40
0.8190147198683101
 40
1.0
 40
1.0
 40
1.0
 40
1.0
 10
255.4054729646271
 20
1.974578251727727
 30
0.0
 10
255.5089879076542
 20
2.193112123318838
 30
0.0
 10
255.6992836857499
 20
2.594851929365718
 30
0.0
 10
256.2484240096738
 20
3.354016656674244
 30
0.0
 10
257.0776724633213
 20
4.084515424480559
 30
0.0
 10
258.1006305597627
 20
4.650612375574778
 30
0.0
 10
258.7606418378159
 20
4.830958518514464
 30
0.0
 10
259.0344773075626
 20
4.90578325622891
 30
0.0
  0
LWPOLYLINE
  5
13B
330
1B
100
AcDbEntity
 67
     1
  8
0
  6
Continuous
 62
     7
370
    25
100
AcDbPolyline
 90
        3
 70
   128
 43
0.0
 10
-255.0003112684
 20
0.1026117888
 10
-255.0000273894
 20
0.0920582664
 10
-254.9998433129
 20
0.0885084113
  0
SPLINE
  5
13C
330
1B
100
AcDbEntity
 67
     1
  8
0
  6
Continuous
 62
     7
370
    25
100
AcDbSpline
210
0.0
220
0.0
230
1.0
 70
     8
 71
     3
 72
     8
 73
     4
 74
     0
 42
0.000000001
 43
0.00000001
 40
0.0
 40
0.0
 40
0.0
 40
0.0
 40
1.0
 40
1.0
 40
1.0
 40
1.0
 10
-254.9998433129473
 20
0.0885084112661055
 30
0.0
 10
-255.0112984677556
 20
0.7355293988763889
 30
0.0
 10
-255.1499142077694
 20
1.380055669504443
 30
0.0
 10
-255.4054729646271
 20
1.974578251727532
 30
0.0
  0
SPLINE
  5
13D
330
1B
100
AcDbEntity
 67
     1
  8
0
  6
Continuous
 62
     7
370
    25
100
AcDbSpline
210
0.0
220
0.0
230
1.0
 70
     8
 71
     3
 72
     8
 73
     4
 74
     0
 42
0.000000001
 43
0.00000001
 40
0.0
 40
0.0
 40
0.0
 40
0.0
 40
1.0
 40
1.0
 40
1.0
 40
1.0
 10
-258.1061052327403
 20
4.627820514257988
 30
0.0
 10
-258.7050584808832
 20
4.87281517852442
 30
0.0
 10
-259.3519374943745
 20
5.000000000000004
 30
0.0
 10
-259.9990598776837
 20
5.000000000000004
 30
0.0
  0
SPLINE
  5
13E
330
1B
100
AcDbEntity
 67
     1
  8
0
  6
Continuous
 62
     7
370
    25
100
AcDbSpline
210
0.0
220
0.0
230
1.0
 70
     8
 71
     3
 72
    24
 73
    20
 74
     0
 42
0.000000001
 43
0.00000001
 40
0.0
 40
0.0
 40
0.0
 40
0.0
 40
0.0145693558108826
 40
0.0291395654049355
 40
0.0437114824165321
 40
0.0582767577017152
 40
0.0729608512516155
 40
0.0879121619609125
 40
0.114921602625048
 40
0.1443362464851154
 40
0.177993651107182
 40
0.2171385380652831
 40
0.2756860919792237
 40
0.3465786834847263
 40
0.4302201941770914
 40
0.5268548197951812
 40
0.6713737617749426
 40
0.8290262887372061
 40
1.0
 40
1.0
 40
1.0
 40
1.0
 10
-259.9990598776839
 20
5.000000000000004
 30
0.0
 10
-259.9991364682064
 20
5.000642895592169
 30
0.0
 10
-259.9992896537399
 20
5.001928724451029
 30
0.0
 10
-260.0000173095702
 20
5.012313638688134
 30
0.0
 10
-260.0025062187944
 20
5.028793551109273
 30
0.0
 10
-260.0012009885003
 20
5.051998954639384
 30
0.0
 10
-259.9899234641668
 20
5.081548029610805
 30
0.0
 10
-259.9670195888565
 20
5.126635571001612
 30
0.0
 10
-259.9111988480623
 20
5.193271734046504
 30
0.0
 10
-259.798590168927
 20
5.276356345487828
 30
0.0
 10
-259.643713719543
 20
5.360053756055777
 30
0.0
 10
-259.4239255879809
 20
5.449508935425618
 30
0.0
 10
-259.1264403566169
 20
5.541255305671316
 30
0.0
 10
-258.7411070237553
 20
5.634460018718785
 30
0.0
 10
-258.2804748103192
 20
5.721914970087824
 30
0.0
 10
-257.680233329541
 20
5.811748149405743
 30
0.0
 10
-256.9392601654404
 20
5.894912449937562
 30
0.0
 10
-256.0572233252573
 20
5.963405204911662
 30
0.0
 10
-255.4433292000406
 20
5.987476484063767
 30
0.0
 10
-255.1239397396079
 20
6.000000000000005
 30
0.0
  0
SPLINE
  5
13F
330
1B
100
AcDbEntity
 67
     1
  8
0
  6
Continuous
 62
     7
370
    25
100
AcDbSpline
210
0.0
220
0.0
230
1.0
 70
     8
 71
     3
 72
    37
 73
    33
 74
     0
 42
0.000000001
 43
0.00000001
 40
0.0
 40
0.0
 40
0.0
 40
0.0
 40
0.0275370259289235
 40
0.0575896536932509
 40
0.0901890154489859
 40
0.1253594810562368
 40
0.1954813064131298
 40
0.2507833526997909
 40
0.292023566519181
 40
0.3241628806547366
 40
0.3502726261844308
 40
0.3757108873559971
 40
0.3914819435646986
 40
0.4123369685673019
 40
0.4384908147450571
 40
0.4723632189069485
 40
0.4932483369287887
 40
0.5011462070580719
 40
0.5295336178264219
 40
0.5576097774547302
 40
0.5854296984894968
 40
0.6130499246082546
 40
0.6405282322869709
 40
0.6679232959387508
 40
0.6952943253247226
 40
0.7227006859801351
 40
0.7502015146342903
 40
0.8005781183112681
 40
0.8504096259240175
 40
0.9000312459037771
 40
0.9497824293409158
 40
1.0
 40
1.0
 40
1.0
 40
1.0
 10
-255.1239397395746
 20
6.00000000000113
 30
0.0
 10
-255.1912075172644
 20
5.974316337669844
 30
0.0
 10
-255.3318882150228
 20
5.920602722297913
 30
0.0
 10
-255.5481216853632
 20
5.826374380006216
 30
0.0
 10
-255.7798430526326
 20
5.718083576263661
 30
0.0
 10
-256.1025120614861
 20
5.557216902291093
 30
0.0
 10
-256.4717826388832
 20
5.356911629023312
 30
0.0
 10
-256.8379423066995
 20
5.119136187197768
 30
0.0
 10
-257.0932731993672
 20
4.8978460189638
 30
0.0
 10
-257.2499213008975
 20
4.685720457557191
 30
0.0
 10
-257.3054246812862
 20
4.465231358403862
 30
0.0
 10
-257.2507217559844
 20
4.289311782602709
 30
0.0
 10
-257.1538969342354
 20
4.158604058536588
 30
0.0
 10
-257.0419082906284
 20
4.038227942314718
 30
0.0
 10
-256.8857288402672
 20
3.895529601020409
 30
0.0
 10
-256.7264133835479
 20
3.756376389819418
 30
0.0
 10
-256.60396513564
 20
3.647559322205868
 30
0.0
 10
-256.4918788794425
 20
3.548656849664739
 30
0.0
 10
-256.3720485710548
 20
3.430343992371937
 30
0.0
 10
-256.2202167731107
 20
3.270601073964166
 30
0.0
 10
-256.07748289016
 20
3.105233248594117
 30
0.0
 10
-255.9432506488752
 20
2.934908922268997
 30
0.0
 10
-255.8176816814315
 20
2.759452724144198
 30
0.0
 10
-255.7007338181923
 20
2.578914124509848
 30
0.0
 10
-255.5924293177099
 20
2.393280225788483
 30
0.0
 10
-255.4927326047108
 20
2.202567206251171
 30
0.0
 10
-255.3767389378046
 20
1.952842062271865
 30
0.0
 10
-255.2550705832307
 20
1.641494291881818
 30
0.0
 10
-255.1422114418862
 20
1.265884850960089
 30
0.0
 10
-255.0617820349777
 20
0.8838035640626879
 30
0.0
 10
-255.0109316018765
 20
0.495349769998682
 30
0.0
 10
-255.0038623729616
 20
0.2339309841600384
 30
0.0
 10
-255.0003112683615
 20
0.1026117887959754
 30
0.0
  0
LWPOLYLINE
  5
140
330
1B
100
AcDbEntity
 67
     1
  8
0
  6
Continuous
 62
     7
370
    25
100
AcDbPolyline
 90
        3
 70
   128
 43
0.0
 10
254.9998433129
 20
0.0885084113
 10
255.0000283118
 20
0.0920515082
 10
255.0003142944
 20
0.102589369
  0
SPLINE
  5
141
330
1B
100
AcDbEntity
 67
     1
  8
0
  6
Continuous
 62
     7
370
    25
100
AcDbSpline
210
0.0
220
0.0
230
1.0
 70
     8
 71
     3
 72
    33
 73
    29
 74
     0
 42
0.000000001
 43
0.00000001
 40
0.0
 40
0.0
 40
0.0
 40
0.0
 40
0.0279081616516074
 40
0.0556271412606941
 40
0.0832133070613597
 40
0.1107238436939196
 40
0.1382164077296222
 40
0.1657487686512686
 40
0.1933784463149413
 40
0.2211623561710754
 40
0.2491564729673869
 40
0.331343151752958
 40
0.4138097775275971
 40
0.4981305192475988
 40
0.5160438218997393
 40
0.5609162309957207
 40
0.5870252241425209
 40
0.6078286013413837
 40
0.6235286759904343
 40
0.6492710435195864
 40
0.6754616423971874
 40
0.7075590549478331
 40
0.7487362179711018
 40
0.8038130660895823
 40
0.8743854619443441
 40
0.9210346754284878
 40
0.9628850093946631
 40
1.0
 40
1.0
 40
1.0
 40
1.0
 10
255.000314294447
 20
0.1025893690389107
 30
0.0
 10
255.0015453214853
 20
0.1755519344229239
 30
0.0
 10
255.0039990307554
 20
0.320982471268258
 30
0.0
 10
255.0199825075496
 20
0.5380517758799552
 30
0.0
 10
255.0449937072972
 20
0.7531681512341348
 30
0.0
 10
255.079899013079
 20
0.9663254753070755
 30
0.0
 10
255.1244668269682
 20
1.177521838403403
 30
0.0
 10
255.1787614508242
 20
1.386754030166706
 30
0.0
 10
255.242752565468
 20
1.594020254171311
 30
0.0
 10
255.3164906434512
 20
1.799315413879177
 30
0.0
 10
255.4532491578922
 20
2.13312904039431
 30
0.0
 10
255.6862692538611
 20
2.581801166776573
 30
0.0
 10
256.0669597476391
 20
3.111915838956675
 30
0.0
 10
256.3977201099904
 20
3.466302201639654
 30
0.0
 10
256.6859588673747
 20
3.720931732042937
 30
0.0
 10
256.860721533007
 20
3.874088531864162
 30
0.0
 10
257.0381224260298
 20
4.035786097428898
 30
0.0
 10
257.1501190084428
 20
4.155543703941528
 30
0.0
 10
257.2478945397382
 20
4.286035488058157
 30
0.0
 10
257.3051079923262
 20
4.461952885399412
 30
0.0
 10
257.2522595071484
 20
4.684163902887589
 30
0.0
 10
257.0966364545192
 20
4.89720327001994
 30
0.0
 10
256.8422070672874
 20
5.118222202401809
 30
0.0
 10
256.4752321725302
 20
5.355507750169908
 30
0.0
 10
256.0788346536763
 20
5.569931514066429
 30
0.0
 10
255.7057511634849
 20
5.75367472265019
 30
0.0
 10
255.4069244054438
 20
5.890238072497181
 30
0.0
 10
255.2144199661468
 20
5.96490522185536
 30
0.0
 10
255.1239397396074
 20
6.000000000000005
 30
0.0
  0
SPLINE
  5
142
330
1B
100
AcDbEntity
 67
     1
  8
0
  6
Continuous
 62
     7
370
    25
100
AcDbSpline
210
0.0
220
0.0
230
1.0
 70
     8
 71
     3
 72
    23
 73
    19
 74
     0
 42
0.000000001
 43
0.00000001
 40
0.0
 40
0.0
 40
0.0
 40
0.0
 40
0.1038907029949161
 40
0.2030074391839978
 40
0.2973847176092094
 40
0.3870625100429355
 40
0.472087404906361
 40
0.5685547556875441
 40
0.6521331961715158
 40
0.7230624823963504
 40
0.781737581242125
 40
0.8332259812176024
 40
0.8754235056024734
 40
0.9120172362177831
 40
0.9326055762022883
 40
0.9562263754041376
 40
0.97810939516266
 40
0.9999999999999999
 40
0.9999999999999999
 40
0.9999999999999999
 40
0.9999999999999999
 10
255.1239397396074
 20
6.000000000000005
 30
0.0
 10
255.3179646819767
 20
5.992950125458584
 30
0.0
 10
255.6970987676334
 20
5.979174330936435
 30
0.0
 10
256.2519448272556
 20
5.946812423278616
 30
0.0
 10
256.7796049648272
 20
5.906363918526517
 30
0.0
 10
257.280060528033
 20
5.857188390761229
 30
0.0
 10
257.7830783843283
 20
5.796228635182768
 30
0.0
 10
258.2728370076687
 20
5.723190660682331
 30
0.0
 10
258.7330415113512
 20
5.636171288718003
 30
0.0
 10
259.1185877179545
 20
5.543333045108262
 30
0.0
 10
259.4382759052868
 20
5.445457142331176
 30
0.0
 10
259.6920659169882
 20
5.339480271922311
 30
0.0
 10
259.8789998909969
 20
5.22494798619097
 30
0.0
 10
259.9684510137351
 20
5.129264599416136
 30
0.0
 10
259.9957361303088
 20
5.066101156815773
 30
0.0
 10
260.0031011681951
 20
5.02833975644737
 30
0.0
 10
260.0029364687196
 20
5.004355121397519
 30
0.0
 10
260.0003522239613
 20
5.001451874823704
 30
0.0
 10
259.9990598776836
 20
5.000000000000004
 30
0.0
  0
SPLINE
  5
143
330
1B
100
AcDbEntity
 67
     1
  8
0
  6
Continuous
 62
     7
370
    25
100
AcDbSpline
210
0.0
220
0.0
230
1.0
 70
     8
 71
     3
 72
    10
 73
     6
 74
     0
 42
0.000000001
 43
0.00000001
 40
0.0
 40
0.0
 40
0.0
 40
0.0
 40
0.2343749999999998
 40
0.2343749999999998
 40
0.2499999999999998
 40
0.2499999999999998
 40
0.2499999999999998
 40
0.2499999999999998
 10
254.9998433129472
 20
0.0885084112663137
 30
0.0
 10
255.0105843713775
 20
0.6951951256735783
 30
0.0
 10
255.1330841926532
 20
1.299493208003266
 30
0.0
 10
255.3739849363911
 20
1.900068037619176
 30
0.0
 10
255.3895005423235
 20
1.937420590338773
 30
0.0
 10
255.4054729646271
 20
1.974578251727713
 30
0.0
  0
LWPOLYLINE
  5
17E
330
1B
100
AcDbEntity
 67
     1
  8
0
  6
Continuous
 62
     7
370
    25
100
AcDbPolyline
 90
        2
 70
   128
 43
0.0
 10
259.9990598777
 20
5.0
 10
259.9990598777
 20
5.0
  0
LWPOLYLINE
  5
17F
330
1B
100
AcDbEntity
 67
     1
  8
0
  6
Continuous
 62
     7
370
    25
100
AcDbPolyline
 90
        2
 70
   128
 43
0.0
 10
-259.9990598777
 20
5.0
 10
-259.9990598777
 20
5.0
  0
LWPOLYLINE
  5
182
330
1B
100
AcDbEntity
 67
     1
  8
0
  6
Continuous
 62
     7
370
    25
100
AcDbPolyline
 90
        9
 70
   128
 43
0.0
 10
-30.0
 20
-122.3412044417
 10
-29.903926402
 20
-122.5105898362
 10
-29.6193976626
 20
-122.6734658449
 10
-29.1573480615
 20
-122.8235732343
 10
-28.5355339059
 20
-122.9551434615
 10
-27.7778511651
 20
-123.0631203565
 10
-26.9134171618
 20
-123.1433544277
 10
-25.9754516101
 20
-123.1927623248
 10
-25.0
 20
-123.20944533
  0
LWPOLYLINE
  5
183
330
1B
100
AcDbEntity
 67
     1
  8
0
  6
Continuous
 62
     7
370
    25
100
AcDbPolyline
 90
        9
 70
   128
 43
0.0
 10
25.0
 20
-123.20944533
 10
25.9754516101
 20
-123.1927623248
 10
26.9134171618
 20
-123.1433544277
 10
27.7778511651
 20
-123.0631203565
 10
28.5355339059
 20
-122.9551434615
 10
29.1573480615
 20
-122.8235732343
 10
29.6193976626
 20
-122.6734658449
 10
29.903926402
 20
-122.5105898362
 10
30.0
 20
-122.3412044417
  0
LWPOLYLINE
  5
185
330
1B
100
AcDbEntity
 67
     1
  8
0
  6
Continuous
 62
     7
370
    25
100
AcDbPolyline
 90
        9
 70
   128
 43
0.0
 10
-35.0
 20
-101.4729635533
 10
-34.0245483899
 20
-101.4896465586
 10
-33.0865828382
 20
-101.5390544557
 10
-32.2221488349
 20
-101.6192885269
 10
-31.4644660941
 20
-101.7272654218
 10
-30.8426519385
 20
-101.858835649
 10
-30.3806023374
 20
-102.0089430384
 10
-30.096073598
 20
-102.1718190472
 10
-30.0
 20
-102.3412044417
  0
LWPOLYLINE
  5
18D
330
1B
100
AcDbEntity
 67
     1
  8
0
  6
Continuous
 62
     7
370
    25
100
AcDbPolyline
 90
        9
 70
   128
 43
0.0
 10
35.0
 20
-101.4729635533
 10
34.0245483899
 20
-101.4896465586
 10
33.0865828382
 20
-101.5390544557
 10
32.2221488349
 20
-101.6192885269
 10
31.4644660941
 20
-101.7272654218
 10
30.8426519385
 20
-101.858835649
 10
30.3806023374
 20
-102.0089430384
 10
30.096073598
 20
-102.1718190472
 10
30.0
 20
-102.3412044417
  0
LWPOLYLINE
  5
195
330
1B
100
AcDbEntity
 67
     1
  8
0
  6
Continuous
 62
     7
370
    25
100
AcDbPolyline
 90
        9
 70
   128
 43
0.0
 10
-24.375
 20
-149.0
 10
-24.3870091997
 20
-148.804909678
 10
-24.4225752922
 20
-148.6173165676
 10
-24.4803314923
 20
-148.444429767
 10
-24.5580582618
 20
-148.2928932188
 10
-24.6527686044
 20
-148.1685303877
 10
-24.7608228548
 20
-148.0761204675
 10
-24.8780685487
 20
-148.0192147196
 10
-25.0
 20
-148.0
  0
LWPOLYLINE
  5
196
330
1B
100
AcDbEntity
 67
     1
  8
0
  6
Continuous
 62
     7
370
    25
100
AcDbPolyline
 90
        9
 70
   128
 43
0.0
 10
24.375
 20
-149.0
 10
24.3870091997
 20
-148.804909678
 10
24.4225752922
 20
-148.6173165676
 10
24.4803314923
 20
-148.444429767
 10
24.5580582618
 20
-148.2928932188
 10
24.6527686044
 20
-148.1685303877
 10
24.7608228548
 20
-148.0761204675
 10
24.8780685487
 20
-148.0192147196
 10
25.0
 20
-148.0
  0
SPLINE
  5
198
330
1B
100
AcDbEntity
 67
     1
  8
0
  6
Continuous
 62
     7
370
    25
100
AcDbSpline
210
0.0
220
0.0
230
1.0
 70
     8
 71
     3
 72
    22
 73
    18
 74
     0
 42
0.000000001
 43
0.00000001
 40
0.0
 40
0.0
 40
0.0
 40
0.0
 40
0.062500000000003
 40
0.062500000000003
 40
0.125000000000006
 40
0.125000000000006
 40
0.2500000000000051
 40
0.2500000000000051
 40
0.3750000000000041
 40
0.3750000000000041
 40
0.5000000000000032
 40
0.5000000000000032
 40
0.6250000000000022
 40
0.6250000000000022
 40
0.7500000000000012
 40
0.7500000000000012
 40
1.0
 40
1.0
 40
1.0
 40
1.0
 10
30.22499999999999
 20
-143.0
 30
0.0
 10
30.22499999999999
 20
-143.2361917355859
 30
0.0
 10
30.21145680393276
 20
-143.4689524397559
 30
0.0
 10
30.15898478801311
 20
-143.9280810316055
 30
0.0
 10
30.11963419538133
 20
-144.1561170819096
 30
0.0
 10
29.96733745530036
 20
-144.8185968812221
 30
0.0
 10
29.82312054235231
 20
-145.2260964307339
 30
0.0
 10
29.46441160104212
 20
-145.9886014870896
 30
0.0
 10
29.25630143195675
 20
-146.3299481620583
 30
0.0
 10
28.79308930173562
 20
-146.9521993260832
 30
0.0
 10
28.53597537789035
 20
-147.2337864275665
 30
0.0
 10
27.99513928354484
 20
-147.7277724807759
 30
0.0
 10
27.7094871621932
 20
-147.9430526752796
 30
0.0
 10
27.10815632180012
 20
-148.3171365029763
 30
0.0
 10
26.79086355905613
 20
-148.4764651316765
 30
0.0
 10
25.80099757603364
 20
-148.8639355592985
 30
0.0
 10
25.10714042907064
 20
-149.0
 30
0.0
 10
24.37499999999999
 20
-149.0
 30
0.0
  0
SPLINE
  5
19B
330
1B
100
AcDbEntity
 67
     1
  8
0
  6
Continuous
 62
     7
370
    25
100
AcDbSpline
210
0.0
220
0.0
230
1.0
 70
     8
 71
     3
 72
    26
 73
    22
 74
     0
 42
0.000000001
 43
0.00000001
 40
0.0
 40
0.0
 40
0.0
 40
0.0
 40
0.1250000000000013
 40
0.1250000000000013
 40
0.2500000000000026
 40
0.2500000000000026
 40
0.3750000000000039
 40
0.3750000000000039
 40
0.5000000000000052
 40
0.5000000000000052
 40
0.6250000000000066
 40
0.6250000000000066
 40
0.6875000000000054
 40
0.6875000000000054
 40
0.7500000000000042
 40
0.7500000000000042
 40
0.8125000000000031
 40
0.8125000000000031
 40
0.875000000000002
 40
0.875000000000002
 40
1.0
 40
1.0
 40
1.0
 40
1.0
 10
-24.37500000000001
 20
-149.0
 30
0.0
 10
-24.74092870180032
 20
-149.0000000000001
 30
0.0
 10
-25.09786457032089
 20
-148.9651127021993
 30
0.0
 10
-25.79499136614084
 20
-148.8319068764122
 30
0.0
 10
-26.13713567369537
 20
-148.7327367513271
 30
0.0
 10
-26.79545064939548
 20
-148.4742851692644
 30
0.0
 10
-27.10990030895413
 20
-148.3161917323262
 30
0.0
 10
-27.71107601232489
 20
-147.9419233314484
 30
0.0
 10
-27.9978226560603
 20
-147.7258586252433
 30
0.0
 10
-28.54272577406205
 20
-147.2270743418424
 30
0.0
 10
-28.79699767725971
 20
-146.9474351986223
 30
0.0
 10
-29.14259627590518
 20
-146.4824454206696
 30
0.0
 10
-29.25215087047102
 20
-146.3194615516866
 30
0.0
 10
-29.45898902302428
 20
-145.9751416717644
 30
0.0
 10
-29.55681024177935
 20
-145.7925914452064
 30
0.0
 10
-29.73497656881938
 20
-145.4130526711878
 30
0.0
 10
-29.81550669284595
 20
-145.2160678480281
 30
0.0
 10
-29.95784095079637
 20
-144.8056753869582
 30
0.0
 10
-30.02002726369593
 20
-144.5905833022991
 30
0.0
 10
-30.17144120131477
 20
-143.928335696829
 30
0.0
 10
-30.22500000000001
 20
-143.4724762045376
 30
0.0
 10
-30.22500000000001
 20
-143.0
 30
0.0
  0
LINE
  5
1CD
330
1B
100
AcDbEntity
 67
     1
  8
0
  6
Continuous
 62
     7
370
    25
100
AcDbLine
 10
39.0
 20
-152.0
 30
0.0
 11
39.0
 21
-123.0
 31
0.0
  0
LINE
  5
1CE
330
1B
100
AcDbEntity
 67
     1
  8
0
  6
Continuous
 62
     7
370
    25
100
AcDbLine
 10
-39.0
 20
-123.0
 30
0.0
 11
-39.0
 21
-152.0
 31
0.0
  0
LINE
  5
1CF
330
1B
100
AcDbEntity
 67
     1
  8
0
  6
Continuous
 62
     7
370
    25
100
AcDbLine
 10
258.2110189104
 20
4.6484479068
 30
0.0
 11
259.9990598777
 21
5.0
 31
0.0
  0
LINE
  5
1D0
330
1B
100
AcDbEntity
 67
     1
  8
0
  6
Continuous
 62
     7
370
    25
100
AcDbLine
 10
-493.3385244685
 20
2.0
 30
0.0
 11
-493.3385244685
 21
3.0
 31
0.0
  0
LINE
  5
1D1
330
1B
100
AcDbEntity
 67
     1
  8
0
  6
Continuous
 62
     7
370
    25
100
AcDbLine
 10
-506.2833719972
 20
1.0
 30
0.0
 11
-494.3385244685
 21
1.0
 31
0.0
  0
LINE
  5
1D2
330
1B
100
AcDbEntity
 67
     1
  8
0
  6
Continuous
 62
     7
370
    25
100
AcDbLine
 10
-505.7510657707
 20
11.1570078687
 30
0.0
 11
-506.2833719972
 21
1.0
 31
0.0
  0
LINE
  5
1D3
330
1B
100
AcDbEntity
 67
     1
  8
0
  6
Continuous
 62
     7
370
    25
100
AcDbLine
 10
502.7551771664
 20
14.0
 30
0.0
 11
-502.7551771664
 21
14.0
 31
0.0
  0
LINE
  5
1D4
330
1B
100
AcDbEntity
 67
     1
  8
0
  6
Continuous
 62
     7
370
    25
100
AcDbLine
 10
506.2833719972
 20
1.0
 30
0.0
 11
505.7510657707
 21
11.1570078687
 31
0.0
  0
LINE
  5
1D5
330
1B
100
AcDbEntity
 67
     1
  8
0
  6
Continuous
 62
     7
370
    25
100
AcDbLine
 10
494.3385244685
 20
1.0
 30
0.0
 11
506.2833719972
 21
1.0
 31
0.0
  0
LINE
  5
1D6
330
1B
100
AcDbEntity
 67
     1
  8
0
  6
Continuous
 62
     7
370
    25
100
AcDbLine
 10
493.3385244685
 20
3.0
 30
0.0
 11
493.3385244685
 21
2.0
 31
0.0
  0
LINE
  5
1D7
330
1B
100
AcDbEntity
 67
     1
  8
0
  6
Continuous
 62
     7
370
    25
100
AcDbLine
 10
255.1239397396
 20
6.0
 30
0.0
 11
490.3385244685
 21
6.0
 31
0.0
  0
LINE
  5
1D8
330
1B
100
AcDbEntity
 67
     1
  8
0
  6
Continuous
 62
     7
370
    25
100
AcDbLine
 10
254.9776904963
 20
-0.103840599
 30
0.0
 11
227.5
 21
-128.0
 31
0.0
  0
LINE
  5
1D9
330
1B
100
AcDbEntity
 67
     1
  8
0
  6
Continuous
 62
     7
370
    25
100
AcDbLine
 10
227.5
 20
-128.0
 30
0.0
 11
39.0
 21
-128.0
 31
0.0
  0
LINE
  5
1DA
330
1B
100
AcDbEntity
 67
     1
  8
0
  6
Continuous
 62
     7
370
    25
100
AcDbLine
 10
-39.0
 20
-128.0
 30
0.0
 11
-227.5
 21
-128.0
 31
0.0
  0
LINE
  5
1DB
330
1B
100
AcDbEntity
 67
     1
  8
0
  6
Continuous
 62
     7
370
    25
100
AcDbLine
 10
-227.5
 20
-128.0
 30
0.0
 11
-254.9776904963
 21
-0.103840599
 31
0.0
  0
LINE
  5
1DC
330
1B
100
AcDbEntity
 67
     1
  8
0
  6
Continuous
 62
     7
370
    25
100
AcDbLine
 10
-490.3385244685
 20
6.0
 30
0.0
 11
-255.1239397396
 21
6.0
 31
0.0
  0
LINE
  5
1DD
330
1B
100
AcDbEntity
 67
     1
  8
0
  6
Continuous
 62
     7
370
    25
100
AcDbLine
 10
-490.3385244685
 20
0.0
 30
0.0
 11
-490.3385244685
 21
6.0
 31
0.0
  0
LINE
  5
1DE
330
1B
100
AcDbEntity
 67
     1
  8
0
  6
Continuous
 62
     7
370
    25
100
AcDbLine
 10
-259.9990598777
 20
5.0
 30
0.0
 11
-490.3385244685
 21
5.0
 31
0.0
  0
LINE
  5
1DF
330
1B
100
AcDbEntity
 67
     1
  8
0
  6
Continuous
 62
     7
370
    25
100
AcDbLine
 10
490.3385244685
 20
5.0
 30
0.0
 11
259.9990598777
 21
5.0
 31
0.0
  0
LINE
  5
1E0
330
1B
100
AcDbEntity
 67
     1
  8
0
  6
Continuous
 62
     7
370
    25
100
AcDbLine
 10
-505.7510657707
 20
11.1570078687
 30
0.0
 11
-507.7483248402
 21
11.2616797812
 31
0.0
  0
LINE
  5
1E1
330
1B
100
AcDbEntity
 67
     1
  8
0
  6
Continuous
 62
     7
370
    25
100
AcDbLine
 10
-502.7551771664
 20
14.0
 30
0.0
 11
-502.7551771664
 21
16.0
 31
0.0
  0
LINE
  5
1E2
330
1B
100
AcDbEntity
 67
     1
  8
0
  6
Continuous
 62
     7
370
    25
100
AcDbLine
 10
507.2847443432
 20
0.0
 30
0.0
 11
254.9943437112
 21
0.0
 31
0.0
  0
LINE
  5
1E3
330
1B
100
AcDbEntity
 67
     1
  8
0
  6
Continuous
 62
     7
370
    25
100
AcDbLine
 10
494.3385244685
 20
0.0
 30
0.0
 11
494.3385244685
 21
1.0
 31
0.0
  0
LINE
  5
1E4
330
1B
100
AcDbEntity
 67
     1
  8
0
  6
Continuous
 62
     7
370
    25
100
AcDbLine
 10
506.2833719972
 20
0.0
 30
0.0
 11
506.2833719972
 21
1.0
 31
0.0
  0
LINE
  5
1E5
330
1B
100
AcDbEntity
 67
     1
  8
0
  6
Continuous
 62
     7
370
    25
100
AcDbLine
 10
-502.7551771664
 20
16.0
 30
0.0
 11
502.7551771664
 21
16.0
 31
0.0
  0
LINE
  5
1E6
330
1B
100
AcDbEntity
 67
     1
  8
0
  6
Continuous
 62
     7
370
    25
100
AcDbLine
 10
502.7551771664
 20
14.0
 30
0.0
 11
502.7551771664
 21
16.0
 31
0.0
  0
LINE
  5
1E7
330
1B
100
AcDbEntity
 67
     1
  8
0
  6
Continuous
 62
     7
370
    25
100
AcDbLine
 10
506.2833719972
 20
1.0
 30
0.0
 11
508.283373878
 21
1.0523359562
 31
0.0
  0
LINE
  5
1E8
330
1B
100
AcDbEntity
 67
     1
  8
0
  6
Continuous
 62
     7
370
    25
100
AcDbLine
 10
-254.9943437112
 20
0.0
 30
0.0
 11
-507.2847443432
 21
0.0
 31
0.0
  0
LINE
  5
1E9
330
1B
100
AcDbEntity
 67
     1
  8
0
  6
Continuous
 62
     7
370
    25
100
AcDbLine
 10
-508.283373878
 20
1.0523359562
 30
0.0
 11
-506.2833719972
 21
1.0
 31
0.0
  0
LINE
  5
1EA
330
1B
100
AcDbEntity
 67
     1
  8
0
  6
Continuous
 62
     7
370
    25
100
AcDbLine
 10
-506.2833719972
 20
0.0
 30
0.0
 11
-506.2833719972
 21
1.0
 31
0.0
  0
LINE
  5
1EB
330
1B
100
AcDbEntity
 67
     1
  8
0
  6
Continuous
 62
     7
370
    25
100
AcDbLine
 10
505.7510657707
 20
11.1570078687
 30
0.0
 11
507.7483248402
 21
11.2616797812
 31
0.0
  0
LINE
  5
1EC
330
1B
100
AcDbEntity
 67
     1
  8
0
  6
Continuous
 62
     7
370
    25
100
AcDbLine
 10
-256.1071714723
 20
3.0
 30
0.0
 11
-493.3385244685
 21
3.0
 31
0.0
  0
LINE
  5
1ED
330
1B
100
AcDbEntity
 67
     1
  8
0
  6
Continuous
 62
     7
370
    25
100
AcDbLine
 10
507.7483248402
 20
11.2616797812
 30
0.0
 11
508.283373878
 21
1.0523359562
 31
0.0
  0
LINE
  5
1EE
330
1B
100
AcDbEntity
 67
     1
  8
0
  6
Continuous
 62
     7
370
    25
100
AcDbLine
 10
-492.3385244685
 20
3.0
 30
0.0
 11
-492.3385244685
 21
2.0
 31
0.0
  0
LINE
  5
1EF
330
1B
100
AcDbEntity
 67
     1
  8
0
  6
Continuous
 62
     7
370
    25
100
AcDbLine
 10
-493.3385244685
 20
2.0
 30
0.0
 11
-255.4228691266
 21
2.0
 31
0.0
  0
LINE
  5
1F0
330
1B
100
AcDbEntity
 67
     1
  8
0
  6
Continuous
 62
     7
370
    25
100
AcDbLine
 10
-494.3385244685
 20
0.0
 30
0.0
 11
-494.3385244685
 21
1.0
 31
0.0
  0
LINE
  5
1F1
330
1B
100
AcDbEntity
 67
     1
  8
0
  6
Continuous
 62
     7
370
    25
100
AcDbLine
 10
-508.283373878
 20
1.0523359562
 30
0.0
 11
-507.7483248402
 21
11.2616797812
 31
0.0
  0
LINE
  5
1F2
330
1B
100
AcDbEntity
 67
     1
  8
0
  6
Continuous
 62
     7
370
    25
100
AcDbLine
 10
492.3385244685
 20
2.0
 30
0.0
 11
492.3385244685
 21
3.0
 31
0.0
  0
LINE
  5
1F3
330
1B
100
AcDbEntity
 67
     1
  8
0
  6
Continuous
 62
     7
370
    25
100
AcDbLine
 10
493.3385244685
 20
3.0
 30
0.0
 11
256.1071714723
 21
3.0
 31
0.0
  0
LINE
  5
1F4
330
1B
100
AcDbEntity
 67
     1
  8
0
  6
Continuous
 62
     7
370
    25
100
AcDbLine
 10
255.4228691266
 20
2.0
 30
0.0
 11
493.3385244685
 21
2.0
 31
0.0
  0
LINE
  5
1F5
330
1B
100
AcDbEntity
 67
     1
  8
0
  6
Continuous
 62
     7
370
    25
100
AcDbLine
 10
-25.0
 20
-123.20944533
 30
0.0
 11
25.0
 21
-123.20944533
 31
0.0
  0
LINE
  5
1F6
330
1B
100
AcDbEntity
 67
     1
  8
0
  6
Continuous
 62
     7
370
    25
100
AcDbLine
 10
-30.0
 20
-143.0
 30
0.0
 11
-30.0
 21
-74.2370914515
 31
0.0
  0
LINE
  5
1F7
330
1B
100
AcDbEntity
 67
     1
  8
0
  6
Continuous
 62
     7
370
    25
100
AcDbLine
 10
30.0
 20
-74.2370914515
 30
0.0
 11
30.0
 21
-143.0
 31
0.0
  0
LINE
  5
1F8
330
1B
100
AcDbEntity
 67
     1
  8
0
  6
Continuous
 62
     7
370
    25
100
AcDbLine
 10
25.0
 20
-148.0
 30
0.0
 11
25.0
 21
-73.8586446252
 31
0.0
  0
LINE
  5
1F9
330
1B
100
AcDbEntity
 67
     1
  8
0
  6
Continuous
 62
     7
370
    25
100
AcDbLine
 10
25.0
 20
-148.0
 30
0.0
 11
-25.0
 21
-148.0
 31
0.0
  0
LINE
  5
1FA
330
1B
100
AcDbEntity
 67
     1
  8
0
  6
Continuous
 62
     7
370
    25
100
AcDbLine
 10
-25.0
 20
-73.8586446252
 30
0.0
 11
-25.0
 21
-148.0
 31
0.0
  0
LINE
  5
1FB
330
1B
100
AcDbEntity
 67
     1
  8
0
  6
Continuous
 62
     7
370
    25
100
AcDbLine
 10
35.0
 20
-74.6848559031
 30
0.0
 11
35.0
 21
-118.0
 31
0.0
  0
LINE
  5
1FC
330
1B
100
AcDbEntity
 67
     1
  8
0
  6
Continuous
 62
     7
370
    25
100
AcDbLine
 10
-35.0
 20
-118.0
 30
0.0
 11
-35.0
 21
-74.6848559031
 31
0.0
  0
LINE
  5
1FD
330
1B
100
AcDbEntity
 67
     1
  8
0
  6
Continuous
 62
     7
370
    25
100
AcDbLine
 10
-35.0
 20
-118.0
 30
0.0
 11
-175.4102334529
 21
-118.0
 31
0.0
  0
LINE
  5
1FE
330
1B
100
AcDbEntity
 67
     1
  8
0
  6
Continuous
 62
     7
370
    25
100
AcDbLine
 10
175.4102334529
 20
-118.0
 30
0.0
 11
35.0
 21
-118.0
 31
0.0
  0
LINE
  5
1FF
330
1B
100
AcDbEntity
 67
     1
  8
0
  6
Continuous
 62
     7
370
    25
100
AcDbLine
 10
24.375
 20
-149.0
 30
0.0
 11
-24.375
 21
-149.0
 31
0.0
  0
LINE
  5
200
330
1B
100
AcDbEntity
 67
     1
  8
0
  6
Continuous
 62
     7
370
    25
100
AcDbLine
 10
38.0
 20
-153.0
 30
0.0
 11
-38.0
 21
-153.0
 31
0.0
  0
LINE
  5
201
330
1B
100
AcDbEntity
 67
     1
  8
0
  6
Continuous
 62
     7
370
    25
100
AcDbLine
 10
30.225
 20
-123.0
 30
0.0
 11
30.225
 21
-143.0
 31
0.0
  0
LINE
  5
202
330
1B
100
AcDbEntity
 67
     1
  8
0
  6
Continuous
 62
     7
370
    25
100
AcDbLine
 10
-30.225
 20
-143.0
 30
0.0
 11
-30.225
 21
-123.0
 31
0.0
  0
LINE
  5
203
330
1B
100
AcDbEntity
 67
     1
  8
0
  6
Continuous
 62
     7
370
    25
100
AcDbLine
 10
30.225
 20
-143.0
 30
0.0
 11
30.0
 21
-143.0
 31
0.0
  0
LINE
  5
204
330
1B
100
AcDbEntity
 67
     1
  8
0
  6
Continuous
 62
     7
370
    25
100
AcDbLine
 10
-30.225
 20
-143.0
 30
0.0
 11
-30.0
 21
-143.0
 31
0.0
  0
LINE
  5
205
330
1B
100
AcDbEntity
 67
     1
  8
0
  6
Continuous
 62
     7
370
    25
100
AcDbLine
 10
39.0
 20
-123.0
 30
0.0
 11
30.0
 21
-123.0
 31
0.0
  0
LINE
  5
206
330
1B
100
AcDbEntity
 67
     1
  8
0
  6
Continuous
 62
     7
370
    25
100
AcDbLine
 10
-30.0
 20
-123.0
 30
0.0
 11
-39.0
 21
-123.0
 31
0.0
  0
LINE
  5
207
330
1B
100
AcDbEntity
 67
     1
  8
0
  6
Continuous
 62
     7
370
    25
100
AcDbLine
 10
-172.5
 20
-128.0
 30
0.0
 11
-172.5
 21
-118.0
 31
0.0
  0
LINE
  5
208
330
1B
100
AcDbEntity
 67
     1
  8
0
  6
Continuous
 62
     7
370
    25
100
AcDbLine
 10
172.5
 20
-128.0
 30
0.0
 11
172.5
 21
-118.0
 31
0.0
  0
LINE
  5
209
330
1B
100
AcDbEntity
 67
     1
  8
0
  6
Continuous
 62
     7
370
    25
100
AcDbLine
 10
490.3385244685
 20
0.0
 30
0.0
 11
490.3385244685
 21
6.0
 31
0.0
  0
LINE
  5
20A
330
1B
100
AcDbEntity
 67
     1
  8
0
  6
Continuous
 62
     8
370
    25
100
AcDbLine
 10
35.0
 20
-101.4729635533
 30
0.0
 11
141.2053913135
 21
-101.4729635533
 31
0.0
  0
LINE
  5
20B
330
1B
100
AcDbEntity
 67
     1
  8
0
  6
Continuous
 62
     8
370
    25
100
AcDbLine
 10
-141.2053913135
 20
-101.4729635533
 30
0.0
 11
-35.0
 21
-101.4729635533
 31
0.0
  0
LINE
  5
20C
330
1B
100
AcDbEntity
 67
     1
  8
0
  6
Continuous
 62
     8
370
    25
100
AcDbLine
 10
-39.0
 20
-152.0
 30
0.0
 11
39.0
 21
-152.0
 31
0.0
  0
LINE
  5
20D
330
1B
100
AcDbEntity
 67
     1
  8
0
  6
Continuous
 62
     8
370
    25
100
AcDbLine
 10
-39.0
 20
-126.2635182233
 30
0.0
 11
-189.680748975
 21
-126.2635182233
 31
0.0
  0
LINE
  5
20E
330
1B
100
AcDbEntity
 67
     1
  8
0
  6
Continuous
 62
     8
370
    25
100
AcDbLine
 10
-189.8180923688
 20
-126.3472963553
 30
0.0
 11
-39.0
 21
-126.3472963553
 31
0.0
  0
LINE
  5
20F
330
1B
100
AcDbEntity
 67
     1
  8
0
  6
Continuous
 62
     8
370
    25
100
AcDbLine
 10
189.680748975
 20
-126.2635182233
 30
0.0
 11
39.0
 21
-126.2635182233
 31
0.0
  0
LINE
  5
210
330
1B
100
AcDbEntity
 67
     1
  8
0
  6
Continuous
 62
     8
370
    25
100
AcDbLine
 10
39.0
 20
-126.3472963553
 30
0.0
 11
189.8180923688
 21
-126.3472963553
 31
0.0
  0
ARC
  5
211
330
1B
100
AcDbEntity
 67
     1
  8
0
  6
Continuous
 62
     7
370
    25
100
AcDbCircle
 10
38.0
 20
-152.0
 30
0.0
 40
1.0
100
AcDbArc
 50
270.0
 51
0.0
  0
ARC
  5
212
330
1B
100
AcDbEntity
 67
     1
  8
0
  6
Continuous
 62
     7
370
    25
100
AcDbCircle
 10
-38.0
 20
-152.0
 30
0.0
 40
1.000000000000007
100
AcDbArc
 50
180.0
 51
270.0
  0
ARC
  5
213
330
1B
100
AcDbEntity
 67
     1
  8
0
  6
Continuous
 62
     7
370
    25
100
AcDbCircle
 10
44.0
 20
-123.0
 30
0.0
 40
5.000000000000014
100
AcDbArc
 50
90.0
 51
180.0
  0
ARC
  5
214
330
1B
100
AcDbEntity
 67
     1
  8
0
  6
Continuous
 62
     7
370
    25
100
AcDbCircle
 10
-44.0
 20
-123.0
 30
0.0
 40
5.0
100
AcDbArc
 50
0.0
 51
90.0
  0
ARC
  5
215
330
1B
100
AcDbEntity
 67
     1
  8
0
  6
Continuous
 62
     7
370
    25
100
AcDbCircle
 10
-490.3385244685
 20
3.0
 30
0.0
 40
3.0
100
AcDbArc
 50
90.0
 51
180.0
  0
ARC
  5
216
330
1B
100
AcDbEntity
 67
     1
  8
0
  6
Continuous
 62
     7
370
    25
100
AcDbCircle
 10
-494.3385244685
 20
2.0
 30
0.0
 40
1.000000000000057
100
AcDbArc
 50
270.0
 51
360.0
  0
ARC
  5
217
330
1B
100
AcDbEntity
 67
     1
  8
0
  6
Continuous
 62
     7
370
    25
100
AcDbCircle
 10
-502.7551771664
 20
11.0
 30
0.0
 40
3.000000000000018
100
AcDbArc
 50
90.0
 51
177.0
  0
ARC
  5
218
330
1B
100
AcDbEntity
 67
     1
  8
0
  6
Continuous
 62
     7
370
    25
100
AcDbCircle
 10
502.7551771664
 20
11.0
 30
0.0
 40
3.000000000000108
100
AcDbArc
 50
3.0
 51
90.0
  0
ARC
  5
219
330
1B
100
AcDbEntity
 67
     1
  8
0
  6
Continuous
 62
     7
370
    25
100
AcDbCircle
 10
494.3385244685
 20
2.0
 30
0.0
 40
1.000000000000057
100
AcDbArc
 50
180.0
 51
270.0
  0
ARC
  5
21A
330
1B
100
AcDbEntity
 67
     1
  8
0
  6
Continuous
 62
     7
370
    25
100
AcDbCircle
 10
490.3385244685
 20
3.0
 30
0.0
 40
3.000000000000237
100
AcDbArc
 50
0.0
 51
90.0
  0
ARC
  5
21B
330
1B
100
AcDbEntity
 67
     1
  8
0
  6
Continuous
 62
     7
370
    25
100
AcDbCircle
 10
254.0
 20
0.1062100935
 30
0.0
 40
1.00000000000242
100
AcDbArc
 50
347.8746770259
 51
359.7926138547
  0
ARC
  5
21C
330
1B
100
AcDbEntity
 67
     1
  8
0
  6
Continuous
 62
     7
370
    25
100
AcDbCircle
 10
0.0
 20
-437.375
 30
0.0
 40
364.3750000000022
100
AcDbArc
 50
58.1092081982
 51
121.8907918018
  0
ARC
  5
21D
330
1B
100
AcDbEntity
 67
     1
  8
0
  6
Continuous
 62
     7
370
    25
100
AcDbCircle
 10
-254.0
 20
0.1062100935
 30
0.0
 40
1.00000000000106
100
AcDbArc
 50
180.2061026316
 51
192.1253229741
  0
ARC
  5
21E
330
1B
100
AcDbEntity
 67
     1
  8
0
  6
Continuous
 62
     7
370
    25
100
AcDbCircle
 10
-502.7551771664
 20
11.0
 30
0.0
 40
5.000000000000042
100
AcDbArc
 50
90.0
 51
177.0
  0
ARC
  5
21F
330
1B
100
AcDbEntity
 67
     1
  8
0
  6
Continuous
 62
     7
370
    25
100
AcDbCircle
 10
507.2847443432
 20
1.0
 30
0.0
 40
1.000000000000021
100
AcDbArc
 50
270.0
 51
3.0
  0
ARC
  5
220
330
1B
100
AcDbEntity
 67
     1
  8
0
  6
Continuous
 62
     7
370
    25
100
AcDbCircle
 10
-507.2847443432
 20
1.0
 30
0.0
 40
1.000000000000021
100
AcDbArc
 50
177.0
 51
270.0
  0
ARC
  5
221
330
1B
100
AcDbEntity
 67
     1
  8
0
  6
Continuous
 62
     7
370
    25
100
AcDbCircle
 10
502.7551771664
 20
11.0
 30
0.0
 40
5.000000000000403
100
AcDbArc
 50
3.0
 51
90.0
  0
ARC
  5
222
330
1B
100
AcDbEntity
 67
     1
  8
0
  6
Continuous
 62
     7
370
    25
100
AcDbCircle
 10
-490.3385244685
 20
3.0
 30
0.0
 40
2.000000000000008
100
AcDbArc
 50
90.0
 51
180.0
  0
ARC
  5
223
330
1B
100
AcDbEntity
 67
     1
  8
0
  6
Continuous
 62
     7
370
    25
100
AcDbCircle
 10
-494.3385244685
 20
2.0
 30
0.0
 40
2.000000000000057
100
AcDbArc
 50
270.0
 51
0.0
  0
ARC
  5
224
330
1B
100
AcDbEntity
 67
     1
  8
0
  6
Continuous
 62
     7
370
    25
100
AcDbCircle
 10
490.3385244685
 20
3.0
 30
0.0
 40
2.000000000000008
100
AcDbArc
 50
0.0
 51
90.0
  0
ARC
  5
225
330
1B
100
AcDbEntity
 67
     1
  8
0
  6
Continuous
 62
     7
370
    25
100
AcDbCircle
 10
494.3385244685
 20
2.0
 30
0.0
 40
2.00000000000012
100
AcDbArc
 50
180.0
 51
270.0
  0
ARC
  5
226
330
1B
100
AcDbEntity
 67
     1
  8
0
  6
Continuous
 62
     7
370
    25
100
AcDbCircle
 10
25.0
 20
-143.0
 30
0.0
 40
5.000000000000025
100
AcDbArc
 50
270.0
 51
0.0
  0
ARC
  5
227
330
1B
100
AcDbEntity
 67
     1
  8
0
  6
Continuous
 62
     7
370
    25
100
AcDbCircle
 10
-25.0
 20
-143.0
 30
0.0
 40
5.000000000000036
100
AcDbArc
 50
180.0
 51
270.0
  0
ARC
  5
228
330
1B
100
AcDbEntity
 67
     1
  8
0
  6
Continuous
 62
     7
370
    25
100
AcDbCircle
 10
35.0
 20
-123.0
 30
0.0
 40
5.0
100
AcDbArc
 50
90.0
 51
180.0
  0
ARC
  5
229
330
1B
100
AcDbEntity
 67
     1
  8
0
  6
Continuous
 62
     7
370
    25
100
AcDbCircle
 10
-35.0
 20
-123.0
 30
0.0
 40
4.999999999999982
100
AcDbArc
 50
0.0
 51
90.0
  0
VIEWPORT
  5
3E8
330
1B
100
AcDbEntity
 67
     1
  8
0
100
AcDbViewport
 10
0.0
 20
0.0
 30
0.0
 40
205.6
 41
156.0
 68
     1
 69
     1
 12
0.0
 22
0.3923721716
 13
0.0
 23
0.0
 14
10.0
 24
10.0
 15
10.0
 25
10.0
 16
0.0
 26
0.0
 36
1.0
 17
0.0
 27
0.0
 37
0.0
 42
50.0
 43
0.0
 44
0.0
 45
786.7535848239
 50
0.0
 51
0.0
 72
   100
 90
   557152
  1

281
     0
 71
     1
 74
     0
110
0.0
120
0.0
130
0.0
111
1.0
121
0.0
131
0.0
112
0.0
122
1.0
132
0.0
 79
     0
146
0.0
  0
ENDSEC
  0
SECTION
  2
OBJECTS
  0
DICTIONARY
  5
C
330
0
100
AcDbDictionary
281
     1
  3
ACAD_GROUP
350
D
  3
ACAD_LAYOUT
350
1A
  3
ACAD_MLINESTYLE
350
17
  3
ACAD_PLOTSETTINGS
350
19
  3
ACAD_PLOTSTYLENAME
350
E
  3
ACAD_SCALELIST
350
47
  0
DICTIONARY
  5
D
102
{ACAD_REACTORS
330
C
102
}
330
C
100
AcDbDictionary
281
     1
  0
DICTIONARY
  5
1A
102
{ACAD_REACTORS
330
C
102
}
330
C
100
AcDbDictionary
281
     1
  3
_Back
350
28C
  3
_Front
350
1E
  3
_Isometric
350
2DA
  3
_Left
350
26
  3
Model
350
22
  0
DICTIONARY
  5
17
102
{ACAD_REACTORS
330
C
102
}
330
C
100
AcDbDictionary
281
     1
  3
Standard
350
18
  0
DICTIONARY
  5
19
102
{ACAD_REACTORS
330
C
102
}
330
C
100
AcDbDictionary
281
     1
  0
ACDBDICTIONARYWDFLT
  5
E
102
{ACAD_REACTORS
330
C
102
}
330
C
100
AcDbDictionary
281
     1
  3
Normal
350
F
100
AcDbDictionaryWithDefault
340
F
  0
DICTIONARY
  5
47
102
{ACAD_REACTORS
330
C
102
}
330
C
100
AcDbDictionary
281
     1
  3
A0
350
48
  3
A1
350
49
  3
A2
350
4A
  3
A3
350
4B
  3
A4
350
4C
  3
A5
350
4D
  3
A6
350
4E
  3
A7
350
4F
  3
A8
350
50
  3
A9
350
51
  3
B0
350
52
  3
B1
350
53
  3
B2
350
54
  3
B3
350
55
  3
B4
350
56
  3
B5
350
57
  3
B6
350
58
  3
B7
350
59
  3
B8
350
5A
  3
B9
350
5B
  3
C0
350
5C
  3
C1
350
5D
  3
C2
350
5E
  3
C3
350
5F
  3
C4
350
60
  3
C5
350
61
  3
C6
350
62
  3
C7
350
63
  3
C8
350
64
  3
C9
350
65
  3
D0
350
66
  3
D1
350
67
  3
D2
350
68
  0
LAYOUT
  5
28C
102
{ACAD_REACTORS
330
1A
102
}
330
1A
100
AcDbPlotSettings
  1

  2
none_device
  4
ISO_A4_(210.00_x_297.00_MM)
  6

 40
7.5
 41
20.0
 42
7.5
 43
20.0
 44
210.0
 45
297.0
 46
0.0
 47
0.0
 48
0.0
 49
0.0
140
0.0
141
0.0
142
1.0
143
3.9555233023
 70
   688
 72
     1
 73
     1
 74
     1
  7

 75
     0
147
0.2528110502
148
508.2847443432
149
153.0
100
AcDbLayout
  1
_Back
 70
     1
 71
     3
 10
0.0
 20
0.0
 11
0.0
 21
0.0
 12
0.0
 22
0.0
 32
0.0
 14
0.0
 24
0.0
 34
0.0
 15
0.0
 25
0.0
 35
0.0
146
0.0
 13
0.0
 23
0.0
 33
0.0
 16
1.0
 26
0.0
 36
0.0
 17
0.0
 27
1.0
 37
0.0
 76
     0
330
28B
331
3EC
  0
LAYOUT
  5
1E
102
{ACAD_REACTORS
330
1A
102
}
330
1A
100
AcDbPlotSettings
  1

  2
none_device
  4
ISO_A4_(210.00_x_297.00_MM)
  6

 40
7.5
 41
20.0
 42
7.5
 43
20.0
 44
210.0
 45
297.0
 46
0.0
 47
0.0
 48
0.0
 49
0.0
140
0.0
141
0.0
142
1.0
143
3.9555233023
 70
   688
 72
     1
 73
     1
 74
     1
  7

 75
     0
147
0.2528110502
148
508.2847443432
149
153.0
100
AcDbLayout
  1
_Front
 70
     1
 71
     1
 10
-587.3952103889
 20
-182.6664247671
 11
587.3952103889
 21
647.9934687121
 12
0.0
 22
0.0
 32
0.0
 14
-508.2847443432
 24
-153.0
 34
0.0
 15
508.2847443432
 25
16.0
 35
0.0
146
0.0
 13
0.0
 23
0.0
 33
0.0
 16
1.0
 26
0.0
 36
0.0
 17
0.0
 27
1.0
 37
0.0
 76
     0
330
1B
331
3E8
  0
LAYOUT
  5
2DA
102
{ACAD_REACTORS
330
1A
102
}
330
1A
100
AcDbPlotSettings
  1

  2
none_device
  4
ISO_A4_(210.00_x_297.00_MM)
  6

 40
7.5
 41
20.0
 42
7.5
 43
20.0
 44
210.0
 45
297.0
 46
0.0
 47
0.0
 48
0.0
 49
0.0
140
0.0
141
0.0
142
1.0
143
3.9555233023
 70
   688
 72
     1
 73
     1
 74
     1
  7

 75
     0
147
0.2528110502
148
508.2847443432
149
153.0
100
AcDbLayout
  1
_Isometric
 70
     1
 71
     4
 10
0.0
 20
0.0
 11
0.0
 21
0.0
 12
0.0
 22
0.0
 32
0.0
 14
0.0
 24
0.0
 34
0.0
 15
0.0
 25
0.0
 35
0.0
146
0.0
 13
0.0
 23
0.0
 33
0.0
 16
1.0
 26
0.0
 36
0.0
 17
0.0
 27
1.0
 37
0.0
 76
     0
330
2D9
331
3EE
  0
LAYOUT
  5
26
102
{ACAD_REACTORS
330
1A
102
}
330
1A
100
AcDbPlotSettings
  1

  2
none_device
  4
ISO_A4_(210.00_x_297.00_MM)
  6

 40
7.5
 41
20.0
 42
7.5
 43
20.0
 44
210.0
 45
297.0
 46
0.0
 47
0.0
 48
0.0
 49
0.0
140
0.0
141
0.0
142
1.0
143
3.9555233023
 70
   688
 72
     1
 73
     1
 74
     1
  7

 75
     0
147
0.2528110502
148
508.2847443432
149
153.0
100
AcDbLayout
  1
_Left
 70
     1
 71
     2
 10
0.0
 20
0.0
 11
0.0
 21
0.0
 12
0.0
 22
0.0
 32
0.0
 14
0.0
 24
0.0
 34
0.0
 15
0.0
 25
0.0
 35
0.0
146
0.0
 13
0.0
 23
0.0
 33
0.0
 16
1.0
 26
0.0
 36
0.0
 17
0.0
 27
1.0
 37
0.0
 76
     0
330
23
331
3EA
  0
LAYOUT
  5
22
102
{ACAD_REACTORS
330
1A
102
}
330
1A
100
AcDbPlotSettings
  1

  2
none_device
  4
ANSI_A_(11.00_x_8.50_Inches)
  6

 40
6.35
 41
19.05
 42
6.35000508
 43
19.05000254
 44
279.4
 45
215.9
 46
133.34999746
 47
88.7932352494
 48
0.0
 49
0.0
140
0.0
141
0.0
142
0.0107124994
143
1.0
 70
  1696
 72
     0
 73
     0
 74
     0
  7

 75
     0
147
0.0179189148
148
-1300.4909072572
149
0.0
100
AcDbLayout
  1
Model
 70
     1
 71
     0
 10
0.0
 20
0.0
 11
420.0
 21
297.0
 12
0.0
 22
0.0
 32
0.0
 14
-508.2847443432
 24
-232.5
 34
0.0
 15
508.2847443432
 25
233.2847443432
 35
0.0
146
0.0
 13
0.0
 23
0.0
 33
0.0
 16
1.0
 26
0.0
 36
0.0
 17
0.0
 27
1.0
 37
0.0
 76
     0
330
1F
331
29
  0
MLINESTYLE
  5
18
102
{ACAD_REACTORS
330
17
102
}
330
17
100
AcDbMlineStyle
  2
Standard
 70
     0
  3

 62
   256
 51
90.0
 52
90.0
 71
     2
 49
0.5
 62
   256
  6
BYLAYER
 49
-0.5
 62
   256
  6
BYLAYER
  0
ACDBPLACEHOLDER
  5
F
102
{ACAD_REACTORS
330
E
102
}
330
E
  0
SCALE
  5
48
102
{ACAD_REACTORS
330
47
102
}
330
47
100
AcDbScale
 70
     0
300
1:1
140
1.0
141
1.0
290
     1
  0
SCALE
  5
49
102
{ACAD_REACTORS
330
47
102
}
330
47
100
AcDbScale
 70
     0
300
1:2
140
1.0
141
2.0
290
     0
  0
SCALE
  5
4A
102
{ACAD_REACTORS
330
47
102
}
330
47
100
AcDbScale
 70
     0
300
1:4
140
1.0
141
4.0
290
     0
  0
SCALE
  5
4B
102
{ACAD_REACTORS
330
47
102
}
330
47
100
AcDbScale
 70
     0
300
1:5
140
1.0
141
5.0
290
     0
  0
SCALE
  5
4C
102
{ACAD_REACTORS
330
47
102
}
330
47
100
AcDbScale
 70
     0
300
1:8
140
1.0
141
8.0
290
     0
  0
SCALE
  5
4D
102
{ACAD_REACTORS
330
47
102
}
330
47
100
AcDbScale
 70
     0
300
1:10
140
1.0
141
10.0
290
     0
  0
SCALE
  5
4E
102
{ACAD_REACTORS
330
47
102
}
330
47
100
AcDbScale
 70
     0
300
1:16
140
1.0
141
16.0
290
     0
  0
SCALE
  5
4F
102
{ACAD_REACTORS
330
47
102
}
330
47
100
AcDbScale
 70
     0
300
1:20
140
1.0
141
20.0
290
     0
  0
SCALE
  5
50
102
{ACAD_REACTORS
330
47
102
}
330
47
100
AcDbScale
 70
     0
300
1:30
140
1.0
141
30.0
290
     0
  0
SCALE
  5
51
102
{ACAD_REACTORS
330
47
102
}
330
47
100
AcDbScale
 70
     0
300
1:40
140
1.0
141
40.0
290
     0
  0
SCALE
  5
52
102
{ACAD_REACTORS
330
47
102
}
330
47
100
AcDbScale
 70
     0
300
1:50
140
1.0
141
50.0
290
     0
  0
SCALE
  5
53
102
{ACAD_REACTORS
330
47
102
}
330
47
100
AcDbScale
 70
     0
300
1:100
140
1.0
141
100.0
290
     0
  0
SCALE
  5
54
102
{ACAD_REACTORS
330
47
102
}
330
47
100
AcDbScale
 70
     0
300
2:1
140
2.0
141
1.0
290
     0
  0
SCALE
  5
55
102
{ACAD_REACTORS
330
47
102
}
330
47
100
AcDbScale
 70
     0
300
4:1
140
4.0
141
1.0
290
     0
  0
SCALE
  5
56
102
{ACAD_REACTORS
330
47
102
}
330
47
100
AcDbScale
 70
     0
300
8:1
140
8.0
141
1.0
290
     0
  0
SCALE
  5
57
102
{ACAD_REACTORS
330
47
102
}
330
47
100
AcDbScale
 70
     0
300
10:1
140
10.0
141
1.0
290
     0
  0
SCALE
  5
58
102
{ACAD_REACTORS
330
47
102
}
330
47
100
AcDbScale
 70
     0
300
100:1
140
100.0
141
1.0
290
     0
  0
SCALE
  5
59
102
{ACAD_REACTORS
330
47
102
}
330
47
100
AcDbScale
 70
     0
300
1/128" = 1'-0"
140
0.0078125
141
12.0
290
     0
  0
SCALE
  5
5A
102
{ACAD_REACTORS
330
47
102
}
330
47
100
AcDbScale
 70
     0
300
1/64" = 1'-0"
140
0.015625
141
12.0
290
     0
  0
SCALE
  5
5B
102
{ACAD_REACTORS
330
47
102
}
330
47
100
AcDbScale
 70
     0
300
1/32" = 1'-0"
140
0.03125
141
12.0
290
     0
  0
SCALE
  5
5C
102
{ACAD_REACTORS
330
47
102
}
330
47
100
AcDbScale
 70
     0
300
1/16" = 1'-0"
140
0.0625
141
12.0
290
     0
  0
SCALE
  5
5D
102
{ACAD_REACTORS
330
47
102
}
330
47
100
AcDbScale
 70
     0
300
3/32" = 1'-0"
140
0.09375
141
12.0
290
     0
  0
SCALE
  5
5E
102
{ACAD_REACTORS
330
47
102
}
330
47
100
AcDbScale
 70
     0
300
1/8" = 1'-0"
140
0.125
141
12.0
290
     0
  0
SCALE
  5
5F
102
{ACAD_REACTORS
330
47
102
}
330
47
100
AcDbScale
 70
     0
300
3/16" = 1'-0"
140
0.1875
141
12.0
290
     0
  0
SCALE
  5
60
102
{ACAD_REACTORS
330
47
102
}
330
47
100
AcDbScale
 70
     0
300
1/4" = 1'-0"
140
0.25
141
12.0
290
     0
  0
SCALE
  5
61
102
{ACAD_REACTORS
330
47
102
}
330
47
100
AcDbScale
 70
     0
300
3/8" = 1'-0"
140
0.375
141
12.0
290
     0
  0
SCALE
  5
62
102
{ACAD_REACTORS
330
47
102
}
330
47
100
AcDbScale
 70
     0
300
1/2" = 1'-0"
140
0.5
141
12.0
290
     0
  0
SCALE
  5
63
102
{ACAD_REACTORS
330
47
102
}
330
47
100
AcDbScale
 70
     0
300
3/4" = 1'-0"
140
0.75
141
12.0
290
     0
  0
SCALE
  5
64
102
{ACAD_REACTORS
330
47
102
}
330
47
100
AcDbScale
 70
     0
300
1" = 1'-0"
140
1.0
141
12.0
290
     0
  0
SCALE
  5
65
102
{ACAD_REACTORS
330
47
102
}
330
47
100
AcDbScale
 70
     0
300
1-1/2" = 1'-0"
140
1.5
141
12.0
290
     0
  0
SCALE
  5
66
102
{ACAD_REACTORS
330
47
102
}
330
47
100
AcDbScale
 70
     0
300
3" = 1'-0"
140
3.0
141
12.0
290
     0
  0
SCALE
  5
67
102
{ACAD_REACTORS
330
47
102
}
330
47
100
AcDbScale
 70
     0
300
6" = 1'-0"
140
6.0
141
12.0
290
     0
  0
SCALE
  5
68
102
{ACAD_REACTORS
330
47
102
}
330
47
100
AcDbScale
 70
     0
300
1'-0" = 1'-0"
140
12.0
141
12.0
290
     0
  0
ENDSEC
  0
EOF
