  0
SECTION
  2
HEADER
  9
$ACADVER
  1
AC1015
  9
$ACADMAINTVER
 70
     6
  9
$DWGCODEPAGE
  3
ANSI_1252
  9
$INSBASE
 10
0.0
 20
0.0
 30
0.0
  9
$EXTMIN
 10
-408.2847443432
 20
-232.5
 30
0.0
  9
$EXTMAX
 10
408.2847443432
 20
233.2847443432
 30
0.0
  9
$LIMMIN
 10
0.0
 20
0.0
  9
$LIMMAX
 10
420.0
 20
297.0
  9
$ORTHOMODE
 70
     0
  9
$REGENMODE
 70
     1
  9
$FILLMODE
 70
     1
  9
$QTEXTMODE
 70
     0
  9
$MIRRTEXT
 70
     1
  9
$LTSCALE
 40
1.0
  9
$ATTMODE
 70
     1
  9
$TEXTSIZE
 40
3.5
  9
$TRACEWID
 40
1.0
  9
$TEXTSTYLE
  7
Standard
  9
$CLAYER
  8
0
  9
$CELTYPE
  6
ByLayer
  9
$CECOLOR
 62
   256
  9
$CELTSCALE
 40
1.0
  9
$DISPSILH
 70
     0
  9
$DIMSCALE
 40
1.0
  9
$DIMASZ
 40
3.302
  9
$DIMEXO
 40
1.0
  9
$DIMDLI
 40
3.75
  9
$DIMRND
 40
0.0
  9
$DIMDLE
 40
0.0
  9
$DIMEXE
 40
1.0
  9
$DIMTP
 40
0.0
  9
$DIMTM
 40
0.0
  9
$DIMTXT
 40
3.5
  9
$DIMCEN
 40
2.5
  9
$DIMTSZ
 40
0.0
  9
$DIMTOL
 70
     0
  9
$DIMLIM
 70
     0
  9
$DIMTIH
 70
     1
  9
$DIMTOH
 70
     1
  9
$DIMSE1
 70
     0
  9
$DIMSE2
 70
     0
  9
$DIMTAD
 70
     1
  9
$DIMZIN
 70
     1
  9
$DIMBLK
  1

  9
$DIMASO
 70
     1
  9
$DIMSHO
 70
     1
  9
$DIMPOST
  1

  9
$DIMAPOST
  1

  9
$DIMALT
 70
     0
  9
$DIMALTD
 70
     3
  9
$DIMALTF
 40
0.0393700787
  9
$DIMLFAC
 40
1.0
  9
$DIMTOFL
 70
     1
  9
$DIMTVP
 40
0.0
  9
$DIMTIX
 70
     0
  9
$DIMSOXD
 70
     0
  9
$DIMSAH
 70
     0
  9
$DIMBLK1
  1

  9
$DIMBLK2
  1

  9
$DIMSTYLE
  2
ISO-25
  9
$DIMCLRD
 70
     0
  9
$DIMCLRE
 70
     0
  9
$DIMCLRT
 70
     0
  9
$DIMTFAC
 40
1.0
  9
$DIMGAP
 40
1.524
  9
$DIMJUST
 70
     0
  9
$DIMSD1
 70
     0
  9
$DIMSD2
 70
     0
  9
$DIMTOLJ
 70
     0
  9
$DIMTZIN
 70
     1
  9
$DIMALTZ
 70
     0
  9
$DIMALTTZ
 70
     0
  9
$DIMUPT
 70
     0
  9
$DIMDEC
 70
     2
  9
$DIMTDEC
 70
     2
  9
$DIMALTU
 70
     2
  9
$DIMALTTD
 70
     3
  9
$DIMTXSTY
  7
Standard
  9
$DIMAUNIT
 70
     0
  9
$DIMADEC
 70
     2
  9
$DIMALTRND
 40
0.0
  9
$DIMAZIN
 70
     0
  9
$DIMDSEP
 70
    44
  9
$DIMATFIT
 70
     3
  9
$DIMFRAC
 70
     0
  9
$DIMLDRBLK
  1

  9
$DIMLUNIT
 70
     2
  9
$DIMLWD
 70
    -2
  9
$DIMLWE
 70
    -2
  9
$DIMTMOVE
 70
     0
  9
$LUNITS
 70
     2
  9
$LUPREC
 70
     2
  9
$SKETCHINC
 40
1.0
  9
$FILLETRAD
 40
10.0
  9
$AUNITS
 70
     0
  9
$AUPREC
 70
     2
  9
$MENU
  1
.
  9
$ELEVATION
 40
0.0
  9
$PELEVATION
 40
0.0
  9
$THICKNESS
 40
0.0
  9
$LIMCHECK
 70
     0
  9
$CHAMFERA
 40
0.0
  9
$CHAMFERB
 40
0.0
  9
$CHAMFERC
 40
0.0
  9
$CHAMFERD
 40
0.0
  9
$SKPOLY
 70
     0
  9
$TDCREATE
 40
2460411.619968657
  9
$TDUCREATE
 40
2460411.578301991
  9
$TDUPDATE
 40
2460411.620004132
  9
$TDUUPDATE
 40
2460411.578337465
  9
$TDINDWG
 40
0.0000000116
  9
$TDUSRTIMER
 40
0.0000000116
  9
$USRTIMER
 70
     1
  9
$ANGBASE
 50
0.0
  9
$ANGDIR
 70
     0
  9
$PDMODE
 70
     0
  9
$PDSIZE
 40
-1.0
  9
$PLINEWID
 40
0.0
  9
$SPLFRAME
 70
     0
  9
$SPLINETYPE
 70
     6
  9
$SPLINESEGS
 70
     8
  9
$HANDSEED
  5
3E3
  9
$SURFTAB1
 70
     6
  9
$SURFTAB2
 70
     6
  9
$SURFTYPE
 70
     6
  9
$SURFU
 70
     6
  9
$SURFV
 70
     6
  9
$UCSBASE
  2

  9
$UCSNAME
  2

  9
$UCSORG
 10
0.0
 20
0.0
 30
0.0
  9
$UCSXDIR
 10
1.0
 20
0.0
 30
0.0
  9
$UCSYDIR
 10
0.0
 20
1.0
 30
0.0
  9
$UCSORTHOREF
  2

  9
$UCSORTHOVIEW
 70
     0
  9
$UCSORGTOP
 10
0.0
 20
0.0
 30
0.0
  9
$UCSORGBOTTOM
 10
0.0
 20
0.0
 30
0.0
  9
$UCSORGLEFT
 10
0.0
 20
0.0
 30
0.0
  9
$UCSORGRIGHT
 10
0.0
 20
0.0
 30
0.0
  9
$UCSORGFRONT
 10
0.0
 20
0.0
 30
0.0
  9
$UCSORGBACK
 10
0.0
 20
0.0
 30
0.0
  9
$PUCSBASE
  2

  9
$PUCSNAME
  2

  9
$PUCSORG
 10
0.0
 20
0.0
 30
0.0
  9
$PUCSXDIR
 10
1.0
 20
0.0
 30
0.0
  9
$PUCSYDIR
 10
0.0
 20
1.0
 30
0.0
  9
$PUCSORTHOREF
  2

  9
$PUCSORTHOVIEW
 70
     0
  9
$PUCSORGTOP
 10
0.0
 20
0.0
 30
0.0
  9
$PUCSORGBOTTOM
 10
0.0
 20
0.0
 30
0.0
  9
$PUCSORGLEFT
 10
0.0
 20
0.0
 30
0.0
  9
$PUCSORGRIGHT
 10
0.0
 20
0.0
 30
0.0
  9
$PUCSORGFRONT
 10
0.0
 20
0.0
 30
0.0
  9
$PUCSORGBACK
 10
0.0
 20
0.0
 30
0.0
  9
$USERI1
 70
     0
  9
$USERI2
 70
     0
  9
$USERI3
 70
     0
  9
$USERI4
 70
     0
  9
$USERI5
 70
     0
  9
$USERR1
 40
0.0
  9
$USERR2
 40
0.0
  9
$USERR3
 40
0.0
  9
$USERR4
 40
0.0
  9
$USERR5
 40
0.0
  9
$WORLDVIEW
 70
     1
  9
$SHADEDGE
 70
     3
  9
$SHADEDIF
 70
    70
  9
$TILEMODE
 70
     1
  9
$MAXACTVP
 70
    64
  9
$PINSBASE
 10
0.0
 20
0.0
 30
0.0
  9
$PLIMCHECK
 70
     0
  9
$PEXTMIN
 10
-408.2847443432
 20
-153.0
 30
0.0
  9
$PEXTMAX
 10
408.2847443432
 20
16.0
 30
0.0
  9
$PLIMMIN
 10
-471.8310080543
 20
-176.8298488916
  9
$PLIMMAX
 10
471.8310080543
 20
490.405920074
  9
$UNITMODE
 70
     0
  9
$VISRETAIN
 70
     1
  9
$PLINEGEN
 70
     0
  9
$PSLTSCALE
 70
     1
  9
$TREEDEPTH
 70
  3020
  9
$CMLSTYLE
  2
Standard
  9
$CMLJUST
 70
     0
  9
$CMLSCALE
 40
20.0
  9
$PROXYGRAPHICS
 70
     1
  9
$MEASUREMENT
 70
     1
  9
$CELWEIGHT
370
    -1
  9
$ENDCAPS
280
     0
  9
$JOINSTYLE
280
     0
  9
$LWDISPLAY
290
     1
  9
$INSUNITS
 70
     4
  9
$HYPERLINKBASE
  1

  9
$STYLESHEET
  1

  9
$XEDIT
290
     1
  9
$CEPSNTYPE
380
     0
  9
$PSTYLEMODE
290
     1
  9
$FINGERPRINTGUID
  2
{a4ce0839-04ee-4427-8c88-bd66797f7b76}
  9
$VERSIONGUID
  2
{FAEB1C32-E019-11D5-929B-00C0DF256EC4}
  9
$EXTNAMES
290
     1
  9
$PSVPSCALE
 40
0.0
  9
$OLESTARTUP
290
     0
  0
ENDSEC
  0
SECTION
  2
CLASSES
  0
CLASS
  1
ACDBDICTIONARYWDFLT
  2
AcDbDictionaryWithDefault
  3
ObjectDBX Classes
 90
        0
280
     0
281
     0
  0
CLASS
  1
VISUALSTYLE
  2
AcDbVisualStyle
  3
ObjectDBX Classes
 90
     4095
280
     0
281
     0
  0
CLASS
  1
MATERIAL
  2
AcDbMaterial
  3
ObjectDBX Classes
 90
     1153
280
     0
281
     0
  0
CLASS
  1
SCALE
  2
AcDbScale
  3
ObjectDBX Classes
 90
     1153
280
     0
281
     0
  0
CLASS
  1
TABLESTYLE
  2
AcDbTableStyle
  3
ObjectDBX Classes
 90
     4095
280
     0
281
     0
  0
CLASS
  1
MLEADERSTYLE
  2
AcDbMLeaderStyle
  3
ACDB_MLEADERSTYLE_CLASS
 90
     4095
280
     0
281
     0
  0
CLASS
  1
SUN
  2
AcDbSun
  3
SCENEOE
 90
     1153
280
     0
281
     0
  0
CLASS
  1
ACDBPLACEHOLDER
  2
AcDbPlaceHolder
  3
ObjectDBX Classes
 90
        0
280
     0
281
     0
  0
CLASS
  1
LAYOUT
  2
AcDbLayout
  3
ObjectDBX Classes
 90
        0
280
     0
281
     0
  0
ENDSEC
  0
SECTION
  2
TABLES
  0
TABLE
  2
VPORT
  5
8
330
0
100
AcDbSymbolTable
 70
     1
  0
VPORT
  5
29
330
8
100
AcDbSymbolTableRecord
100
AcDbViewportTableRecord
  2
*Active
 70
     0
 10
0.0
 20
0.0
 11
1.0
 21
1.0
 12
0.0
 22
0.3923721716
 13
0.0
 23
0.0
 14
10.0
 24
10.0
 15
10.0
 25
10.0
 16
0.0
 26
0.0
 36
1.0
 17
0.0
 27
0.0
 37
0.0
 40
475.1004392301
 41
1.7531048378
 42
50.0
 43
0.0
 44
0.0
 50
0.0
 51
0.0
 71
     0
 72
   100
 73
     1
 74
     3
 75
     0
 76
     0
 77
     0
 78
     0
281
     0
 65
     1
110
0.0
120
0.0
130
0.0
111
1.0
121
0.0
131
0.0
112
0.0
122
1.0
132
0.0
 79
     0
146
0.0
  0
ENDTAB
  0
TABLE
  2
LTYPE
  5
5
330
0
100
AcDbSymbolTable
 70
     6
  0
LTYPE
  5
14
330
5
100
AcDbSymbolTableRecord
100
AcDbLinetypeTableRecord
  2
ByBlock
 70
     0
  3

 72
    65
 73
     0
 40
0.0
  0
LTYPE
  5
15
330
5
100
AcDbSymbolTableRecord
100
AcDbLinetypeTableRecord
  2
ByLayer
 70
     0
  3

 72
    65
 73
     0
 40
0.0
  0
LTYPE
  5
16
330
5
100
AcDbSymbolTableRecord
100
AcDbLinetypeTableRecord
  2
Continuous
 70
     0
  3
Solid line
 72
    65
 73
     0
 40
0.0
  0
LTYPE
  5
6E
330
5
100
AcDbSymbolTableRecord
100
AcDbLinetypeTableRecord
  2
HIDDEN
 70
     0
  3
Hidden __ __ __ __ __ __ __ __ __ __ __ __ __ __
 72
    65
 73
     2
 40
1.905
 49
1.27
 74
     0
 49
-0.635
 74
     0
  0
LTYPE
  5
6F
330
5
100
AcDbSymbolTableRecord
100
AcDbLinetypeTableRecord
  2
PHANTOM
 70
     0
  3
Phantom ______  __  __  ______  __  __  ______
 72
    65
 73
     6
 40
12.7
 49
6.35
 74
     0
 49
-1.27
 74
     0
 49
1.27
 74
     0
 49
-1.27
 74
     0
 49
1.27
 74
     0
 49
-1.27
 74
     0
  0
LTYPE
  5
70
330
5
100
AcDbSymbolTableRecord
100
AcDbLinetypeTableRecord
  2
CENTER
 70
     0
  3
Center ____ _ ____ _ ____ _ ____ _ ____ _ ____
 72
    65
 73
     4
 40
10.16
 49
6.35
 74
     0
 49
-1.27
 74
     0
 49
1.27
 74
     0
 49
-1.27
 74
     0
  0
LTYPE
  5
71
330
5
100
AcDbSymbolTableRecord
100
AcDbLinetypeTableRecord
  2
CENTERX2
 70
     0
  3
Center (2x) ________  __  ________  __  _____
 72
    65
 73
     4
 40
20.32
 49
12.7
 74
     0
 49
-2.54
 74
     0
 49
2.54
 74
     0
 49
-2.54
 74
     0
  0
LTYPE
  5
72
330
5
100
AcDbSymbolTableRecord
100
AcDbLinetypeTableRecord
  2
DOT2
 70
     0
  3
Dot (.5x) ........................................
 72
    65
 73
     2
 40
0.635
 49
0.0
 74
     0
 49
-0.635
 74
     0
  0
ENDTAB
  0
TABLE
  2
LAYER
  5
2
330
0
100
AcDbSymbolTable
 70
     1
  0
LAYER
  5
10
330
2
100
AcDbSymbolTableRecord
100
AcDbLayerTableRecord
  2
0
 70
     0
 62
     7
  6
Continuous
370
    -3
390
F
  0
ENDTAB
  0
TABLE
  2
STYLE
  5
3
330
0
100
AcDbSymbolTable
 70
     1
  0
STYLE
  5
11
330
3
100
AcDbSymbolTableRecord
100
AcDbTextStyleTableRecord
  2
Standard
 70
     0
 40
0.0
 41
1.0
 50
0.0
 71
     0
 42
3.5
  3
txt
  4

  0
ENDTAB
  0
TABLE
  2
VIEW
  5
6
330
0
100
AcDbSymbolTable
 70
     0
  0
ENDTAB
  0
TABLE
  2
UCS
  5
7
330
0
100
AcDbSymbolTable
 70
     0
  0
ENDTAB
  0
TABLE
  2
APPID
  5
9
330
0
100
AcDbSymbolTable
 70
     1
  0
APPID
  5
12
330
9
100
AcDbSymbolTableRecord
100
AcDbRegAppTableRecord
  2
ACAD
 70
     0
  0
ENDTAB
  0
TABLE
  2
DIMSTYLE
  5
A
330
0
100
AcDbSymbolTable
 70
     1
100
AcDbDimStyleTable
  0
DIMSTYLE
105
27
330
A
100
AcDbSymbolTableRecord
100
AcDbDimStyleTableRecord
  2
ISO-25
 70
     0
 41
2.5
 42
0.625
 43
3.75
 44
1.25
 73
     0
 74
     0
 77
     1
 78
     8
140
2.5
141
2.5
143
0.0393700787
147
0.625
171
     3
172
     1
178
     0
271
     2
272
     2
274
     3
278
    44
283
     0
284
     8
340
11
  0
ENDTAB
  0
TABLE
  2
BLOCK_RECORD
  5
1
330
0
100
AcDbSymbolTable
 70
     3
  0
BLOCK_RECORD
  5
1F
330
1
100
AcDbSymbolTableRecord
100
AcDbBlockTableRecord
  2
*Model_Space
340
22
  0
BLOCK_RECORD
  5
1B
330
1
100
AcDbSymbolTableRecord
100
AcDbBlockTableRecord
  2
*Paper_Space
340
1E
  0
BLOCK_RECORD
  5
23
330
1
100
AcDbSymbolTableRecord
100
AcDbBlockTableRecord
  2
*Paper_Space0
340
26
  0
BLOCK_RECORD
  5
287
330
1
100
AcDbSymbolTableRecord
100
AcDbBlockTableRecord
  2
*Paper_Space1
340
288
  0
BLOCK_RECORD
  5
2D3
330
1
100
AcDbSymbolTableRecord
100
AcDbBlockTableRecord
  2
*Paper_Space2
340
2D4
  0
ENDTAB
  0
ENDSEC
  0
SECTION
  2
BLOCKS
  0
BLOCK
  5
20
330
1F
100
AcDbEntity
  8
0
100
AcDbBlockBegin
  2
*Model_Space
 70
     0
 10
0.0
 20
0.0
 30
0.0
  3
*Model_Space
  1

  0
ENDBLK
  5
21
330
1F
100
AcDbEntity
  8
0
100
AcDbBlockEnd
  0
BLOCK
  5
1C
330
1B
100
AcDbEntity
 67
     1
  8
0
100
AcDbBlockBegin
  2
*Paper_Space
 70
     0
 10
0.0
 20
0.0
 30
0.0
  3
*Paper_Space
  1

  0
ENDBLK
  5
1D
330
1B
100
AcDbEntity
 67
     1
  8
0
100
AcDbBlockEnd
  0
BLOCK
  5
24
330
23
100
AcDbEntity
  8
0
100
AcDbBlockBegin
  2
*Paper_Space0
 70
     0
 10
0.0
 20
0.0
 30
0.0
  3
*Paper_Space0
  1

  0
SPLINE
  5
246
330
23
100
AcDbEntity
  8
0
  6
Continuous
 62
     7
370
    25
100
AcDbSpline
210
0.0
220
0.0
230
1.0
 70
     8
 71
     3
 72
    36
 73
    32
 74
     0
 42
0.000000001
 43
0.00000001
 40
0.0
 40
0.0
 40
0.0
 40
0.0
 40
0.125000000000003
 40
0.125000000000003
 40
0.1562500000000036
 40
0.1562500000000036
 40
0.1875000000000042
 40
0.1875000000000042
 40
0.2500000000000053
 40
0.2500000000000053
 40
0.3125000000000066
 40
0.3125000000000066
 40
0.3437500000000057
 40
0.3437500000000057
 40
0.3750000000000057
 40
0.3750000000000057
 40
0.5000000000000048
 40
0.5000000000000048
 40
0.5625000000000042
 40
0.5625000000000042
 40
0.5937500000000034
 40
0.5937500000000034
 40
0.6250000000000027
 40
0.6250000000000027
 40
0.7500000000000027
 40
0.7500000000000027
 40
0.8125000000000018
 40
0.8125000000000018
 40
0.8750000000000008
 40
0.8750000000000008
 40
1.0
 40
1.0
 40
1.0
 40
1.0
 10
-132.5006971924805
 20
-0.1039563677724675
 30
0.0
 10
-134.8089516342147
 20
-0.1108999960958423
 30
0.0
 10
-137.09186119442
 20
-0.1170396158875348
 30
0.0
 10
-139.9139051942844
 20
-0.1237142832065108
 30
0.0
 10
-140.477621603939
 20
-0.1250015308405655
 30
0.0
 10
-141.5920492742488
 20
-0.1274562973068577
 30
0.0
 10
-142.1438144382819
 20
-0.1286264673738685
 30
0.0
 10
-143.7830622451002
 20
-0.1319722761643077
 30
0.0
 10
-144.8545374589362
 20
-0.1339834596327943
 30
0.0
 10
-146.955377535166
 20
-0.1376001214943995
 30
0.0
 10
-147.9847374679719
 20
-0.1392060903133985
 30
0.0
 10
-149.4966925226877
 20
-0.1413156364923757
 30
0.0
 10
-149.9953209752603
 20
-0.141968897914943
 30
0.0
 10
-150.9816645478956
 20
-0.1431758972306463
 30
0.0
 10
-151.4695521684803
 20
-0.1437295236258046
 30
0.0
 10
-153.8546926449353
 20
-0.1462240630495104
 30
0.0
 10
-155.612697747
 20
-0.1473791784525058
 30
0.0
 10
-158.0293819614396
 20
-0.1479192024171627
 30
0.0
 10
-158.7979595152851
 20
-0.1478987154529682
 30
0.0
 10
-159.8936215465038
 20
-0.1475555428627207
 30
0.0
 10
-160.2485984415052
 20
-0.1473888498289694
 30
0.0
 10
-160.931785704654
 20
-0.1469547667698884
 30
0.0
 10
-161.2609569321642
 20
-0.146687146302546
 30
0.0
 10
-162.8456685414627
 20
-0.1450994110473586
 30
0.0
 10
-163.9194432570332
 20
-0.143033183761257
 30
0.0
 10
-165.2368972947736
 20
-0.138667524503866
 30
0.0
 10
-165.6282090405591
 20
-0.1369865950841542
 30
0.0
 10
-166.2953820277778
 20
-0.1332278040184348
 30
0.0
 10
-166.5731214871832
 20
-0.1311474259129142
 30
0.0
 10
-167.2421496544686
 20
-0.1242943194102175
 30
0.0
 10
-167.4704910031717
 20
-0.1189017344875032
 30
0.0
 10
-167.4735832191727
 20
-0.1126740548583888
 30
0.0
  0
SPLINE
  5
24C
330
23
100
AcDbEntity
  8
0
  6
Continuous
 62
     7
370
    25
100
AcDbSpline
210
0.0
220
0.0
230
1.0
 70
     8
 71
     3
 72
    26
 73
    22
 74
     0
 42
0.000000001
 43
0.00000001
 40
0.0
 40
0.0
 40
0.0
 40
0.0
 40
0.1250000000000013
 40
0.1250000000000013
 40
0.2500000000000026
 40
0.2500000000000026
 40
0.3750000000000039
 40
0.3750000000000039
 40
0.5000000000000052
 40
0.5000000000000052
 40
0.6250000000000066
 40
0.6250000000000066
 40
0.6875000000000054
 40
0.6875000000000054
 40
0.7500000000000042
 40
0.7500000000000042
 40
0.8125000000000031
 40
0.8125000000000031
 40
0.875000000000002
 40
0.875000000000002
 40
1.0
 40
1.0
 40
1.0
 40
1.0
 10
62.94436524219221
 20
-149.0
 30
0.0
 10
62.65138780497437
 20
-149.0000000000001
 30
0.0
 10
62.35479454331951
 20
-148.9651127021993
 30
0.0
 10
61.75457201250274
 20
-148.8319068764122
 30
0.0
 10
61.44911006885491
 20
-148.7327367513271
 30
0.0
 10
60.84086553899943
 20
-148.4742851692644
 30
0.0
 10
60.53982631029022
 20
-148.3161917323262
 30
0.0
 10
59.94585251931204
 20
-147.9419233314484
 30
0.0
 10
59.65286997454675
 20
-147.7258586252433
 30
0.0
 10
59.07948883484293
 20
-147.2270743418424
 30
0.0
 10
58.80307850479982
 20
-146.9474351986223
 30
0.0
 10
58.41792499049718
 20
-146.4824454206696
 30
0.0
 10
58.29411455645417
 20
-146.3194615516866
 30
0.0
 10
58.05763373322372
 20
-145.9751416717644
 30
0.0
 10
57.94432679367346
 20
-145.7925914452064
 30
0.0
 10
57.73588647350361
 20
-145.4130526711878
 30
0.0
 10
57.64056148013399
 20
-145.2160678480281
 30
0.0
 10
57.47078365719279
 20
-144.8056753869582
 30
0.0
 10
57.39586803260273
 20
-144.5905833022991
 30
0.0
 10
57.21253252653104
 20
-143.928335696829
 30
0.0
 10
57.14648808654088
 20
-143.4724762045376
 30
0.0
 10
57.14648808654087
 20
-143.0
 30
0.0
  0
SPLINE
  5
24E
330
23
100
AcDbEntity
  8
0
  6
Continuous
 62
     7
370
    25
100
AcDbSpline
210
0.0
220
0.0
230
1.0
 70
     8
 71
     3
 72
    22
 73
    18
 74
     0
 42
0.000000001
 43
0.00000001
 40
0.0
 40
0.0
 40
0.0
 40
0.0
 40
0.0625000000000034
 40
0.0625000000000034
 40
0.1250000000000067
 40
0.1250000000000067
 40
0.250000000000006
 40
0.250000000000006
 40
0.3750000000000053
 40
0.3750000000000053
 40
0.5000000000000046
 40
0.5000000000000046
 40
0.7500000000000012
 40
0.7500000000000012
 40
0.8750000000000006
 40
0.8750000000000006
 40
1.0
 40
1.0
 40
1.0
 40
1.0
 10
57.77844931952909
 20
-143.0
 30
0.0
 10
57.77844931952912
 20
-143.2129207756099
 30
0.0
 10
57.7983940509969
 20
-143.4215575682923
 30
0.0
 10
57.87419710943212
 20
-143.8310885615591
 30
0.0
 10
57.93063736037236
 20
-144.0332124482306
 30
0.0
 10
58.14446325916467
 20
-144.6155621275904
 30
0.0
 10
58.33950574239434
 20
-144.9619271306618
 30
0.0
 10
58.79381180225045
 20
-145.5969435284119
 30
0.0
 10
59.04729849851033
 20
-145.876557432828
 30
0.0
 10
59.58141354418002
 20
-146.3781599313837
 30
0.0
 10
59.8653859104116
 20
-146.6022667734808
 30
0.0
 10
60.734666212691
 20
-147.195112187139
 30
0.0
 10
61.33167552784716
 20
-147.4861807690063
 30
0.0
 10
62.23875198886539
 20
-147.7903511614055
 30
0.0
 10
62.5411309009543
 20
-147.8678973228884
 30
0.0
 10
63.13758031221433
 20
-147.9725065484667
 30
0.0
 10
63.43282882810323
 20
-148.0
 30
0.0
 10
63.72498999199201
 20
-148.0
 30
0.0
  0
SPLINE
  5
254
330
23
100
AcDbEntity
  8
0
  6
Continuous
 62
     8
370
    25
100
AcDbSpline
210
0.0
220
0.0
230
1.0
 70
     8
 71
     3
 72
     9
 73
     5
 74
     0
 42
0.000000001
 43
0.00000001
 40
0.0
 40
0.0
 40
0.0
 40
0.0
 40
0.8411985633647939
 40
1.0
 40
1.0
 40
1.0
 40
1.0
 10
232.5000000000018
 20
0.102611788796364
 30
0.0
 10
232.3339719698083
 20
0.098108417090112
 30
0.0
 10
232.1366011736322
 20
0.0927548990238974
 30
0.0
 10
231.9391713142857
 20
0.0915796313146477
 30
0.0
 10
231.9078191689868
 20
0.0913929971139843
 30
0.0
  0
LWPOLYLINE
  5
258
330
23
100
AcDbEntity
  8
0
  6
Continuous
 62
     8
370
    25
100
AcDbPolyline
 90
        3
 70
   128
 43
0.0
 10
62.5
 20
-0.103840599
 10
-35.0004814213
 20
-0.0305744078
 10
-132.5006971925
 20
-0.1039563678
  0
LINE
  5
25E
330
23
100
AcDbEntity
  8
0
  6
Continuous
 62
     7
370
    25
100
AcDbLine
 10
-167.5
 20
0.0
 30
0.0
 11
-137.5
 21
-128.0
 31
0.0
  0
LINE
  5
25F
330
23
100
AcDbEntity
  8
0
  6
Continuous
 62
     7
370
    25
100
AcDbLine
 10
-80.5
 20
-127.9585790305
 30
0.0
 11
190.5
 21
-127.9585790305
 31
0.0
  0
LINE
  5
260
330
23
100
AcDbEntity
  8
0
  6
Continuous
 62
     7
370
    25
100
AcDbLine
 10
71.5
 20
-152.0
 30
0.0
 11
71.5
 21
-149.0
 31
0.0
  0
LINE
  5
261
330
23
100
AcDbEntity
  8
0
  6
Continuous
 62
     7
370
    25
100
AcDbLine
 10
-6.5
 20
-128.0
 30
0.0
 11
-6.5
 21
-152.0
 31
0.0
  0
LINE
  5
262
330
23
100
AcDbEntity
  8
0
  6
Continuous
 62
     7
370
    25
100
AcDbLine
 10
-223.2970785305
 20
0.0
 30
0.0
 11
-223.2970785305
 21
1.0523359562
 31
0.0
  0
LINE
  5
263
330
23
100
AcDbEntity
  8
0
  6
Continuous
 62
     7
370
    25
100
AcDbLine
 10
231.5
 20
0.0
 30
0.0
 11
-232.2847443432
 21
0.0
 31
0.0
  0
LINE
  5
264
330
23
100
AcDbEntity
  8
0
  6
Continuous
 62
     7
370
    25
100
AcDbLine
 10
230.5
 20
0.0
 30
0.0
 11
230.5
 21
16.0
 31
0.0
  0
LINE
  5
265
330
23
100
AcDbEntity
  8
0
  6
Continuous
 62
     7
370
    25
100
AcDbLine
 10
-223.2970785305
 20
1.0523359562
 30
0.0
 11
230.5
 21
1.0523359562
 31
0.0
  0
LINE
  5
266
330
23
100
AcDbEntity
  8
0
  6
Continuous
 62
     7
370
    25
100
AcDbLine
 10
230.5
 20
11.2616797812
 30
0.0
 11
-222.7620294927
 21
11.2616797812
 31
0.0
  0
LINE
  5
267
330
23
100
AcDbEntity
  8
0
  6
Continuous
 62
     7
370
    25
100
AcDbLine
 10
-222.7620294927
 20
11.2616797812
 30
0.0
 11
-223.2970785305
 21
1.0523359562
 31
0.0
  0
LINE
  5
268
330
23
100
AcDbEntity
  8
0
  6
Continuous
 62
     7
370
    25
100
AcDbLine
 10
-233.283373878
 20
1.0523359562
 30
0.0
 11
-232.7483248402
 21
11.2616797812
 31
0.0
  0
LINE
  5
269
330
23
100
AcDbEntity
  8
0
  6
Continuous
 62
     7
370
    25
100
AcDbLine
 10
232.5
 20
14.0
 30
0.0
 11
232.5
 21
1.0
 31
0.0
  0
LINE
  5
26A
330
23
100
AcDbEntity
  8
0
  6
Continuous
 62
     7
370
    25
100
AcDbLine
 10
-227.7551771664
 20
16.0
 30
0.0
 11
230.5
 21
16.0
 31
0.0
  0
LINE
  5
26B
330
23
100
AcDbEntity
  8
0
  6
Continuous
 62
     7
370
    25
100
AcDbLine
 10
-222.7620294927
 20
16.0
 30
0.0
 11
-222.7620294927
 21
11.2616797812
 31
0.0
  0
LINE
  5
26C
330
23
100
AcDbEntity
  8
0
  6
Continuous
 62
     7
370
    25
100
AcDbLine
 10
232.5
 20
-128.0
 30
0.0
 11
-137.5
 21
-128.0
 31
0.0
  0
LINE
  5
26D
330
23
100
AcDbEntity
  8
0
  6
Continuous
 62
     7
370
    25
100
AcDbLine
 10
232.5
 20
-128.0
 30
0.0
 11
232.5
 21
0.82499
 31
0.0
  0
LINE
  5
26E
330
23
100
AcDbEntity
  8
0
  6
Continuous
 62
     7
370
    25
100
AcDbLine
 10
70.4999999728
 20
-153.0
 30
0.0
 11
-5.5
 21
-153.0
 31
0.0
  0
LINE
  5
26F
330
23
100
AcDbEntity
  8
0
  6
Continuous
 62
     7
370
    25
100
AcDbLine
 10
57.1464880865
 20
-143.0
 30
0.0
 11
102.8004714505
 21
-143.0
 31
0.0
  0
LINE
  5
270
330
23
100
AcDbEntity
  8
0
  6
Continuous
 62
     7
370
    25
100
AcDbLine
 10
102.8004714505
 20
-143.0
 30
0.0
 11
102.8004714505
 21
-148.0
 31
0.0
  0
LINE
  5
271
330
23
100
AcDbEntity
  8
0
  6
Continuous
 62
     7
370
    25
100
AcDbLine
 10
102.8004714505
 20
-148.0
 30
0.0
 11
63.724989992
 21
-148.0
 31
0.0
  0
LINE
  5
272
330
23
100
AcDbEntity
  8
0
  6
Continuous
 62
     8
370
    25
100
AcDbLine
 10
-132.5003523936
 20
0.0
 30
0.0
 11
-132.5006971925
 21
-0.1039563678
 31
0.0
  0
LINE
  5
273
330
23
100
AcDbEntity
  8
0
  6
Continuous
 62
     8
370
    25
100
AcDbLine
 10
232.5
 20
-0.103840599
 30
0.0
 11
231.8342411255
 21
-0.103840599
 31
0.0
  0
LINE
  5
274
330
23
100
AcDbEntity
  8
0
  6
Continuous
 62
     8
370
    25
100
AcDbLine
 10
-6.5
 20
-152.0
 30
0.0
 11
71.5
 21
-152.0
 31
0.0
  0
LINE
  5
275
330
23
100
AcDbEntity
  8
0
  6
Continuous
 62
     8
370
    25
100
AcDbLine
 10
71.5
 20
-149.0
 30
0.0
 11
62.9443652422
 21
-149.0
 31
0.0
  0
LINE
  5
276
330
23
100
AcDbEntity
  8
0
  6
Continuous
 62
     8
370
    25
100
AcDbLine
 10
57.1464880865
 20
-143.0
 30
0.0
 11
57.1464880865
 21
-128.0
 31
0.0
  0
LINE
  5
277
330
23
100
AcDbEntity
  8
0
  6
Continuous
 62
     8
370
    25
100
AcDbLine
 10
57.7784493195
 20
-128.0
 30
0.0
 11
57.7784493195
 21
-143.0
 31
0.0
  0
ARC
  5
278
330
23
100
AcDbEntity
  8
0
  6
Continuous
 62
     7
370
    25
100
AcDbCircle
 10
70.5
 20
-152.0
 30
0.0
 40
1.000000000000028
100
AcDbArc
 50
270.0
 51
360.0
  0
ARC
  5
279
330
23
100
AcDbEntity
  8
0
  6
Continuous
 62
     7
370
    25
100
AcDbCircle
 10
-5.5
 20
-152.0
 30
0.0
 40
1.000000000000028
100
AcDbArc
 50
180.0
 51
270.0
  0
ARC
  5
27A
330
23
100
AcDbEntity
  8
0
  6
Continuous
 62
     7
370
    25
100
AcDbCircle
 10
72.5
 20
-149.0
 30
0.0
 40
1.000000000000014
100
AcDbArc
 50
90.0
 51
180.0
  0
ARC
  5
27B
330
23
100
AcDbEntity
  8
0
  6
Continuous
 62
     7
370
    25
100
AcDbCircle
 10
-232.2847443432
 20
1.0
 30
0.0
 40
1.000000000000054
100
AcDbArc
 50
177.0
 51
270.0
  0
ARC
  5
27C
330
23
100
AcDbEntity
  8
0
  6
Continuous
 62
     7
370
    25
100
AcDbCircle
 10
-228.2902262042
 20
-477.5714413808
 30
0.0
 40
478.6498216400469
100
AcDbArc
 50
89.4022948214
 51
90.5977051786
  0
ARC
  5
27D
330
23
100
AcDbEntity
  8
0
  6
Continuous
 62
     7
370
    25
100
AcDbCircle
 10
231.0201863571
 20
-17.3097401572
 30
0.0
 40
18.36944291592897
100
AcDbArc
 50
85.3793344727
 51
91.622720287
  0
ARC
  5
27E
330
23
100
AcDbEntity
  8
0
  6
Continuous
 62
     7
370
    25
100
AcDbCircle
 10
231.5
 20
1.0
 30
0.0
 40
1.000000000000001
100
AcDbArc
 50
270.0
 51
0.0
  0
ARC
  5
27F
330
23
100
AcDbEntity
  8
0
  6
Continuous
 62
     7
370
    25
100
AcDbCircle
 10
-227.7551771664
 20
-84.4918926964
 30
0.0
 40
95.88366996480599
100
AcDbArc
 50
87.0149687808
 51
92.9850312192
  0
ARC
  5
280
330
23
100
AcDbEntity
  8
0
  6
Continuous
 62
     7
370
    25
100
AcDbCircle
 10
230.9986304738
 20
1.6295145422
 30
0.0
 40
9.645062962007872
100
AcDbArc
 50
81.0448095014
 51
92.9633983002
  0
ARC
  5
281
330
23
100
AcDbEntity
  8
0
  6
Continuous
 62
     7
370
    25
100
AcDbCircle
 10
-227.7551771664
 20
11.0
 30
0.0
 40
5.000000000000071
100
AcDbArc
 50
90.0
 51
177.0
  0
ARC
  5
282
330
23
100
AcDbEntity
  8
0
  6
Continuous
 62
     7
370
    25
100
AcDbCircle
 10
230.5
 20
14.0
 30
0.0
 40
1.999999999999979
100
AcDbArc
 50
0.0
 51
90.0
  0
ARC
  5
283
330
23
100
AcDbEntity
  8
0
  6
Continuous
 62
     7
370
    25
100
AcDbCircle
 10
63.8500901122
 20
-148.90234375
 30
0.0
 40
0.9109743592594609
100
AcDbArc
 50
97.8931209029
 51
186.1539201034
  0
ARC
  5
284
330
23
100
AcDbEntity
  8
0
  6
Continuous
 62
     7
370
    25
100
AcDbCircle
 10
102.8004714505
 20
-118.0
 30
0.0
 40
30.00000000000003
100
AcDbArc
 50
270.0
 51
340.5287793655
  0
ARC
  5
285
330
23
100
AcDbEntity
  8
0
  6
Continuous
 62
     8
370
    25
100
AcDbCircle
 10
-166.5000086806
 20
0.115657419
 30
0.0
 40
0.9999913220725213
100
AcDbArc
 50
186.6416033094
 51
193.1989751328
  0
ARC
  5
286
330
23
100
AcDbEntity
  8
0
  6
Continuous
 62
     8
370
    25
100
AcDbCircle
 10
102.8004714505
 20
-118.0
 30
0.0
 40
24.99999999999999
100
AcDbArc
 50
270.0
 51
336.4218215218
  0
VIEWPORT
  5
3DD
330
23
100
AcDbEntity
  8
0
100
AcDbViewport
 10
0.0
 20
0.0
 30
0.0
 40
205.6
 41
156.0
 68
     1
 69
     1
 12
0.0
 22
0.3923721716
 13
0.0
 23
0.0
 14
10.0
 24
10.0
 15
10.0
 25
10.0
 16
0.0
 26
0.0
 36
1.0
 17
0.0
 27
0.0
 37
0.0
 42
50.0
 43
0.0
 44
0.0
 45
631.967592606
 50
0.0
 51
0.0
 72
   100
 90
   557152
  1

281
     0
 71
     1
 74
     0
110
0.0
120
0.0
130
0.0
111
1.0
121
0.0
131
0.0
112
0.0
122
1.0
132
0.0
 79
     0
146
0.0
  0
ENDBLK
  5
25
330
23
100
AcDbEntity
  8
0
100
AcDbBlockEnd
  0
BLOCK
  5
289
330
287
100
AcDbEntity
  8
0
100
AcDbBlockBegin
  2
*Paper_Space1
 70
     0
 10
0.0
 20
0.0
 30
0.0
  3
*Paper_Space1
  1

  0
SPLINE
  5
2A9
330
287
100
AcDbEntity
  8
0
  6
Continuous
 62
     7
370
    25
100
AcDbSpline
210
0.0
220
0.0
230
1.0
 70
     8
 71
     3
 72
    36
 73
    32
 74
     0
 42
0.000000001
 43
0.00000001
 40
0.0
 40
0.0
 40
0.0
 40
0.0
 40
0.1249999999999976
 40
0.1249999999999976
 40
0.1562499999999982
 40
0.1562499999999982
 40
0.1874999999999988
 40
0.1874999999999988
 40
0.2499999999999997
 40
0.2499999999999997
 40
0.3125000000000005
 40
0.3125000000000005
 40
0.3437500000000006
 40
0.3437500000000006
 40
0.3750000000000006
 40
0.3750000000000006
 40
0.499999999999998
 40
0.499999999999998
 40
0.5624999999999967
 40
0.5624999999999967
 40
0.5937499999999966
 40
0.5937499999999966
 40
0.6249999999999966
 40
0.6249999999999966
 40
0.7499999999999976
 40
0.7499999999999976
 40
0.812499999999998
 40
0.812499999999998
 40
0.8749999999999984
 40
0.8749999999999984
 40
1.0
 40
1.0
 40
1.0
 40
1.0
 10
-220.0006882110848
 20
-0.112674054817366
 30
0.0
 10
-222.3089163644074
 20
-0.1189018473732872
 30
0.0
 10
-224.5918539767651
 20
-0.1243303875089058
 30
0.0
 10
-227.4139010095652
 20
-0.1300954796168569
 30
0.0
 10
-227.977628875396
 20
-0.1311995428727314
 30
0.0
 10
-229.0920883627838
 20
-0.1332889023282907
 30
0.0
 10
-229.6438657046525
 20
-0.1342764950056224
 30
0.0
 10
-231.2831468347009
 20
-0.1370745600937084
 30
0.0
 10
-232.3546393761475
 20
-0.138720576335627
 30
0.0
 10
-234.4555688501146
 20
-0.1416048825060717
 30
0.0
 10
-235.4850055682099
 20
-0.1428458152502587
 30
0.0
 10
-236.9970840339722
 20
-0.1444072611214986
 30
0.0
 10
-237.4957552612334
 20
-0.1448776104136379
 30
0.0
 10
-238.4821847332637
 20
-0.1457176269076682
 30
0.0
 10
-238.9701265505369
 20
-0.1460871051294638
 30
0.0
 10
-241.3555477316739
 20
-0.1476664506602499
 30
0.0
 10
-243.1137820481508
 20
-0.148101134615844
 30
0.0
 10
-245.5308863662062
 20
-0.1475522233221616
 30
0.0
 10
-246.2996041969255
 20
-0.1471681229541361
 30
0.0
 10
-247.3954833169052
 20
-0.1462751017897584
 30
0.0
 10
-247.7505290088042
 20
-0.1459247012051412
 30
0.0
 10
-248.4338604227239
 20
-0.1451251841428219
 30
0.0
 10
-248.7631061067493
 20
-0.1446753415257629
 30
0.0
 10
-250.3482032111681
 20
-0.1421779337289902
 30
0.0
 10
-251.4223841901331
 20
-0.1393893398237145
 30
0.0
 10
-252.7400814206041
 20
-0.1339181515885579
 30
0.0
 10
-253.131412012032
 20
-0.1318657523569217
 30
0.0
 10
-253.7986380811214
 20
-0.1273742183203058
 30
0.0
 10
-254.0764181211896
 20
-0.1249314221607317
 30
0.0
 10
-254.7457095199241
 20
-0.1169995430601034
 30
0.0
 10
-254.974517641941
 20
-0.1108999493420609
 30
0.0
 10
-254.9776566878175
 20
-0.1039563678177507
 30
0.0
  0
SPLINE
  5
2AA
330
287
100
AcDbEntity
  8
0
  6
Continuous
 62
     7
370
    25
100
AcDbSpline
210
0.0
220
0.0
230
1.0
 70
     8
 71
     3
 72
    36
 73
    32
 74
     0
 42
0.000000001
 43
0.00000001
 40
0.0
 40
0.0
 40
0.0
 40
0.0
 40
0.125000000000003
 40
0.125000000000003
 40
0.1562500000000036
 40
0.1562500000000036
 40
0.1875000000000042
 40
0.1875000000000042
 40
0.2500000000000053
 40
0.2500000000000053
 40
0.3125000000000066
 40
0.3125000000000066
 40
0.3437500000000057
 40
0.3437500000000057
 40
0.3750000000000057
 40
0.3750000000000057
 40
0.5000000000000048
 40
0.5000000000000048
 40
0.5625000000000042
 40
0.5625000000000042
 40
0.5937500000000034
 40
0.5937500000000034
 40
0.6250000000000027
 40
0.6250000000000027
 40
0.7500000000000027
 40
0.7500000000000027
 40
0.8125000000000018
 40
0.8125000000000018
 40
0.8750000000000008
 40
0.8750000000000008
 40
1.0
 40
1.0
 40
1.0
 40
1.0
 10
254.977656687838
 20
-0.1039563677724675
 30
0.0
 10
254.9745176217764
 20
-0.1108999960958423
 30
0.0
 10
254.7456670137864
 20
-0.1170396158875348
 30
0.0
 10
254.1782494247656
 20
-0.1237142832065108
 30
0.0
 10
254.0503054823838
 20
-0.1250015308405655
 30
0.0
 10
253.7682968210061
 20
-0.1274562973068577
 30
0.0
 10
253.6140677173278
 20
-0.1286264673738685
 30
0.0
 10
253.1124301921298
 20
-0.1319722761643077
 30
0.0
 10
252.726169264083
 20
-0.1339834596327943
 30
0.0
 10
251.8514391841861
 20
-0.1376001214943995
 30
0.0
 10
251.3629580697526
 20
-0.1392060903133985
 30
0.0
 10
250.5523616446456
 20
-0.1413156364923757
 30
0.0
 10
250.2691616443328
 20
-0.141968897914943
 30
0.0
 10
249.676273350636
 20
-0.1431758972306463
 30
0.0
 10
249.3663531683217
 20
-0.1437295236258046
 30
0.0
 10
247.767579759814
 20
-0.1462240630495104
 30
0.0
 10
246.3199787440687
 20
-0.1473791784525058
 30
0.0
 10
243.901136680769
 20
-0.1479192024171627
 30
0.0
 10
243.0533202211614
 20
-0.1478987154529682
 30
0.0
 10
241.717350605372
 20
-0.1475555428627207
 30
0.0
 10
241.2620029113375
 20
-0.1473888498289694
 30
0.0
 10
240.3398207058876
 20
-0.1469547667698884
 30
0.0
 10
239.8718357609281
 20
-0.146687146302546
 30
0.0
 10
237.4979787376155
 20
-0.1450994110473586
 30
0.0
 10
235.4912353829606
 20
-0.143033183761257
 30
0.0
 10
232.3184039361769
 20
-0.138667524503866
 30
0.0
 10
231.2278027068982
 20
-0.1369865950841542
 30
0.0
 10
229.0335015311048
 20
-0.1332278040184348
 30
0.0
 10
227.9267735602256
 20
-0.1311474259129142
 30
0.0
 10
224.5784321987373
 20
-0.1242943194102175
 30
0.0
 10
222.308874526301
 20
-0.1189017344875032
 30
0.0
 10
220.0006882263431
 20
-0.1126740548583888
 30
0.0
  0
LINE
  5
2B4
330
287
100
AcDbEntity
  8
0
  6
Continuous
 62
     7
370
    25
100
AcDbLine
 10
227.5
 20
-128.0
 30
0.0
 11
255.0
 21
0.0
 31
0.0
  0
LINE
  5
2B5
330
287
100
AcDbEntity
  8
0
  6
Continuous
 62
     7
370
    25
100
AcDbLine
 10
-255.0
 20
0.0
 30
0.0
 11
-227.5
 21
-128.0
 31
0.0
  0
LINE
  5
2B6
330
287
100
AcDbEntity
  8
0
  6
Continuous
 62
     7
370
    25
100
AcDbLine
 10
39.0
 20
-152.0
 30
0.0
 11
39.0
 21
-128.0
 31
0.0
  0
LINE
  5
2B7
330
287
100
AcDbEntity
  8
0
  6
Continuous
 62
     7
370
    25
100
AcDbLine
 10
-39.0
 20
-128.0
 30
0.0
 11
-39.0
 21
-152.0
 31
0.0
  0
LINE
  5
2B8
330
287
100
AcDbEntity
  8
0
  6
Continuous
 62
     7
370
    25
100
AcDbLine
 10
407.2847443432
 20
0.0
 30
0.0
 11
-407.2847443432
 21
0.0
 31
0.0
  0
LINE
  5
2B9
330
287
100
AcDbEntity
  8
0
  6
Continuous
 62
     7
370
    25
100
AcDbLine
 10
-398.2970785305
 20
0.0
 30
0.0
 11
-398.2970785305
 21
1.0523359562
 31
0.0
  0
LINE
  5
2BA
330
287
100
AcDbEntity
  8
0
  6
Continuous
 62
     7
370
    25
100
AcDbLine
 10
-398.2970785305
 20
1.0523359562
 30
0.0
 11
398.2970785305
 21
1.0523359562
 31
0.0
  0
LINE
  5
2BB
330
287
100
AcDbEntity
  8
0
  6
Continuous
 62
     7
370
    25
100
AcDbLine
 10
398.2970785305
 20
0.0
 30
0.0
 11
398.2970785305
 21
1.0523359562
 31
0.0
  0
LINE
  5
2BC
330
287
100
AcDbEntity
  8
0
  6
Continuous
 62
     7
370
    25
100
AcDbLine
 10
-397.7620294927
 20
11.2616797812
 30
0.0
 11
-398.2970785305
 21
1.0523359562
 31
0.0
  0
LINE
  5
2BD
330
287
100
AcDbEntity
  8
0
  6
Continuous
 62
     7
370
    25
100
AcDbLine
 10
-408.283373878
 20
1.0523359562
 30
0.0
 11
-407.7483248402
 21
11.2616797812
 31
0.0
  0
LINE
  5
2BE
330
287
100
AcDbEntity
  8
0
  6
Continuous
 62
     7
370
    25
100
AcDbLine
 10
397.7620294927
 20
11.2616797812
 30
0.0
 11
-397.7620294927
 21
11.2616797812
 31
0.0
  0
LINE
  5
2BF
330
287
100
AcDbEntity
  8
0
  6
Continuous
 62
     7
370
    25
100
AcDbLine
 10
398.2970785305
 20
1.0523359562
 30
0.0
 11
397.7620294927
 21
11.2616797812
 31
0.0
  0
LINE
  5
2C0
330
287
100
AcDbEntity
  8
0
  6
Continuous
 62
     7
370
    25
100
AcDbLine
 10
407.7483248402
 20
11.2616797812
 30
0.0
 11
408.283373878
 21
1.0523359562
 31
0.0
  0
LINE
  5
2C1
330
287
100
AcDbEntity
  8
0
  6
Continuous
 62
     7
370
    25
100
AcDbLine
 10
-402.7551771664
 20
16.0
 30
0.0
 11
402.7551771664
 21
16.0
 31
0.0
  0
LINE
  5
2C2
330
287
100
AcDbEntity
  8
0
  6
Continuous
 62
     7
370
    25
100
AcDbLine
 10
397.7620294927
 20
16.0
 30
0.0
 11
397.7620294927
 21
11.2616797812
 31
0.0
  0
LINE
  5
2C3
330
287
100
AcDbEntity
  8
0
  6
Continuous
 62
     7
370
    25
100
AcDbLine
 10
-397.7620294927
 20
16.0
 30
0.0
 11
-397.7620294927
 21
11.2616797812
 31
0.0
  0
LINE
  5
2C4
330
287
100
AcDbEntity
  8
0
  6
Continuous
 62
     7
370
    25
100
AcDbLine
 10
227.5
 20
-128.0
 30
0.0
 11
-227.5
 21
-128.0
 31
0.0
  0
LINE
  5
2C5
330
287
100
AcDbEntity
  8
0
  6
Continuous
 62
     7
370
    25
100
AcDbLine
 10
38.0
 20
-153.0
 30
0.0
 11
-38.0
 21
-153.0
 31
0.0
  0
LINE
  5
2C6
330
287
100
AcDbEntity
  8
0
  6
Continuous
 62
     8
370
    25
100
AcDbLine
 10
-220.0003485942
 20
0.0
 30
0.0
 11
-220.0006882111
 21
-0.1126740548
 31
0.0
  0
LINE
  5
2C7
330
287
100
AcDbEntity
  8
0
  6
Continuous
 62
     8
370
    25
100
AcDbLine
 10
220.0003486093
 20
0.0
 30
0.0
 11
220.0006882263
 21
-0.1126740549
 31
0.0
  0
LINE
  5
2C8
330
287
100
AcDbEntity
  8
0
  6
Continuous
 62
     8
370
    25
100
AcDbLine
 10
-39.0
 20
-152.0
 30
0.0
 11
39.0
 21
-152.0
 31
0.0
  0
ARC
  5
2C9
330
287
100
AcDbEntity
  8
0
  6
Continuous
 62
     7
370
    25
100
AcDbCircle
 10
38.0
 20
-152.0
 30
0.0
 40
1.0
100
AcDbArc
 50
270.0
 51
0.0
  0
ARC
  5
2CA
330
287
100
AcDbEntity
  8
0
  6
Continuous
 62
     7
370
    25
100
AcDbCircle
 10
-38.0
 20
-152.0
 30
0.0
 40
1.000000000000007
100
AcDbArc
 50
180.0
 51
270.0
  0
ARC
  5
2CB
330
287
100
AcDbEntity
  8
0
  6
Continuous
 62
     7
370
    25
100
AcDbCircle
 10
-407.2847443432
 20
1.0
 30
0.0
 40
1.000000000000159
100
AcDbArc
 50
177.0
 51
270.0
  0
ARC
  5
2CC
330
287
100
AcDbEntity
  8
0
  6
Continuous
 62
     7
370
    25
100
AcDbCircle
 10
-403.2902262042
 20
-477.5714413808
 30
0.0
 40
478.6498216400574
100
AcDbArc
 50
89.4022948214
 51
90.5977051786
  0
ARC
  5
2CD
330
287
100
AcDbEntity
  8
0
  6
Continuous
 62
     7
370
    25
100
AcDbCircle
 10
403.2902262042
 20
-477.5714413808
 30
0.0
 40
478.6498216400508
100
AcDbArc
 50
89.4022948214
 51
90.5977051786
  0
ARC
  5
2CE
330
287
100
AcDbEntity
  8
0
  6
Continuous
 62
     7
370
    25
100
AcDbCircle
 10
407.2847443432
 20
1.0
 30
0.0
 40
1.0
100
AcDbArc
 50
270.0
 51
3.0
  0
ARC
  5
2CF
330
287
100
AcDbEntity
  8
0
  6
Continuous
 62
     7
370
    25
100
AcDbCircle
 10
-402.7551771664
 20
-84.4918926964
 30
0.0
 40
95.88366996481693
100
AcDbArc
 50
87.0149687808
 51
92.9850312192
  0
ARC
  5
2D0
330
287
100
AcDbEntity
  8
0
  6
Continuous
 62
     7
370
    25
100
AcDbCircle
 10
402.7551771664
 20
-84.4918926964
 30
0.0
 40
95.88366996480696
100
AcDbArc
 50
87.0149687808
 51
92.9850312192
  0
ARC
  5
2D1
330
287
100
AcDbEntity
  8
0
  6
Continuous
 62
     7
370
    25
100
AcDbCircle
 10
402.7551771664
 20
11.0
 30
0.0
 40
5.000000000000009
100
AcDbArc
 50
3.0
 51
90.0
  0
ARC
  5
2D2
330
287
100
AcDbEntity
  8
0
  6
Continuous
 62
     7
370
    25
100
AcDbCircle
 10
-402.7551771664
 20
11.0
 30
0.0
 40
4.999999999999922
100
AcDbArc
 50
90.0
 51
177.0
  0
VIEWPORT
  5
3DF
330
287
100
AcDbEntity
  8
0
100
AcDbViewport
 10
0.0
 20
0.0
 30
0.0
 40
205.6
 41
156.0
 68
     1
 69
     1
 12
0.0
 22
0.3923721716
 13
0.0
 23
0.0
 14
10.0
 24
10.0
 15
10.0
 25
10.0
 16
0.0
 26
0.0
 36
1.0
 17
0.0
 27
0.0
 37
0.0
 42
50.0
 43
0.0
 44
0.0
 45
631.967592606
 50
0.0
 51
0.0
 72
   100
 90
   557152
  1

281
     0
 71
     1
 74
     0
110
0.0
120
0.0
130
0.0
111
1.0
121
0.0
131
0.0
112
0.0
122
1.0
132
0.0
 79
     0
146
0.0
  0
ENDBLK
  5
28A
330
287
100
AcDbEntity
  8
0
100
AcDbBlockEnd
  0
BLOCK
  5
2D5
330
2D3
100
AcDbEntity
  8
0
100
AcDbBlockBegin
  2
*Paper_Space2
 70
     0
 10
0.0
 20
0.0
 30
0.0
  3
*Paper_Space2
  1

  0
SPLINE
  5
2D7
330
2D3
100
AcDbEntity
  8
0
  6
Continuous
 62
     7
370
    25
100
AcDbSpline
210
0.0
220
0.0
230
1.0
 70
     8
 71
     3
 72
    11
 73
     7
 74
     0
 42
0.000000001
 43
0.00000001
 40
0.0
 40
0.0
 40
0.0
 40
0.0
 40
0.1877989790816122
 40
0.4781614750923872
 40
0.7811584749825309
 40
1.0
 40
1.0
 40
1.0
 40
1.0
 10
123.0905482115874
 20
-260.3952672925926
 30
0.0
 10
123.22832861772
 20
-260.4626857759337
 30
0.0
 10
123.5791360744878
 20
-260.6343423078307
 30
0.0
 10
124.2506417521849
 20
-260.7298074668715
 30
0.0
 10
124.9579204646355
 20
-260.6565975021927
 30
0.0
 10
125.3438183207797
 20
-260.4728746671798
 30
0.0
 10
125.5056509017578
 20
-260.395827489795
 30
0.0
  0
SPLINE
  5
2DA
330
2D3
100
AcDbEntity
  8
0
  6
Continuous
 62
     7
370
    25
100
AcDbSpline
210
0.0
220
0.0
230
1.0
 70
     8
 71
     3
 72
    13
 73
     9
 74
     0
 42
0.000000001
 43
0.00000001
 40
0.0
 40
0.0
 40
0.0
 40
0.0
 40
0.1058335805269178
 40
0.2921244609820594
 40
0.4919770405698382
 40
0.6992288590971749
 40
0.9045467053841212
 40
0.9999999999999999
 40
0.9999999999999999
 40
0.9999999999999999
 40
0.9999999999999999
 10
111.8158383990431
 20
-249.8038118010517
 30
0.0
 10
111.8960746183812
 20
-249.8547014617123
 30
0.0
 10
112.1175446112577
 20
-249.995168359043
 30
0.0
 10
112.5254399090239
 20
-250.385523978562
 30
0.0
 10
112.9590867271041
 20
-250.9900498176763
 30
0.0
 10
113.2855256018519
 20
-251.6891661525787
 30
0.0
 10
113.4237101581364
 20
-252.2585863073556
 30
0.0
 10
113.433888037876
 20
-252.5268582531065
 30
0.0
 10
113.4371181089208
 20
-252.6119975420623
 30
0.0
  0
SPLINE
  5
2DC
330
2D3
100
AcDbEntity
  8
0
  6
Continuous
 62
     7
370
    25
100
AcDbSpline
210
0.0
220
0.0
230
1.0
 70
     8
 71
     3
 72
    11
 73
     7
 74
     0
 42
0.000000001
 43
0.00000001
 40
0.0
 40
0.0
 40
0.0
 40
0.0
 40
0.1877997874752785
 40
0.4778617568459045
 40
0.7807326382501578
 40
1.0
 40
1.0
 40
1.0
 40
1.0
 10
113.4371181089208
 20
-253.4285383539481
 30
0.0
 10
113.4476248079794
 20
-253.5815400970171
 30
0.0
 10
113.4743593945213
 20
-253.9708572667879
 30
0.0
 10
113.7273435345219
 20
-254.599524453506
 30
0.0
 10
114.1442572185967
 20
-255.175182828133
 30
0.0
 10
114.4963903240236
 20
-255.4175514947823
 30
0.0
 10
114.6442655237893
 20
-255.5193320841258
 30
0.0
  0
SPLINE
  5
2DE
330
2D3
100
AcDbEntity
  8
0
  6
Continuous
 62
     7
370
    25
100
AcDbSpline
210
0.0
220
0.0
230
1.0
 70
     8
 71
     3
 72
    12
 73
     8
 74
     0
 42
0.000000001
 43
0.00000001
 40
0.0
 40
0.0
 40
0.0
 40
0.0
 40
0.0239472062060931
 40
0.1163772966264806
 40
0.2282345561487045
 40
0.562674506727106
 40
1.0
 40
1.0
 40
1.0
 40
1.0
 10
17.57334029056884
 20
-196.3766048151253
 30
0.0
 10
17.57219929034909
 20
-196.3796433001884
 30
0.0
 10
17.56665432114143
 20
-196.394409560371
 30
0.0
 10
17.65791202056991
 20
-196.3919576376786
 30
0.0
 10
17.9687287909365
 20
-196.3658363145301
 30
0.0
 10
18.68246888386502
 20
-196.3273721946373
 30
0.0
 10
19.20047749186726
 20
-196.4420891633685
 30
0.0
 10
19.49401016013974
 20
-196.5070942181256
 30
0.0
  0
SPLINE
  5
2DF
330
2D3
100
AcDbEntity
  8
0
  6
Continuous
 62
     7
370
    25
100
AcDbSpline
210
0.0
220
0.0
230
1.0
 70
     8
 71
     3
 72
    26
 73
    22
 74
     0
 42
0.000000001
 43
0.00000001
 40
0.0
 40
0.0
 40
0.0
 40
0.0
 40
0.0426111655952227
 40
0.0927340889131983
 40
0.1455502824105338
 40
0.1991283498513605
 40
0.2542476227030003
 40
0.310482340649862
 40
0.3673393381959145
 40
0.4242554879713846
 40
0.4805692182818301
 40
0.5360891616083179
 40
0.5915752166661615
 40
0.6478494600785728
 40
0.7045118788798411
 40
0.761190681792256
 40
0.8174389924370604
 40
0.8729266369798572
 40
0.9201576332831889
 40
0.9677248070503635
 40
1.0
 40
1.0
 40
1.0
 40
1.0
 10
133.2690098429927
 20
-121.2788007097624
 30
0.0
 10
132.7007820228655
 20
-121.6015836066525
 30
0.0
 10
131.4641556959732
 20
-122.3040515500129
 30
0.0
 10
129.4644662225786
 20
-123.2308214835696
 30
0.0
 10
127.0717591579043
 20
-124.1689632048623
 30
0.0
 10
124.4361524462094
 20
-125.0210404423995
 30
0.0
 10
121.5897738750443
 20
-125.7697332480689
 30
0.0
 10
118.560312077003
 20
-126.3946725378744
 30
0.0
 10
115.3967377971978
 20
-126.8769584303016
 30
0.0
 10
112.1577727473457
 20
-127.2012468179816
 30
0.0
 10
108.8993296203005
 20
-127.3594029789975
 30
0.0
 10
105.6546373578294
 20
-127.3473955633269
 30
0.0
 10
102.4283993998469
 20
-127.1724430785417
 30
0.0
 10
99.22675779601227
 20
-126.8364652034281
 30
0.0
 10
96.07878236849534
 20
-126.3415321150751
 30
0.0
 10
93.03644614087993
 20
-125.6963643660902
 30
0.0
 10
90.15072701294825
 20
-124.9153975512103
 30
0.0
 10
87.57788347533638
 20
-124.0553444629461
 30
0.0
 10
85.32258091324292
 20
-123.1509282693286
 30
0.0
 10
83.57554261528433
 20
-122.3280611817507
 30
0.0
 10
82.50729538793927
 20
-121.7336687536106
 30
0.0
 10
82.07547094687827
 20
-121.4933936829321
 30
0.0
  0
SPLINE
  5
2E0
330
2D3
100
AcDbEntity
  8
0
  6
Continuous
 62
     7
370
    25
100
AcDbSpline
210
0.0
220
0.0
230
1.0
 70
     8
 71
     3
 72
    17
 73
    13
 74
     0
 42
0.000000001
 43
0.00000001
 40
0.0
 40
0.0
 40
0.0
 40
0.0
 40
0.0057555804247535
 40
0.0214274308318947
 40
0.0411028565247452
 40
0.0665619914091092
 40
0.1000772806947788
 40
0.6240560339116227
 40
0.8860454105200447
 40
0.9515427546721502
 40
0.9785127014866276
 40
1.0
 40
1.0
 40
1.0
 40
1.0
 10
274.5447784471363
 20
-39.71890208807894
 30
0.0
 10
274.3070074718355
 20
-39.87012569684106
 30
0.0
 10
273.4218107147578
 20
-40.43311555672801
 30
0.0
 10
271.5213398099594
 20
-41.523389004463
 30
0.0
 10
268.6140168580768
 20
-43.16856210999499
 30
0.0
 10
264.8979939961788
 20
-45.32313709650989
 30
0.0
 10
237.417617630374
 20
-61.17049812490998
 30
0.0
 10
198.776505874742
 20
-83.48290206004572
 30
0.0
 10
158.5825395921677
 20
-106.7091686738521
 30
0.0
 10
141.9022621521322
 20
-116.3153901073592
 30
0.0
 10
136.4952571109914
 20
-119.4578545754547
 30
0.0
 10
134.2613804652083
 20
-120.7144651262975
 30
0.0
 10
133.2708170519304
 20
-121.2716814071308
 30
0.0
  0
SPLINE
  5
2E1
330
2D3
100
AcDbEntity
  8
0
  6
Continuous
 62
     7
370
    25
100
AcDbSpline
210
0.0
220
0.0
230
1.0
 70
     8
 71
     3
 72
    18
 73
    14
 74
     0
 42
0.000000001
 43
0.00000001
 40
0.0
 40
0.0
 40
0.0
 40
0.0
 40
0.0029090726948341
 40
0.0063493190398196
 40
0.0098650407588526
 40
0.5387742032026714
 40
0.8032287844245809
 40
0.9354560750355356
 40
0.9685128976882745
 40
0.9933055146778285
 40
0.9963687577953482
 40
0.9995794876526991
 40
1.0
 40
1.0
 40
1.0
 40
1.0
 10
82.06809262728567
 20
-121.5023954276756
 30
0.0
 10
81.78775809666871
 20
-121.3514073109445
 30
0.0
 10
81.17590216885846
 20
-121.0218618423661
 30
0.0
 10
80.1463911384582
 20
-120.4172126672451
 30
0.0
 10
24.62770355883157
 20
-88.48113895993556
 30
0.0
 10
-58.09471910836337
 20
-40.58868416230533
 30
0.0
 10
-154.1458314923158
 20
14.83258834811046
 30
0.0
 10
-198.6568863651194
 20
40.52990990352372
 30
0.0
 10
-218.4402573795585
 20
51.95130129075839
 30
0.0
 10
-224.6796235522272
 20
55.55226166197743
 30
0.0
 10
-227.9734598151979
 20
57.45461261997648
 30
0.0
 10
-228.59438761
 20
57.81217872722106
 30
0.0
 10
-228.9130610972101
 20
58.01487537607972
 30
0.0
 10
-228.9499647595319
 20
58.03834845741052
 30
0.0
  0
SPLINE
  5
2E2
330
2D3
100
AcDbEntity
  8
0
  6
Continuous
 62
     7
370
    25
100
AcDbSpline
210
0.0
220
0.0
230
1.0
 70
     8
 71
     3
 72
    26
 73
    22
 74
     0
 42
0.000000001
 43
0.00000001
 40
0.0
 40
0.0
 40
0.0
 40
0.0
 40
0.0058572850351078
 40
0.0651247267151089
 40
0.1243340042159212
 40
0.1821198241489954
 40
0.2386780518573054
 40
0.2945955687161909
 40
0.3502886359354139
 40
0.4059506092755159
 40
0.4616655697580385
 40
0.5174696409721069
 40
0.5733591111727284
 40
0.6293128565236304
 40
0.6853028276951904
 40
0.7412984252225439
 40
0.7972592387766678
 40
0.853151701695462
 40
0.908944850048293
 40
0.9646123467949012
 40
1.0
 40
1.0
 40
1.0
 40
1.0
 10
-37.31462877362934
 20
-100.974916939886
 30
0.0
 10
-37.3097686848001
 20
-101.0167719295545
 30
0.0
 10
-37.25573136974398
 20
-101.4821402268943
 30
0.0
 10
-37.44249208165899
 20
-102.3707279676523
 30
0.0
 10
-37.90519056806914
 20
-103.6301223850479
 30
0.0
 10
-38.70787739438376
 20
-104.8524479375297
 30
0.0
 10
-39.78769034541565
 20
-106.0061135479105
 30
0.0
 10
-41.13338428943153
 20
-107.0717677893153
 30
0.0
 10
-42.72117738133206
 20
-108.032340307337
 30
0.0
 10
-44.52656265135019
 20
-108.8703028221721
 30
0.0
 10
-46.51886409829208
 20
-109.568960276075
 30
0.0
 10
-48.66321891613961
 20
-110.113841532079
 30
0.0
 10
-50.92113265640626
 20
-110.4934150259026
 30
0.0
 10
-53.25135915874291
 20
-110.6995160190644
 30
0.0
 10
-55.61091549356875
 20
-110.7276132614827
 30
0.0
 10
-57.9560707793878
 20
-110.5770068172277
 30
0.0
 10
-60.24281791913072
 20
-110.2506666795776
 30
0.0
 10
-62.42976244823561
 20
-109.756162735299
 30
0.0
 10
-64.4717862043223
 20
-109.1021702594858
 30
0.0
 10
-66.12187829631655
 20
-108.4065464980742
 30
0.0
 10
-67.02953869307312
 20
-107.9079960458509
 30
0.0
 10
-67.38229162759093
 20
-107.7142395090939
 30
0.0
  0
SPLINE
  5
2E3
330
2D3
100
AcDbEntity
  8
0
  6
Continuous
 62
     7
370
    25
100
AcDbSpline
210
0.0
220
0.0
230
1.0
 70
     8
 71
     3
 72
    14
 73
    10
 74
     0
 42
0.000000001
 43
0.00000001
 40
0.0
 40
0.0
 40
0.0
 40
0.0
 40
0.0839538594652399
 40
0.2441421949351645
 40
0.4042844583466077
 40
0.564867106965624
 40
0.7270197217342012
 40
0.8924100816759174
 40
1.0
 40
1.0
 40
1.0
 40
1.0
 10
-67.38229162759093
 20
-107.7142395090939
 30
0.0
 10
-67.65784322481679
 20
-107.5484330941542
 30
0.0
 10
-68.45916161795711
 20
-107.0662594057071
 30
0.0
 10
-69.60492478800954
 20
-106.1882877299541
 30
0.0
 10
-70.7114213344684
 20
-105.073521436889
 30
0.0
 10
-71.53878771591049
 20
-103.9040614272704
 30
0.0
 10
-72.07034257954922
 20
-102.7004893816199
 30
0.0
 10
-72.32415189488789
 20
-101.6247802227773
 30
0.0
 10
-72.2735885992919
 20
-100.9503553567121
 30
0.0
 10
-72.25366005032149
 20
-100.6845437870388
 30
0.0
  0
SPLINE
  5
2E4
330
2D3
100
AcDbEntity
  8
0
  6
Continuous
 62
     7
370
    25
100
AcDbSpline
210
0.0
220
0.0
230
1.0
 70
     8
 71
     3
 72
    26
 73
    22
 74
     0
 42
0.000000001
 43
0.00000001
 40
0.0
 40
0.0
 40
0.0
 40
0.0
 40
0.0058572850351121
 40
0.0651247267151149
 40
0.1243340042159245
 40
0.1821198241489987
 40
0.2386780518573076
 40
0.2945955687161946
 40
0.3502886359354171
 40
0.4059506092755205
 40
0.4616655697580453
 40
0.5174696409721103
 40
0.573359111172732
 40
0.6293128565236342
 40
0.6853028276951947
 40
0.7412984252225489
 40
0.7972592387766716
 40
0.8531517016954655
 40
0.9089448500482913
 40
0.9646123467949048
 40
1.0
 40
1.0
 40
1.0
 40
1.0
 10
-108.025306892284
 20
-60.15451134875028
 30
0.0
 10
-108.0204468034548
 20
-60.19636633841878
 30
0.0
 10
-107.9664094883986
 20
-60.66173463575863
 30
0.0
 10
-108.1531702003136
 20
-61.55032237651669
 30
0.0
 10
-108.6158686867237
 20
-62.80971679391227
 30
0.0
 10
-109.4185555130383
 20
-64.03204234639412
 30
0.0
 10
-110.4983684640702
 20
-65.1857079567749
 30
0.0
 10
-111.844062408086
 20
-66.25136219817965
 30
0.0
 10
-113.4318554999867
 20
-67.21193471620147
 30
0.0
 10
-115.2372407700047
 20
-68.04989723103657
 30
0.0
 10
-117.2295422169468
 20
-68.7485546849395
 30
0.0
 10
-119.3738970347942
 20
-69.29343594094347
 30
0.0
 10
-121.6318107750609
 20
-69.6730094347671
 30
0.0
 10
-123.9620372773975
 20
-69.87911042792891
 30
0.0
 10
-126.3215936122235
 20
-69.90720767034723
 30
0.0
 10
-128.6667488980425
 20
-69.75660122609213
 30
0.0
 10
-130.9534960377855
 20
-69.43026108844211
 30
0.0
 10
-133.1404405668902
 20
-68.93575714416342
 30
0.0
 10
-135.182464322977
 20
-68.28176466835025
 30
0.0
 10
-136.8325564149712
 20
-67.5861409069387
 30
0.0
 10
-137.7402168117278
 20
-67.08759045471535
 30
0.0
 10
-138.0929697462456
 20
-66.89383391795843
 30
0.0
  0
SPLINE
  5
2E5
330
2D3
100
AcDbEntity
  8
0
  6
Continuous
 62
     7
370
    25
100
AcDbSpline
210
0.0
220
0.0
230
1.0
 70
     8
 71
     3
 72
    14
 73
    10
 74
     0
 42
0.000000001
 43
0.00000001
 40
0.0
 40
0.0
 40
0.0
 40
0.0
 40
0.0839538594652403
 40
0.2441421949351651
 40
0.4042844583466096
 40
0.5648671069656261
 40
0.7270197217342058
 40
0.8924100816759047
 40
0.9999999999999999
 40
0.9999999999999999
 40
0.9999999999999999
 40
0.9999999999999999
 10
-138.0929697462456
 20
-66.89383391795843
 30
0.0
 10
-138.3685213434714
 20
-66.7280275030187
 30
0.0
 10
-139.1698397366117
 20
-66.24585381457163
 30
0.0
 10
-140.3156029066642
 20
-65.36788213881857
 30
0.0
 10
-141.4220994531231
 20
-64.25311584575353
 30
0.0
 10
-142.2494658345652
 20
-63.08365583613493
 30
0.0
 10
-142.7810206982038
 20
-61.88008379048439
 30
0.0
 10
-143.0348300135425
 20
-60.80437463164184
 30
0.0
 10
-142.9842667179465
 20
-60.12994976557665
 30
0.0
 10
-142.9643381689761
 20
-59.86413819590331
 30
0.0
  0
SPLINE
  5
2E6
330
2D3
100
AcDbEntity
  8
0
  6
Continuous
 62
     7
370
    25
100
AcDbSpline
210
0.0
220
0.0
230
1.0
 70
     8
 71
     3
 72
    22
 73
    18
 74
     0
 42
0.000000001
 43
0.00000001
 40
0.0
 40
0.0
 40
0.0
 40
0.0
 40
0.0625569782028536
 40
0.1343492978910046
 40
0.2061628896701019
 40
0.27808054487652
 40
0.3501142867603322
 40
0.4222439816069977
 40
0.4944361894528115
 40
0.5666524440144487
 40
0.6388467055313906
 40
0.7109700911833882
 40
0.7829818126191631
 40
0.8548444924181989
 40
0.9265322976076641
 40
0.998049442267871
 40
1.0
 40
1.0
 40
1.0
 40
1.0
 10
-139.5354600529272
 20
-65.91458737489587
 30
0.0
 10
-139.1194189013114
 20
-65.61807346498502
 30
0.0
 10
-138.2259160784595
 20
-64.98127103692877
 30
0.0
 10
-136.5641982078461
 20
-64.13518792432089
 30
0.0
 10
-134.6515046166142
 20
-63.37418372291223
 30
0.0
 10
-132.5650951139881
 20
-62.76367651245015
 30
0.0
 10
-130.3503437476503
 20
-62.31336631157878
 30
0.0
 10
-128.0452175318598
 20
-62.03370933379971
 30
0.0
 10
-125.6927041576783
 20
-61.93056077430255
 30
0.0
 10
-123.3361462668413
 20
-62.00630224559017
 30
0.0
 10
-121.0196470600318
 20
-62.25948623346851
 30
0.0
 10
-118.7856050215589
 20
-62.68450305507475
 30
0.0
 10
-116.6784032004695
 20
-63.27303399975003
 30
0.0
 10
-114.7264638173481
 20
-64.00875733002944
 30
0.0
 10
-113.004560767317
 20
-64.88748064754057
 30
0.0
 10
-111.9175705622391
 20
-65.53373752153907
 30
0.0
 10
-111.4875762210035
 20
-65.90086039649972
 30
0.0
 10
-111.4761599284047
 20
-65.91060746002667
 30
0.0
  0
SPLINE
  5
2E7
330
2D3
100
AcDbEntity
  8
0
  6
Continuous
 62
     7
370
    25
100
AcDbSpline
210
0.0
220
0.0
230
1.0
 70
     8
 71
     3
 72
    13
 73
     9
 74
     0
 42
0.000000001
 43
0.00000001
 40
0.0
 40
0.0
 40
0.0
 40
0.0
 40
0.1793572035199082
 40
0.3706648683793937
 40
0.5608784376864181
 40
0.7547568695331927
 40
0.9726472672896027
 40
0.9999999999999999
 40
0.9999999999999999
 40
0.9999999999999999
 40
0.9999999999999999
 10
448.7313986050744
 20
-61.85288195032194
 30
0.0
 10
448.6723227268925
 20
-61.42001230871609
 30
0.0
 10
448.5502347807104
 20
-60.52543118466619
 30
0.0
 10
448.0135694575234
 20
-59.26316279092775
 30
0.0
 10
447.2514188908925
 20
-58.0978373329686
 30
0.0
 10
446.2412975324231
 20
-57.04941406518844
 30
0.0
 10
445.3797038557899
 20
-56.42083513315133
 30
0.0
 10
444.864695860206
 20
-56.11896223707545
 30
0.0
 10
444.807255409091
 20
-56.0852934096422
 30
0.0
  0
SPLINE
  5
2E9
330
2D3
100
AcDbEntity
  8
0
  6
Continuous
 62
     7
370
    25
100
AcDbSpline
210
0.0
220
0.0
230
1.0
 70
     8
 71
     3
 72
    13
 73
     9
 74
     0
 42
0.000000001
 43
0.00000001
 40
0.0
 40
0.0
 40
0.0
 40
0.0
 40
0.117119909422546
 40
0.338699157433613
 40
0.5595777711526341
 40
0.7747804544429525
 40
0.9813314756209766
 40
1.0
 40
1.0
 40
1.0
 40
1.0
 10
446.3886424132883
 20
-75.1540194729395
 30
0.0
 10
446.6158283181646
 20
-75.01491573254694
 30
0.0
 10
447.2728274137222
 20
-74.61264151717992
 30
0.0
 10
448.1775962327798
 20
-73.82994349866857
 30
0.0
 10
448.9865234376653
 20
-72.77900350882196
 30
0.0
 10
449.4292679671391
 20
-71.63924423603271
 30
0.0
 10
449.5876429983114
 20
-70.80571640069505
 30
0.0
 10
449.507919551302
 20
-70.39083744320456
 30
0.0
 10
449.501311247789
 20
-70.35644798596141
 30
0.0
  0
SPLINE
  5
2EB
330
2D3
100
AcDbEntity
  8
0
  6
Continuous
 62
     7
370
    25
100
AcDbSpline
210
0.0
220
0.0
230
1.0
 70
     8
 71
     3
 72
    14
 73
    10
 74
     0
 42
0.000000001
 43
0.00000001
 40
0.0
 40
0.0
 40
0.0
 40
0.0
 40
0.0992761403898198
 40
0.2604056718682745
 40
0.4314395305319806
 40
0.5955991958490544
 40
0.7557492985738917
 40
0.8741507556147905
 40
1.0
 40
1.0
 40
1.0
 40
1.0
 10
281.3580264784785
 20
-32.69357584605496
 30
0.0
 10
281.2976449560766
 20
-32.86795487579791
 30
0.0
 10
281.1392615736469
 20
-33.32535872149187
 30
0.0
 10
280.6338687029874
 20
-34.23914544382653
 30
0.0
 10
279.8165968855531
 20
-35.38510611845307
 30
0.0
 10
278.7003385722318
 20
-36.61027191160192
 30
0.0
 10
277.4166919544373
 20
-37.75053538779081
 30
0.0
 10
276.0954535640408
 20
-38.74811411762589
 30
0.0
 10
275.0882569579147
 20
-39.38971082834358
 30
0.0
 10
274.5693027396127
 20
-39.7202910918696
 30
0.0
  0
SPLINE
  5
2EC
330
2D3
100
AcDbEntity
  8
0
  6
Continuous
 62
     7
370
    25
100
AcDbSpline
210
0.0
220
0.0
230
1.0
 70
     8
 71
     3
 72
    26
 73
    22
 74
     0
 42
0.000000001
 43
0.00000001
 40
0.0
 40
0.0
 40
0.0
 40
0.0
 40
0.005857285035108
 40
0.0651247267151092
 40
0.1243340042159214
 40
0.1821198241489956
 40
0.2386780518573056
 40
0.2945955687161911
 40
0.3502886359354141
 40
0.405950609275516
 40
0.4616655697580387
 40
0.5174696409721071
 40
0.5733591111727286
 40
0.6293128565236307
 40
0.6853028276951905
 40
0.7412984252225441
 40
0.7972592387766679
 40
0.853151701695462
 40
0.908944850048293
 40
0.9646123467949012
 40
1.0
 40
1.0
 40
1.0
 40
1.0
 10
-178.7359850109386
 20
-19.33410575761497
 30
0.0
 10
-178.7311249221094
 20
-19.37596074728343
 30
0.0
 10
-178.6770876070532
 20
-19.84132904462322
 30
0.0
 10
-178.8638483189683
 20
-20.72991678538125
 30
0.0
 10
-179.3265468053783
 20
-21.98931120277686
 30
0.0
 10
-180.1292336316931
 20
-23.21163675525872
 30
0.0
 10
-181.2090465827249
 20
-24.36530236563946
 30
0.0
 10
-182.5547405267408
 20
-25.43095660704421
 30
0.0
 10
-184.1425336186415
 20
-26.39152912506601
 30
0.0
 10
-185.9479188886595
 20
-27.22949163990107
 30
0.0
 10
-187.9402203356014
 20
-27.92814909380398
 30
0.0
 10
-190.0845751534489
 20
-28.47303034980796
 30
0.0
 10
-192.3424888937155
 20
-28.85260384363155
 30
0.0
 10
-194.6727153960521
 20
-29.05870483679337
 30
0.0
 10
-197.0322717308781
 20
-29.08680207921172
 30
0.0
 10
-199.377427016697
 20
-28.93619563495659
 30
0.0
 10
-201.66417415644
 20
-28.60985549730661
 30
0.0
 10
-203.8511186855449
 20
-28.11535155302789
 30
0.0
 10
-205.8931424416316
 20
-27.46135907721474
 30
0.0
 10
-207.5432345336258
 20
-26.76573531580318
 30
0.0
 10
-208.4508949303824
 20
-26.26718486357983
 30
0.0
 10
-208.8036478649002
 20
-26.0734283268229
 30
0.0
  0
SPLINE
  5
2ED
330
2D3
100
AcDbEntity
  8
0
  6
Continuous
 62
     7
370
    25
100
AcDbSpline
210
0.0
220
0.0
230
1.0
 70
     8
 71
     3
 72
    14
 73
    10
 74
     0
 42
0.000000001
 43
0.00000001
 40
0.0
 40
0.0
 40
0.0
 40
0.0
 40
0.0839538594652399
 40
0.2441421949351646
 40
0.4042844583466079
 40
0.5648671069656244
 40
0.7270197217342016
 40
0.892410081675918
 40
1.0
 40
1.0
 40
1.0
 40
1.0
 10
-208.8036478649002
 20
-26.0734283268229
 30
0.0
 10
-209.0791994621261
 20
-25.90762191188316
 30
0.0
 10
-209.8805178552664
 20
-25.42544822343612
 30
0.0
 10
-211.0262810253188
 20
-24.54747654768302
 30
0.0
 10
-212.1327775717778
 20
-23.432710254618
 30
0.0
 10
-212.9601439532198
 20
-22.26325024499939
 30
0.0
 10
-213.4916988168584
 20
-21.05967819934881
 30
0.0
 10
-213.7455081321972
 20
-19.98396904050623
 30
0.0
 10
-213.6949448366012
 20
-19.30954417444104
 30
0.0
 10
-213.6750162876307
 20
-19.04373260476776
 30
0.0
  0
SPLINE
  5
2EF
330
2D3
100
AcDbEntity
  8
0
  6
Continuous
 62
     7
370
    25
100
AcDbSpline
210
0.0
220
0.0
230
1.0
 70
     8
 71
     3
 72
    10
 73
     6
 74
     0
 42
0.000000001
 43
0.00000001
 40
0.0
 40
0.0
 40
0.0
 40
0.0
 40
0.4167689952662065
 40
0.9455859674015711
 40
1.0
 40
1.0
 40
1.0
 40
1.0
 10
-347.8781379848451
 20
15.57239314372755
 30
0.0
 10
-347.6033721906859
 20
15.32698546627798
 30
0.0
 10
-346.9799700608974
 20
14.77019247369769
 30
0.0
 10
-346.4376201028916
 20
14.02316744799754
 30
0.0
 10
-346.2752066539655
 20
13.51301894457744
 30
0.0
 10
-346.2600538746507
 20
13.46542333139872
 30
0.0
  0
SPLINE
  5
2F1
330
2D3
100
AcDbEntity
  8
0
  6
Continuous
 62
     7
370
    25
100
AcDbSpline
210
0.0
220
0.0
230
1.0
 70
     8
 71
     3
 72
    16
 73
    12
 74
     0
 42
0.000000001
 43
0.00000001
 40
0.0
 40
0.0
 40
0.0
 40
0.0
 40
0.070915116001324
 40
0.2033108305725457
 40
0.3207157188230004
 40
0.4279870968536352
 40
0.539420134537827
 40
0.6486084386834052
 40
0.7933825775395417
 40
0.9449712226473014
 40
1.0
 40
1.0
 40
1.0
 40
1.0
 10
-228.8228894094136
 20
58.03141168525689
 30
0.0
 10
-229.1640290946133
 20
58.24793450159608
 30
0.0
 10
-230.142063068892
 20
58.86869684550884
 30
0.0
 10
-231.506853346143
 20
59.85234839094356
 30
0.0
 10
-232.851858560287
 20
60.92456253025346
 30
0.0
 10
-233.8960273714894
 20
61.89368220218314
 30
0.0
 10
-234.6335874165084
 20
62.70666442603148
 30
0.0
 10
-235.2692590383847
 20
63.58540248286184
 30
0.0
 10
-235.8114605423067
 20
64.54811367449135
 30
0.0
 10
-236.116615332811
 20
65.28133964724186
 30
0.0
 10
-236.1906441080708
 20
65.6497262262514
 30
0.0
 10
-236.2103603204934
 20
65.74783926432256
 30
0.0
  0
SPLINE
  5
2F2
330
2D3
100
AcDbEntity
  8
0
  6
Continuous
 62
     7
370
    25
100
AcDbSpline
210
0.0
220
0.0
230
1.0
 70
     8
 71
     3
 72
    10
 73
     6
 74
     0
 42
0.000000001
 43
0.00000001
 40
0.0
 40
0.0
 40
0.0
 40
0.0
 40
0.4692757670860634
 40
0.8311699890475368
 40
0.9999999999999999
 40
0.9999999999999999
 40
0.9999999999999999
 40
0.9999999999999999
 10
-440.6999253479162
 20
69.0207348244975
 30
0.0
 10
-440.6998220628728
 20
69.02689571976472
 30
0.0
 10
-440.6996391268798
 20
69.0378077497713
 30
0.0
 10
-440.450527804585
 20
69.0017057789697
 30
0.0
 10
-440.2651635173265
 20
68.903095192011
 30
0.0
 10
-440.2061968210514
 20
68.87172593196259
 30
0.0
  0
SPLINE
  5
2F3
330
2D3
100
AcDbEntity
  8
0
  6
Continuous
 62
     7
370
    25
100
AcDbSpline
210
0.0
220
0.0
230
1.0
 70
     8
 71
     3
 72
    11
 73
     7
 74
     0
 42
0.000000001
 43
0.00000001
 40
0.0
 40
0.0
 40
0.0
 40
0.0
 40
0.2588342488546737
 40
0.528544710887447
 40
0.7988990788410655
 40
1.0
 40
1.0
 40
1.0
 40
1.0
 10
-450.2736945910177
 20
83.61510387006108
 30
0.0
 10
-450.5222837152229
 20
83.44758464442987
 30
0.0
 10
-451.0299076767515
 20
83.10550703657432
 30
0.0
 10
-451.5385956723385
 20
82.32316413819396
 30
0.0
 10
-451.824188490795
 20
81.51987305651384
 30
0.0
 10
-451.8740191860223
 20
80.97421115448219
 30
0.0
 10
-451.8952746453281
 20
80.7414571401059
 30
0.0
  0
SPLINE
  5
2F5
330
2D3
100
AcDbEntity
  8
0
  6
Continuous
 62
     7
370
    25
100
AcDbSpline
210
0.0
220
0.0
230
1.0
 70
     8
 71
     3
 72
    11
 73
     7
 74
     0
 42
0.000000001
 43
0.00000001
 40
0.0
 40
0.0
 40
0.0
 40
0.0
 40
0.3182942013587442
 40
0.6655990270565741
 40
0.9936213858641907
 40
1.0
 40
1.0
 40
1.0
 40
1.0
 10
-443.0346239457975
 20
66.42183809617924
 30
0.0
 10
-442.8829842510271
 20
66.34825726522436
 30
0.0
 10
-442.5658838047373
 20
66.19438914797773
 30
0.0
 10
-442.0470220998895
 20
66.18283465248709
 30
0.0
 10
-441.6691762214908
 20
66.25631133524593
 30
0.0
 10
-441.5377981893574
 20
66.3720886715759
 30
0.0
 10
-441.5352921865622
 20
66.37429709503715
 30
0.0
  0
SPLINE
  5
2F9
330
2D3
100
AcDbEntity
  8
0
  6
Continuous
 62
     7
370
    25
100
AcDbSpline
210
0.0
220
0.0
230
1.0
 70
     8
 71
     3
 72
    11
 73
     7
 74
     0
 42
0.000000001
 43
0.00000001
 40
0.0
 40
0.0
 40
0.0
 40
0.0
 40
0.0503296505019507
 40
0.3744496261281794
 40
0.6693397254780084
 40
0.9999999999999999
 40
0.9999999999999999
 40
0.9999999999999999
 40
0.9999999999999999
 10
-452.2578644345997
 20
72.66406975410317
 30
0.0
 10
-452.2640787851053
 20
72.6367681301732
 30
0.0
 10
-452.3103131857078
 20
72.43364566118507
 30
0.0
 10
-452.1938622095935
 20
72.05422259648172
 30
0.0
 10
-451.9226897198444
 20
71.60207375809807
 30
0.0
 10
-451.6336764409843
 20
71.40300123914409
 30
0.0
 10
-451.4809066335956
 20
71.29777330464593
 30
0.0
  0
SPLINE
  5
2FA
330
2D3
100
AcDbEntity
  8
0
  6
Continuous
 62
     7
370
    25
100
AcDbSpline
210
0.0
220
0.0
230
1.0
 70
     8
 71
     3
 72
    15
 73
    11
 74
     0
 42
0.000000001
 43
0.00000001
 40
0.0
 40
0.0
 40
0.0
 40
0.0
 40
0.0888477525317988
 40
0.2249690767711276
 40
0.3627580740982899
 40
0.5012522474568635
 40
0.6408346853565781
 40
0.7829630707780139
 40
0.9295196304004953
 40
1.0
 40
1.0
 40
1.0
 40
1.0
 10
-117.7132012964643
 20
268.6508540432235
 30
0.0
 10
-118.0318476184833
 20
268.8210747422503
 30
0.0
 10
-118.8386836592204
 20
269.2520861343925
 30
0.0
 10
-120.2669351779505
 20
269.7446303963329
 30
0.0
 10
-121.9802874718487
 20
270.0907873733267
 30
0.0
 10
-123.7642994891295
 20
270.2043633837274
 30
0.0
 10
-125.5663997231599
 20
270.0844010932777
 30
0.0
 10
-127.3429105787411
 20
269.7154397366484
 30
0.0
 10
-128.7474682077156
 20
269.2076152100789
 30
0.0
 10
-129.5224917106525
 20
268.7873353366256
 30
0.0
 10
-129.7741721188259
 20
268.6508540432234
 30
0.0
  0
SPLINE
  5
30F
330
2D3
100
AcDbEntity
  8
0
  6
Continuous
 62
     7
370
    25
100
AcDbSpline
210
0.0
220
0.0
230
1.0
 70
     8
 71
     3
 72
    33
 73
    29
 74
     0
 42
0.000000001
 43
0.00000001
 40
0.0
 40
0.0
 40
0.0
 40
0.0
 40
0.027908161650474
 40
0.0556271412586474
 40
0.0832133070586129
 40
0.1107238436906669
 40
0.1382164077260558
 40
0.1657487686475516
 40
0.1933784463112308
 40
0.2211623561675225
 40
0.2491564729641081
 40
0.3313431517767874
 40
0.4138097775498074
 40
0.4981305192411029
 40
0.5160438219072025
 40
0.5609162309884779
 40
0.5870252241386043
 40
0.607828601337282
 40
0.623528675981875
 40
0.6492710435119424
 40
0.6754616423841495
 40
0.7075590549328631
 40
0.7487362179624585
 40
0.8038130660765412
 40
0.8743854619404248
 40
0.9210346754026595
 40
0.9628850093702218
 40
1.0
 40
1.0
 40
1.0
 40
1.0
 10
15.91012481643148
 20
-198.9158371463676
 30
0.0
 10
15.91099528399814
 20
-198.8567627442194
 30
0.0
 10
15.91273031846216
 20
-198.7390143896618
 30
0.0
 10
15.92403234328996
 20
-198.5682929634852
 30
0.0
 10
15.9417179322372
 20
-198.4028513368745
 30
0.0
 10
15.96639971065436
 20
-198.2430481697982
 30
0.0
 10
15.9979139140779
 20
-198.0887904823888
 30
0.0
 10
16.03630601078773
 20
-197.9401071443118
 30
0.0
 10
16.08155456188728
 20
-197.7969872460112
 30
0.0
 10
16.1336952568602
 20
-197.6594555521183
 30
0.0
 10
16.2303981298248
 20
-197.4427084827111
 30
0.0
 10
16.39516821984466
 20
-197.1714691285582
 30
0.0
 10
16.66435704951999
 20
-196.8940082672934
 30
0.0
 10
16.89823994470521
 20
-196.739655060466
 30
0.0
 10
17.10205552465816
 20
-196.6493998868836
 30
0.0
 10
17.22563139065725
 20
-196.5956799381747
 30
0.0
 10
17.35107276512257
 20
-196.5360630408147
 30
0.0
 10
17.4302663080543
 20
-196.4839935268051
 30
0.0
 10
17.49940404932679
 20
-196.4173540279883
 30
0.0
 10
17.53986006972691
 20
-196.2970650570323
 30
0.0
 10
17.50249054751193
 20
-196.0940477263958
 30
0.0
 10
17.39244843164739
 20
-195.8565664273042
 30
0.0
 10
17.21253968654288
 20
-195.5722363410163
 30
0.0
 10
16.95304924985813
 20
-195.2286823667354
 30
0.0
 10
16.67275387622211
 20
-194.8917855375583
 30
0.0
 10
16.40894401034917
 20
-194.5894575149645
 30
0.0
 10
16.19764158331044
 20
-194.3559656717437
 30
0.0
 10
16.06152038882544
 20
-194.216415804014
 30
0.0
 10
15.99754120703154
 20
-194.1508250898671
 30
0.0
  0
LWPOLYLINE
  5
313
330
2D3
100
AcDbEntity
  8
0
  6
Continuous
 62
     7
370
    25
100
AcDbPolyline
 90
       36
 70
   128
 43
0.0
 10
-28.2842712475
 20
-278.0039476837
 10
-35.3097874284
 20
-269.0774629105
 10
-42.4658827404
 20
-260.3360496208
 10
-49.7453186806
 20
-251.7885498914
 10
-57.1407319853
 20
-243.4436096525
 10
-64.6446420778
 20
-235.3096699424
 10
-72.2494586351
 20
-227.3949583686
 10
-79.9474892657
 20
-219.7074807865
 10
-87.730947291
 20
-212.2550132001
 10
-95.5919596207
 20
-205.0450938977
 10
-103.5225747174
 20
-198.0850158257
 10
-111.5147706394
 20
-191.3818192125
 10
-119.5604631551
 20
-184.9422844468
 10
-127.6515139199
 20
-178.7729252191
 10
-135.7797387091
 20
-172.8799819331
 10
-143.9369156955
 20
-167.2694153936
 10
-152.1147937665
 20
-161.9469007768
 10
-160.30510087
 20
-156.9178218897
 10
-168.4995523817
 20
-152.1872657247
 10
-176.6898594852
 20
-147.7600173137
 10
-184.8677375563
 20
-143.6405548878
 10
-193.0249145427
 20
-139.8330453482
 10
-201.1531393318
 20
-136.3413400505
 10
-209.2441900967
 20
-133.1689709094
 10
-217.2898826123
 20
-130.3191468261
 10
-225.2820785343
 20
-127.7947504426
 10
-233.2126936311
 20
-125.5983352253
 10
-241.0737059608
 20
-123.7321228827
 10
-248.857163986
 20
-122.1980011181
 10
-256.5551946167
 20
-120.9975217196
 10
-264.160011174
 20
-120.1318989909
 10
-271.6639212664
 20
-119.6020085232
 10
-279.0593345711
 20
-119.4083863088
 10
-286.3387705114
 20
-119.5512281998
 10
-293.4948658234
 20
-120.0303897092
 10
-300.5203820043
 20
-120.8453861578
  0
SPLINE
  5
317
330
2D3
100
AcDbEntity
  8
0
  6
Continuous
 62
     7
370
    25
100
AcDbSpline
210
0.0
220
0.0
230
1.0
 70
     8
 71
     3
 72
    37
 73
    33
 74
     0
 42
0.000000001
 43
0.00000001
 40
0.0
 40
0.0
 40
0.0
 40
0.0
 40
0.0275370259820935
 40
0.0575896537878777
 40
0.0901890155734085
 40
0.1253594811988462
 40
0.1954813066519602
 40
0.2507833529872632
 40
0.2920235667682893
 40
0.3241628808773298
 40
0.3502726264222544
 40
0.3757108876790556
 40
0.3914819438643231
 40
0.4123369688305099
 40
0.4384908149534457
 40
0.4723632188397884
 40
0.4932483368205539
 40
0.5011462071432587
 40
0.529533617894073
 40
0.557609777505122
 40
0.5854296985227856
 40
0.6130499246244533
 40
0.6405282322859519
 40
0.6679232959202365
 40
0.6952943252883026
 40
0.7227006859252612
 40
0.750201514560276
 40
0.8005781182483038
 40
0.8504096258737606
 40
0.9000312458681217
 40
0.9497824293219603
 40
1.0
 40
1.0
 40
1.0
 40
1.0
 10
-344.8021944587762
 20
14.13442883371633
 30
0.0
 10
-344.8497599606183
 20
14.14091605491303
 30
0.0
 10
-344.9492362361286
 20
14.15448312722526
 30
0.0
 10
-345.1021363895071
 20
14.16580921972083
 30
0.0
 10
-345.265988139765
 20
14.17197496085366
 30
0.0
 10
-345.494149584192
 20
14.17233555437092
 30
0.0
 10
-345.755263313748
 20
14.1595158712185
 30
0.0
 10
-346.0141772978663
 20
14.1148303801004
 30
0.0
 10
-346.1947235032188
 20
14.03836503199147
 30
0.0
 10
-346.3054904375823
 20
13.92910024366673
 30
0.0
 10
-346.3447372534362
 20
13.77171859975383
 30
0.0
 10
-346.3060564432942
 20
13.60574313024569
 30
0.0
 10
-346.2375909550242
 20
13.45949065421601
 30
0.0
 10
-346.1584030257861
 20
13.31548442433673
 30
0.0
 10
-346.0479674778621
 20
13.13521232065133
 30
0.0
 10
-345.9353144386253
 20
12.95655482982955
 30
0.0
 10
-345.8487304523704
 20
12.81771738195196
 30
0.0
 10
-345.7694735004224
 20
12.69120541201086
 30
0.0
 10
-345.684740676563
 20
12.54568291723097
 30
0.0
 10
-345.5773793827585
 20
12.35326794933051
 30
0.0
 10
-345.4764512863169
 20
12.15997382114906
 30
0.0
 10
-345.3815347583438
 20
11.96610291226528
 30
0.0
 10
-345.2927440900411
 20
11.77157800414062
 30
0.0
 10
-345.2100494629744
 20
11.57642227746823
 30
0.0
 10
-345.1334666163165
 20
11.38063428688133
 30
0.0
 10
-345.0629703945507
 20
11.18421272062745
 30
0.0
 10
-344.9809504861322
 20
10.9329528636259
 30
0.0
 10
-344.8949179675571
 20
10.62905918663504
 30
0.0
 10
-344.8151145033793
 20
10.27628918951296
 30
0.0
 10
-344.7582423243374
 20
9.931472615140637
 30
0.0
 10
-344.7222856382591
 20
9.593526885658461
 30
0.0
 10
-344.7172869385549
 20
9.377182090069526
 30
0.0
 10
-344.714775928411
 20
9.268505032346226
 30
0.0
  0
SPLINE
  5
323
330
2D3
100
AcDbEntity
  8
0
  6
Continuous
 62
     7
370
    25
100
AcDbSpline
210
0.0
220
0.0
230
1.0
 70
     8
 71
     3
 72
    25
 73
    21
 74
     0
 42
0.000000001
 43
0.00000001
 40
0.0
 40
0.0
 40
0.0
 40
0.0
 40
0.0039062499999999
 40
0.0039062499999999
 40
0.0078124999999999
 40
0.0156249999999999
 40
0.0312499999999998
 40
0.0624999999999998
 40
0.1249999999999999
 40
0.2499999999999999
 40
0.5000000000000001
 40
0.7500000000000001
 40
0.8750000000000002
 40
0.9375000000000002
 40
0.9687500000000002
 40
0.9843750000000002
 40
0.9921875000000002
 40
0.9960937500000002
 40
0.9960937500000002
 40
1.0
 40
1.0
 40
1.0
 40
1.0
 10
77.20901189791537
 20
-122.1006304119763
 30
0.0
 10
76.7972009786758
 20
-121.8702989542125
 30
0.0
 10
76.39442105456705
 20
-121.6347532853533
 30
0.0
 10
75.58362022074728
 20
-121.1666879270404
 30
0.0
 10
74.36741897001761
 20
-120.4645898895711
 30
0.0
 10
71.52961605164846
 20
-118.8263611354761
 30
0.0
 10
65.85401021490999
 20
-115.5499036272859
 30
0.0
 10
54.50279854143331
 20
-108.9969886109059
 30
0.0
 10
31.8003751944798
 20
-95.89115857814564
 30
0.0
 10
-13.60447149942724
 20
-69.6794985126251
 30
0.0
 10
-78.46853820500867
 20
-32.23426984759586
 30
0.0
 10
-143.33260491059
 20
5.210958817433372
 30
0.0
 10
-188.7374516044972
 20
31.4226188829539
 30
0.0
 10
-211.4398749514505
 20
44.52844891571412
 30
0.0
 10
-222.7910866249275
 20
51.08136393209432
 30
0.0
 10
-228.4666924616659
 20
54.35782144028435
 30
0.0
 10
-231.304495380035
 20
55.99605019437931
 30
0.0
 10
-232.5206966307646
 20
56.69814823184866
 30
0.0
 10
-233.3314974645844
 20
57.16621359016148
 30
0.0
 10
-233.7395188024027
 20
57.39873352962972
 30
0.0
 10
-234.1385076661182
 20
57.63646682063951
 30
0.0
  0
SPLINE
  5
324
330
2D3
100
AcDbEntity
  8
0
  6
Continuous
 62
     7
370
    25
100
AcDbSpline
210
0.0
220
0.0
230
1.0
 70
     8
 71
     3
 72
    34
 73
    30
 74
     0
 42
0.000000001
 43
0.00000001
 40
0.0
 40
0.0
 40
0.0
 40
0.0
 40
0.1250000000000017
 40
0.1250000000000017
 40
0.1875000000000023
 40
0.1875000000000023
 40
0.2500000000000029
 40
0.2500000000000029
 40
0.3750000000000032
 40
0.3750000000000032
 40
0.4375000000000034
 40
0.4375000000000034
 40
0.5000000000000036
 40
0.5000000000000036
 40
0.6250000000000021
 40
0.6250000000000021
 40
0.6562500000000023
 40
0.6562500000000023
 40
0.6875000000000026
 40
0.6875000000000026
 40
0.7500000000000028
 40
0.7500000000000028
 40
0.8125000000000031
 40
0.8125000000000031
 40
0.8437500000000026
 40
0.8437500000000026
 40
0.875000000000002
 40
0.875000000000002
 40
1.0
 40
1.0
 40
1.0
 40
1.0
 10
138.2164373256436
 20
-121.8335454353297
 30
0.0
 10
136.2065793239867
 20
-122.9938117623598
 30
0.0
 10
134.0330717137791
 20
-124.0207241823465
 30
0.0
 10
130.5419612081765
 20
-125.3729797554109
 30
0.0
 10
129.3393592623842
 20
-125.7920342597041
 30
0.0
 10
126.8541712781082
 20
-126.5649662638583
 30
0.0
 10
125.5664781996898
 20
-126.9197088492293
 30
0.0
 10
121.6632097316362
 20
-127.8635262613547
 30
0.0
 10
118.9855756796783
 20
-128.340841470012
 30
0.0
 10
114.8569323085642
 20
-128.8309632614363
 30
0.0
 10
113.4597074081207
 20
-128.9568060669164
 30
0.0
 10
110.63568738126
 20
-129.1290955781432
 30
0.0
 10
109.2278189009382
 20
-129.1744562865589
 30
0.0
 10
105.0161011291603
 20
-129.1934737286105
 30
0.0
 10
102.2241576456788
 20
-129.0498871560453
 30
0.0
 10
98.75431435782124
 20
-128.6726049459791
 30
0.0
 10
98.0599683038067
 20
-128.5870027561415
 30
0.0
 10
96.67976509973181
 20
-128.3962096059247
 30
0.0
 10
95.99648661564464
 20
-128.291381471761
 30
0.0
 10
93.9666301358061
 20
-127.9492802437013
 30
0.0
 10
92.63995672406354
 20
-127.6844931509398
 30
0.0
 10
90.03830047796185
 20
-127.0834673597509
 30
0.0
 10
88.76329123132211
 20
-126.7472651708759
 30
0.0
 10
86.89012676126649
 20
-126.1885694248105
 30
0.0
 10
86.27232486325158
 20
-125.9932333597031
 30
0.0
 10
85.05012748699673
 20
-125.5840296079105
 30
0.0
 10
84.44456451048323
 20
-125.3697217132784
 30
0.0
 10
81.46540273866144
 20
-124.2564999056139
 30
0.0
 10
79.25032687730264
 20
-123.2423656914234
 30
0.0
 10
77.20901189791537
 20
-122.1006304119763
 30
0.0
  0
SPLINE
  5
325
330
2D3
100
AcDbEntity
  8
0
  6
Continuous
 62
     7
370
    25
100
AcDbSpline
210
0.0
220
0.0
230
1.0
 70
     8
 71
     3
 72
    16
 73
    12
 74
     0
 42
0.000000001
 43
0.00000001
 40
0.0
 40
0.0
 40
0.0
 40
0.0
 40
0.0078125
 40
0.0078125
 40
0.0156250000000001
 40
0.0312500000000002
 40
0.0625000000000002
 40
0.1250000000000001
 40
0.25
 40
0.5
 40
1.0
 40
1.0
 40
1.0
 40
1.0
 10
279.8237808450431
 20
-40.0706315135088
 30
0.0
 10
279.4656284916196
 20
-40.28968188295593
 30
0.0
 10
279.0989409392892
 20
-40.50380725132532
 30
0.0
 10
278.3613362083276
 20
-40.92961739888549
 30
0.0
 10
277.2549291118854
 20
-41.56833262022592
 30
0.0
 10
274.6733125535202
 20
-43.05866813668659
 30
0.0
 10
269.5100794367896
 20
-46.03933916960839
 30
0.0
 10
259.1836132033287
 20
-52.00068123545151
 30
0.0
 10
238.5306807364069
 20
-63.92336536713811
 30
0.0
 10
197.2248158007158
 20
-87.76873362944461
 30
0.0
 10
161.8197887201059
 20
-108.207620715535
 30
0.0
 10
138.2164373256436
 20
-121.8335454353297
 30
0.0
  0
SPLINE
  5
326
330
2D3
100
AcDbEntity
  8
0
  6
Continuous
 62
     7
370
    25
100
AcDbSpline
210
0.0
220
0.0
230
1.0
 70
     8
 71
     3
 72
    36
 73
    32
 74
     0
 42
0.000000001
 43
0.00000001
 40
0.0
 40
0.0
 40
0.0
 40
0.0
 40
0.1250000000000003
 40
0.1250000000000003
 40
0.1874999999999999
 40
0.1874999999999999
 40
0.2499999999999996
 40
0.2499999999999996
 40
0.3749999999999989
 40
0.3749999999999989
 40
0.4374999999999989
 40
0.4374999999999989
 40
0.4687499999999991
 40
0.4687499999999991
 40
0.4999999999999991
 40
0.4999999999999991
 40
0.6250000000000013
 40
0.6250000000000013
 40
0.6562500000000016
 40
0.6562500000000016
 40
0.6875000000000019
 40
0.6875000000000019
 40
0.7500000000000027
 40
0.7500000000000027
 40
0.8750000000000028
 40
0.8750000000000028
 40
0.9062500000000018
 40
0.9062500000000018
 40
0.9375000000000008
 40
0.9375000000000008
 40
1.0
 40
1.0
 40
1.0
 40
1.0
 10
279.3960440582532
 20
-5.359023722108669
 30
0.0
 10
281.3431107136542
 20
-6.513811726648
 30
0.0
 10
283.064391924665
 20
-7.758311129385534
 30
0.0
 10
285.3305499810833
 20
-9.75052274280143
 30
0.0
 10
286.0321553615686
 20
-10.43596195772795
 30
0.0
 10
287.3251398447805
 20
-11.85063662751348
 30
0.0
 10
287.9187368855055
 20
-12.58334493299516
 30
0.0
 10
289.4991873148967
 20
-14.80457135150857
 30
0.0
 10
290.2979273421089
 20
-16.32540975163539
 30
0.0
 10
291.1161868792665
 20
-18.66630759721116
 30
0.0
 10
291.3257041849335
 20
-19.45653552986666
 30
0.0
 10
291.5412890867565
 20
-20.65737289030349
 30
0.0
 10
291.596402393282
 20
-21.05859815692604
 30
0.0
 10
291.672990314758
 20
-21.85818640137009
 30
0.0
 10
291.6945845682854
 20
-22.25728090383006
 30
0.0
 10
291.7195166259638
 20
-24.24927456038602
 30
0.0
 10
291.4779423958906
 20
-25.83191333703942
 30
0.0
 10
290.846694523425
 20
-27.79641690404166
 30
0.0
 10
290.7038808950862
 20
-28.18862368075967
 30
0.0
 10
290.384271043585
 20
-28.9716135628342
 30
0.0
 10
290.2078394981896
 20
-29.36140516694899
 30
0.0
 10
289.6336152509347
 20
-30.51650293384235
 30
0.0
 10
289.1893710655231
 20
-31.27117849477673
 30
0.0
 10
287.676832859644
 20
-33.49015830718691
 30
0.0
 10
286.4313782188925
 20
-34.91007834984268
 30
0.0
 10
284.5672197631505
 20
-36.60798019900237
 30
0.0
 10
284.1792406141421
 20
-36.94331613974919
 30
0.0
 10
283.3787284839423
 20
-37.60083646865359
 30
0.0
 10
282.9655073205363
 20
-37.92370790414417
 30
0.0
 10
281.6866351129418
 20
-38.87451366769767
 30
0.0
 10
280.7818418527313
 20
-39.48466965766454
 30
0.0
 10
279.8237808450431
 20
-40.07063151350883
 30
0.0
  0
SPLINE
  5
327
330
2D3
100
AcDbEntity
  8
0
  6
Continuous
 62
     7
370
    25
100
AcDbSpline
210
0.0
220
0.0
230
1.0
 70
     8
 71
     3
 72
    25
 73
    21
 74
     0
 42
0.000000001
 43
0.00000001
 40
0.0
 40
0.0
 40
0.0
 40
0.0
 40
0.0039062499999999
 40
0.0039062499999999
 40
0.0078124999999999
 40
0.015625
 40
0.0312500000000001
 40
0.0625000000000002
 40
0.1250000000000002
 40
0.2500000000000001
 40
0.4999999999999998
 40
0.7499999999999996
 40
0.8749999999999994
 40
0.9374999999999993
 40
0.9687499999999994
 40
0.9843749999999996
 40
0.9921874999999997
 40
0.9960937499999999
 40
0.9960937499999999
 40
1.0
 40
1.0
 40
1.0
 40
1.0
 10
-31.91420210354298
 20
174.3565560333395
 30
0.0
 10
-31.50337709857849
 20
174.1257112572475
 30
0.0
 10
-31.10073274877509
 20
173.8901434118707
 30
0.0
 10
-30.29002898183819
 20
173.4221340890765
 30
0.0
 10
-29.07397333143294
 20
172.7201201048853
 30
0.0
 10
-26.23651014715363
 20
171.0820874751058
 30
0.0
 10
-20.56158377859501
 20
167.8060222155467
 30
0.0
 10
-9.211731041478071
 20
161.2538916964286
 30
0.0
 10
13.48797443275605
 20
148.1496306581923
 30
0.0
 10
58.88738538122415
 20
121.9411085817198
 30
0.0
 10
123.7436867361783
 20
84.50036275818748
 30
0.0
 10
188.599988091133
 20
47.05961693465533
 30
0.0
 10
233.9993990396008
 20
20.85109485818282
 30
0.0
 10
256.6991045138349
 20
7.746833819946487
 30
0.0
 10
268.0489572509518
 20
1.19470330082834
 30
0.0
 10
273.7238836195106
 20
-2.081361958730765
 30
0.0
 10
276.5613468037897
 20
-3.719394588510297
 30
0.0
 10
277.7774024541951
 20
-4.421408572701554
 30
0.0
 10
278.588106221132
 20
-4.88941789549563
 30
0.0
 10
278.9961659714757
 20
-5.121859567194909
 30
0.0
 10
279.3960440582533
 20
-5.359023722108697
 30
0.0
  0
SPLINE
  5
328
330
2D3
100
AcDbEntity
  8
0
  6
Continuous
 62
     7
370
    25
100
AcDbSpline
210
0.0
220
0.0
230
1.0
 70
     8
 71
     3
 72
    36
 73
    32
 74
     0
 42
0.000000001
 43
0.00000001
 40
0.0
 40
0.0
 40
0.0
 40
0.0
 40
0.1249999999999983
 40
0.1249999999999983
 40
0.1874999999999983
 40
0.1874999999999983
 40
0.2499999999999983
 40
0.2499999999999983
 40
0.3749999999999971
 40
0.3749999999999971
 40
0.4374999999999958
 40
0.4374999999999958
 40
0.4687499999999964
 40
0.4687499999999964
 40
0.499999999999997
 40
0.499999999999997
 40
0.6250000000000003
 40
0.6250000000000003
 40
0.6562500000000006
 40
0.6562500000000006
 40
0.6875000000000008
 40
0.6875000000000008
 40
0.7500000000000012
 40
0.7500000000000012
 40
0.8750000000000011
 40
0.8750000000000011
 40
0.9062500000000006
 40
0.9062500000000006
 40
0.9375
 40
0.9375
 40
1.0
 40
1.0
 40
1.0
 40
1.0
 10
-92.04298548430287
 20
174.603483221262
 30
0.0
 10
-90.0129823037455
 20
175.7096106568472
 30
0.0
 10
-87.83219278825042
 20
176.6851058271209
 30
0.0
 10
-84.34815033780421
 20
177.9639409842565
 30
0.0
 10
-83.15078655764316
 20
178.3590170038831
 30
0.0
 10
-80.68231266707726
 20
179.0852796317907
 30
0.0
 10
-79.40497656937353
 20
179.4177012246586
 30
0.0
 10
-75.53519142342259
 20
180.298908562032
 30
0.0
 10
-72.88963354966495
 20
180.7380548005278
 30
0.0
 10
-68.82433215769991
 20
181.177869141659
 30
0.0
 10
-67.45306394599577
 20
181.2879739853196
 30
0.0
 10
-65.37073594945846
 20
181.3957308206362
 30
0.0
 10
-64.67463631671687
 20
181.4219457848006
 30
0.0
 10
-63.28834302168761
 20
181.4550153852103
 30
0.0
 10
-62.5966635356711
 20
181.461950402631
 30
0.0
 10
-59.14555180933851
 20
181.4489544094889
 30
0.0
 10
-56.40776771922418
 20
181.287377411082
 30
0.0
 10
-53.01450356585297
 20
180.8958790267208
 30
0.0
 10
-52.33730860109043
 20
180.8080403890018
 30
0.0
 10
-50.98592174215988
 20
180.6127137256461
 30
0.0
 10
-50.31292959959567
 20
180.5053334255814
 30
0.0
 10
-48.31995253643915
 20
180.1573904451554
 30
0.0
 10
-47.01898694393998
 20
179.8901473757991
 30
0.0
 10
-43.19652659483739
 20
178.985914862514
 30
0.0
 10
-40.75484015576875
 20
178.2472225397512
 30
0.0
 10
-37.8419067983099
 20
177.146501351698
 30
0.0
 10
-37.26665469947748
 20
176.9175318556598
 30
0.0
 10
-36.13936833079931
 20
176.4456885579237
 30
0.0
 10
-35.58612840505742
 20
176.202375684024
 30
0.0
 10
-33.9579702086104
 20
175.4500134396007
 30
0.0
 10
-32.91449395309215
 20
174.9186253943704
 30
0.0
 10
-31.914202103543
 20
174.3565560333395
 30
0.0
  0
LWPOLYLINE
  5
329
330
2D3
100
AcDbEntity
  8
0
  6
Continuous
 62
     7
370
    25
100
AcDbPolyline
 90
        7
 70
   128
 43
0.0
 10
-233.6758527868
 20
92.8553038671
 10
-219.5337171631
 20
101.0193849853
 10
-162.9651746681
 20
133.6757094582
 10
-127.5104610223
 20
154.1432799815
 10
-115.7636116841
 20
161.0082783472
 10
-104.0139268804
 20
167.8716392442
 10
-92.0429854843
 20
174.6034832213
  0
SPLINE
  5
32A
330
2D3
100
AcDbEntity
  8
0
  6
Continuous
 62
     7
370
    25
100
AcDbSpline
210
0.0
220
0.0
230
1.0
 70
     8
 71
     3
 72
    34
 73
    30
 74
     0
 42
0.000000001
 43
0.00000001
 40
0.0
 40
0.0
 40
0.0
 40
0.0
 40
0.1249999999999996
 40
0.1249999999999996
 40
0.1874999999999993
 40
0.1874999999999993
 40
0.2499999999999991
 40
0.2499999999999991
 40
0.3749999999999986
 40
0.3749999999999986
 40
0.4374999999999984
 40
0.4374999999999984
 40
0.4999999999999983
 40
0.4999999999999983
 40
0.6249999999999981
 40
0.6249999999999981
 40
0.6562499999999982
 40
0.6562499999999982
 40
0.6874999999999983
 40
0.6874999999999983
 40
0.7499999999999979
 40
0.7499999999999979
 40
0.8124999999999976
 40
0.8124999999999976
 40
0.843749999999998
 40
0.843749999999998
 40
0.8749999999999984
 40
0.8749999999999984
 40
1.0
 40
1.0
 40
1.0
 40
1.0
 10
-234.1385076661182
 20
57.63646682063951
 30
0.0
 10
-236.1162490924995
 20
58.81488311447162
 30
0.0
 10
-237.8599715780199
 20
60.08580951984107
 30
0.0
 10
-240.1487005516277
 20
62.12140819832402
 30
0.0
 10
-240.8558849603438
 20
62.82196985940294
 30
0.0
 10
-242.1560556227449
 20
64.26823689522926
 30
0.0
 10
-242.7507577661326
 20
65.01691992053463
 30
0.0
 10
-244.3266167167829
 20
67.28437954002412
 30
0.0
 10
-245.113819679519
 20
68.83698992376091
 30
0.0
 10
-245.9013504135332
 20
71.22708442902854
 30
0.0
 10
-246.0983129608524
 20
72.03495822769868
 30
0.0
 10
-246.3549186326933
 20
73.6680371907994
 30
0.0
 10
-246.4132482408166
 20
74.48153976430643
 30
0.0
 10
-246.3833276793822
 20
76.91315421262162
 30
0.0
 10
-246.0936752276567
 20
78.52252502702825
 30
0.0
 10
-245.3889173974931
 20
80.51936535810087
 30
0.0
 10
-245.2303435403203
 20
80.91862655321721
 30
0.0
 10
-244.879107645362
 20
81.71275400452454
 30
0.0
 10
-244.6873678638854
 20
82.10574392885981
 30
0.0
 10
-244.0647458238544
 20
83.27273558796955
 30
0.0
 10
-243.5862928121093
 20
84.03471674263571
 30
0.0
 10
-242.5058799285853
 20
85.52747029437091
 30
0.0
 10
-241.9040411016601
 20
86.25827327807708
 30
0.0
 10
-240.907474291681
 20
87.33077341115703
 30
0.0
 10
-240.5596241887259
 20
87.68431605960828
 30
0.0
 10
-239.832175663498
 20
88.38337892276581
 30
0.0
 10
-239.4518722989998
 20
88.72949527468016
 30
0.0
 10
-237.4778583212973
 20
90.43255960847938
 30
0.0
 10
-235.6857097205476
 20
91.69503815617733
 30
0.0
 10
-233.6758527868033
 20
92.85530386707777
 30
0.0
  0
LWPOLYLINE
  5
32B
330
2D3
100
AcDbEntity
  8
0
  6
Continuous
 62
     7
370
    25
100
AcDbPolyline
 90
       46
 70
   128
 43
0.0
 10
-138.5929291126
 20
-66.9433419685
 10
-140.2862105965
 20
-65.8188446637
 10
-141.6919182427
 20
-64.5692477088
 10
-142.7826915508
 20
-63.2188730871
 10
-143.5372998591
 20
-61.7940043047
 10
-143.9410555753
 20
-60.3223748116
 10
-143.9861000536
 20
-58.832628202
 10
-143.6715565544
 20
-57.3537606989
 10
-143.0035473092
 20
-55.9145567763
 10
-141.9950743581
 20
-54.5430289014
 10
-140.66576648
 20
-53.2658723041
 10
-139.0414971406
 20
-52.107945385
 10
-137.153880895
 20
-51.0917858742
 10
-135.0396580464
 20
-50.237172161
 10
-132.7399795377
 20
-49.560738329
 10
-130.299605995
 20
-49.0756503935
 10
-127.7660365136
 20
-48.7913500392
 10
-125.1885841415
 20
-48.7133708492
 10
-122.6174160574
 20
-48.8432305998
 10
-120.1025771232
 20
-49.1784017185
 10
-117.6930158184
 20
-49.7123604809
 10
-115.4356315128
 20
-50.4347139869
 10
-113.3743616243
 20
-51.3314024473
 10
-111.5493264265
 20
-52.3849728411
 10
-109.9960481536
 20
-53.574918619
 10
-108.7447596004
 20
-54.8780788401
 10
-107.8198156753
 20
-56.2690889729
 10
-107.2392193596
 20
-57.7208745874
 10
-107.0142713002
 20
-59.2051783281
 10
-107.1493498552
 20
-60.693109911
 10
-107.6418258743
 20
-62.1557084403
 10
-108.4821138717
 20
-63.5645060994
 10
-109.6538585976
 20
-64.8920822443
 10
-111.1342533737
 20
-66.1125971154
 10
-112.8944839995
 20
-67.2022947791
 10
-114.9002895881
 20
-68.1399655098
 10
-117.1126294154
 20
-68.9073586134
 10
-119.4884428032
 20
-69.4895376561
 10
-121.9814872461
 20
-69.8751711849
 10
-124.5432384701
 20
-70.0567532819
 10
-127.1238349014
 20
-70.0307496581
 10
-129.673048166
 20
-69.7976664444
 10
-132.1412607272
 20
-69.3620403406
 10
-134.4804316352
 20
-68.7323503132
 10
-136.6450315889
 20
-67.9208525622
 10
-138.5929291126
 20
-66.9433419685
  0
LWPOLYLINE
  5
32C
330
2D3
100
AcDbEntity
  8
0
  6
Continuous
 62
     7
370
    25
100
AcDbPolyline
 90
       46
 70
   128
 43
0.0
 10
-67.8822509939
 20
-107.7637475596
 10
-69.5755324778
 20
-106.6392502548
 10
-70.981240124
 20
-105.3896532999
 10
-72.0720134322
 20
-104.0392786783
 10
-72.8266217405
 20
-102.6144098959
 10
-73.2303774567
 20
-101.1427804028
 10
-73.2754219349
 20
-99.6530337931
 10
-72.9608784357
 20
-98.1741662901
 10
-72.2928691905
 20
-96.7349623675
 10
-71.2843962394
 20
-95.3634344925
 10
-69.9550883613
 20
-94.0862778953
 10
-68.3308190219
 20
-92.9283509761
 10
-66.4432027764
 20
-91.9121914654
 10
-64.3289799278
 20
-91.0575777521
 10
-62.029301419
 20
-90.3811439202
 10
-59.5889278764
 20
-89.8960559846
 10
-57.055358395
 20
-89.6117556304
 10
-54.4779060229
 20
-89.5337764404
 10
-51.9067379387
 20
-89.6636361909
 10
-49.3918990046
 20
-89.9988073096
 10
-46.9823376998
 20
-90.532766072
 10
-44.7249533942
 20
-91.255119578
 10
-42.6636835056
 20
-92.1518080384
 10
-40.8386483078
 20
-93.2053784322
 10
-39.285370035
 20
-94.3953242102
 10
-38.0340814818
 20
-95.6984844312
 10
-37.1091375566
 20
-97.089494564
 10
-36.5285412409
 20
-98.5412801786
 10
-36.3035931816
 20
-100.0255839193
 10
-36.4386717366
 20
-101.5135155021
 10
-36.9311477556
 20
-102.9761140315
 10
-37.7714357531
 20
-104.3849116905
 10
-38.943180479
 20
-105.7124878354
 10
-40.423575255
 20
-106.9330027065
 10
-42.1838058808
 20
-108.0227003702
 10
-44.1896114695
 20
-108.9603711009
 10
-46.4019512968
 20
-109.7277642046
 10
-48.7777646845
 20
-110.3099432472
 10
-51.2708091275
 20
-110.695576776
 10
-53.8325603515
 20
-110.877158873
 10
-56.4131567828
 20
-110.8511552492
 10
-58.9623700473
 20
-110.6180720356
 10
-61.4305826085
 20
-110.1824459317
 10
-63.7697535165
 20
-109.5527559043
 10
-65.9343534703
 20
-108.7412581534
 10
-67.8822509939
 20
-107.7637475596
  0
LWPOLYLINE
  5
32D
330
2D3
100
AcDbEntity
  8
0
  6
Continuous
 62
     7
370
    25
100
AcDbPolyline
 90
       46
 70
   128
 43
0.0
 10
-209.3036072312
 20
-26.1229363773
 10
-210.9968887151
 20
-24.9984390725
 10
-212.4025963613
 20
-23.7488421176
 10
-213.4933696695
 20
-22.398467496
 10
-214.2479779778
 20
-20.9735987136
 10
-214.651733694
 20
-19.5019692205
 10
-214.6967781722
 20
-18.0122226108
 10
-214.382234673
 20
-16.5333551078
 10
-213.7142254279
 20
-15.0941511852
 10
-212.7057524768
 20
-13.7226233102
 10
-211.3764445986
 20
-12.445466713
 10
-209.7521752592
 20
-11.2875397938
 10
-207.8645590137
 20
-10.2713802831
 10
-205.7503361651
 20
-9.4167665699
 10
-203.4506576563
 20
-8.7403327379
 10
-201.0102841137
 20
-8.2552448024
 10
-198.4767146323
 20
-7.9709444481
 10
-195.8992622602
 20
-7.8929652581
 10
-193.328094176
 20
-8.0228250086
 10
-190.8132552419
 20
-8.3579961274
 10
-188.4036939371
 20
-8.8919548897
 10
-186.1463096315
 20
-9.6143083957
 10
-184.0850397429
 20
-10.5109968561
 10
-182.2600045451
 20
-11.5645672499
 10
-180.7067262723
 20
-12.7545130279
 10
-179.4554377191
 20
-14.0576732489
 10
-178.530493794
 20
-15.4486833817
 10
-177.9498974783
 20
-16.9004689963
 10
-177.7249494189
 20
-18.384772737
 10
-177.8600279739
 20
-19.8727043199
 10
-178.3525039929
 20
-21.3353028492
 10
-179.1927919904
 20
-22.7441005083
 10
-180.3645367163
 20
-24.0716766531
 10
-181.8449314923
 20
-25.2921915242
 10
-183.6051621181
 20
-26.3818891879
 10
-185.6109677068
 20
-27.3195599187
 10
-187.8233075341
 20
-28.0869530223
 10
-190.1991209218
 20
-28.6691320649
 10
-192.6921653648
 20
-29.0547655937
 10
-195.2539165888
 20
-29.2363476907
 10
-197.8345130201
 20
-29.2103440669
 10
-200.3837262846
 20
-28.9772608533
 10
-202.8519388459
 20
-28.5416347495
 10
-205.1911097538
 20
-27.911944722
 10
-207.3557097076
 20
-27.1004469711
 10
-209.3036072312
 20
-26.1229363773
  0
LWPOLYLINE
  5
32E
330
2D3
100
AcDbEntity
  8
0
  6
Continuous
 62
     7
370
    25
100
AcDbPolyline
 90
        3
 70
   128
 43
0.0
 10
16.6168985634
 20
-198.5189385106
 10
16.2620476327
 20
-198.7210475438
 10
15.9101248164
 20
-198.9158371464
  0
SPLINE
  5
331
330
2D3
100
AcDbEntity
  8
0
  6
Continuous
 62
     7
370
    25
100
AcDbSpline
210
0.0
220
0.0
230
1.0
 70
     8
 71
     3
 72
     8
 73
     4
 74
     0
 42
0.000000001
 43
0.00000001
 40
0.0
 40
0.0
 40
0.0
 40
0.0
 40
1.0
 40
1.0
 40
1.0
 40
1.0
 10
-85.35765557130989
 20
164.2004548405637
 30
0.0
 10
-85.59122047385104
 20
164.0620355794242
 30
0.0
 10
-85.82152549940064
 20
163.9216704854066
 30
0.0
 10
-86.04854321345267
 20
163.7794912965925
 30
0.0
  0
SPLINE
  5
332
330
2D3
100
AcDbEntity
  8
0
  6
Continuous
 62
     7
370
    25
100
AcDbSpline
210
0.0
220
0.0
230
1.0
 70
     8
 71
     3
 72
    36
 73
    32
 74
     0
 42
0.000000001
 43
0.00000001
 40
0.0
 40
0.0
 40
0.0
 40
0.0
 40
0.0624999999999971
 40
0.0624999999999971
 40
0.0937499999999956
 40
0.0937499999999956
 40
0.1249999999999942
 40
0.1249999999999942
 40
0.2499999999999909
 40
0.2499999999999909
 40
0.3124999999999885
 40
0.3124999999999885
 40
0.3437499999999877
 40
0.3437499999999877
 40
0.3749999999999868
 40
0.3749999999999868
 40
0.4999999999999862
 40
0.4999999999999862
 40
0.5312499999999869
 40
0.5312499999999869
 40
0.5624999999999876
 40
0.5624999999999876
 40
0.624999999999989
 40
0.624999999999989
 40
0.7499999999999931
 40
0.7499999999999931
 40
0.8124999999999944
 40
0.8124999999999944
 40
0.8749999999999958
 40
0.8749999999999958
 40
1.0
 40
1.0
 40
1.0
 40
1.0
 10
-38.60864079738293
 20
164.5131246462518
 30
0.0
 10
-39.3842290569325
 20
164.967795508055
 30
0.0
 10
-40.19388753344437
 20
165.3977842146208
 30
0.0
 10
-41.4583035431363
 20
166.0046148157441
 30
0.0
 10
-41.88810563186387
 20
166.2005986671958
 30
0.0
 10
-42.76412368541762
 20
166.580150911762
 30
0.0
 10
-43.21127859301426
 20
166.7641725859439
 30
0.0
 10
-45.4760791745068
 20
167.6473935635497
 30
0.0
 10
-47.37603031255453
 20
168.234631523496
 30
0.0
 10
-50.35196239071885
 20
168.9459938483253
 30
0.0
 10
-51.3650568092185
 20
169.1547272260111
 30
0.0
 10
-52.91748851366877
 20
169.4237719358753
 30
0.0
 10
-53.44179946511818
 20
169.5062761312608
 30
0.0
 10
-54.49486336175084
 20
169.6551653853782
 30
0.0
 10
-55.02254074235915
 20
169.7214902306538
 30
0.0
 10
-57.66646720023534
 20
170.0138995425251
 30
0.0
 10
-59.79922842455245
 20
170.1229162467316
 30
0.0
 10
-62.48714644971722
 20
170.1033328690493
 30
0.0
 10
-63.02583761549363
 20
170.0916265829954
 30
0.0
 10
-64.10544621672678
 20
170.0524598386565
 30
0.0
 10
-64.64748782619996
 20
170.0249238970972
 30
0.0
 10
-66.26923253965623
 20
169.9181423294231
 30
0.0
 10
-67.33672438648443
 20
169.8156211104125
 30
0.0
 10
-70.5003077270894
 20
169.4190091727394
 30
0.0
 10
-72.55736351221661
 20
169.0348625045302
 30
0.0
 10
-75.56382963454116
 20
168.2764829304251
 30
0.0
 10
-76.55593208329519
 20
167.9920081118534
 30
0.0
 10
-78.47187719208843
 20
167.3726773712341
 30
0.0
 10
-79.40055731005123
 20
167.0368341247481
 30
0.0
 10
-82.10103821820272
 20
165.9531375899149
 30
0.0
 10
-83.7891112224916
 20
165.1300326472707
 30
0.0
 10
-85.3576555713099
 20
164.2004548405635
 30
0.0
  0
SPLINE
  5
333
330
2D3
100
AcDbEntity
  8
0
  6
Continuous
 62
     7
370
    25
100
AcDbSpline
210
0.0
220
0.0
230
1.0
 70
     8
 71
     3
 72
    11
 73
     7
 74
     0
 42
0.000000001
 43
0.00000001
 40
-0.0000000599910715
 40
-0.0000000599910715
 40
-0.0000000599910715
 40
-0.0000000599910715
 40
0.0
 40
0.0
 40
0.0
 40
0.0004500023390715
 40
0.0004500023390715
 40
0.0004500023390715
 40
0.0004500023390715
 10
-38.28983219749824
 20
164.3237104655041
 30
0.0
 10
-38.28984626906537
 20
164.3237186677033
 30
0.0
 10
-38.28986033675991
 20
164.3237274085039
 30
0.0
 10
-38.28987440640988
 20
164.3237358799928
 30
0.0
 10
-38.39541303479808
 20
164.387281833269
 30
0.0
 10
-38.50167215399559
 20
164.4504167278737
 30
0.0
 10
-38.60864079738293
 20
164.5131246462518
 30
0.0
  0
SPLINE
  5
335
330
2D3
100
AcDbEntity
  8
0
  6
Continuous
 62
     7
370
    25
100
AcDbSpline
210
0.0
220
0.0
230
1.0
 70
     8
 71
     3
 72
    11
 73
     7
 74
     0
 42
0.000000001
 43
0.00000001
 40
0.0
 40
0.0
 40
0.0
 40
0.0
 40
0.0004500023243073
 40
0.0004500023243073
 40
0.0004500023243073
 40
0.0004500623243073
 40
0.0004500623243073
 40
0.0004500623243073
 40
0.0004500623243073
 10
272.5183429213112
 20
-15.09665995282693
 30
0.0
 10
272.413215243507
 20
-15.03692727119294
 30
0.0
 10
272.3073609765825
 20
-14.97761171435581
 30
0.0
 10
272.2007980390013
 20
-14.91871403976494
 30
0.0
 10
272.200783830683
 20
-14.91870618678222
 30
0.0
 10
272.2007696223395
 20
-14.9186983338143
 30
0.0
 10
272.2007554140085
 20
-14.91869048083903
 30
0.0
  0
SPLINE
  5
337
330
2D3
100
AcDbEntity
  8
0
  6
Continuous
 62
     7
370
    25
100
AcDbSpline
210
0.0
220
0.0
230
1.0
 70
     8
 71
     3
 72
    38
 73
    34
 74
     0
 42
0.000000001
 43
0.00000001
 40
0.0
 40
0.0
 40
0.0
 40
0.0
 40
0.0312499999999999
 40
0.0312499999999999
 40
0.0624999999999997
 40
0.0624999999999997
 40
0.1249999999999996
 40
0.1249999999999996
 40
0.1874999999999994
 40
0.1874999999999994
 40
0.2499999999999992
 40
0.2499999999999992
 40
0.3124999999999991
 40
0.3124999999999991
 40
0.3749999999999989
 40
0.3749999999999989
 40
0.4999999999999967
 40
0.4999999999999967
 40
0.5624999999999969
 40
0.5624999999999969
 40
0.6249999999999969
 40
0.6249999999999969
 40
0.749999999999998
 40
0.749999999999998
 40
0.8124999999999984
 40
0.8124999999999984
 40
0.874999999999999
 40
0.874999999999999
 40
0.9374999999999994
 40
0.9374999999999994
 40
0.9687499999999998
 40
0.9687499999999998
 40
1.0
 40
1.0
 40
1.0
 40
1.0
 10
-78.35378341944707
 20
63.37438820847149
 30
0.0
 10
-78.16377098564773
 20
63.46549965949178
 30
0.0
 10
-77.96708906893782
 20
63.55446284593555
 30
0.0
 10
-77.56799581566223
 20
63.72515024669529
 30
0.0
 10
-77.36425120432655
 20
63.80750360979059
 30
0.0
 10
-76.74106174692103
 20
64.04838694742743
 30
0.0
 10
-76.3104387926899
 20
64.20087941089301
 30
0.0
 10
-75.41725652150868
 20
64.48040873483279
 30
0.0
 10
-74.95437179751117
 20
64.60929366366983
 30
0.0
 10
-74.01355340492628
 20
64.83998952659498
 30
0.0
 10
-73.53381680942367
 20
64.94330162437178
 30
0.0
 10
-72.5557611340892
 20
65.12396700028536
 30
0.0
 10
-72.05743672600211
 20
65.20171675039951
 30
0.0
 10
-71.04185571003913
 20
65.33197677038932
 30
0.0
 10
-70.52175186613809
 20
65.38486209888822
 30
0.0
 10
-68.95654157608367
 20
65.50251084188652
 30
0.0
 10
-67.90875602755766
 20
65.52797918214293
 30
0.0
 10
-66.3307259984221
 20
65.49033971548393
 30
0.0
 10
-65.80365012490643
 20
65.46507737278728
 30
0.0
 10
-64.74734037696271
 20
65.38836951357347
 30
0.0
 10
-64.21833165015227
 20
65.33660727453616
 30
0.0
 10
-62.66377305627768
 20
65.14479155703043
 30
0.0
 10
-61.65799556504978
 20
64.96801366355798
 30
0.0
 10
-60.19487366722094
 20
64.62712899345932
 30
0.0
 10
-59.71440858008211
 20
64.50106601585546
 30
0.0
 10
-58.7705193032466
 20
64.22318030993776
 30
0.0
 10
-58.31393290986011
 20
64.07323483941329
 30
0.0
 10
-57.43063129318511
 20
63.75250253415194
 30
0.0
 10
-57.00383562138858
 20
63.58122991452547
 30
0.0
 10
-56.38540058951207
 20
63.31109129684901
 30
0.0
 10
-56.18311032043756
 20
63.21870891640177
 30
0.0
 10
-55.78655918172436
 20
63.02855829861281
 30
0.0
 10
-55.59101178687581
 20
62.93011662609899
 30
0.0
 10
-55.4018163025242
 20
62.83016903946406
 30
0.0
  0
LWPOLYLINE
  5
33A
330
2D3
100
AcDbEntity
  8
0
  6
Continuous
 62
     7
370
    25
100
AcDbPolyline
 90
       14
 70
   128
 43
0.0
 10
-41.0695522395
 20
-107.0135591428
 10
-42.4264068712
 20
-106.133054537
 10
-44.313416378
 20
-105.1891296408
 10
-46.4139182744
 20
-104.4098428383
 10
-48.685152399
 20
-103.8110581614
 10
-51.0808829748
 20
-103.4049651394
 10
-53.552339836
 20
-103.1998306551
 10
-56.0492112479
 20
-103.1998306551
 10
-58.5206681091
 20
-103.4049651394
 10
-60.9163986849
 20
-103.8110581614
 10
-63.1876328096
 20
-104.4098428383
 10
-65.2881347059
 20
-105.1891296408
 10
-67.1751442127
 20
-106.133054537
 10
-68.5005657296
 20
-106.9906608184
  0
SPLINE
  5
33D
330
2D3
100
AcDbEntity
  8
0
  6
Continuous
 62
     7
370
    25
100
AcDbSpline
210
0.0
220
0.0
230
1.0
 70
     8
 71
     3
 72
    38
 73
    34
 74
     0
 42
0.000000001
 43
0.00000001
 40
0.0
 40
0.0
 40
0.0
 40
0.0
 40
0.0312499999999989
 40
0.0312499999999989
 40
0.0624999999999978
 40
0.0624999999999978
 40
0.1249999999999956
 40
0.1249999999999956
 40
0.1874999999999934
 40
0.1874999999999934
 40
0.2499999999999912
 40
0.2499999999999912
 40
0.3749999999999948
 40
0.3749999999999948
 40
0.4374999999999955
 40
0.4374999999999955
 40
0.4999999999999963
 40
0.4999999999999963
 40
0.5624999999999971
 40
0.5624999999999971
 40
0.6249999999999979
 40
0.6249999999999979
 40
0.7499999999999994
 40
0.7499999999999994
 40
0.8124999999999974
 40
0.8124999999999974
 40
0.8749999999999954
 40
0.8749999999999954
 40
0.9062499999999967
 40
0.9062499999999967
 40
0.9374999999999978
 40
0.9374999999999978
 40
1.0
 40
1.0
 40
1.0
 40
1.0
 10
-61.87184335300532
 20
52.84862443349248
 30
0.0
 10
-61.95823360859505
 20
52.89849646648835
 30
0.0
 10
-62.04462386418493
 20
52.94836849948435
 30
0.0
 10
-62.21740437536447
 20
53.04811256547615
 30
0.0
 10
-62.30420820587265
 20
53.09767815547217
 30
0.0
 10
-62.57340193375158
 20
53.2398676283773
 30
0.0
 10
-62.76286930925384
 20
53.32724737403776
 30
0.0
 10
-63.15617717019245
 20
53.49135694744174
 30
0.0
 10
-63.36092097763787
 20
53.56741744855332
 30
0.0
 10
-63.78726610243312
 20
53.70704768867713
 30
0.0
 10
-64.00834821193416
 20
53.77030738773334
 30
0.0
 10
-64.67899674638934
 20
53.93821402946115
 30
0.0
 10
-65.14185837415856
 20
54.02187128935188
 30
0.0
 10
-65.86043079898833
 20
54.10379521062909
 30
0.0
 10
-66.10564140885194
 20
54.123655423065
 30
0.0
 10
-66.59300914148638
 20
54.14690303491444
 30
0.0
 10
-66.83603335991289
 20
54.15047515775032
 30
0.0
 10
-67.32075954832082
 20
54.14147999701451
 30
0.0
 10
-67.562465693166
 20
54.12896367198184
 30
0.0
 10
-68.04455521754177
 20
54.08778530646811
 30
0.0
 10
-68.2864539358598
 20
54.05884055721814
 30
0.0
 10
-68.99736427776377
 20
53.94938053961904
 30
0.0
 10
-69.45048525792316
 20
53.84713461759661
 30
0.0
 10
-70.10061242882827
 20
53.65221137529681
 30
0.0
 10
-70.31341264572998
 20
53.57948646483565
 30
0.0
 10
-70.72026378306825
 20
53.42181341201622
 30
0.0
 10
-70.91498162646916
 20
53.33716601696296
 30
0.0
 10
-71.19325704288353
 20
53.20098496174975
 30
0.0
 10
-71.2834163630749
 20
53.1538568018204
 30
0.0
 10
-71.45893704292723
 20
53.0563986907314
 30
0.0
 10
-71.54438448516898
 20
53.00612618448999
 30
0.0
 10
-71.80300402398012
 20
52.85682830262906
 30
0.0
 10
-71.97541704985434
 20
52.75729638138846
 30
0.0
 10
-72.14783007572842
 20
52.65776446014784
 30
0.0
  0
LWPOLYLINE
  5
340
330
2D3
100
AcDbEntity
  8
0
  6
Continuous
 62
     7
370
    25
100
AcDbPolyline
 90
       14
 70
   128
 43
0.0
 10
-209.9251702338
 20
-25.3522096325
 10
-208.59650045
 20
-24.4922433547
 10
-206.7094909432
 20
-23.5483184586
 10
-204.6089890469
 20
-22.7690316561
 10
-202.3377549223
 20
-22.1702469792
 10
-199.9420243464
 20
-21.7641539571
 10
-197.4705674853
 20
-21.5590194729
 10
-194.9736960733
 20
-21.5590194729
 10
-192.5022392121
 20
-21.7641539571
 10
-190.1065086363
 20
-22.1702469792
 10
-187.8352745117
 20
-22.7690316561
 10
-185.7347726153
 20
-23.5483184586
 10
-183.8477631085
 20
-24.4922433547
 10
-182.4922920341
 20
-25.3717372029
  0
SPLINE
  5
34F
330
2D3
100
AcDbEntity
  8
0
  6
Continuous
 62
     8
370
    25
100
AcDbSpline
210
0.0
220
0.0
230
1.0
 70
     8
 71
     3
 72
    12
 73
     8
 74
     0
 42
0.000000001
 43
0.00000001
 40
0.0
 40
0.0
 40
0.0
 40
0.0
 40
0.3300055667744466
 40
0.6153045048378077
 40
0.793110758238735
 40
0.9248775571649431
 40
1.0
 40
1.0
 40
1.0
 40
1.0
 10
15.99754120703154
 20
-194.1508250898671
 30
0.0
 10
16.36589466648114
 20
-194.3819099429479
 30
0.0
 10
17.05269987763947
 20
-194.8127740416665
 30
0.0
 10
17.94418208138371
 20
-195.4296026734713
 30
0.0
 10
18.63471223796265
 20
-195.9179892151308
 30
0.0
 10
19.09749465829275
 20
-196.2587075585328
 30
0.0
 10
19.37649440292583
 20
-196.4320973810007
 30
0.0
 10
19.47780050366238
 20
-196.4950560293849
 30
0.0
  0
SPLINE
  5
351
330
2D3
100
AcDbEntity
  8
0
  6
Continuous
 62
     8
370
    25
100
AcDbSpline
210
0.0
220
0.0
230
1.0
 70
     8
 71
     3
 72
     9
 73
     5
 74
     0
 42
0.000000001
 43
0.00000001
 40
0.0
 40
0.0
 40
0.0
 40
0.0
 40
0.5055361532425034
 40
1.0
 40
1.0
 40
1.0
 40
1.0
 10
16.61689856340567
 20
-198.5189385105895
 30
0.0
 10
16.67176363986422
 20
-198.0170365115358
 30
0.0
 10
16.78029213205334
 20
-197.0242252242825
 30
0.0
 10
17.36708402507786
 20
-196.5449104718825
 30
0.0
 10
17.65723140174899
 20
-196.3079066556031
 30
0.0
  0
SPLINE
  5
356
330
2D3
100
AcDbEntity
  8
0
  6
Continuous
 62
     8
370
    25
100
AcDbSpline
210
0.0
220
0.0
230
1.0
 70
     8
 71
     3
 72
    15
 73
    11
 74
     0
 42
0.000000001
 43
0.00000001
 40
0.0
 40
0.0
 40
0.0
 40
0.0
 40
0.0000019160214334
 40
0.1093864192976688
 40
0.2199375113351296
 40
0.3985464804495208
 40
0.58235192538498
 40
0.7612170939232678
 40
0.9453222709685237
 40
1.0
 40
1.0
 40
1.0
 40
1.0
 10
-226.7834544640729
 20
82.53495637016032
 30
0.0
 10
-226.7834686049285
 20
82.53494820680851
 30
0.0
 10
-227.5907756263364
 20
82.06889923342834
 30
0.0
 10
-229.1316609818979
 20
81.08297058828082
 30
0.0
 10
-231.5905008062612
 20
79.13424073710337
 30
0.0
 10
-233.9525194072867
 20
76.59727743861872
 30
0.0
 10
-235.7955147135201
 20
73.45598355724314
 30
0.0
 10
-236.6478064304908
 20
70.14394905174179
 30
0.0
 10
-236.7561152801345
 20
67.55756572756447
 30
0.0
 10
-236.2672520501652
 20
66.11705146075967
 30
0.0
 10
-236.1553096516874
 20
65.78719514884668
 30
0.0
  0
SPLINE
  5
357
330
2D3
100
AcDbEntity
  8
0
  6
Continuous
 62
     8
370
    25
100
AcDbSpline
210
0.0
220
0.0
230
1.0
 70
     8
 71
     3
 72
    13
 73
     9
 74
     0
 42
0.000000001
 43
0.00000001
 40
0.0
 40
0.0
 40
0.0
 40
0.0
 40
0.1329224567813955
 40
0.3081197576387033
 40
0.4785759483277798
 40
0.6541190988235169
 40
0.8245335796289734
 40
1.0
 40
1.0
 40
1.0
 40
1.0
 10
281.3044820941697
 20
-32.70514559852634
 30
0.0
 10
281.5872378173937
 20
-31.85424404034158
 30
0.0
 10
282.2426772895514
 20
-29.88181900223486
 30
0.0
 10
282.1210238351156
 20
-26.77207834161503
 30
0.0
 10
281.1269838701695
 20
-23.47297166342299
 30
0.0
 10
279.1561906581688
 20
-20.38390065978253
 30
0.0
 10
276.3362093522585
 20
-17.50645644286285
 30
0.0
 10
273.8032969786267
 20
-15.90770922162181
 30
0.0
 10
272.5183429213112
 20
-15.09665995282697
 30
0.0
  0
LWPOLYLINE
  5
35C
330
2D3
100
AcDbEntity
  8
0
  6
Continuous
 62
     8
370
    25
100
AcDbPolyline
 90
       24
 70
   128
 43
0.0
 10
-37.3010766486
 20
-100.9692501993
 10
-37.3453635363
 20
-100.3078067447
 10
-37.7007053875
 20
-98.8810650678
 10
-38.4041553545
 20
-97.4980392449
 10
-39.4413932245
 20
-96.1868836935
 10
-40.7913038258
 20
-94.9742897595
 10
-42.4264068712
 20
-93.8849423587
 10
-44.313416378
 20
-92.9410174626
 10
-46.4139182744
 20
-92.16173066
 10
-48.685152399
 20
-91.5629459831
 10
-51.0808829748
 20
-91.1568529611
 10
-53.552339836
 20
-90.9517184768
 10
-56.0492112479
 20
-90.9517184768
 10
-58.5206681091
 20
-91.1568529611
 10
-60.9163986849
 20
-91.5629459831
 10
-63.1876328096
 20
-92.16173066
 10
-65.2881347059
 20
-92.9410174626
 10
-67.1751442127
 20
-93.8849423587
 10
-68.8102472581
 20
-94.9742897595
 10
-70.1601578594
 20
-96.1868836935
 10
-71.1973957295
 20
-97.4980392449
 10
-71.9008456965
 20
-98.8810650678
 10
-72.2561875476
 20
-100.3078067447
 10
-72.2877948758
 20
-100.6394733192
  0
LWPOLYLINE
  5
35E
330
2D3
100
AcDbEntity
  8
0
  6
Continuous
 62
     8
370
    25
100
AcDbPolyline
 90
       24
 70
   128
 43
0.0
 10
-108.0117547673
 20
-60.1488446081
 10
-108.0560416549
 20
-59.4874011536
 10
-108.4113835061
 20
-58.0606594767
 10
-109.1148334731
 20
-56.6776336538
 10
-110.1520713432
 20
-55.3664781024
 10
-111.5019819444
 20
-54.1538841684
 10
-113.1370849898
 20
-53.0645367675
 10
-115.0240944967
 20
-52.1206118714
 10
-117.124596393
 20
-51.3413250689
 10
-119.3958305176
 20
-50.742540392
 10
-121.7915610934
 20
-50.33644737
 10
-124.2630179546
 20
-50.1313128857
 10
-126.7598893666
 20
-50.1313128857
 10
-129.2313462278
 20
-50.33644737
 10
-131.6270768036
 20
-50.742540392
 10
-133.8983109282
 20
-51.3413250689
 10
-135.9988128246
 20
-52.1206118714
 10
-137.8858223314
 20
-53.0645367675
 10
-139.5209253768
 20
-54.1538841684
 10
-140.870835978
 20
-55.3664781024
 10
-141.9080738481
 20
-56.6776336538
 10
-142.6115238151
 20
-58.0606594767
 10
-142.9668656663
 20
-59.4874011536
 10
-142.9984729944
 20
-59.8190677281
  0
LWPOLYLINE
  5
35F
330
2D3
100
AcDbEntity
  8
0
  6
Continuous
 62
     8
370
    25
100
AcDbPolyline
 90
       16
 70
   128
 43
0.0
 10
-139.7460093015
 20
-65.7630312462
 10
-139.5209253768
 20
-65.5854555348
 10
-137.8858223314
 20
-64.4961081339
 10
-135.9988128246
 20
-63.5521832378
 10
-133.8983109282
 20
-62.7728964353
 10
-131.6270768036
 20
-62.1741117584
 10
-129.2313462278
 20
-61.7680187364
 10
-126.7598893666
 20
-61.5628842521
 10
-124.2630179546
 20
-61.5628842521
 10
-121.7915610934
 20
-61.7680187364
 10
-119.3958305176
 20
-62.1741117584
 10
-117.124596393
 20
-62.7728964353
 10
-115.0240944967
 20
-63.5521832378
 10
-113.1370849898
 20
-64.4961081339
 10
-111.5019819444
 20
-65.5854555348
 10
-111.2571294935
 20
-65.7790218882
  0
LWPOLYLINE
  5
368
330
2D3
100
AcDbEntity
  8
0
  6
Continuous
 62
     8
370
    25
100
AcDbPolyline
 90
       24
 70
   128
 43
0.0
 10
-178.7224328859
 20
-19.328439017
 10
-178.7667197736
 20
-18.6669955624
 10
-179.1220616248
 20
-17.2402538855
 10
-179.8255115918
 20
-15.8572280627
 10
-180.8627494618
 20
-14.5460725112
 10
-182.2126600631
 20
-13.3334785773
 10
-183.8477631085
 20
-12.2441311764
 10
-185.7347726153
 20
-11.3002062803
 10
-187.8352745117
 20
-10.5209194778
 10
-190.1065086363
 20
-9.9221348009
 10
-192.5022392121
 20
-9.5160417789
 10
-194.9736960733
 20
-9.3109072946
 10
-197.4705674853
 20
-9.3109072946
 10
-199.9420243464
 20
-9.5160417789
 10
-202.3377549223
 20
-9.9221348009
 10
-204.6089890469
 20
-10.5209194778
 10
-206.7094909432
 20
-11.3002062803
 10
-208.59650045
 20
-12.2441311764
 10
-210.2316034954
 20
-13.3334785773
 10
-211.5815140967
 20
-14.5460725112
 10
-212.6187519668
 20
-15.8572280627
 10
-213.3222019338
 20
-17.2402538855
 10
-213.6775437849
 20
-18.6669955624
 10
-213.7091511131
 20
-18.998662137
  0
SPLINE
  5
36A
330
2D3
100
AcDbEntity
  8
0
  6
Continuous
 62
     8
370
    25
100
AcDbSpline
210
0.0
220
0.0
230
1.0
 70
     8
 71
     3
 72
    12
 73
     8
 74
     0
 42
0.000000001
 43
0.00000001
 40
0.0
 40
0.0
 40
0.0
 40
0.0
 40
0.0292364739440995
 40
0.0754874869903444
 40
0.2505111773317025
 40
0.5008046234432937
 40
1.0
 40
1.0
 40
1.0
 40
1.0
 10
-347.8722312414063
 20
15.56991625141147
 30
0.0
 10
-347.8610014678455
 20
15.5637919106752
 30
0.0
 10
-347.8320066106954
 20
15.54797909095774
 30
0.0
 10
-347.6486114038328
 20
15.47585529480614
 30
0.0
 10
-347.1917980615923
 20
15.29302777824729
 30
0.0
 10
-346.2002144025624
 20
14.86053662920232
 30
0.0
 10
-345.3610908496373
 20
14.42471011909925
 30
0.0
 10
-344.8021944587762
 20
14.13442883371633
 30
0.0
  0
LINE
  5
376
330
2D3
100
AcDbEntity
  8
0
  6
Continuous
 62
     7
370
    25
100
AcDbLine
 10
125.5056509018
 20
-260.3958274898
 30
0.0
 11
446.3886424133
 21
-75.1540194729
 31
0.0
  0
LINE
  5
377
330
2D3
100
AcDbEntity
  8
0
  6
Continuous
 62
     7
370
    25
100
AcDbLine
 10
114.6442655238
 20
-255.5193320841
 30
0.0
 11
123.0905482116
 21
-260.3952672926
 31
0.0
  0
LINE
  5
378
330
2D3
100
AcDbEntity
  8
0
  6
Continuous
 62
     7
370
    25
100
AcDbLine
 10
19.4763327865
 20
-196.4973498709
 30
0.0
 11
111.815838399
 21
-249.8038118011
 31
0.0
  0
LINE
  5
379
330
2D3
100
AcDbEntity
  8
0
  6
Continuous
 62
     7
370
    25
100
AcDbLine
 10
113.4371181089
 20
-252.6119975421
 30
0.0
 11
113.4371181089
 21
-253.4285383539
 31
0.0
  0
LINE
  5
37A
330
2D3
100
AcDbEntity
  8
0
  6
Continuous
 62
     7
370
    25
100
AcDbLine
 10
449.5068279066
 20
-70.2576421261
 30
0.0
 11
448.7437873405
 21
-61.8511508156
 31
0.0
  0
LINE
  5
37B
330
2D3
100
AcDbEntity
  8
0
  6
Continuous
 62
     7
370
    25
100
AcDbLine
 10
444.8072554091
 20
-56.0852934096
 30
0.0
 11
-117.7132012965
 21
268.6508540432
 31
0.0
  0
LINE
  5
37C
330
2D3
100
AcDbEntity
  8
0
  6
Continuous
 62
     7
370
    25
100
AcDbLine
 10
-126.1973749388
 20
-61.9825185225
 30
0.0
 11
-124.8781955451
 21
-69.8602610639
 31
0.0
  0
LINE
  5
37D
330
2D3
100
AcDbEntity
  8
0
  6
Continuous
 62
     7
370
    25
100
AcDbLine
 10
-440.2061968211
 20
68.871725932
 30
0.0
 11
-347.8723443523
 21
15.5685274922
 31
0.0
  0
LINE
  5
37E
330
2D3
100
AcDbEntity
  8
0
  6
Continuous
 62
     7
370
    25
100
AcDbLine
 10
-129.7741721188
 20
268.6508540432
 30
0.0
 11
-450.2788268275
 21
83.6274552137
 31
0.0
  0
LINE
  5
37F
330
2D3
100
AcDbEntity
  8
0
  6
Continuous
 62
     7
370
    25
100
AcDbLine
 10
-441.5347458468
 20
66.3723300457
 30
0.0
 11
-438.7056964444
 21
68.0055055026
 31
0.0
  0
LINE
  5
380
330
2D3
100
AcDbEntity
  8
0
  6
Continuous
 62
     7
370
    25
100
AcDbLine
 10
-451.4809066336
 20
71.2977733046
 30
0.0
 11
-443.0346239458
 21
66.4218380962
 31
0.0
  0
LINE
  5
381
330
2D3
100
AcDbEntity
  8
0
  6
Continuous
 62
     7
370
    25
100
AcDbLine
 10
-451.8952746453
 20
80.7414571401
 30
0.0
 11
-452.2730806941
 21
72.6349087733
 31
0.0
  0
LINE
  5
382
330
2D3
100
AcDbEntity
  8
0
  6
Continuous
 62
     7
370
    25
100
AcDbLine
 10
445.8381471571
 20
-66.3165348971
 30
0.0
 11
125.3334924485
 21
-251.3399337266
 31
0.0
  0
LINE
  5
383
330
2D3
100
AcDbEntity
  8
0
  6
Continuous
 62
     7
370
    25
100
AcDbLine
 10
121.8028038689
 20
-245.432678756
 30
0.0
 11
442.3074585775
 21
-60.4092799265
 31
0.0
  0
LINE
  5
384
330
2D3
100
AcDbEntity
  8
0
  6
Continuous
 62
     7
370
    25
100
AcDbLine
 10
-442.5346645795
 20
67.2880196586
 30
0.0
 11
-442.5346645795
 21
68.1045604705
 31
0.0
  0
LINE
  5
385
330
2D3
100
AcDbEntity
  8
0
  6
Continuous
 62
     7
370
    25
100
AcDbLine
 10
-451.6880540485
 20
71.7556181111
 30
0.0
 11
-443.2417713607
 21
66.8796829026
 31
0.0
  0
LINE
  5
386
330
2D3
100
AcDbEntity
  8
0
  6
Continuous
 62
     7
370
    25
100
AcDbLine
 10
-451.311656706
 20
79.8319400019
 30
0.0
 11
-451.6880540485
 21
71.7556181111
 31
0.0
  0
LINE
  5
387
330
2D3
100
AcDbEntity
  8
0
  6
Continuous
 62
     7
370
    25
100
AcDbLine
 10
120.3885903065
 20
-247.8821684916
 30
0.0
 11
-449.1932435582
 21
80.9304252256
 31
0.0
  0
LINE
  5
388
330
2D3
100
AcDbEntity
  8
0
  6
Continuous
 62
     7
370
    25
100
AcDbLine
 10
122.8834007967
 20
-259.9374224861
 30
0.0
 11
122.5070034543
 21
-251.426521474
 31
0.0
  0
LINE
  5
389
330
2D3
100
AcDbEntity
  8
0
  6
Continuous
 62
     7
370
    25
100
AcDbLine
 10
114.4371181089
 20
-255.0614872777
 30
0.0
 11
122.8834007967
 21
-259.9374224861
 31
0.0
  0
LINE
  5
38A
330
2D3
100
AcDbEntity
  8
0
  6
Continuous
 62
     7
370
    25
100
AcDbLine
 10
113.7300113277
 20
-253.020201598
 30
0.0
 11
113.7300113277
 21
-253.8367424099
 31
0.0
  0
LINE
  5
38B
330
2D3
100
AcDbEntity
  8
0
  6
Continuous
 62
     7
370
    25
100
AcDbLine
 10
15.997541207
 20
-194.1508250899
 30
0.0
 11
111.6086909842
 21
-249.3459669946
 31
0.0
  0
LINE
  5
38C
330
2D3
100
AcDbEntity
  8
0
  6
Continuous
 62
     7
370
    25
100
AcDbLine
 10
15.8941273753
 20
-199.0751605139
 30
0.0
 11
-3.5355339059
 21
-292.2910896406
 31
0.0
  0
LINE
  5
38D
330
2D3
100
AcDbEntity
  8
0
  6
Continuous
 62
     7
370
    25
100
AcDbLine
 10
-3.5355339059
 20
-292.2910896406
 30
0.0
 11
-28.2842712475
 21
-278.0039476837
 31
0.0
  0
LINE
  5
38E
330
2D3
100
AcDbEntity
  8
0
  6
Continuous
 62
     7
370
    25
100
AcDbLine
 10
-300.5203820043
 20
-120.8453861578
 30
0.0
 11
-325.2691193458
 21
-106.5582442009
 31
0.0
  0
LINE
  5
38F
330
2D3
100
AcDbEntity
  8
0
  6
Continuous
 62
     7
370
    25
100
AcDbLine
 10
-325.2691193458
 20
-106.5582442009
 30
0.0
 11
-344.6987806271
 21
9.0906943411
 31
0.0
  0
LINE
  5
390
330
2D3
100
AcDbEntity
  8
0
  6
Continuous
 62
     7
370
    25
100
AcDbLine
 10
-440.4133442359
 20
69.3295707384
 30
0.0
 11
-344.8021944588
 21
14.1344288337
 31
0.0
  0
LINE
  5
391
330
2D3
100
AcDbEntity
  8
0
  6
Continuous
 62
     7
370
    25
100
AcDbLine
 10
125.3334924485
 20
-251.3399337266
 30
0.0
 11
125.7118292514
 21
-259.8946888097
 31
0.0
  0
LINE
  5
392
330
2D3
100
AcDbEntity
  8
0
  6
Continuous
 62
     7
370
    25
100
AcDbLine
 10
-447.7790299959
 20
83.3799149612
 30
0.0
 11
121.8028038689
 21
-245.432678756
 31
0.0
  0
LINE
  5
393
330
2D3
100
AcDbEntity
  8
0
  6
Continuous
 62
     7
370
    25
100
AcDbLine
 10
446.5948207629
 20
-74.6528807928
 30
0.0
 11
445.8381471571
 21
-66.3165348971
 31
0.0
  0
LINE
  5
394
330
2D3
100
AcDbEntity
  8
0
  6
Continuous
 62
     7
370
    25
100
AcDbLine
 10
125.7118292514
 20
-259.8946888097
 30
0.0
 11
446.5948207629
 21
-74.6528807928
 31
0.0
  0
LINE
  5
395
330
2D3
100
AcDbEntity
  8
0
  6
Continuous
 62
     7
370
    25
100
AcDbLine
 10
442.3074585775
 20
-56.3328336621
 30
0.0
 11
-120.2129981281
 21
268.4033137907
 31
0.0
  0
LINE
  5
396
330
2D3
100
AcDbEntity
  8
0
  6
Continuous
 62
     7
370
    25
100
AcDbLine
 10
-127.2743752872
 20
268.4033137907
 30
0.0
 11
-447.7790299959
 21
83.3799149612
 31
0.0
  0
LINE
  5
397
330
2D3
100
AcDbEntity
  8
0
  6
Continuous
 62
     7
370
    25
100
AcDbLine
 10
90.9392014469
 20
-237.7519858189
 30
0.0
 11
-3.5355339059
 21
-292.2910896406
 31
0.0
  0
LINE
  5
398
330
2D3
100
AcDbEntity
  8
0
  6
Continuous
 62
     7
370
    25
100
AcDbLine
 10
-86.0485432135
 20
163.7794912966
 30
0.0
 11
-226.7834544641
 21
82.5349563702
 31
0.0
  0
LINE
  5
399
330
2D3
100
AcDbEntity
  8
0
  6
Continuous
 62
     7
370
    25
100
AcDbLine
 10
272.200755414
 20
-14.9186904808
 30
0.0
 11
-38.2898321975
 21
164.3237104655
 31
0.0
  0
LINE
  5
39A
330
2D3
100
AcDbEntity
  8
0
  6
Continuous
 62
     7
370
    25
100
AcDbLine
 10
-55.4018163025
 20
62.8301690395
 30
0.0
 11
198.4195127354
 21
-83.6977652794
 31
0.0
  0
LINE
  5
39B
330
2D3
100
AcDbEntity
  8
0
  6
Continuous
 62
     7
370
    25
100
AcDbLine
 10
-158.2910643968
 20
17.2275781627
 30
0.0
 11
-78.3537834194
 21
63.3743882085
 31
0.0
  0
LINE
  5
39C
330
2D3
100
AcDbEntity
  8
0
  6
Continuous
 62
     7
370
    25
100
AcDbLine
 10
-72.2877948758
 20
-100.6394733192
 30
0.0
 11
-72.300775542
 21
-101.0285133371
 31
0.0
  0
LINE
  5
39D
330
2D3
100
AcDbEntity
  8
0
  6
Continuous
 62
     7
370
    25
100
AcDbLine
 10
-142.9984729944
 20
-59.8190677281
 30
0.0
 11
-143.0114536606
 21
-60.208107746
 31
0.0
  0
LINE
  5
39E
330
2D3
100
AcDbEntity
  8
0
  6
Continuous
 62
     7
370
    25
100
AcDbLine
 10
-213.7091511131
 20
-18.998662137
 30
0.0
 11
-213.7221317793
 21
-19.3877021548
 31
0.0
  0
LINE
  5
39F
330
2D3
100
AcDbEntity
  8
0
  6
Continuous
 62
     7
370
    25
100
AcDbLine
 10
-441.1204510171
 20
68.1045604705
 30
0.0
 11
-441.1204510171
 21
67.2880196586
 31
0.0
  0
LINE
  5
3A0
330
2D3
100
AcDbEntity
  8
0
  6
Continuous
 62
     8
370
    25
100
AcDbLine
 10
19.7975525106
 20
-196.6827860705
 30
0.0
 11
16.6168985634
 21
-198.5189385106
 31
0.0
  0
LINE
  5
3A1
330
2D3
100
AcDbEntity
  8
0
  6
Continuous
 62
     8
370
    25
100
AcDbLine
 10
19.9179215007
 20
-196.7522736094
 30
0.0
 11
15.8941273753
 21
-199.0751605139
 31
0.0
  0
LINE
  5
3A2
330
2D3
100
AcDbEntity
  8
0
  6
Continuous
 62
     8
370
    25
100
AcDbLine
 10
-42.4478400018
 20
-106.1207028479
 30
0.0
 11
-42.5001207014
 21
-107.8563519257
 31
0.0
  0
LINE
  5
3A3
330
2D3
100
AcDbEntity
  8
0
  6
Continuous
 62
     8
370
    25
100
AcDbLine
 10
-62.4167653207
 20
-104.1809689236
 30
0.0
 11
-62.5897365573
 21
-109.6709147767
 31
0.0
  0
LINE
  5
3A4
330
2D3
100
AcDbEntity
  8
0
  6
Continuous
 62
     8
370
    25
100
AcDbLine
 10
-49.520176387
 20
-110.2270667626
 30
0.0
 11
-49.3230206207
 21
-103.6817598572
 31
0.0
  0
LINE
  5
3A5
330
2D3
100
AcDbEntity
  8
0
  6
Continuous
 62
     8
370
    25
100
AcDbLine
 10
186.5392912861
 20
-90.5560711389
 30
0.0
 11
-61.871843353
 21
52.8486244335
 31
0.0
  0
LINE
  5
3A6
330
2D3
100
AcDbEntity
  8
0
  6
Continuous
 62
     8
370
    25
100
AcDbLine
 10
-72.1478300757
 20
52.6577644601
 30
0.0
 11
-145.9062136057
 21
10.077955985
 31
0.0
  0
LINE
  5
3A7
330
2D3
100
AcDbEntity
  8
0
  6
Continuous
 62
     8
370
    25
100
AcDbLine
 10
-125.0652164915
 20
-61.9805409098
 30
0.0
 11
-123.7507151253
 21
-69.830347678
 31
0.0
  0
LINE
  5
3A8
330
2D3
100
AcDbEntity
  8
0
  6
Continuous
 62
     8
370
    25
100
AcDbLine
 10
-207.9968190775
 20
-24.1620731924
 30
0.0
 11
-207.9968190775
 21
-26.5017927419
 31
0.0
  0
LINE
  5
3A9
330
2D3
100
AcDbEntity
  8
0
  6
Continuous
 62
     8
370
    25
100
AcDbLine
 10
-439.9988671453
 20
68.7520370578
 30
0.0
 11
-441.1204510171
 21
68.1045604705
 31
0.0
  0
LINE
  5
3AA
330
2D3
100
AcDbEntity
  8
0
  6
Continuous
 62
     8
370
    25
100
AcDbLine
 10
-441.1204510171
 20
67.2880196586
 30
0.0
 11
-439.29164543
 21
68.3437666518
 31
0.0
  0
ARC
  5
3AB
330
2D3
100
AcDbEntity
  8
0
  6
Continuous
 62
     7
370
    25
100
AcDbCircle
 10
117.8777257582
 20
-251.7881295243
 30
0.0
 40
4.643379412537984
100
AcDbArc
 50
4.4664914494
 51
57.2659196393
  0
ARC
  5
3AC
330
2D3
100
AcDbEntity
  8
0
  6
Continuous
 62
     7
370
    25
100
AcDbCircle
 10
123.4590225092
 20
-248.0218901961
 30
0.0
 40
3.073609615144096
100
AcDbArc
 50
122.60547834
 51
177.3945215143
  0
ARC
  5
3AD
330
2D3
100
AcDbEntity
  8
0
  6
Continuous
 62
     7
370
    25
100
AcDbCircle
 10
117.6180296218
 20
-251.9426138106
 30
0.0
 40
7.738965687562839
100
AcDbArc
 50
4.4664914493
 51
57.2659196393
  0
ARC
  5
3AE
330
2D3
100
AcDbEntity
  8
0
  6
Continuous
 62
     7
370
    25
100
AcDbCircle
 10
123.8315213252
 20
-248.486919059
 30
0.0
 40
3.224222378908808
100
AcDbArc
 50
245.7447579081
 51
297.7645863135
  0
ARC
  5
3AF
330
2D3
100
AcDbEntity
  8
0
  6
Continuous
 62
     7
370
    25
100
AcDbCircle
 10
438.1226843304
 20
-66.919214981
 30
0.0
 40
7.738965687562875
100
AcDbArc
 50
4.4664914493
 51
57.2659196393
  0
ARC
  5
3B0
330
2D3
100
AcDbEntity
  8
0
  6
Continuous
 62
     7
370
    25
100
AcDbCircle
 10
-441.2414414772
 20
68.3143420612
 30
0.0
 40
1.310127592285546
100
AcDbArc
 50
50.7967147643
 51
189.2140369905
  0
ARC
  5
3B1
330
2D3
100
AcDbEntity
  8
0
  6
Continuous
 62
     7
370
    25
100
AcDbCircle
 10
-442.9657389469
 20
67.2180924617
 30
0.0
 40
0.4367091974284488
100
AcDbArc
 50
230.7967147643
 51
9.2140369905
  0
ARC
  5
3B2
330
2D3
100
AcDbEntity
  8
0
  6
Continuous
 62
     7
370
    25
100
AcDbCircle
 10
-450.022312382
 20
79.9373652323
 30
0.0
 40
1.293647272232693
100
AcDbArc
 50
50.1427513332
 51
184.6744789353
  0
ARC
  5
3B3
330
2D3
100
AcDbEntity
  8
0
  6
Continuous
 62
     7
370
    25
100
AcDbCircle
 10
115.2652274291
 20
-253.7668815576
 30
0.0
 40
1.536804807572056
100
AcDbArc
 50
182.6054784857
 51
237.39452166
  0
ARC
  5
3B4
330
2D3
100
AcDbEntity
  8
0
  6
Continuous
 62
     7
370
    25
100
AcDbCircle
 10
109.1243630236
 20
-253.2297841548
 30
0.0
 40
4.610414422715994
100
AcDbArc
 50
2.6054784857
 51
57.39452166
  0
ARC
  5
3B5
330
2D3
100
AcDbEntity
  8
0
  6
Continuous
 62
     7
370
    25
100
AcDbCircle
 10
15.1145902958
 20
-198.9175546186
 30
0.0
 40
0.7953097991659418
100
AcDbArc
 50
348.5700816179
 51
0.1332340936
  0
ARC
  5
3B6
330
2D3
100
AcDbEntity
  8
0
  6
Continuous
 62
     7
370
    25
100
AcDbCircle
 10
-343.6185241089
 20
9.2761161934
 30
0.0
 40
1.096054473275761
100
AcDbArc
 50
180.4046048882
 51
189.7396875177
  0
ARC
  5
3B7
330
2D3
100
AcDbEntity
  8
0
  6
Continuous
 62
     7
370
    25
100
AcDbCircle
 10
124.2551466867
 20
-257.1051892842
 30
0.0
 40
3.146940052949941
100
AcDbArc
 50
244.1575306856
 51
297.5736589596
  0
ARC
  5
3B8
330
2D3
100
AcDbEntity
  8
0
  6
Continuous
 62
     7
370
    25
100
AcDbCircle
 10
-446.1228113555
 20
80.7907035211
 30
0.0
 40
3.073609615144057
100
AcDbArc
 50
122.60547834
 51
177.3945215143
  0
ARC
  5
3B9
330
2D3
100
AcDbEntity
  8
0
  6
Continuous
 62
     7
370
    25
100
AcDbCircle
 10
-123.7436867076
 20
261.5942561969
 30
0.0
 40
7.670008289584861
100
AcDbArc
 50
62.591986056
 51
117.408013944
  0
ARC
  5
3BA
330
2D3
100
AcDbEntity
  8
0
  6
Continuous
 62
     7
370
    25
100
AcDbCircle
 10
441.5353210778
 20
-58.3710567943
 30
0.0
 40
2.17957561353794
100
AcDbArc
 50
290.7481276285
 51
69.2518723715
  0
ARC
  5
3BB
330
2D3
100
AcDbEntity
  8
0
  6
Continuous
 62
     7
370
    25
100
AcDbCircle
 10
444.7824021834
 20
-70.2898116681
 30
0.0
 40
4.724535246370494
100
AcDbArc
 50
292.5579946416
 51
0.3901321784
  0
ARC
  5
3BC
330
2D3
100
AcDbEntity
  8
0
  6
Continuous
 62
     7
370
    25
100
AcDbCircle
 10
287.6554696892
 20
-18.4903447294
 30
0.0
 40
15.51288829163631
100
AcDbArc
 50
122.1693448433
 51
167.3634647292
  0
ARC
  5
3BD
330
2D3
100
AcDbEntity
  8
0
  6
Continuous
 62
     7
370
    25
100
AcDbCircle
 10
-23.1310633888
 20
161.185081167
 30
0.0
 40
15.83133840953537
100
AcDbArc
 50
123.6965583024
 51
167.8648307042
  0
ARC
  5
3BE
330
2D3
100
AcDbEntity
  8
0
  6
Continuous
 62
     7
370
    25
100
AcDbCircle
 10
-70.3898504983
 20
66.000598885
 30
0.0
 40
15.6694249319716
100
AcDbArc
 50
302.9295137747
 51
347.6398969404
  0
ARC
  5
3BF
330
2D3
100
AcDbEntity
  8
0
  6
Continuous
 62
     7
370
    25
100
AcDbCircle
 10
-242.1932131357
 20
79.7053199376
 30
0.0
 40
15.6674026136337
100
AcDbArc
 50
10.4050949545
 51
57.0685144432
  0
ARC
  5
3C0
330
2D3
100
AcDbEntity
  8
0
  6
Continuous
 62
     7
370
    25
100
AcDbCircle
 10
-441.8275577983
 20
69.4692715555
 30
0.0
 40
1.537021907912177
100
AcDbArc
 50
242.6096722366
 51
297.3903277634
  0
ARC
  5
3C1
330
2D3
100
AcDbEntity
  8
0
  6
Continuous
 62
     7
370
    25
100
AcDbCircle
 10
-441.8275577983
 20
68.6527307436
 30
0.0
 40
1.537021907912177
100
AcDbArc
 50
242.6096722366
 51
297.3903277634
  0
ARC
  5
3C2
330
2D3
100
AcDbEntity
  8
0
  6
Continuous
 62
     7
370
    25
100
AcDbCircle
 10
-101.1469694775
 20
161.4033409877
 30
0.0
 40
16.03515760867968
100
AcDbArc
 50
10.0458569805
 51
55.4064240596
  0
ARC
  5
3C3
330
2D3
100
AcDbEntity
  8
0
  6
Continuous
 62
     7
370
    25
100
AcDbCircle
 10
-63.6304697268
 20
65.8077483896
 30
0.0
 40
15.66740261363338
100
AcDbArc
 50
190.4050949545
 51
237.0685144432
  0
ARC
  5
3C4
330
2D3
100
AcDbEntity
  8
0
  6
Continuous
 62
     8
370
    25
100
AcDbCircle
 10
123.3840731609
 20
-259.9866900687
 30
0.0
 40
0.5030905593798194
100
AcDbArc
 50
174.3800255913
 51
234.2973185446
  0
ARC
  5
3C5
330
2D3
100
AcDbEntity
  8
0
  6
Continuous
 62
     8
370
    25
100
AcDbCircle
 10
125.2026574639
 20
-259.9781949021
 30
0.0
 40
0.5159740076630218
100
AcDbArc
 50
305.9683681157
 51
9.3138092239
  0
ARC
  5
3C6
330
2D3
100
AcDbEntity
  8
0
  6
Continuous
 62
     8
370
    25
100
AcDbCircle
 10
446.0856766081
 20
-74.7363910952
 30
0.0
 40
0.5159474207458079
100
AcDbArc
 50
305.9587654593
 51
9.3147672091
  0
ARC
  5
3C7
330
2D3
100
AcDbEntity
  8
0
  6
Continuous
 62
     8
370
    25
100
AcDbCircle
 10
114.9271200112
 20
-255.115574015
 30
0.0
 40
0.4929779299532474
100
AcDbArc
 50
173.7011524782
 51
234.9866671284
  0
ARC
  5
3C8
330
2D3
100
AcDbEntity
  8
0
  6
Continuous
 62
     8
370
    25
100
AcDbCircle
 10
112.111220189
 20
-249.3948989714
 30
0.0
 40
0.504905872511604
100
AcDbArc
 50
174.4385613426
 51
233.6284657309
  0
ARC
  5
3C9
330
2D3
100
AcDbEntity
  8
0
  6
Continuous
 62
     8
370
    25
100
AcDbCircle
 10
113.9388087194
 20
-252.5606336519
 30
0.0
 40
0.5047762354053316
100
AcDbArc
 50
186.3717738045
 51
245.5660818996
  0
ARC
  5
3CA
330
2D3
100
AcDbEntity
  8
0
  6
Continuous
 62
     8
370
    25
100
AcDbCircle
 10
113.9376279909
 20
-253.3785695568
 30
0.0
 40
0.5030179341232142
100
AcDbArc
 50
185.7240052147
 51
245.622795888
  0
ARC
  5
3CB
330
2D3
100
AcDbEntity
  8
0
  6
Continuous
 62
     8
370
    25
100
AcDbCircle
 10
80.1228313997
 20
-125.8991349604
 30
0.0
 40
4.787377245813143
100
AcDbArc
 50
66.1819249574
 51
127.491686696
  0
ARC
  5
3CC
330
2D3
100
AcDbEntity
  8
0
  6
Continuous
 62
     8
370
    25
100
AcDbCircle
 10
135.2893721881
 20
-125.8324190854
 30
0.0
 40
4.955673595861501
100
AcDbArc
 50
53.796901995
 51
113.8575932599
  0
ARC
  5
3CD
330
2D3
100
AcDbEntity
  8
0
  6
Continuous
 62
     8
370
    25
100
AcDbCircle
 10
276.9028781744
 20
-44.4277662009
 30
0.0
 40
5.245597687166815
100
AcDbArc
 50
56.1631925236
 51
116.5824453828
  0
ARC
  5
3CE
330
2D3
100
AcDbEntity
  8
0
  6
Continuous
 62
     8
370
    25
100
AcDbCircle
 10
-231.2302688639
 20
53.5874733307
 30
0.0
 40
4.985198211950274
100
AcDbArc
 50
62.9674549857
 51
125.6882569317
  0
ARC
  5
3CF
330
2D3
100
AcDbEntity
  8
0
  6
Continuous
 62
     8
370
    25
100
AcDbCircle
 10
443.7601652128
 20
-58.2576439569
 30
0.0
 40
2.411483203109732
100
AcDbArc
 50
64.2488229943
 51
127.0428468661
  0
ARC
  5
3D0
330
2D3
100
AcDbEntity
  8
0
  6
Continuous
 62
     8
370
    25
100
AcDbCircle
 10
443.7540791852
 20
-61.7823984227
 30
0.0
 40
4.990163612590488
100
AcDbArc
 50
294.6853774734
 51
359.2125749514
  0
ARC
  5
3D1
330
2D3
100
AcDbEntity
  8
0
  6
Continuous
 62
     8
370
    25
100
AcDbCircle
 10
-118.7602166915
 20
266.4782602312
 30
0.0
 40
2.41172243628045
100
AcDbArc
 50
64.2696746482
 51
127.0407837808
  0
ARC
  5
3D2
330
2D3
100
AcDbEntity
  8
0
  6
Continuous
 62
     8
370
    25
100
AcDbCircle
 10
-439.9233423335
 20
69.2754840011
 30
0.0
 40
0.4929779300644059
100
AcDbArc
 50
173.7011524859
 51
234.9866671208
  0
ARC
  5
3D3
330
2D3
100
AcDbEntity
  8
0
  6
Continuous
 62
     8
370
    25
100
AcDbCircle
 10
-440.1421916458
 20
68.2130829638
 30
0.0
 40
0.9842603969898743
100
AcDbArc
 50
124.6700059336
 51
186.3301830993
  0
ARC
  5
3D4
330
2D3
100
AcDbEntity
  8
0
  6
Continuous
 62
     8
370
    25
100
AcDbCircle
 10
-450.8586967947
 20
80.7646130767
 30
0.0
 40
1.036847021375294
100
AcDbArc
 50
181.2881705975
 51
244.0961127746
  0
ARC
  5
3D5
330
2D3
100
AcDbEntity
  8
0
  6
Continuous
 62
     8
370
    25
100
AcDbCircle
 10
-449.2393316828
 20
81.3781237525
 30
0.0
 40
2.477831523760385
100
AcDbArc
 50
53.8893423959
 51
114.8234775054
  0
ARC
  5
3D6
330
2D3
100
AcDbEntity
  8
0
  6
Continuous
 62
     8
370
    25
100
AcDbCircle
 10
-128.7271567238
 20
266.4782602312
 30
0.0
 40
2.411722436280456
100
AcDbArc
 50
52.9592162192
 51
115.7303253518
  0
ARC
  5
3D7
330
2D3
100
AcDbEntity
  8
0
  6
Continuous
 62
     8
370
    25
100
AcDbCircle
 10
-442.1218563854
 20
67.1894954481
 30
0.0
 40
1.00624039455633
100
AcDbArc
 50
305.7136853158
 51
5.619015504
  0
ARC
  5
3D8
330
2D3
100
AcDbEntity
  8
0
  6
Continuous
 62
     8
370
    25
100
AcDbCircle
 10
-442.7411036241
 20
66.8304144841
 30
0.0
 40
0.5030860358545008
100
AcDbArc
 50
174.3798792278
 51
234.2989982719
  0
ARC
  5
3D9
330
2D3
100
AcDbEntity
  8
0
  6
Continuous
 62
     8
370
    25
100
AcDbCircle
 10
-451.1980521462
 20
71.7015313737
 30
0.0
 40
0.4929779299535504
100
AcDbArc
 50
173.7011524782
 51
234.9866671284
  0
ARC
  5
3DA
330
2D3
100
AcDbEntity
  8
0
  6
Continuous
 62
     8
370
    25
100
AcDbCircle
 10
-451.2367674197
 20
72.6901427914
 30
0.0
 40
1.0377841776272
100
AcDbArc
 50
183.0508965041
 51
244.2238716283
  0
VIEWPORT
  5
3E1
330
2D3
100
AcDbEntity
  8
0
100
AcDbViewport
 10
0.0
 20
0.0
 30
0.0
 40
205.6
 41
156.0
 68
     1
 69
     1
 12
0.0
 22
0.3923721716
 13
0.0
 23
0.0
 14
10.0
 24
10.0
 15
10.0
 25
10.0
 16
0.0
 26
0.0
 36
1.0
 17
0.0
 27
0.0
 37
0.0
 42
50.0
 43
0.0
 44
0.0
 45
631.967592606
 50
0.0
 51
0.0
 72
   100
 90
   557152
  1

281
     0
 71
     1
 74
     0
110
0.0
120
0.0
130
0.0
111
1.0
121
0.0
131
0.0
112
0.0
122
1.0
132
0.0
 79
     0
146
0.0
  0
ENDBLK
  5
2D6
330
2D3
100
AcDbEntity
  8
0
100
AcDbBlockEnd
  0
ENDSEC
  0
SECTION
  2
ENTITIES
  0
SPLINE
  5
73
330
1F
100
AcDbEntity
  8
0
  6
Continuous
 62
     7
370
    25
100
AcDbSpline
210
0.0
220
0.0
230
1.0
 70
     8
 71
     3
 72
    10
 73
     6
 74
     0
 42
0.000000001
 43
0.00000001
 40
0.0
 40
0.0
 40
0.0
 40
0.0
 40
0.3198580962414005
 40
0.8483025761156977
 40
1.0
 40
1.0
 40
1.0
 40
1.0
 10
-10.17388950817494
 20
-99.17443754628488
 30
0.0
 10
-10.26637890730657
 20
-99.14108768028231
 30
0.0
 10
-10.51167204344635
 20
-99.05263977924261
 30
0.0
 10
-10.64556447833732
 20
-98.9408916855057
 30
0.0
 10
-10.62319066531515
 20
-98.96802869260756
 30
0.0
 10
-10.61820045697896
 20
-98.97408127376234
 30
0.0
  0
SPLINE
  5
74
330
1F
100
AcDbEntity
  8
0
  6
Continuous
 62
     7
370
    25
100
AcDbSpline
210
0.0
220
0.0
230
1.0
 70
     8
 71
     3
 72
    11
 73
     7
 74
     0
 42
0.000000001
 43
0.00000001
 40
0.0
 40
0.0
 40
0.0
 40
0.0
 40
0.046121555795988
 40
0.4273652479079081
 40
0.8779022801792903
 40
1.0
 40
1.0
 40
1.0
 40
1.0
 10
10.63096937206559
 20
-98.96283191441034
 30
0.0
 10
10.63386079243274
 20
-98.95898599973273
 30
0.0
 10
10.66065287610567
 20
-98.92334951151676
 30
0.0
 10
10.51576829875017
 20
-99.04507576473121
 30
0.0
 10
10.30483796976389
 20
-99.14579707461351
 30
0.0
 10
10.04919049109313
 20
-99.22362861199342
 30
0.0
 10
9.994681095514924
 20
-99.24022392551485
 30
0.0
  0
SPLINE
  5
78
330
1F
100
AcDbEntity
  8
0
  6
Continuous
 62
     7
370
    25
100
AcDbSpline
210
0.0
220
0.0
230
1.0
 70
     8
 71
     3
 72
     8
 73
     4
 74
     0
 42
0.000000001
 43
0.00000001
 40
0.0
 40
0.0
 40
0.0
 40
0.0
 40
1.0
 40
1.0
 40
1.0
 40
1.0
 10
-253.2139541611787
 20
132.4999999998602
 30
0.0
 10
-253.2207020933318
 20
132.1764372791453
 30
0.0
 10
-253.2227769611593
 20
131.8528116563579
 30
0.0
 10
-253.2202370249215
 20
131.5292201900087
 30
0.0
  0
LWPOLYLINE
  5
7B
330
1F
100
AcDbEntity
  8
0
  6
Continuous
 62
     7
370
    25
100
AcDbPolyline
 90
        7
 70
   128
 43
0.0
 10
-262.9675602102
 20
-67.5
 10
-262.9675602102
 20
-47.5
 10
-262.9675602102
 20
32.5
 10
-262.9675602102
 20
82.6405368881
 10
-263.0700660353
 20
99.3555963623
 10
-263.1685611847
 20
116.0706551148
 10
-262.9495121693
 20
132.7810737761
  0
SPLINE
  5
7D
330
1F
100
AcDbEntity
  8
0
  6
Continuous
 62
     7
370
    25
100
AcDbSpline
210
0.0
220
0.0
230
1.0
 70
     8
 71
     3
 72
    36
 73
    32
 74
     0
 42
0.000000001
 43
0.00000001
 40
0.0
 40
0.0
 40
0.0
 40
0.0
 40
0.0624999999999971
 40
0.0624999999999971
 40
0.0937499999999956
 40
0.0937499999999956
 40
0.1249999999999942
 40
0.1249999999999942
 40
0.2499999999999909
 40
0.2499999999999909
 40
0.3124999999999885
 40
0.3124999999999885
 40
0.3437499999999877
 40
0.3437499999999877
 40
0.3749999999999868
 40
0.3749999999999868
 40
0.4999999999999862
 40
0.4999999999999862
 40
0.5312499999999869
 40
0.5312499999999869
 40
0.5624999999999876
 40
0.5624999999999876
 40
0.624999999999989
 40
0.624999999999989
 40
0.7499999999999931
 40
0.7499999999999931
 40
0.8124999999999944
 40
0.8124999999999944
 40
0.8749999999999958
 40
0.8749999999999958
 40
1.0
 40
1.0
 40
1.0
 40
1.0
 10
-220.0000000004978
 20
165.399136560047
 30
0.0
 10
-221.0874089007502
 20
165.3896980248271
 30
0.0
 10
-222.1695097905128
 20
165.3267689162163
 30
0.0
 10
-223.7849202423489
 20
165.1540250986643
 30
0.0
 10
-224.3220975176993
 20
165.083370431
 30
0.0
 10
-225.3939048393344
 20
164.9163011404156
 30
0.0
 10
-225.9296438164559
 20
164.8196675827323
 30
0.0
 10
-228.5863535058863
 20
164.2734655737454
 30
0.0
 10
-230.6369408109653
 20
163.6371162115512
 30
0.0
 10
-233.6058708324714
 20
162.3974427274161
 30
0.0
 10
-234.5775902831067
 20
161.9364303114447
 30
0.0
 10
-236.0073374796762
 20
161.1707075369226
 30
0.0
 10
-236.4804578527452
 20
160.9023402515512
 30
0.0
 10
-237.4110881276708
 20
160.3437132818134
 30
0.0
 10
-237.8677183522858
 20
160.0540949982147
 30
0.0
 10
-240.1088718608679
 20
158.5561718521512
 30
0.0
 10
-241.7681951985106
 20
157.1993153410612
 30
0.0
 10
-243.6757833345332
 20
155.3056133513487
 30
0.0
 10
-244.0489083062645
 20
154.9169139705083
 30
0.0
 10
-244.7782804715568
 20
154.1194890098822
 30
0.0
 10
-245.135246022474
 20
153.7098919653118
 30
0.0
 10
-246.1749355548471
 20
152.4560881292082
 30
0.0
 10
-246.8215257872676
 20
151.5930169141215
 30
0.0
 10
-248.6289038271297
 20
148.9264124880025
 30
0.0
 10
-249.6568587196623
 20
147.0452511906501
 30
0.0
 10
-250.9295393764233
 20
144.0661466824045
 30
0.0
 10
-251.3095654147869
 20
143.0431279824767
 30
0.0
 10
-251.9626692907104
 20
140.9866763007824
 30
0.0
 10
-252.2379741964422
 20
139.9486291885849
 30
0.0
 10
-252.9141886954197
 20
136.8057869623249
 30
0.0
 10
-253.1686372889527
 20
134.6729398189167
 30
0.0
 10
-253.2139541611786
 20
132.4999999998601
 30
0.0
  0
SPLINE
  5
7E
330
1F
100
AcDbEntity
  8
0
  6
Continuous
 62
     7
370
    25
100
AcDbSpline
210
0.0
220
0.0
230
1.0
 70
     8
 71
     3
 72
    36
 73
    32
 74
     0
 42
0.000000001
 43
0.00000001
 40
0.0
 40
0.0
 40
0.0
 40
0.0
 40
0.1249999999999983
 40
0.1249999999999983
 40
0.1874999999999983
 40
0.1874999999999983
 40
0.2499999999999983
 40
0.2499999999999983
 40
0.3749999999999971
 40
0.3749999999999971
 40
0.4374999999999958
 40
0.4374999999999958
 40
0.4687499999999964
 40
0.4687499999999964
 40
0.499999999999997
 40
0.499999999999997
 40
0.6250000000000003
 40
0.6250000000000003
 40
0.6562500000000006
 40
0.6562500000000006
 40
0.6875000000000008
 40
0.6875000000000008
 40
0.7500000000000012
 40
0.7500000000000012
 40
0.8750000000000011
 40
0.8750000000000011
 40
0.9062500000000006
 40
0.9062500000000006
 40
0.9375
 40
0.9375
 40
1.0
 40
1.0
 40
1.0
 40
1.0
 10
-262.9495121693068
 20
132.781073776095
 30
0.0
 10
-262.8689538614058
 20
135.5713734977988
 30
0.0
 10
-262.5217649793236
 20
138.3082867252108
 30
0.0
 10
-261.6245914612211
 20
142.338293292413
 30
0.0
 10
-261.2618471752837
 20
143.6688771034736
 30
0.0
 10
-260.4059553650467
 20
146.3039345476388
 30
0.0
 10
-259.9099181078523
 20
147.6143233235257
 30
0.0
 10
-258.2529379086047
 20
151.430045761152
 30
0.0
 10
-256.920146382065
 20
153.8386380597232
 30
0.0
 10
-254.5842629302007
 20
157.25195897151
 30
0.0
 10
-253.7494948343666
 20
158.356456978319
 30
0.0
 10
-252.4090555200477
 20
159.9608741580124
 30
0.0
 10
-251.9489488714674
 20
160.4852010508182
 30
0.0
 10
-251.0091976942719
 20
161.50596465288
 30
0.0
 10
-250.5286009867229
 20
162.0035504552707
 30
0.0
 10
-248.0723779816486
 20
164.4279364588408
 30
0.0
 10
-245.9385602417882
 20
166.1659301100694
 30
0.0
 10
-243.0596225512804
 20
168.0857926059736
 30
0.0
 10
-242.4731818206834
 20
168.4570501789146
 30
0.0
 10
-241.2783557561648
 20
169.1733737383084
 30
0.0
 10
-240.6709507253769
 20
169.5177233229053
 30
0.0
 10
-238.8355155701466
 20
170.5007833598894
 30
0.0
 10
-237.5882539310153
 20
171.0933649058512
 30
0.0
 10
-233.7777921561918
 20
172.688678398362
 30
0.0
 10
-231.1464514459594
 20
173.5104037653229
 30
0.0
 10
-227.7384478002994
 20
174.2219099800702
 30
0.0
 10
-227.0512235359631
 20
174.3482150356862
 30
0.0
 10
-225.6761614192121
 20
174.5673765901983
 30
0.0
 10
-224.9869332296374
 20
174.6605478068541
 30
0.0
 10
-222.9140998757584
 20
174.8902778560794
 30
0.0
 10
-221.525365431581
 20
174.9772416844702
 30
0.0
 10
-220.1295861175675
 20
174.9960886704204
 30
0.0
  0
SPLINE
  5
80
330
1F
100
AcDbEntity
  8
0
  6
Continuous
 62
     7
370
    25
100
AcDbSpline
210
0.0
220
0.0
230
1.0
 70
     8
 71
     3
 72
    34
 73
    30
 74
     0
 42
0.000000001
 43
0.00000001
 40
0.0
 40
0.0
 40
0.0
 40
0.0
 40
0.0625000000000028
 40
0.0625000000000028
 40
0.0937500000000042
 40
0.0937500000000042
 40
0.1250000000000057
 40
0.1250000000000057
 40
0.2500000000000084
 40
0.2500000000000084
 40
0.3125000000000098
 40
0.3125000000000098
 40
0.3437500000000101
 40
0.3437500000000101
 40
0.3750000000000105
 40
0.3750000000000105
 40
0.5000000000000107
 40
0.5000000000000107
 40
0.5625000000000101
 40
0.5625000000000101
 40
0.6250000000000097
 40
0.6250000000000097
 40
0.7500000000000078
 40
0.7500000000000078
 40
0.8125000000000058
 40
0.8125000000000058
 40
0.8750000000000039
 40
0.8750000000000039
 40
1.0
 40
1.0
 40
1.0
 40
1.0
 10
253.2139541611756
 20
132.5000000000001
 30
0.0
 10
253.1912940708975
 20
133.5865492263802
 30
0.0
 10
253.1159971851059
 20
134.6672537936277
 30
0.0
 10
252.9253409188539
 20
136.2797395959205
 30
0.0
 10
252.8488166143658
 20
136.8158047700479
 30
0.0
 10
252.6701629385261
 20
137.8851041435667
 30
0.0
 10
252.5677787562035
 20
138.4193924005337
 30
0.0
 10
251.9935391228367
 20
141.0694466501502
 30
0.0
 10
251.3383081699979
 20
143.1138601399705
 30
0.0
 10
250.0720641432182
 20
146.0710063510638
 30
0.0
 10
249.6022224614157
 20
147.0382661587306
 30
0.0
 10
248.8237965527445
 20
148.460703266265
 30
0.0
 10
248.551379474685
 20
148.9312462838735
 30
0.0
 10
247.9848886648672
 20
149.8570223353926
 30
0.0
 10
247.6914791044841
 20
150.3112016348315
 30
0.0
 10
246.174896024195
 20
152.5396624285444
 30
0.0
 10
244.8042308738855
 20
154.1875688132052
 30
0.0
 10
242.513515593963
 20
156.4583076006745
 30
0.0
 10
241.7083256885954
 20
157.1827661614162
 30
0.0
 10
240.0248504441328
 20
158.5554079445319
 30
0.0
 10
239.1564170139615
 20
159.1951695009215
 30
0.0
 10
236.4742597074944
 20
160.9804121768317
 30
0.0
 10
234.5833714225874
 20
161.9913137822635
 30
0.0
 10
231.5920108274427
 20
163.2372943072684
 30
0.0
 10
230.5651443645353
 20
163.6081115390081
 30
0.0
 10
228.5019607062125
 20
164.2416564999059
 30
0.0
 10
227.4609632344444
 20
164.5064688697218
 30
0.0
 10
224.3105029591466
 20
165.1491715917162
 30
0.0
 10
222.1744747071605
 20
165.3802624679885
 30
0.0
 10
219.9999999946627
 20
165.3991365600976
 30
0.0
  0
SPLINE
  5
82
330
1F
100
AcDbEntity
  8
0
  6
Continuous
 62
     7
370
    25
100
AcDbSpline
210
0.0
220
0.0
230
1.0
 70
     8
 71
     3
 72
    36
 73
    32
 74
     0
 42
0.000000001
 43
0.00000001
 40
0.0
 40
0.0
 40
0.0
 40
0.0
 40
0.1250000000000003
 40
0.1250000000000003
 40
0.1874999999999999
 40
0.1874999999999999
 40
0.2499999999999996
 40
0.2499999999999996
 40
0.3749999999999989
 40
0.3749999999999989
 40
0.4374999999999989
 40
0.4374999999999989
 40
0.4687499999999991
 40
0.4687499999999991
 40
0.4999999999999991
 40
0.4999999999999991
 40
0.6250000000000013
 40
0.6250000000000013
 40
0.6562500000000016
 40
0.6562500000000016
 40
0.6875000000000019
 40
0.6875000000000019
 40
0.7500000000000027
 40
0.7500000000000027
 40
0.8750000000000028
 40
0.8750000000000028
 40
0.9062500000000018
 40
0.9062500000000018
 40
0.9375000000000008
 40
0.9375000000000008
 40
1.0
 40
1.0
 40
1.0
 40
1.0
 10
220.1295861100507
 20
174.9960886705219
 30
0.0
 10
222.920844092809
 20
174.958398758676
 30
0.0
 10
225.6623331379153
 20
174.6511689468393
 30
0.0
 10
229.7049642255233
 20
173.8133693170991
 30
0.0
 10
231.0406532810609
 20
173.4699001060777
 30
0.0
 10
233.6877346764628
 20
172.651374902772
 30
0.0
 10
235.004949152225
 20
172.1736334125877
 30
0.0
 10
238.8432268292623
 20
170.5704501674539
 30
0.0
 10
241.2708621923682
 20
169.2724037836417
 30
0.0
 10
244.7167723700522
 20
166.9836873409471
 30
0.0
 10
245.832855962916
 20
166.1639059633093
 30
0.0
 10
247.4561762802651
 20
164.8454687379612
 30
0.0
 10
247.9865991104417
 20
164.3929878933402
 30
0.0
 10
249.0201526704651
 20
163.4677460105821
 30
0.0
 10
249.5242640256967
 20
162.9941735415584
 30
0.0
 10
251.981842040951
 20
160.5718547804108
 30
0.0
 10
253.749562034391
 20
158.4624972344814
 30
0.0
 10
255.7094787767362
 20
155.6098611896762
 30
0.0
 10
256.0888995829161
 20
155.0284714134079
 30
0.0
 10
256.8219680488886
 20
153.8434063607743
 30
0.0
 10
257.1746591071524
 20
153.2412034181819
 30
0.0
 10
258.1834746162643
 20
151.4203121907586
 30
0.0
 10
258.7937317221355
 20
150.1817989328729
 30
0.0
 10
260.4421843435721
 20
146.3942942670745
 30
0.0
 10
261.3007431604674
 20
143.7743966059082
 30
0.0
 10
262.0623059992924
 20
140.3765155965602
 30
0.0
 10
262.1987087908204
 20
139.6914274305865
 30
0.0
 10
262.4380431506033
 20
138.319997959431
 30
0.0
 10
262.5413296494285
 20
137.6323284870575
 30
0.0
 10
262.8016511108444
 20
135.5634086051194
 30
0.0
 10
262.9092320591441
 20
134.1762567570862
 30
0.0
 10
262.9495121693015
 20
132.7810737762753
 30
0.0
  0
SPLINE
  5
85
330
1F
100
AcDbEntity
  8
0
  6
Continuous
 62
     7
370
    25
100
AcDbSpline
210
0.0
220
0.0
230
1.0
 70
     8
 71
     3
 72
    12
 73
     8
 74
     0
 42
0.000000001
 43
0.00000001
 40
0.0
 40
0.0
 40
0.0
 40
0.0
 40
0.125
 40
0.125
 40
0.25
 40
0.5000000000000001
 40
1.0
 40
1.0
 40
1.0
 40
1.0
 10
253.2202370249214
 20
131.5292201900087
 30
0.0
 10
253.220554889388
 20
131.569716583158
 30
0.0
 10
253.2208000558998
 20
131.6101258371014
 30
0.0
 10
253.2211465520758
 20
131.6910299931767
 30
0.0
 10
253.2214496311386
 20
131.8123847346736
 30
0.0
 10
253.2206374916217
 20
132.09553544568
 30
0.0
 10
253.2173281272533
 20
132.3382186396187
 30
0.0
 10
253.2139541611756
 20
132.5000000000001
 30
0.0
  0
SPLINE
  5
86
330
1F
100
AcDbEntity
  8
0
  6
Continuous
 62
     7
370
    25
100
AcDbSpline
210
0.0
220
0.0
230
1.0
 70
     8
 71
     3
 72
    16
 73
    12
 74
     0
 42
0.000000001
 43
0.00000001
 40
0.0
 40
0.0
 40
0.0
 40
0.0
 40
0.0078125
 40
0.0078125
 40
0.0156250000000001
 40
0.0312500000000002
 40
0.0625000000000002
 40
0.1250000000000001
 40
0.25
 40
0.5
 40
1.0
 40
1.0
 40
1.0
 40
1.0
 10
262.9495121693014
 20
132.7810737762753
 30
0.0
 10
262.9645700999898
 20
132.2595119299797
 30
0.0
 10
262.9675602102042
 20
131.7379473101062
 30
0.0
 10
262.9675602102041
 20
130.6948166959099
 30
0.0
 10
262.9675602102042
 20
129.1301207746153
 30
0.0
 10
262.9675602102041
 20
125.4791636249285
 30
0.0
 10
262.9675602102042
 20
118.177249325554
 30
0.0
 10
262.9675602102041
 20
103.573420726806
 30
0.0
 10
262.9675602102042
 20
74.36576352930952
 30
0.0
 10
262.9675602075916
 20
15.95044913431654
 30
0.0
 10
262.9675602154289
 20
-34.11982034710596
 30
0.0
 10
262.9675602102042
 20
-67.50000000138759
 30
0.0
  0
SPLINE
  5
8F
330
1F
100
AcDbEntity
  8
0
  6
Continuous
 62
     7
370
    25
100
AcDbSpline
210
0.0
220
0.0
230
1.0
 70
     8
 71
     3
 72
    34
 73
    30
 74
     0
 42
0.000000001
 43
0.00000001
 40
0.0
 40
0.0
 40
0.0
 40
0.0
 40
0.1249999999999996
 40
0.1249999999999996
 40
0.1874999999999993
 40
0.1874999999999993
 40
0.2499999999999991
 40
0.2499999999999991
 40
0.3749999999999986
 40
0.3749999999999986
 40
0.4374999999999984
 40
0.4374999999999984
 40
0.4999999999999983
 40
0.4999999999999983
 40
0.6249999999999981
 40
0.6249999999999981
 40
0.6562499999999982
 40
0.6562499999999982
 40
0.6874999999999983
 40
0.6874999999999983
 40
0.7499999999999979
 40
0.7499999999999979
 40
0.8124999999999976
 40
0.8124999999999976
 40
0.843749999999998
 40
0.843749999999998
 40
0.8749999999999984
 40
0.8749999999999984
 40
1.0
 40
1.0
 40
1.0
 40
1.0
 10
-220.155942388769
 20
-110.9659106264524
 30
0.0
 10
-222.9978324721302
 20
-110.9209692911467
 30
0.0
 10
-225.7875597379002
 20
-110.5972380134146
 30
0.0
 10
-229.8992947177823
 20
-109.722254588605
 30
0.0
 10
-231.2574518874039
 20
-109.3642072008885
 30
0.0
 10
-233.9483114600016
 20
-108.512066612458
 30
0.0
 10
-235.2858744376599
 20
-108.0155394715509
 30
0.0
 10
-239.177535460707
 20
-106.3524795489005
 30
0.0
 10
-241.6359296779825
 20
-105.0073584378667
 30
0.0
 10
-245.1203711965174
 20
-102.6366535641604
 30
0.0
 10
-246.2491912604447
 20
-101.7863806059313
 30
0.0
 10
-248.430960694765
 20
-99.9675063929103
 30
0.0
 10
-249.468647027445
 20
-99.01231058312632
 30
0.0
 10
-252.4259200394318
 20
-96.01272350736518
 30
0.0
 10
-254.1923870702778
 20
-93.83662605091438
 30
0.0
 10
-256.1399330006744
 20
-90.89240203891174
 30
0.0
 10
-256.5168504411754
 20
-90.29122729895917
 30
0.0
 10
-257.2411980763113
 20
-89.07015709758099
 30
0.0
 10
-257.5869821277957
 20
-88.45321204668585
 30
0.0
 10
-258.5761437914682
 20
-86.58352984976922
 30
0.0
 10
-259.1711600623023
 20
-85.31187884076698
 30
0.0
 10
-260.2356331579427
 20
-82.71947119228429
 30
0.0
 10
-260.7052130392723
 20
-81.3987626795543
 30
0.0
 10
-261.3142152677003
 20
-79.380402152643
 30
0.0
 10
-261.5012945680598
 20
-78.70138851901156
 30
0.0
 10
-261.8431772175911
 20
-77.33073829917473
 30
0.0
 10
-261.9982122924412
 20
-76.63787304843501
 30
0.0
 10
-262.6884189584779
 20
-73.1559890428174
 30
0.0
 10
-262.9675602102044
 20
-70.34236693412274
 30
0.0
 10
-262.9675602102043
 20
-67.49999999999194
 30
0.0
  0
SPLINE
  5
90
330
1F
100
AcDbEntity
  8
0
  6
Continuous
 62
     7
370
    25
100
AcDbSpline
210
0.0
220
0.0
230
1.0
 70
     8
 71
     3
 72
    36
 73
    32
 74
     0
 42
0.000000001
 43
0.00000001
 40
0.0
 40
0.0
 40
0.0
 40
0.0
 40
0.0156249999999996
 40
0.0156249999999996
 40
0.0312499999999993
 40
0.0312499999999993
 40
0.0624999999999985
 40
0.0624999999999985
 40
0.1249999999999982
 40
0.1249999999999982
 40
0.1874999999999978
 40
0.1874999999999978
 40
0.2499999999999974
 40
0.2499999999999974
 40
0.3124999999999971
 40
0.3124999999999971
 40
0.3749999999999967
 40
0.3749999999999967
 40
0.4999999999999967
 40
0.4999999999999967
 40
0.5624999999999967
 40
0.5624999999999967
 40
0.6249999999999966
 40
0.6249999999999966
 40
0.7499999999999961
 40
0.7499999999999961
 40
0.8124999999999968
 40
0.8124999999999968
 40
0.8749999999999973
 40
0.8749999999999973
 40
1.0
 40
1.0
 40
1.0
 40
1.0
 10
-253.2202370249215
 20
-67.49999999459696
 30
0.0
 10
-253.2202367806553
 20
-67.7738781200527
 30
0.0
 10
-253.2168585058192
 20
-68.05032482516222
 30
0.0
 10
-253.2033293462845
 20
-68.5996008781569
 30
0.0
 10
-253.1931788673505
 20
-68.87388895422042
 30
0.0
 10
-253.1525880040129
 20
-69.69570513502286
 30
0.0
 10
-253.112015193692
 20
-70.24218589839299
 30
0.0
 10
-252.9501213656669
 20
-71.8774748754707
 30
0.0
 10
-252.7887383528137
 20
-72.96214179029995
 30
0.0
 10
-252.359693909236
 20
-75.12048885776655
 30
0.0
 10
-252.0932097924623
 20
-76.18461550387235
 30
0.0
 10
-251.4622064302673
 20
-78.26938635106805
 30
0.0
 10
-251.0972894148971
 20
-79.29235818689551
 30
0.0
 10
-250.2702870529636
 20
-81.3001292319579
 30
0.0
 10
-249.808056613035
 20
-82.28487053793131
 30
0.0
 10
-248.783478921034
 20
-84.21502351182687
 30
0.0
 10
-248.2180890121742
 20
-85.16508258774188
 30
0.0
 10
-246.4025867921781
 20
-87.90003016960455
 30
0.0
 10
-245.0307306531678
 20
-89.58368523267278
 30
0.0
 10
-242.734755567724
 20
-91.90324244493887
 30
0.0
 10
-241.9291305213955
 20
-92.6415856483028
 30
0.0
 10
-240.2356257827382
 20
-94.04716346393961
 30
0.0
 10
-239.3592650612699
 20
-94.70411669778305
 30
0.0
 10
-236.6550093628828
 20
-96.53474684838929
 30
0.0
 10
-234.7474858611759
 20
-97.57194384235919
 30
0.0
 10
-231.7289168212472
 20
-98.85246454337434
 30
0.0
 10
-230.691558623694
 20
-99.2344823771144
 30
0.0
 10
-228.6047979389655
 20
-99.88909985185481
 30
0.0
 10
-227.5516965304622
 20
-100.1634905000834
 30
0.0
 10
-224.3639712770488
 20
-100.8319979598622
 30
0.0
 10
-222.2019350609746
 20
-101.076846972732
 30
0.0
 10
-219.9999999996323
 20
-101.1048077854102
 30
0.0
  0
SPLINE
  5
92
330
1F
100
AcDbEntity
  8
0
  6
Continuous
 62
     7
370
    25
100
AcDbSpline
210
0.0
220
0.0
230
1.0
 70
     8
 71
     3
 72
    11
 73
     7
 74
     0
 42
0.000000001
 43
0.00000001
 40
-0.0000000599898648
 40
-0.0000000599898648
 40
-0.0000000599898648
 40
-0.0000000599898648
 40
0.0
 40
0.0
 40
0.0
 40
0.0005222848256503
 40
0.0005222848256503
 40
0.0005222848256503
 40
0.0005222848256503
 10
219.4777493617633
 20
-101.1073316455089
 30
0.0
 10
219.4777693582937
 20
-101.107331705923
 30
0.0
 10
219.4777893482508
 20
-101.1073317663353
 30
0.0
 10
219.4778093414946
 20
-101.1073318267215
 30
0.0
 10
219.6518748755576
 20
-101.1078575618296
 30
0.0
 10
219.8259491275806
 20
-101.1070179340769
 30
0.0
 10
220.0000000004978
 20
-101.1048077853992
 30
0.0
  0
SPLINE
  5
94
330
1F
100
AcDbEntity
  8
0
  6
Continuous
 62
     7
370
    25
100
AcDbSpline
210
0.0
220
0.0
230
1.0
 70
     8
 71
     3
 72
    25
 73
    21
 74
     0
 42
0.000000001
 43
0.00000001
 40
0.0
 40
0.0
 40
0.0
 40
0.0
 40
0.0039062499999999
 40
0.0039062499999999
 40
0.0078124999999999
 40
0.0156249999999999
 40
0.0312499999999998
 40
0.0624999999999998
 40
0.1249999999999999
 40
0.2499999999999999
 40
0.5000000000000001
 40
0.7500000000000001
 40
0.8750000000000002
 40
0.9375000000000002
 40
0.9687500000000002
 40
0.9843750000000002
 40
0.9921875000000002
 40
0.9960937500000002
 40
0.9960937500000002
 40
1.0
 40
1.0
 40
1.0
 40
1.0
 10
220.1559423898928
 20
-110.9659106264346
 30
0.0
 10
219.5826202555764
 20
-110.9749770792402
 30
0.0
 10
219.0092972288404
 20
-110.9712708838304
 30
0.0
 10
217.862651693269
 20
-110.9712708838304
 30
0.0
 10
216.142683389912
 20
-110.9712708838304
 30
0.0
 10
212.1294240154124
 20
-110.9712708838304
 30
0.0
 10
204.1029052664129
 20
-110.9712708838303
 30
0.0
 10
188.0498677684144
 20
-110.9712708838304
 30
0.0
 10
155.9437927724171
 20
-110.9712708838304
 30
0.0
 10
91.73164278042245
 20
-110.9712708838304
 30
0.0
 10
-0.0000000652840513
 20
-110.9712708838304
 30
0.0
 10
-91.7316429109905
 20
-110.9712708838303
 30
0.0
 10
-155.9437929029853
 20
-110.9712708838304
 30
0.0
 10
-188.0498678989824
 20
-110.9712708838303
 30
0.0
 10
-204.1029053969814
 20
-110.9712708838304
 30
0.0
 10
-212.1294241459806
 20
-110.9712708838304
 30
0.0
 10
-216.1426835204801
 20
-110.9712708838304
 30
0.0
 10
-217.8626518238372
 20
-110.9712708838304
 30
0.0
 10
-219.0092973594084
 20
-110.9712708838304
 30
0.0
 10
-219.5826204771987
 20
-110.9749770757204
 30
0.0
 10
-220.155942388769
 20
-110.9659106264524
 30
0.0
  0
SPLINE
  5
95
330
1F
100
AcDbEntity
  8
0
  6
Continuous
 62
     7
370
    25
100
AcDbSpline
210
0.0
220
0.0
230
1.0
 70
     8
 71
     3
 72
    11
 73
     7
 74
     0
 42
0.000000001
 43
0.00000001
 40
0.0
 40
0.0
 40
0.0
 40
0.0
 40
0.0005222848146497
 40
0.0005222848146497
 40
0.0005222848146497
 40
0.0005223448146497
 40
0.0005223448146497
 40
0.0005223448146497
 40
0.0005223448146497
 10
-219.9999999996323
 20
-101.1048077854102
 30
0.0
 10
-219.825949130381
 20
-101.1070179340367
 30
0.0
 10
-219.6518748820251
 20
-101.1078575617962
 30
0.0
 10
-219.4778093516281
 20
-101.1073318267521
 30
0.0
 10
-219.4777893550065
 20
-101.1073317663557
 30
0.0
 10
-219.477769358385
 20
-101.1073317059233
 30
0.0
 10
-219.4777493617633
 20
-101.1073316455089
 30
0.0
  0
CIRCLE
  5
97
330
1F
100
AcDbEntity
  8
0
  6
Continuous
 62
     7
370
    25
100
AcDbCircle
 10
-100.0
 20
-177.5
 30
0.0
 40
18.5
  0
CIRCLE
  5
98
330
1F
100
AcDbEntity
  8
0
  6
Continuous
 62
     7
370
    25
100
AcDbCircle
 10
-100.0
 20
-177.5
 30
0.0
 40
17.49999999999994
  0
SPLINE
  5
A9
330
1F
100
AcDbEntity
  8
0
  6
Continuous
 62
     7
370
    25
100
AcDbSpline
210
0.0
220
0.0
230
1.0
 70
     8
 71
     3
 72
    34
 73
    30
 74
     0
 42
0.000000001
 43
0.00000001
 40
0.0
 40
0.0
 40
0.0
 40
0.0
 40
0.1250000000000017
 40
0.1250000000000017
 40
0.1875000000000023
 40
0.1875000000000023
 40
0.2500000000000029
 40
0.2500000000000029
 40
0.3750000000000032
 40
0.3750000000000032
 40
0.4375000000000034
 40
0.4375000000000034
 40
0.5000000000000036
 40
0.5000000000000036
 40
0.6250000000000021
 40
0.6250000000000021
 40
0.6562500000000023
 40
0.6562500000000023
 40
0.6875000000000026
 40
0.6875000000000026
 40
0.7500000000000028
 40
0.7500000000000028
 40
0.8125000000000031
 40
0.8125000000000031
 40
0.8437500000000026
 40
0.8437500000000026
 40
0.875000000000002
 40
0.875000000000002
 40
1.0
 40
1.0
 40
1.0
 40
1.0
 10
262.9675602102042
 20
-67.50000000138759
 30
0.0
 10
262.9675602097593
 20
-70.34236844533
 30
0.0
 10
262.6885002491694
 20
-73.13711242501674
 30
0.0
 10
261.8762598834138
 20
-77.26204788402751
 30
0.0
 10
261.5391823635342
 20
-78.62570634602365
 30
0.0
 10
260.7286361773705
 20
-81.3297467122697
 30
0.0
 10
260.252615912371
 20
-82.67479946294354
 30
0.0
 10
258.6486491064443
 20
-86.59088786212148
 30
0.0
 10
257.339928612947
 20
-89.06891375997503
 30
0.0
 10
255.020876086538
 20
-92.58864468319737
 30
0.0
 10
254.1870309168152
 20
-93.73077391736715
 30
0.0
 10
252.4011807668109
 20
-95.93869118976244
 30
0.0
 10
251.4612287325355
 20
-96.98976585439578
 30
0.0
 10
248.5063885742448
 20
-99.99119408984119
 30
0.0
 10
246.3563104295073
 20
-101.7895202848225
 30
0.0
 10
243.4406361870081
 20
-103.7809454793206
 30
0.0
 10
242.8448071797862
 20
-104.1670700786663
 30
0.0
 10
241.6351578808521
 20
-104.9093228697658
 30
0.0
 10
241.0236053990364
 20
-105.2640720870239
 30
0.0
 10
239.1692479897406
 20
-106.2803652411866
 30
0.0
 10
237.9068164479837
 20
-106.8941332311559
 30
0.0
 10
235.3309846517526
 20
-107.9975989827945
 30
0.0
 10
234.017610440708
 20
-108.4873601404989
 30
0.0
 10
232.008749242989
 20
-109.1275535408879
 30
0.0
 10
231.3326345629153
 20
-109.3251426838467
 30
0.0
 10
229.9671860051359
 20
-109.6881422314638
 30
0.0
 10
229.276487380635
 20
-109.8538389812193
 30
0.0
 10
225.8063414452558
 20
-110.5968640280539
 30
0.0
 10
222.9978560112108
 20
-110.9209689188278
 30
0.0
 10
220.1559423898928
 20
-110.9659106264346
 30
0.0
  0
SPLINE
  5
AA
330
1F
100
AcDbEntity
  8
0
  6
Continuous
 62
     7
370
    25
100
AcDbSpline
210
0.0
220
0.0
230
1.0
 70
     8
 71
     3
 72
    25
 73
    21
 74
     0
 42
0.000000001
 43
0.00000001
 40
0.0
 40
0.0
 40
0.0
 40
0.0
 40
0.0039062499999999
 40
0.0039062499999999
 40
0.0078124999999999
 40
0.015625
 40
0.0312500000000001
 40
0.0625000000000002
 40
0.1250000000000002
 40
0.2500000000000001
 40
0.4999999999999998
 40
0.7499999999999996
 40
0.8749999999999994
 40
0.9374999999999993
 40
0.9687499999999994
 40
0.9843749999999996
 40
0.9921874999999997
 40
0.9960937499999999
 40
0.9960937499999999
 40
1.0
 40
1.0
 40
1.0
 40
1.0
 10
-220.1295861175675
 20
174.9960886704204
 30
0.0
 10
-219.5563323778042
 20
175.0038292244398
 30
0.0
 10
-218.9830780530595
 20
175.0
 30
0.0
 10
-217.8365697907903
 20
175.0
 30
0.0
 10
-216.1168073973867
 20
174.9999999999999
 30
0.0
 10
-212.1040284794447
 20
175.0
 30
0.0
 10
-204.0784706435604
 20
175.0
 30
0.0
 10
-188.0273549717922
 20
175.0000000000001
 30
0.0
 10
-155.9251236282555
 20
175.0000000000001
 30
0.0
 10
-91.72066094118233
 20
175.0000000000002
 30
0.0
 10
0.0000000403508361
 20
174.9999999999999
 30
0.0
 10
91.72066102188411
 20
175.0000000000001
 30
0.0
 10
155.9251237089571
 20
175.0000000000001
 30
0.0
 10
188.0273550524939
 20
175.0000000000001
 30
0.0
 10
204.0784707242621
 20
175.0
 30
0.0
 10
212.1040285601465
 20
175.0000000000001
 30
0.0
 10
216.1168074780884
 20
175.0
 30
0.0
 10
217.8365698714922
 20
175.0
 30
0.0
 10
218.9830781337613
 20
175.0000000000001
 30
0.0
 10
219.5563325448726
 20
175.0038292220834
 30
0.0
 10
220.1295861100507
 20
174.9960886705219
 30
0.0
  0
CIRCLE
  5
AB
330
1F
100
AcDbEntity
  8
0
  6
Continuous
 62
     7
370
    25
100
AcDbCircle
 10
0.0
 20
-177.5
 30
0.0
 40
18.5
  0
CIRCLE
  5
AC
330
1F
100
AcDbEntity
  8
0
  6
Continuous
 62
     7
370
    25
100
AcDbCircle
 10
100.0
 20
-177.5
 30
0.0
 40
18.49999999999994
  0
CIRCLE
  5
AD
330
1F
100
AcDbEntity
  8
0
  6
Continuous
 62
     7
370
    25
100
AcDbCircle
 10
0.0
 20
-177.5
 30
0.0
 40
17.49999999999994
  0
CIRCLE
  5
AE
330
1F
100
AcDbEntity
  8
0
  6
Continuous
 62
     7
370
    25
100
AcDbCircle
 10
100.0
 20
-177.5
 30
0.0
 40
17.49999999999994
  0
SPLINE
  5
AF
330
1F
100
AcDbEntity
  8
0
  6
Continuous
 62
     7
370
    25
100
AcDbSpline
210
0.0
220
0.0
230
1.0
 70
     8
 71
     3
 72
    32
 73
    28
 74
     0
 42
0.000000001
 43
0.00000001
 40
0.0
 40
0.0
 40
0.0
 40
0.0
 40
0.124999999999998
 40
0.124999999999998
 40
0.1562499999999975
 40
0.1562499999999975
 40
0.1874999999999969
 40
0.1874999999999969
 40
0.2499999999999977
 40
0.2499999999999977
 40
0.3124999999999985
 40
0.3124999999999985
 40
0.3749999999999992
 40
0.3749999999999992
 40
0.4999999999999999
 40
0.4999999999999999
 40
0.5625000000000004
 40
0.5625000000000004
 40
0.625000000000001
 40
0.625000000000001
 40
0.7500000000000021
 40
0.7500000000000021
 40
0.8125000000000014
 40
0.8125000000000014
 40
0.8750000000000008
 40
0.8750000000000008
 40
1.0
 40
1.0
 40
1.0
 40
1.0
 10
220.0000000004978
 20
-101.1048077853992
 30
0.0
 10
222.2020563875995
 20
-101.0768454320338
 30
0.0
 10
224.3787728048834
 20
-100.8317258790181
 30
0.0
 10
227.0692404243642
 20
-100.2639249309021
 30
0.0
 10
227.6047357635545
 20
-100.1371089628876
 30
0.0
 10
228.6634460697878
 20
-99.85886880818786
 30
0.0
 10
229.1877054187191
 20
-99.70722867979389
 30
0.0
 10
230.7454695425647
 20
-99.21541871024307
 30
0.0
 10
231.7640586780327
 20
-98.83859905098679
 30
0.0
 10
233.762120749731
 20
-97.98887819939642
 30
0.0
 10
234.7415664584576
 20
-97.51590897322585
 30
0.0
 10
236.6600946669822
 20
-96.47083607611175
 30
0.0
 10
237.6035605591676
 20
-95.89496496975282
 30
0.0
 10
240.3187466086691
 20
-94.04973060409881
 30
0.0
 10
241.9878342179503
 20
-92.66008624227024
 30
0.0
 10
244.2821004658378
 20
-90.3388601169212
 30
0.0
 10
245.0120776195112
 20
-89.52578801714331
 30
0.0
 10
246.3991422328175
 20
-87.81722669117238
 30
0.0
 10
247.0465258904164
 20
-86.93347944269847
 30
0.0
 10
248.8477538990459
 20
-84.20921175825723
 30
0.0
 10
249.8644550958563
 20
-82.290504147634
 30
0.0
 10
251.110707628049
 20
-79.2571742568753
 30
0.0
 10
251.4806563490593
 20
-78.21518847863044
 30
0.0
 10
252.1104628066162
 20
-76.12046143934236
 30
0.0
 10
252.372314920286
 20
-75.0640057792769
 30
0.0
 10
253.0033340859604
 20
-71.86815336502913
 30
0.0
 10
253.2202370245758
 20
-69.70265862377285
 30
0.0
 10
253.2202370249214
 20
-67.49999999986314
 30
0.0
  0
SPLINE
  5
B0
330
1F
100
AcDbEntity
  8
0
  6
Continuous
 62
     7
370
    25
100
AcDbSpline
210
0.0
220
0.0
230
1.0
 70
     8
 71
     3
 72
    11
 73
     7
 74
     0
 42
0.000000001
 43
0.00000001
 40
0.0
 40
0.0
 40
0.0
 40
0.0
 40
0.0004500023243073
 40
0.0004500023243073
 40
0.0004500023243073
 40
0.0004500623243073
 40
0.0004500623243073
 40
0.0004500623243073
 40
0.0004500623243073
 10
219.9999999946627
 20
165.3991365600976
 30
0.0
 10
219.8500252501781
 20
165.4004383168507
 30
0.0
 10
219.7000384389327
 20
165.4007245881764
 30
0.0
 10
219.5500599857637
 20
165.4000002897718
 30
0.0
 10
219.5500399887399
 20
165.4000001931991
 30
0.0
 10
219.5500199917164
 20
165.4000000965906
 30
0.0
 10
219.5499999946927
 20
165.4
 30
0.0
  0
SPLINE
  5
B2
330
1F
100
AcDbEntity
  8
0
  6
Continuous
 62
     7
370
    25
100
AcDbSpline
210
0.0
220
0.0
230
1.0
 70
     8
 71
     3
 72
    11
 73
     7
 74
     0
 42
0.000000001
 43
0.00000001
 40
-0.0000000599910715
 40
-0.0000000599910715
 40
-0.0000000599910715
 40
-0.0000000599910715
 40
0.0
 40
0.0
 40
0.0
 40
0.0004500023390715
 40
0.0004500023390715
 40
0.0004500023390715
 40
0.0004500023390715
 10
-219.5499999946927
 20
165.4
 30
0.0
 10
-219.5500199914833
 20
165.4000000965895
 30
0.0
 10
-219.5500399827886
 20
165.4000001931705
 30
0.0
 10
-219.5500599768367
 20
165.4000002897287
 30
0.0
 10
-219.7000384349261
 20
165.4007245881973
 30
0.0
 10
-219.8500252510929
 20
165.4004383168692
 30
0.0
 10
-220.0000000004978
 20
165.399136560047
 30
0.0
  0
SPLINE
  5
C4
330
1F
100
AcDbEntity
  8
0
  6
Continuous
 62
     7
370
    25
100
AcDbSpline
210
0.0
220
0.0
230
1.0
 70
     8
 71
     3
 72
    38
 73
    34
 74
     0
 42
0.000000001
 43
0.00000001
 40
0.0
 40
0.0
 40
0.0
 40
0.0
 40
0.0312500000000004
 40
0.0312500000000004
 40
0.0625000000000008
 40
0.0625000000000008
 40
0.1250000000000012
 40
0.1250000000000012
 40
0.1875000000000017
 40
0.1875000000000017
 40
0.2500000000000022
 40
0.2500000000000022
 40
0.3125000000000027
 40
0.3125000000000027
 40
0.3750000000000031
 40
0.3750000000000031
 40
0.5000000000000023
 40
0.5000000000000023
 40
0.5625000000000019
 40
0.5625000000000019
 40
0.6250000000000014
 40
0.6250000000000014
 40
0.7499999999999979
 40
0.7499999999999979
 40
0.8124999999999977
 40
0.8124999999999977
 40
0.8749999999999973
 40
0.8749999999999973
 40
0.937499999999997
 40
0.937499999999997
 40
0.9687499999999984
 40
0.9687499999999984
 40
1.0
 40
1.0
 40
1.0
 40
1.0
 10
229.2797629750784
 20
-67.49999999546343
 30
0.0
 10
229.2797629584734
 20
-67.76730636529909
 30
0.0
 10
229.2733153374492
 20
-68.03777964252626
 30
0.0
 10
229.2468046782305
 20
-68.57310981746785
 30
0.0
 10
229.2267204981677
 20
-68.83994106536944
 30
0.0
 10
229.1464398621364
 20
-69.63799363043344
 30
0.0
 10
229.067537686754
 20
-70.16693547214552
 30
0.0
 10
228.8578913428502
 20
-71.21849614905912
 30
0.0
 10
228.7264260688983
 20
-71.74242993238951
 30
0.0
 10
228.4159209635341
 20
-72.76564985074107
 30
0.0
 10
228.2368993373875
 20
-73.26724209818693
 30
0.0
 10
227.8320234398431
 20
-74.2506686077185
 30
0.0
 10
227.6060440989278
 20
-74.73245465040803
 30
0.0
 10
227.1061275877088
 20
-75.67579708273325
 30
0.0
 10
226.8306584858709
 20
-76.1398467278693
 30
0.0
 10
225.9426157432651
 20
-77.4800535353
 30
0.0
 10
225.2720780243786
 20
-78.30238709942553
 30
0.0
 10
224.1508999905791
 20
-79.43130763109711
 30
0.0
 10
223.7577933137494
 20
-79.79005167794466
 30
0.0
 10
222.9321065925687
 20
-80.47177721103048
 30
0.0
 10
222.4992068632681
 20
-80.79440757951942
 30
0.0
 10
221.1717769371177
 20
-81.68608489324814
 30
0.0
 10
220.2394360617609
 20
-82.18875045268557
 30
0.0
 10
218.7709283450113
 20
-82.80732199727206
 30
0.0
 10
218.26975237674
 20
-82.99093987857067
 30
0.0
 10
217.243231125788
 20
-83.31134341234213
 30
0.0
 10
216.7244445277835
 20
-83.44550778637571
 30
0.0
 10
215.6803005236571
 20
-83.6619027283691
 30
0.0
 10
215.1542283172407
 20
-83.74442837617
 30
0.0
 10
214.3594273658157
 20
-83.83062944697842
 30
0.0
 10
214.0934811483203
 20
-83.85269078174115
 30
0.0
 10
213.5594446370239
 20
-83.88289450403654
 30
0.0
 10
213.2893814546208
 20
-83.8910760006584
 30
0.0
 10
213.0222506280624
 20
-83.89266835449106
 30
0.0
  0
SPLINE
  5
C7
330
1F
100
AcDbEntity
  8
0
  6
Continuous
 62
     7
370
    25
100
AcDbSpline
210
0.0
220
0.0
230
1.0
 70
     8
 71
     3
 72
    38
 73
    34
 74
     0
 42
0.000000001
 43
0.00000001
 40
0.0
 40
0.0
 40
0.0
 40
0.0
 40
0.0312499999999992
 40
0.0312499999999992
 40
0.0624999999999984
 40
0.0624999999999984
 40
0.1249999999999968
 40
0.1249999999999968
 40
0.1874999999999952
 40
0.1874999999999952
 40
0.2499999999999936
 40
0.2499999999999936
 40
0.312499999999992
 40
0.312499999999992
 40
0.3749999999999905
 40
0.3749999999999905
 40
0.4999999999999899
 40
0.4999999999999899
 40
0.5624999999999909
 40
0.5624999999999909
 40
0.6249999999999918
 40
0.6249999999999918
 40
0.7499999999999936
 40
0.7499999999999936
 40
0.8124999999999947
 40
0.8124999999999947
 40
0.8749999999999958
 40
0.8749999999999958
 40
0.9374999999999968
 40
0.9374999999999968
 40
0.9687499999999983
 40
0.9687499999999983
 40
1.0
 40
1.0
 40
1.0
 40
1.0
 10
212.9499999951331
 20
134.6
 30
0.0
 10
213.214789576023
 20
134.5974376679997
 30
0.0
 10
213.4829265701528
 20
134.5884377299319
 30
0.0
 10
214.0131860025802
 20
134.5570083022534
 30
0.0
 10
214.2774111134386
 20
134.5345340982113
 30
0.0
 10
215.0674968864835
 20
134.4476053143596
 30
0.0
 10
215.5909719736823
 20
134.3651888714419
 30
0.0
 10
216.6311004890853
 20
134.1497753296567
 30
0.0
 10
217.1498107558253
 20
134.0158884845073
 30
0.0
 10
218.1638307072338
 20
133.7011456926843
 30
0.0
 10
218.6606473692041
 20
133.5205658247349
 30
0.0
 10
219.6344298989038
 20
133.1142055525879
 30
0.0
 10
220.1112851044745
 20
132.888174362019
 30
0.0
 10
221.0446880963671
 20
132.3898734268554
 30
0.0
 10
221.5031019162643
 20
132.1166104526312
 30
0.0
 10
222.834291950246
 20
131.2333279834141
 30
0.0
 10
223.6523748276281
 20
130.5684370554562
 30
0.0
 10
224.7774531114986
 20
129.4593593999037
 30
0.0
 10
225.1353065366018
 20
129.0708587973305
 30
0.0
 10
225.815845359691
 20
128.2553406614572
 30
0.0
 10
226.1381578856395
 20
127.8280675699959
 30
0.0
 10
227.029412475358
 20
126.5191341971066
 30
0.0
 10
227.5322872391035
 20
125.6010143149203
 30
0.0
 10
228.1534663792728
 20
124.1573633923481
 30
0.0
 10
228.3381410601383
 20
123.6649445424393
 30
0.0
 10
228.6620250689317
 20
122.657475337946
 30
0.0
 10
228.800818949314
 20
122.1406117255079
 30
0.0
 10
229.0254758446452
 20
121.1044326822306
 30
0.0
 10
229.1117993281452
 20
120.5825401849711
 30
0.0
 10
229.2046532934274
 20
119.7947886663237
 30
0.0
 10
229.2291923385765
 20
119.5313499030628
 30
0.0
 10
229.2646004572103
 20
119.0025263602199
 30
0.0
 10
229.275523731815
 20
118.7350468999111
 30
0.0
 10
229.2797629750784
 20
118.4707798000518
 30
0.0
  0
SPLINE
  5
CB
330
1F
100
AcDbEntity
  8
0
  6
Continuous
 62
     7
370
    25
100
AcDbSpline
210
0.0
220
0.0
230
1.0
 70
     8
 71
     3
 72
    38
 73
    34
 74
     0
 42
0.000000001
 43
0.00000001
 40
0.0
 40
0.0
 40
0.0
 40
0.0
 40
0.0312499999999999
 40
0.0312499999999999
 40
0.0624999999999997
 40
0.0624999999999997
 40
0.1249999999999996
 40
0.1249999999999996
 40
0.1874999999999994
 40
0.1874999999999994
 40
0.2499999999999992
 40
0.2499999999999992
 40
0.3124999999999991
 40
0.3124999999999991
 40
0.3749999999999989
 40
0.3749999999999989
 40
0.4999999999999967
 40
0.4999999999999967
 40
0.5624999999999969
 40
0.5624999999999969
 40
0.6249999999999969
 40
0.6249999999999969
 40
0.749999999999998
 40
0.749999999999998
 40
0.8124999999999984
 40
0.8124999999999984
 40
0.874999999999999
 40
0.874999999999999
 40
0.9374999999999994
 40
0.9374999999999994
 40
0.9687499999999998
 40
0.9687499999999998
 40
1.0
 40
1.0
 40
1.0
 40
1.0
 10
-229.2797629750785
 20
118.4707798000517
 30
0.0
 10
-229.2755203875379
 20
118.7352553734096
 30
0.0
 10
-229.2646036923557
 20
119.0024889123121
 30
0.0
 10
-229.2291834514036
 20
119.531471762794
 30
0.0
 10
-229.2046295197661
 20
119.7950562237679
 30
0.0
 10
-229.1116790444408
 20
120.5834287310334
 30
0.0
 10
-229.0252255567929
 20
121.1059680655283
 30
0.0
 10
-228.8000201676934
 20
122.1439131580045
 30
0.0
 10
-228.6613340730964
 20
122.6598449179001
 30
0.0
 10
-228.3375458780931
 20
123.6665748534204
 30
0.0
 10
-228.1525160240851
 20
124.1599949991389
 30
0.0
 10
-227.7361474330743
 20
125.1268060089421
 30
0.0
 10
-227.5048396214336
 20
125.6002353336796
 30
0.0
 10
-226.9951757867838
 20
126.5268199454934
 30
0.0
 10
-226.7152673219248
 20
126.9824493905216
 30
0.0
 10
-225.816154852603
 20
128.2968785413607
 30
0.0
 10
-225.1404804335498
 20
129.1029966554915
 30
0.0
 10
-224.0155098597054
 20
130.2096975506826
 30
0.0
 10
-223.6218204866601
 20
130.5614060263628
 30
0.0
 10
-222.7964047012551
 20
131.2298378125667
 30
0.0
 10
-222.3645202525007
 20
131.5460846798814
 30
0.0
 10
-221.0410000988153
 20
132.4210423731571
 30
0.0
 10
-220.1127867158555
 20
132.9152131590213
 30
0.0
 10
-218.6521861550267
 20
133.5237794295071
 30
0.0
 10
-218.153673205473
 20
133.704746722432
 30
0.0
 10
-217.1343066330517
 20
134.02024116669
 30
0.0
 10
-216.6205786656473
 20
134.1522238692077
 30
0.0
 10
-215.5852730994188
 20
134.3660954289472
 30
0.0
 10
-215.0637000316943
 20
134.4481025886394
 30
0.0
 10
-214.2756824844701
 20
134.5346842509416
 30
0.0
 10
-214.0120078375159
 20
134.5570912460487
 30
0.0
 10
-213.4825551852371
 20
134.5884465923126
 30
0.0
 10
-213.2149984617122
 20
134.5974356466692
 30
0.0
 10
-212.9499999951332
 20
134.6
 30
0.0
  0
SPLINE
  5
CE
330
1F
100
AcDbEntity
  8
0
  6
Continuous
 62
     7
370
    25
100
AcDbSpline
210
0.0
220
0.0
230
1.0
 70
     8
 71
     3
 72
    34
 73
    30
 74
     0
 42
0.000000001
 43
0.00000001
 40
0.0
 40
0.0
 40
0.0
 40
0.0
 40
0.0312499999999986
 40
0.0312499999999986
 40
0.0624999999999973
 40
0.0624999999999973
 40
0.1249999999999979
 40
0.1249999999999979
 40
0.1874999999999986
 40
0.1874999999999986
 40
0.2499999999999993
 40
0.2499999999999993
 40
0.3124999999999999
 40
0.3124999999999999
 40
0.3750000000000006
 40
0.3750000000000006
 40
0.5000000000000011
 40
0.5000000000000011
 40
0.5625000000000008
 40
0.5625000000000008
 40
0.6250000000000006
 40
0.6250000000000006
 40
0.7500000000000017
 40
0.7500000000000017
 40
0.8125000000000014
 40
0.8125000000000014
 40
0.8750000000000013
 40
0.8750000000000013
 40
1.0
 40
1.0
 40
1.0
 40
1.0
 10
-213.0222506280625
 20
-83.89266835449108
 30
0.0
 10
-213.2894952356628
 20
-83.89107532240601
 30
0.0
 10
-213.559644908151
 20
-83.8828936147514
 30
0.0
 10
-214.0944832296918
 20
-83.85262364559172
 30
0.0
 10
-214.3610338888453
 20
-83.83049568581922
 30
0.0
 10
-215.1582236282263
 20
-83.74391355614729
 30
0.0
 10
-215.6866089903313
 20
-83.66091296732576
 30
0.0
 10
-216.7367939389133
 20
-83.44262507840841
 30
0.0
 10
-217.2588046495434
 20
-83.30689658932857
 30
0.0
 10
-218.2776617523987
 20
-82.9880474337966
 30
0.0
 10
-218.7771316135607
 20
-82.80494643768414
 30
0.0
 10
-219.7563602540733
 20
-82.39199336508358
 30
0.0
 10
-220.2360530960802
 20
-82.16196859109498
 30
0.0
 10
-221.1752550989947
 20
-81.65399132661304
 30
0.0
 10
-221.6372379972589
 20
-81.37453651376909
 30
0.0
 10
-222.9681891948032
 20
-80.47704984887483
 30
0.0
 10
-223.7854140397234
 20
-79.8004567488218
 30
0.0
 10
-224.9071856720818
 20
-78.66921974320745
 30
0.0
 10
-225.2636284441067
 20
-78.27259500623238
 30
0.0
 10
-225.9405891668916
 20
-77.43917457912984
 30
0.0
 10
-226.2584943984342
 20
-77.00514182839196
 30
0.0
 10
-227.1389153561755
 20
-75.67086540886451
 30
0.0
 10
-227.6350951867202
 20
-74.73181784221313
 30
0.0
 10
-228.2436963882104
 20
-73.2492895466241
 30
0.0
 10
-228.4245766621802
 20
-72.74011403396888
 30
0.0
 10
-228.7336416347745
 20
-71.71550752661767
 30
0.0
 10
-228.8623088382484
 20
-71.19881824347802
 30
0.0
 10
-229.1724030369205
 20
-69.635876366408
 30
0.0
 10
-229.2797629750785
 20
-68.5770597443219
 30
0.0
 10
-229.2797629750785
 20
-67.49999999835322
 30
0.0
  0
SPLINE
  5
D1
330
1F
100
AcDbEntity
  8
0
  6
Continuous
 62
     7
370
    25
100
AcDbSpline
210
0.0
220
0.0
230
1.0
 70
     8
 71
     3
 72
    15
 73
    11
 74
     0
 42
0.000000001
 43
0.00000001
 40
0.0
 40
0.0
 40
0.0
 40
0.0
 40
0.0250672926344599
 40
0.1903510149980388
 40
0.3534821383212156
 40
0.5146094763680578
 40
0.6747585869614176
 40
0.8353448109421604
 40
0.9975766584714049
 40
1.0
 40
1.0
 40
1.0
 40
1.0
 10
-9.307872016254517
 20
-97.25963454619924
 30
0.0
 10
-9.217425490580158
 20
-97.23044708304236
 30
0.0
 10
-8.530610675106498
 20
-97.00880913760699
 30
0.0
 10
-6.187915968220186
 20
-96.71466764220798
 30
0.0
 10
-2.619838010088163
 20
-96.45442639943066
 30
0.0
 10
1.304872424426362
 20
-96.42110473452696
 30
0.0
 10
5.069603236270381
 20
-96.5973492309228
 30
0.0
 10
8.136534602838397
 20
-96.976069436911
 30
0.0
 10
9.95161162217016
 20
-97.31079589208929
 30
0.0
 10
10.31849974043288
 20
-97.51689341563352
 30
0.0
 10
10.32389948044971
 20
-97.5199266919645
 30
0.0
  0
SPLINE
  5
D2
330
1F
100
AcDbEntity
  8
0
  6
Continuous
 62
     7
370
    25
100
AcDbSpline
210
0.0
220
0.0
230
1.0
 70
     8
 71
     3
 72
    14
 73
    10
 74
     0
 42
0.000000001
 43
0.00000001
 40
0.0
 40
0.0
 40
0.0
 40
0.0
 40
0.1401205798619716
 40
0.2899524187693471
 40
0.4377695806305747
 40
0.5839846294380591
 40
0.7296984691501779
 40
0.8761969019829505
 40
1.0
 40
1.0
 40
1.0
 40
1.0
 10
10.27832596765606
 20
-99.20373687141027
 30
0.0
 10
9.656856914084223
 20
-99.3787394479824
 30
0.0
 10
8.370846997118722
 20
-99.74087340730472
 30
0.0
 10
5.154853518791368
 20
-100.1127321741936
 30
0.0
 10
1.398516639448381
 20
-100.3002196427635
 30
0.0
 10
-2.515950790674967
 20
-100.2682278639435
 30
0.0
 10
-6.094161993432071
 20
-100.0244969725108
 30
0.0
 10
-8.956173009954908
 20
-99.62986044541806
 30
0.0
 10
-9.993796425065149
 20
-99.27853870117771
 30
0.0
 10
-10.4690471310519
 20
-99.11762684766
 30
0.0
  0
SPLINE
  5
DA
330
1F
100
AcDbEntity
  8
0
  6
Continuous
 62
     7
370
    25
100
AcDbSpline
210
0.0
220
0.0
230
1.0
 70
     8
 71
     3
 72
    32
 73
    28
 74
     0
 42
0.000000001
 43
0.00000001
 40
0.0
 40
0.0
 40
0.0
 40
0.0
 40
0.0312499999999973
 40
0.0312499999999973
 40
0.0624999999999947
 40
0.0624999999999947
 40
0.1249999999999972
 40
0.1249999999999972
 40
0.1874999999999997
 40
0.1874999999999997
 40
0.2500000000000022
 40
0.2500000000000022
 40
0.3750000000000011
 40
0.3750000000000011
 40
0.5000000000000001
 40
0.5000000000000001
 40
0.6249999999999991
 40
0.6249999999999991
 40
0.6874999999999987
 40
0.6874999999999987
 40
0.7499999999999981
 40
0.7499999999999981
 40
0.8124999999999977
 40
0.8124999999999977
 40
0.8749999999999972
 40
0.8749999999999972
 40
1.0
 40
1.0
 40
1.0
 40
1.0
 10
212.4999999987237
 20
-74.02872911616963
 30
0.0
 10
212.6120700663159
 20
-74.02872911616964
 30
0.0
 10
212.7241401339082
 20
-74.02872911616963
 30
0.0
 10
212.9482802690926
 20
-74.02872911616961
 30
0.0
 10
213.0604536101152
 20
-74.02961222272637
 30
0.0
 10
213.395758854969
 20
-74.02187379211058
 30
0.0
 10
213.6176879090766
 20
-74.00296650695977
 30
0.0
 10
214.0589600773981
 20
-73.94303917766736
 30
0.0
 10
214.2783594084079
 20
-73.90249985176482
 30
0.0
 10
214.7144023449754
 20
-73.7978565792483
 30
0.0
 10
214.9321198771102
 20
-73.73343621772395
 30
0.0
 10
215.5678906920905
 20
-73.51088691823345
 30
0.0
 10
215.9718963387059
 20
-73.32340436780868
 30
0.0
 10
216.7398570851043
 20
-72.86948222064129
 30
0.0
 10
217.1073635777411
 20
-72.59871523781092
 30
0.0
 10
217.766038930365
 20
-71.99436519489069
 30
0.0
 10
218.0600438934601
 20
-71.65991059361201
 30
0.0
 10
218.4484089318141
 20
-71.11013516586554
 30
0.0
 10
218.5694584150744
 20
-70.91783693537757
 30
0.0
 10
218.7892132443965
 20
-70.52578435567477
 30
0.0
 10
218.8884945331328
 20
-70.32526261694025
 30
0.0
 10
219.0665545149808
 20
-69.9155208311242
 30
0.0
 10
219.1452797191824
 20
-69.70627809115851
 30
0.0
 10
219.2828480247039
 20
-69.27935754940972
 30
0.0
 10
219.3414202342475
 20
-69.0604221810461
 30
0.0
 10
219.482575922202
 20
-68.39904777590141
 30
0.0
 10
219.5324397896478
 20
-67.95262637186559
 30
0.0
 10
219.5324397897956
 20
-67.50000000091057
 30
0.0
  0
SPLINE
  5
DD
330
1F
100
AcDbEntity
  8
0
  6
Continuous
 62
     7
370
    25
100
AcDbSpline
210
0.0
220
0.0
230
1.0
 70
     8
 71
     3
 72
    30
 73
    26
 74
     0
 42
0.000000001
 43
0.00000001
 40
0.0
 40
0.0
 40
0.0
 40
0.0
 40
0.1250000000000041
 40
0.1250000000000041
 40
0.187500000000007
 40
0.187500000000007
 40
0.2500000000000099
 40
0.2500000000000099
 40
0.375000000000012
 40
0.375000000000012
 40
0.4375000000000116
 40
0.4375000000000116
 40
0.5000000000000111
 40
0.5000000000000111
 40
0.6250000000000101
 40
0.6250000000000101
 40
0.7500000000000091
 40
0.7500000000000091
 40
0.8750000000000082
 40
0.8750000000000082
 40
0.9375000000000041
 40
0.9375000000000041
 40
0.9687500000000021
 40
0.9687500000000021
 40
1.0
 40
1.0
 40
1.0
 40
1.0
 10
-219.5324397897957
 20
-67.4999999983533
 30
0.0
 10
-219.5324397897957
 20
-67.95248492319293
 30
0.0
 10
-219.4826391035558
 20
-68.39635055447157
 30
0.0
 10
-219.3436754749877
 20
-69.0510267006858
 30
0.0
 10
-219.2863044159027
 20
-69.26733962121486
 30
0.0
 10
-219.1489690597446
 20
-69.69605511955763
 30
0.0
 10
-219.0695203578535
 20
-69.90805696455796
 30
0.0
 10
-218.8024985950282
 20
-70.52439816855545
 30
0.0
 10
-218.5856279849495
 20
-70.91402247945699
 30
0.0
 10
-218.1985907465411
 20
-71.46466722719309
 30
0.0
 10
-218.0582553949624
 20
-71.64335398277872
 30
0.0
 10
-217.7623016965804
 20
-71.98093131928788
 30
0.0
 10
-217.6062561707379
 20
-72.14059486463616
 30
0.0
 10
-217.1145119833204
 20
-72.59288690422628
 30
0.0
 10
-216.7538535810943
 20
-72.86028790068565
 30
0.0
 10
-215.9780224302439
 20
-73.32068116297708
 30
0.0
 10
-215.5726604443869
 20
-73.50873828426472
 30
0.0
 10
-214.7288952099609
 20
-73.80504570233762
 30
0.0
 10
-214.2861976782098
 20
-73.91191869945266
 30
0.0
 10
-213.6205350492683
 20
-74.00270819922689
 30
0.0
 10
-213.3976564057186
 20
-74.02178130354422
 30
0.0
 10
-213.0614980760378
 20
-74.029612249585
 30
0.0
 10
-212.9491358857335
 20
-74.02872911616966
 30
0.0
 10
-212.7245679428668
 20
-74.02872911616969
 30
0.0
 10
-212.6122839714335
 20
-74.02872911616966
 30
0.0
 10
-212.5
 20
-74.02872911616964
 30
0.0
  0
SPLINE
  5
E0
330
1F
100
AcDbEntity
  8
0
  6
Continuous
 62
     7
370
    25
100
AcDbSpline
210
0.0
220
0.0
230
1.0
 70
     8
 71
     3
 72
    36
 73
    32
 74
     0
 42
0.000000001
 43
0.00000001
 40
0.0
 40
0.0
 40
0.0
 40
0.0
 40
0.0624999999999955
 40
0.0624999999999955
 40
0.0937499999999915
 40
0.0937499999999915
 40
0.1249999999999875
 40
0.1249999999999875
 40
0.187499999999983
 40
0.187499999999983
 40
0.2499999999999786
 40
0.2499999999999786
 40
0.374999999999973
 40
0.374999999999973
 40
0.4374999999999719
 40
0.4374999999999719
 40
0.4999999999999709
 40
0.4999999999999709
 40
0.6249999999999764
 40
0.6249999999999764
 40
0.6874999999999791
 40
0.6874999999999791
 40
0.7499999999999819
 40
0.7499999999999819
 40
0.8749999999999873
 40
0.8749999999999873
 40
0.9374999999999936
 40
0.9374999999999936
 40
0.9687499999999968
 40
0.9687499999999968
 40
1.0
 40
1.0
 40
1.0
 40
1.0
 10
219.5324397897956
 20
117.4999999983538
 30
0.0
 10
219.5324397897957
 20
117.7435080957193
 30
0.0
 10
219.5324397897956
 20
117.9870161930847
 30
0.0
 10
219.5324397897956
 20
118.3522783391329
 30
0.0
 10
219.5335932808935
 20
118.4741256830243
 30
0.0
 10
219.5289192362971
 20
118.717255740226
 30
0.0
 10
219.5229402974349
 20
118.8385262079361
 30
0.0
 10
219.4931667797181
 20
119.201380249979
 30
0.0
 10
219.4593321504392
 20
119.4421517776512
 30
0.0
 10
219.3653544863142
 20
119.921566989806
 30
0.0
 10
219.3040616451571
 20
120.1615213665904
 30
0.0
 10
219.0835756436601
 20
120.8600844566798
 30
0.0
 10
218.8895794187984
 20
121.3029986119269
 30
0.0
 10
218.5268244510835
 20
121.9325707079057
 30
0.0
 10
218.3939041960797
 20
122.1366079335921
 30
0.0
 10
218.1020887430193
 20
122.5320862637538
 30
0.0
 10
217.9446254557049
 20
122.7213694307962
 30
0.0
 10
217.4458919113872
 20
123.2551340118991
 30
0.0
 10
217.0755010396562
 20
123.5697275869957
 30
0.0
 10
216.4645095711628
 20
123.9813191913845
 30
0.0
 10
216.2527376359409
 20
124.1074484122819
 30
0.0
 10
215.8209265264678
 20
124.3346648414907
 30
0.0
 10
215.5997331467324
 20
124.4362012886241
 30
0.0
 10
214.9206060718874
 20
124.7053179668052
 30
0.0
 10
214.4423144793037
 20
124.8390369759679
 30
0.0
 10
213.719715715464
 20
124.9558246999418
 30
0.0
 10
213.4776452729171
 20
124.9829761194256
 30
0.0
 10
213.1120456011829
 20
124.9993100621537
 30
0.0
 10
212.989692912957
 20
125.0
 30
0.0
 10
212.7448464552693
 20
125.0
 30
0.0
 10
212.6224232264255
 20
125.0
 30
0.0
 10
212.4999999975815
 20
125.0
 30
0.0
  0
SPLINE
  5
E3
330
1F
100
AcDbEntity
  8
0
  6
Continuous
 62
     7
370
    25
100
AcDbSpline
210
0.0
220
0.0
230
1.0
 70
     8
 71
     3
 72
    38
 73
    34
 74
     0
 42
0.000000001
 43
0.00000001
 40
0.0
 40
0.0
 40
0.0
 40
0.0
 40
0.0312499999999989
 40
0.0312499999999989
 40
0.0624999999999978
 40
0.0624999999999978
 40
0.1249999999999956
 40
0.1249999999999956
 40
0.1874999999999934
 40
0.1874999999999934
 40
0.2499999999999912
 40
0.2499999999999912
 40
0.3749999999999948
 40
0.3749999999999948
 40
0.4374999999999955
 40
0.4374999999999955
 40
0.4999999999999963
 40
0.4999999999999963
 40
0.5624999999999971
 40
0.5624999999999971
 40
0.6249999999999979
 40
0.6249999999999979
 40
0.7499999999999994
 40
0.7499999999999994
 40
0.8124999999999974
 40
0.8124999999999974
 40
0.8749999999999954
 40
0.8749999999999954
 40
0.9062499999999967
 40
0.9062499999999967
 40
0.9374999999999978
 40
0.9374999999999978
 40
1.0
 40
1.0
 40
1.0
 40
1.0
 10
-212.4999999988443
 20
125.0
 30
0.0
 10
-212.6221742699562
 20
125.0000000000001
 30
0.0
 10
-212.7443485410683
 20
125.0
 30
0.0
 10
-212.9886970832922
 20
125.0
 30
0.0
 10
-213.1107884408705
 20
124.9993322032077
 30
0.0
 10
-213.4753018501208
 20
124.9831481915859
 30
0.0
 10
-213.7163050083816
 20
124.9562040177841
 30
0.0
 10
-214.1954298026186
 20
124.8791075008939
 30
0.0
 10
-214.4333703405216
 20
124.8274965694956
 30
0.0
 10
-214.9058718213244
 20
124.6970549925613
 30
0.0
 10
-215.1396858678396
 20
124.6182117214221
 30
0.0
 10
-215.8195710769145
 20
124.3496566774848
 30
0.0
 10
-216.2493335754943
 20
124.1248339845713
 30
0.0
 10
-216.8577877850758
 20
123.7170733254112
 30
0.0
 10
-217.0555041992633
 20
123.5680095694918
 30
0.0
 10
-217.4286007067028
 20
123.2518640195767
 30
0.0
 10
-217.6048201927529
 20
123.0843953599429
 30
0.0
 10
-217.9365553967963
 20
122.7306242143023
 30
0.0
 10
-218.0921364848364
 20
122.5443811941935
 30
0.0
 10
-218.3825867995744
 20
122.1530539652813
 30
0.0
 10
-218.5181812489694
 20
121.9465519665102
 30
0.0
 10
-218.8867956500496
 20
121.3097873204386
 30
0.0
 10
-219.0819618293226
 20
120.8641436641743
 30
0.0
 10
-219.3029140493513
 20
120.1656772218418
 30
0.0
 10
-219.3643074127431
 20
119.9261256324153
 30
0.0
 10
-219.458864422033
 20
119.4453082454145
 30
0.0
 10
-219.4928680323157
 20
119.2039392407236
 30
0.0
 10
-219.5228333436643
 20
118.840363684104
 30
0.0
 10
-219.5288593834302
 20
118.7188851904809
 30
0.0
 10
-219.5335969902112
 20
118.4753990713378
 30
0.0
 10
-219.5324397897958
 20
118.353400939234
 30
0.0
 10
-219.5324397897957
 20
117.9876576799526
 30
0.0
 10
-219.5324397897959
 20
117.7438288404316
 30
0.0
 10
-219.5324397897958
 20
117.5000000009106
 30
0.0
  0
CIRCLE
  5
E9
330
1F
100
AcDbEntity
  8
0
  6
Continuous
 62
     7
370
    25
100
AcDbCircle
 10
0.0
 20
-32.5
 30
0.0
 40
34.82842712474629
  0
CIRCLE
  5
EA
330
1F
100
AcDbEntity
  8
0
  6
Continuous
 62
     7
370
    25
100
AcDbCircle
 10
0.0
 20
-32.5
 30
0.0
 40
33.41421356237318
  0
CIRCLE
  5
EB
330
1F
100
AcDbEntity
  8
0
  6
Continuous
 62
     7
370
    25
100
AcDbCircle
 10
0.0
 20
-32.5
 30
0.0
 40
24.00000000000001
  0
SPLINE
  5
EC
330
1F
100
AcDbEntity
  8
0
  6
Continuous
 62
     8
370
    25
100
AcDbSpline
210
0.0
220
0.0
230
1.0
 70
     8
 71
     3
 72
     9
 73
     5
 74
     0
 42
0.000000001
 43
0.00000001
 40
0.0
 40
0.0
 40
0.0
 40
0.0
 40
0.5164498457369735
 40
1.0
 40
1.0
 40
1.0
 40
1.0
 10
-11.49859757021516
 20
-98.33080087139795
 30
0.0
 10
-11.39195830255842
 20
-98.13118240287402
 30
0.0
 10
-11.18547306776361
 20
-97.74466187203902
 30
0.0
 10
-9.919859602580953
 20
-97.41772494682215
 30
0.0
 10
-9.307872016254516
 20
-97.25963454619922
 30
0.0
  0
SPLINE
  5
ED
330
1F
100
AcDbEntity
  8
0
  6
Continuous
 62
     8
370
    25
100
AcDbSpline
210
0.0
220
0.0
230
1.0
 70
     8
 71
     3
 72
    11
 73
     7
 74
     0
 42
0.000000001
 43
0.00000001
 40
0.0
 40
0.0
 40
0.0
 40
0.0
 40
0.3642237055314043
 40
0.6001038882608993
 40
0.9731317805592355
 40
0.9999999999999999
 40
0.9999999999999999
 40
0.9999999999999999
 40
0.9999999999999999
 10
10.32389948044971
 20
-97.5199266919645
 30
0.0
 10
10.78520825261343
 20
-97.72023755155483
 30
0.0
 10
11.54527187192236
 20
-98.05027462458291
 30
0.0
 10
11.48708131013964
 20
-98.61520457319595
 30
0.0
 10
11.1393163320504
 20
-99.00039878008808
 30
0.0
 10
10.3325321802113
 20
-99.19093511629828
 30
0.0
 10
10.27832596765606
 20
-99.20373687141027
 30
0.0
  0
SPLINE
  5
EE
330
1F
100
AcDbEntity
  8
0
  6
Continuous
 62
     8
370
    25
100
AcDbSpline
210
0.0
220
0.0
230
1.0
 70
     8
 71
     3
 72
    10
 73
     6
 74
     0
 42
0.000000001
 43
0.00000001
 40
0.0
 40
0.0
 40
0.0
 40
0.0
 40
0.1290929660798532
 40
0.56454057167004
 40
1.0
 40
1.0
 40
1.0
 40
1.0
 10
-10.4690471310519
 20
-99.11762684766
 30
0.0
 10
-10.57936252110641
 20
-99.08759071267022
 30
0.0
 10
-11.0617862755258
 20
-98.95623873174661
 30
0.0
 10
-11.38528237939357
 20
-98.68317893841456
 30
0.0
 10
-11.46082549810358
 20
-98.44826129008841
 30
0.0
 10
-11.49859757021516
 20
-98.33080087139795
 30
0.0
  0
SPLINE
  5
EF
330
1F
100
AcDbEntity
  8
0
  6
Continuous
 62
     8
370
    25
100
AcDbSpline
210
0.0
220
0.0
230
1.0
 70
     8
 71
     3
 72
    16
 73
    12
 74
     0
 42
0.000000001
 43
0.00000001
 40
0.0
 40
0.0
 40
0.0
 40
0.0
 40
0.1124512216383688
 40
0.2279166589778535
 40
0.3421103431254823
 40
0.4559141873972959
 40
0.5703901868317304
 40
0.6863354771690393
 40
0.803906917758145
 40
0.922519764454904
 40
1.0
 40
1.0
 40
1.0
 40
1.0
 10
10.38203129221609
 20
-99.08959132475546
 30
0.0
 10
10.13252141418182
 20
-98.88678690680841
 30
0.0
 10
9.626813633021191
 20
-98.4757419693591
 30
0.0
 10
7.497412382879969
 20
-97.95772079737922
 30
0.0
 10
4.613223690619692
 20
-97.58526728499783
 30
0.0
 10
1.191887155486794
 20
-97.40667236192023
 30
0.0
 10
-2.376175628128088
 20
-97.44269695538424
 30
0.0
 10
-5.718892070412487
 20
-97.69446449605418
 30
0.0
 10
-8.387692433638492
 20
-98.13872520824042
 30
0.0
 10
-10.02455373505156
 20
-98.65317472395742
 30
0.0
 10
-10.2538623720906
 20
-99.01194682598388
 30
0.0
 10
-10.34446672695711
 20
-99.15370474346989
 30
0.0
  0
LINE
  5
F0
330
1F
100
AcDbEntity
  8
0
  6
Continuous
 62
     7
370
    25
100
AcDbLine
 10
398.2970785305
 20
233.2847443432
 30
0.0
 11
-398.2970785305
 21
233.2847443432
 31
0.0
  0
LINE
  5
F1
330
1F
100
AcDbEntity
  8
0
  6
Continuous
 62
     7
370
    25
100
AcDbLine
 10
408.2847443432
 20
-230.5
 30
0.0
 11
408.2847443432
 21
223.2970785305
 31
0.0
  0
LINE
  5
F2
330
1F
100
AcDbEntity
  8
0
  6
Continuous
 62
     7
370
    25
100
AcDbLine
 10
-408.2847443432
 20
223.2970785305
 30
0.0
 11
-408.2847443432
 21
-230.5
 31
0.0
  0
LINE
  5
F3
330
1F
100
AcDbEntity
  8
0
  6
Continuous
 62
     7
370
    25
100
AcDbLine
 10
-253.2202370249
 20
131.52922019
 30
0.0
 11
-253.2202370249
 21
-67.5
 31
0.0
  0
LINE
  5
F4
330
1F
100
AcDbEntity
  8
0
  6
Continuous
 62
     7
370
    25
100
AcDbLine
 10
-262.9675602102
 20
-67.5
 30
0.0
 11
-253.2202370249
 21
-67.5
 31
0.0
  0
LINE
  5
F5
330
1F
100
AcDbEntity
  8
0
  6
Continuous
 62
     7
370
    25
100
AcDbLine
 10
-253.2139541612
 20
132.4999999999
 30
0.0
 11
-262.9495121693
 21
132.7810737761
 31
0.0
  0
LINE
  5
F6
330
1F
100
AcDbEntity
  8
0
  6
Continuous
 62
     7
370
    25
100
AcDbLine
 10
-220.0000000005
 20
165.39913656
 30
0.0
 11
-220.1295861176
 21
174.9960886704
 31
0.0
  0
LINE
  5
F7
330
1F
100
AcDbEntity
  8
0
  6
Continuous
 62
     7
370
    25
100
AcDbLine
 10
219.9999999947
 20
165.3991365601
 30
0.0
 11
220.1295861101
 21
174.9960886705
 31
0.0
  0
LINE
  5
F8
330
1F
100
AcDbEntity
  8
0
  6
Continuous
 62
     7
370
    25
100
AcDbLine
 10
253.2139541612
 20
132.5
 30
0.0
 11
262.9495121693
 21
132.7810737763
 31
0.0
  0
LINE
  5
F9
330
1F
100
AcDbEntity
  8
0
  6
Continuous
 62
     7
370
    25
100
AcDbLine
 10
253.2202370249
 20
-67.4999999999
 30
0.0
 11
253.2202370249
 21
131.52922019
 31
0.0
  0
LINE
  5
FA
330
1F
100
AcDbEntity
  8
0
  6
Continuous
 62
     7
370
    25
100
AcDbLine
 10
262.9675602102
 20
-67.5000000014
 30
0.0
 11
253.2202370249
 21
-67.4999999999
 31
0.0
  0
LINE
  5
FB
330
1F
100
AcDbEntity
  8
0
  6
Continuous
 62
     7
370
    25
100
AcDbLine
 10
406.2833719972
 20
-232.5
 30
0.0
 11
-406.2833719972
 21
-232.5
 31
0.0
  0
LINE
  5
FC
330
1F
100
AcDbEntity
  8
0
  6
Continuous
 62
     7
370
    25
100
AcDbLine
 10
-408.2847443432
 20
-230.5
 30
0.0
 11
408.2847443432
 21
-230.5
 31
0.0
  0
LINE
  5
FD
330
1F
100
AcDbEntity
  8
0
  6
Continuous
 62
     7
370
    25
100
AcDbLine
 10
-402.7551771664
 20
222.7620294927
 30
0.0
 11
-402.7551771664
 21
-232.5
 31
0.0
  0
LINE
  5
FE
330
1F
100
AcDbEntity
  8
0
  6
Continuous
 62
     7
370
    25
100
AcDbLine
 10
402.7551771664
 20
-232.5
 30
0.0
 11
402.7551771664
 21
222.7620294927
 31
0.0
  0
LINE
  5
FF
330
1F
100
AcDbEntity
  8
0
  6
Continuous
 62
     7
370
    25
100
AcDbLine
 10
-220.1559423888
 20
-110.9659106265
 30
0.0
 11
-219.9999999996
 21
-101.1048077854
 31
0.0
  0
LINE
  5
100
330
1F
100
AcDbEntity
  8
0
  6
Continuous
 62
     7
370
    25
100
AcDbLine
 10
220.1559423899
 20
-110.9659106264
 30
0.0
 11
220.0000000005
 21
-101.1048077854
 31
0.0
  0
LINE
  5
101
330
1F
100
AcDbEntity
  8
0
  6
Continuous
 62
     7
370
    25
100
AcDbLine
 10
-219.4777493618
 20
-101.1073316455
 30
0.0
 11
219.4777493618
 21
-101.1073316455
 31
0.0
  0
LINE
  5
102
330
1F
100
AcDbEntity
  8
0
  6
Continuous
 62
     7
370
    25
100
AcDbLine
 10
402.7551771664
 20
222.7620294927
 30
0.0
 11
407.7483248402
 21
222.7620294927
 31
0.0
  0
LINE
  5
103
330
1F
100
AcDbEntity
  8
0
  6
Continuous
 62
     7
370
    25
100
AcDbLine
 10
407.7483248402
 20
222.7620294927
 30
0.0
 11
407.7483248402
 21
-230.5
 31
0.0
  0
LINE
  5
104
330
1F
100
AcDbEntity
  8
0
  6
Continuous
 62
     7
370
    25
100
AcDbLine
 10
397.7620294927
 20
227.7551771664
 30
0.0
 11
397.7620294927
 21
232.7483248402
 31
0.0
  0
LINE
  5
105
330
1F
100
AcDbEntity
  8
0
  6
Continuous
 62
     7
370
    25
100
AcDbLine
 10
397.7620294927
 20
227.7551771664
 30
0.0
 11
-397.7620294927
 21
227.7551771664
 31
0.0
  0
LINE
  5
106
330
1F
100
AcDbEntity
  8
0
  6
Continuous
 62
     7
370
    25
100
AcDbLine
 10
-397.7620294927
 20
227.7551771664
 30
0.0
 11
-397.7620294927
 21
232.7483248402
 31
0.0
  0
LINE
  5
107
330
1F
100
AcDbEntity
  8
0
  6
Continuous
 62
     7
370
    25
100
AcDbLine
 10
-397.7620294927
 20
232.7483248402
 30
0.0
 11
397.7620294927
 21
232.7483248402
 31
0.0
  0
LINE
  5
108
330
1F
100
AcDbEntity
  8
0
  6
Continuous
 62
     7
370
    25
100
AcDbLine
 10
-402.7551771664
 20
222.7620294927
 30
0.0
 11
-407.7483248402
 21
222.7620294927
 31
0.0
  0
LINE
  5
109
330
1F
100
AcDbEntity
  8
0
  6
Continuous
 62
     7
370
    25
100
AcDbLine
 10
219.5499999947
 20
165.4
 30
0.0
 11
-219.5499999947
 21
165.4
 31
0.0
  0
LINE
  5
10A
330
1F
100
AcDbEntity
  8
0
  6
Continuous
 62
     7
370
    25
100
AcDbLine
 10
-407.7483248402
 20
-230.5
 30
0.0
 11
-407.7483248402
 21
222.7620294927
 31
0.0
  0
LINE
  5
10B
330
1F
100
AcDbEntity
  8
0
  6
Continuous
 62
     7
370
    25
100
AcDbLine
 10
397.7620294927
 20
232.7483248402
 30
0.0
 11
398.2970785305
 21
233.283373878
 31
0.0
  0
LINE
  5
10C
330
1F
100
AcDbEntity
  8
0
  6
Continuous
 62
     7
370
    25
100
AcDbLine
 10
408.283373878
 20
223.2970785305
 30
0.0
 11
407.7483248402
 21
222.7620294927
 31
0.0
  0
LINE
  5
10D
330
1F
100
AcDbEntity
  8
0
  6
Continuous
 62
     7
370
    25
100
AcDbLine
 10
-407.7483248402
 20
222.7620294927
 30
0.0
 11
-408.283373878
 21
223.2970785305
 31
0.0
  0
LINE
  5
10E
330
1F
100
AcDbEntity
  8
0
  6
Continuous
 62
     7
370
    25
100
AcDbLine
 10
-398.2970785305
 20
233.283373878
 30
0.0
 11
-397.7620294927
 21
232.7483248402
 31
0.0
  0
LINE
  5
10F
330
1F
100
AcDbEntity
  8
0
  6
Continuous
 62
     7
370
    25
100
AcDbLine
 10
398.2970785305
 20
233.283373878
 30
0.0
 11
-398.2970785305
 21
233.283373878
 31
0.0
  0
LINE
  5
110
330
1F
100
AcDbEntity
  8
0
  6
Continuous
 62
     7
370
    25
100
AcDbLine
 10
-408.283373878
 20
223.2970785305
 30
0.0
 11
-408.283373878
 21
-230.5
 31
0.0
  0
LINE
  5
111
330
1F
100
AcDbEntity
  8
0
  6
Continuous
 62
     7
370
    25
100
AcDbLine
 10
408.283373878
 20
-230.5
 30
0.0
 11
408.283373878
 21
223.2970785305
 31
0.0
  0
LINE
  5
112
330
1F
100
AcDbEntity
  8
0
  6
Continuous
 62
     7
370
    25
100
AcDbLine
 10
229.2797629751
 20
118.4707798001
 30
0.0
 11
229.2797629751
 21
-67.5000000086
 31
0.0
  0
LINE
  5
113
330
1F
100
AcDbEntity
  8
0
  6
Continuous
 62
     7
370
    25
100
AcDbLine
 10
-212.9499999951
 20
134.6
 30
0.0
 11
212.9499999951
 21
134.6
 31
0.0
  0
LINE
  5
114
330
1F
100
AcDbEntity
  8
0
  6
Continuous
 62
     7
370
    25
100
AcDbLine
 10
-229.2797629751
 20
-67.4999999984
 30
0.0
 11
-229.2797629751
 21
118.4707798001
 31
0.0
  0
LINE
  5
115
330
1F
100
AcDbEntity
  8
0
  6
Continuous
 62
     7
370
    25
100
AcDbLine
 10
213.0222506281
 20
-83.8926683545
 30
0.0
 11
-213.0222506281
 21
-83.8926683545
 31
0.0
  0
LINE
  5
116
330
1F
100
AcDbEntity
  8
0
  6
Continuous
 62
     7
370
    25
100
AcDbLine
 10
408.2847443432
 20
223.2970785305
 30
0.0
 11
408.283373878
 21
223.2970785305
 31
0.0
  0
LINE
  5
117
330
1F
100
AcDbEntity
  8
0
  6
Continuous
 62
     7
370
    25
100
AcDbLine
 10
398.2970785305
 20
233.2847443432
 30
0.0
 11
398.2970785305
 21
233.283373878
 31
0.0
  0
LINE
  5
118
330
1F
100
AcDbEntity
  8
0
  6
Continuous
 62
     7
370
    25
100
AcDbLine
 10
-398.2970785305
 20
233.2847443432
 30
0.0
 11
-398.2970785305
 21
233.283373878
 31
0.0
  0
LINE
  5
119
330
1F
100
AcDbEntity
  8
0
  6
Continuous
 62
     7
370
    25
100
AcDbLine
 10
-408.2847443432
 20
223.2970785305
 30
0.0
 11
-408.283373878
 21
223.2970785305
 31
0.0
  0
LINE
  5
11A
330
1F
100
AcDbEntity
  8
0
  6
Continuous
 62
     7
370
    25
100
AcDbLine
 10
212.4999999987
 20
-83.8926683545
 30
0.0
 11
212.4999999987
 21
-74.0287291162
 31
0.0
  0
LINE
  5
11B
330
1F
100
AcDbEntity
  8
0
  6
Continuous
 62
     7
370
    25
100
AcDbLine
 10
229.2797629751
 20
-67.5000000086
 30
0.0
 11
219.5324397898
 21
-67.5000000009
 31
0.0
  0
LINE
  5
11C
330
1F
100
AcDbEntity
  8
0
  6
Continuous
 62
     7
370
    25
100
AcDbLine
 10
-219.5324397898
 20
-67.4999999984
 30
0.0
 11
-229.2797629751
 21
-67.4999999984
 31
0.0
  0
LINE
  5
11D
330
1F
100
AcDbEntity
  8
0
  6
Continuous
 62
     7
370
    25
100
AcDbLine
 10
-212.5
 20
-83.8926683545
 30
0.0
 11
-212.5
 21
-74.0287291162
 31
0.0
  0
LINE
  5
11E
330
1F
100
AcDbEntity
  8
0
  6
Continuous
 62
     7
370
    25
100
AcDbLine
 10
229.2797629751
 20
117.4999999984
 30
0.0
 11
219.5324397898
 21
117.4999999984
 31
0.0
  0
LINE
  5
11F
330
1F
100
AcDbEntity
  8
0
  6
Continuous
 62
     7
370
    25
100
AcDbLine
 10
212.4999999976
 20
125.0
 30
0.0
 11
212.4999999976
 21
134.6
 31
0.0
  0
LINE
  5
120
330
1F
100
AcDbEntity
  8
0
  6
Continuous
 62
     7
370
    25
100
AcDbLine
 10
-212.4999999988
 20
125.0
 30
0.0
 11
-212.4999999988
 21
134.6
 31
0.0
  0
LINE
  5
121
330
1F
100
AcDbEntity
  8
0
  6
Continuous
 62
     7
370
    25
100
AcDbLine
 10
-219.5324397898
 20
117.5000000009
 30
0.0
 11
-229.2797629751
 21
117.5000000009
 31
0.0
  0
LINE
  5
122
330
1F
100
AcDbEntity
  8
0
  6
Continuous
 62
     7
370
    25
100
AcDbLine
 10
-212.5
 20
-74.0287291162
 30
0.0
 11
212.4999999987
 21
-74.0287291162
 31
0.0
  0
LINE
  5
123
330
1F
100
AcDbEntity
  8
0
  6
Continuous
 62
     7
370
    25
100
AcDbLine
 10
219.5324397898
 20
-67.5000000009
 30
0.0
 11
219.5324397898
 21
117.4999999984
 31
0.0
  0
LINE
  5
124
330
1F
100
AcDbEntity
  8
0
  6
Continuous
 62
     7
370
    25
100
AcDbLine
 10
-219.5324397898
 20
117.5000000009
 30
0.0
 11
-219.5324397898
 21
-67.4999999984
 31
0.0
  0
LINE
  5
125
330
1F
100
AcDbEntity
  8
0
  6
Continuous
 62
     7
370
    25
100
AcDbLine
 10
212.4999999976
 20
125.0
 30
0.0
 11
-212.4999999988
 21
125.0
 31
0.0
  0
ARC
  5
126
330
1F
100
AcDbEntity
  8
0
  6
Continuous
 62
     7
370
    25
100
AcDbCircle
 10
-405.7496943651
 20
-230.5013695262
 30
0.0
 40
1.998630944352549
100
AcDbArc
 50
179.9607390874
 51
269.9606852078
  0
ARC
  5
127
330
1F
100
AcDbEntity
  8
0
  6
Continuous
 62
     7
370
    25
100
AcDbCircle
 10
405.7496943651
 20
-230.5013695262
 30
0.0
 40
1.998630944352519
100
AcDbArc
 50
270.0393147922
 51
0.0392609126
  0
ARC
  5
128
330
1F
100
AcDbEntity
  8
0
  6
Continuous
 62
     7
370
    25
100
AcDbCircle
 10
397.7643667674
 20
222.7643667674
 30
0.0
 40
4.990810946329362
100
AcDbArc
 50
359.9731674904
 51
90.0268325096
  0
ARC
  5
129
330
1F
100
AcDbEntity
  8
0
  6
Continuous
 62
     7
370
    25
100
AcDbCircle
 10
397.7483594019
 20
222.7483594019
 30
0.0
 40
9.999974781924278
100
AcDbArc
 50
0.0783240726
 51
89.9216759274
  0
ARC
  5
12A
330
1F
100
AcDbEntity
  8
0
  6
Continuous
 62
     7
370
    25
100
AcDbCircle
 10
-397.7643667674
 20
222.7643667674
 30
0.0
 40
4.990810946329362
100
AcDbArc
 50
89.9731674904
 51
180.0268325096
  0
ARC
  5
12B
330
1F
100
AcDbEntity
  8
0
  6
Continuous
 62
     7
370
    25
100
AcDbCircle
 10
-397.7483594019
 20
222.7483594019
 30
0.0
 40
9.999974781924278
100
AcDbArc
 50
90.0783240726
 51
179.9216759274
  0
ARC
  5
12C
330
1F
100
AcDbEntity
  8
0
  6
Continuous
 62
     7
370
    25
100
AcDbCircle
 10
398.2980911517
 20
223.2980911517
 30
0.0
 40
9.985282777608823
100
AcDbArc
 50
359.9941895561
 51
90.0058104439
  0
ARC
  5
12D
330
1F
100
AcDbEntity
  8
0
  6
Continuous
 62
     7
370
    25
100
AcDbCircle
 10
-398.2980911517
 20
223.2980911517
 30
0.0
 40
9.985282777608823
100
AcDbArc
 50
89.9941895561
 51
180.0058104439
  0
ARC
  5
12E
330
1F
100
AcDbEntity
  8
0
  6
Continuous
 62
     7
370
    25
100
AcDbCircle
 10
-406.283372899
 20
-230.499999021
 30
0.0
 40
2.000000979012851
100
AcDbArc
 50
180.0000280466
 51
270.0000258329
  0
ARC
  5
12F
330
1F
100
AcDbEntity
  8
0
  6
Continuous
 62
     7
370
    25
100
AcDbCircle
 10
406.2833729376
 20
-230.4999990596
 30
0.0
 40
2.000000940376929
100
AcDbArc
 50
269.9999730602
 51
359.9999730602
  0
SPLINE
  5
130
330
1B
100
AcDbEntity
 67
     1
  8
0
  6
Continuous
 62
     7
370
    25
100
AcDbSpline
210
0.0
220
0.0
230
1.0
 70
     8
 71
     3
 72
    12
 73
     8
 74
     0
 42
0.000000001
 43
0.00000001
 40
0.0
 40
0.0
 40
0.0
 40
0.0
 40
0.1661616047394814
 40
0.3054617133030912
 40
0.5637806676427274
 40
0.8190147201217933
 40
1.0
 40
1.0
 40
1.0
 40
1.0
 10
255.4054729646269
 20
1.974578251727144
 30
0.0
 10
255.5089879081993
 20
2.193112124344796
 30
0.0
 10
255.6992836872132
 20
2.59485193210128
 30
0.0
 10
256.2484240127599
 20
3.354016660284911
 30
0.0
 10
257.0776724666188
 20
4.08451542659595
 30
0.0
 10
258.1006305618945
 20
4.65061237624391
 30
0.0
 10
258.7606418382909
 20
4.830958518669701
 30
0.0
 10
259.0344773075625
 20
4.90578325622891
 30
0.0
  0
LWPOLYLINE
  5
137
330
1B
100
AcDbEntity
 67
     1
  8
0
  6
Continuous
 62
     7
370
    25
100
AcDbPolyline
 90
        3
 70
   128
 43
0.0
 10
-255.0003112684
 20
0.1026117888
 10
-255.0000273894
 20
0.0920582664
 10
-254.9998433129
 20
0.0885084113
  0
SPLINE
  5
138
330
1B
100
AcDbEntity
 67
     1
  8
0
  6
Continuous
 62
     7
370
    25
100
AcDbSpline
210
0.0
220
0.0
230
1.0
 70
     8
 71
     3
 72
     8
 73
     4
 74
     0
 42
0.000000001
 43
0.00000001
 40
0.0
 40
0.0
 40
0.0
 40
0.0
 40
1.0
 40
1.0
 40
1.0
 40
1.0
 10
-254.9998433129474
 20
0.0885084112667994
 30
0.0
 10
-255.0112984677558
 20
0.7355293988770273
 30
0.0
 10
-255.1499142077697
 20
1.380055669504998
 30
0.0
 10
-255.4054729646274
 20
1.974578251728004
 30
0.0
  0
SPLINE
  5
139
330
1B
100
AcDbEntity
 67
     1
  8
0
  6
Continuous
 62
     7
370
    25
100
AcDbSpline
210
0.0
220
0.0
230
1.0
 70
     8
 71
     3
 72
     8
 73
     4
 74
     0
 42
0.000000001
 43
0.00000001
 40
0.0
 40
0.0
 40
0.0
 40
0.0
 40
1.0
 40
1.0
 40
1.0
 40
1.0
 10
-258.1061052327406
 20
4.627820514258044
 30
0.0
 10
-258.7050584808834
 20
4.872815178524434
 30
0.0
 10
-259.3519374943747
 20
5.000000000000004
 30
0.0
 10
-259.9990598776839
 20
5.000000000000004
 30
0.0
  0
SPLINE
  5
13A
330
1B
100
AcDbEntity
 67
     1
  8
0
  6
Continuous
 62
     7
370
    25
100
AcDbSpline
210
0.0
220
0.0
230
1.0
 70
     8
 71
     3
 72
    24
 73
    20
 74
     0
 42
0.000000001
 43
0.00000001
 40
0.0
 40
0.0
 40
0.0
 40
0.0
 40
0.0145693558107998
 40
0.0291395654047702
 40
0.0437114824162846
 40
0.0582767576742508
 40
0.0729608512240658
 40
0.0879121619595827
 40
0.1149216026121775
 40
0.1443362464671137
 40
0.1779936510946266
 40
0.2171385380703305
 40
0.2756860919919216
 40
0.3465786834997553
 40
0.4302201941888361
 40
0.5268548197978307
 40
0.6713737617579697
 40
0.8290262887193325
 40
1.0
 40
1.0
 40
1.0
 40
1.0
 10
-259.9990598776837
 20
5.000000000000004
 30
0.0
 10
-259.9991364682064
 20
5.000642895592169
 30
0.0
 10
-259.99928965374
 20
5.001928724451029
 30
0.0
 10
-260.0000173095694
 20
5.012313638688148
 30
0.0
 10
-260.002506218796
 20
5.028793551099017
 30
0.0
 10
-260.0012009884918
 20
5.051998954608742
 30
0.0
 10
-259.9899234641459
 20
5.08154802956684
 30
0.0
 10
-259.9670195888909
 20
5.126635570967056
 30
0.0
 10
-259.9111988481727
 20
5.193271734041827
 30
0.0
 10
-259.7985901690462
 20
5.276356345477212
 30
0.0
 10
-259.6437137196239
 20
5.360053756046964
 30
0.0
 10
-259.4239255879945
 20
5.449508935415445
 30
0.0
 10
-259.1264403565765
 20
5.541255305664225
 30
0.0
 10
-258.7411070236997
 20
5.634460018712165
 30
0.0
 10
-258.2804748102805
 20
5.721914970082661
 30
0.0
 10
-257.6802333295598
 20
5.811748149405674
 30
0.0
 10
-256.9392601655104
 20
5.894912449939324
 30
0.0
 10
-256.0572233253268
 20
5.963405204910413
 30
0.0
 10
-255.4433292000747
 20
5.987476484062906
 30
0.0
 10
-255.1239397396066
 20
6.000000000000005
 30
0.0
  0
SPLINE
  5
13B
330
1B
100
AcDbEntity
 67
     1
  8
0
  6
Continuous
 62
     7
370
    25
100
AcDbSpline
210
0.0
220
0.0
230
1.0
 70
     8
 71
     3
 72
    37
 73
    33
 74
     0
 42
0.000000001
 43
0.00000001
 40
0.0
 40
0.0
 40
0.0
 40
0.0
 40
0.0275370259820935
 40
0.0575896537878777
 40
0.0901890155734085
 40
0.1253594811988462
 40
0.1954813066519602
 40
0.2507833529872632
 40
0.2920235667682893
 40
0.3241628808773298
 40
0.3502726264222544
 40
0.3757108876790556
 40
0.3914819438643231
 40
0.4123369688305099
 40
0.4384908149534457
 40
0.4723632188397884
 40
0.4932483368205539
 40
0.5011462071432587
 40
0.529533617894073
 40
0.557609777505122
 40
0.5854296985227856
 40
0.6130499246244533
 40
0.6405282322859519
 40
0.6679232959202365
 40
0.6952943252883026
 40
0.7227006859252612
 40
0.750201514560276
 40
0.8005781182483038
 40
0.8504096258737606
 40
0.9000312458681217
 40
0.9497824293219603
 40
1.0
 40
1.0
 40
1.0
 40
1.0
 10
-255.1239397396066
 20
6.000000000000005
 30
0.0
 10
-255.1912075174127
 20
5.974316337615193
 30
0.0
 10
-255.3318882153737
 20
5.920602722146798
 30
0.0
 10
-255.5481216859705
 20
5.826374379722457
 30
0.0
 10
-255.7798430534039
 20
5.718083575873237
 30
0.0
 10
-256.102512062523
 20
5.557216901715581
 30
0.0
 10
-256.4717826401831
 20
5.356911628174782
 30
0.0
 10
-256.8379423080113
 20
5.119136185954886
 30
0.0
 10
-257.0932732002557
 20
4.897846017365176
 30
0.0
 10
-257.249921301095
 20
4.685720455584449
 30
0.0
 10
-257.3054246803555
 20
4.465231355929952
 30
0.0
 10
-257.2507217540491
 20
4.289311780290017
 30
0.0
 10
-257.1538969319833
 20
4.15860405644329
 30
0.0
 10
-257.0419082884786
 20
4.038227940572694
 30
0.0
 10
-256.8857288388363
 20
3.895529599968834
 30
0.0
 10
-256.7264133829049
 20
3.756376389391663
 30
0.0
 10
-256.603965135259
 20
3.647559322007013
 30
0.0
 10
-256.491878878902
 20
3.548656849149845
 30
0.0
 10
-256.3720485702216
 20
3.430343991606036
 30
0.0
 10
-256.2202167724495
 20
3.270601073266821
 30
0.0
 10
-256.0774828896373
 20
3.105233248002104
 30
0.0
 10
-255.9432506484842
 20
2.934908921787646
 30
0.0
 10
-255.8176816811584
 20
2.759452723787179
 30
0.0
 10
-255.7007338180254
 20
2.578914124288525
 30
0.0
 10
-255.5924293176368
 20
2.393280225714917
 30
0.0
 10
-255.4927326047193
 20
2.202567206337158
 30
0.0
 10
-255.3767389378494
 20
1.952842062465501
 30
0.0
 10
-255.2550705832755
 20
1.641494292118795
 30
0.0
 10
-255.1422114419107
 20
1.265884851162635
 30
0.0
 10
-255.061782034988
 20
0.8838035642133313
 30
0.0
 10
-255.0109316018779
 20
0.4953497700799364
 30
0.0
 10
-255.0038623729621
 20
0.2339309841892512
 30
0.0
 10
-255.0003112683615
 20
0.1026117887963224
 30
0.0
  0
LWPOLYLINE
  5
13C
330
1B
100
AcDbEntity
 67
     1
  8
0
  6
Continuous
 62
     7
370
    25
100
AcDbPolyline
 90
        3
 70
   128
 43
0.0
 10
254.9998433129
 20
0.0885084113
 10
255.0000283118
 20
0.0920515082
 10
255.0003142944
 20
0.102589369
  0
SPLINE
  5
13D
330
1B
100
AcDbEntity
 67
     1
  8
0
  6
Continuous
 62
     7
370
    25
100
AcDbSpline
210
0.0
220
0.0
230
1.0
 70
     8
 71
     3
 72
    33
 73
    29
 74
     0
 42
0.000000001
 43
0.00000001
 40
0.0
 40
0.0
 40
0.0
 40
0.0
 40
0.027908161650474
 40
0.0556271412586474
 40
0.0832133070586129
 40
0.1107238436906669
 40
0.1382164077260558
 40
0.1657487686475516
 40
0.1933784463112308
 40
0.2211623561675225
 40
0.2491564729641081
 40
0.3313431517767874
 40
0.4138097775498074
 40
0.4981305192411029
 40
0.5160438219072025
 40
0.5609162309884779
 40
0.5870252241386043
 40
0.607828601337282
 40
0.623528675981875
 40
0.6492710435119424
 40
0.6754616423841495
 40
0.7075590549328631
 40
0.7487362179624585
 40
0.8038130660765412
 40
0.8743854619404248
 40
0.9210346754026595
 40
0.9628850093702218
 40
1.0
 40
1.0
 40
1.0
 40
1.0
 10
255.000314294447
 20
0.1025893690387719
 30
0.0
 10
255.0015453214854
 20
0.1755519344255885
 30
0.0
 10
255.0039990307556
 20
0.3209824712770426
 30
0.0
 10
255.0199825075493
 20
0.5380517758988013
 30
0.0
 10
255.0449937072971
 20
0.7531681512645688
 30
0.0
 10
255.079899013078
 20
0.9663254753508876
 30
0.0
 10
255.1244668269672
 20
1.177521838462064
 30
0.0
 10
255.178761450822
 20
1.386754030242007
 30
0.0
 10
255.2427525654649
 20
1.594020254264847
 30
0.0
 10
255.316490643447
 20
1.799315413992641
 30
0.0
 10
255.453249157914
 20
2.133129040605655
 30
0.0
 10
255.6862692538935
 20
2.581801167102743
 30
0.0
 10
256.0669597476597
 20
3.111915839347321
 30
0.0
 10
256.3977201100379
 20
3.466302202003973
 30
0.0
 10
256.6859588674301
 20
3.720931732327834
 30
0.0
 10
256.860721533108
 20
3.874088532135153
 30
0.0
 10
257.0381224261598
 20
4.03578609765079
 30
0.0
 10
257.1501190086261
 20
4.155543704125727
 30
0.0
 10
257.2478945400055
 20
4.286035488178339
 30
0.0
 10
257.3051079927349
 20
4.46195288547431
 30
0.0
 10
257.2522595075991
 20
4.684163902993713
 30
0.0
 10
257.0966364549113
 20
4.897203270112948
 30
0.0
 10
256.8422070675949
 20
5.11822220243735
 30
0.0
 10
256.4752321727292
 20
5.355507750151256
 30
0.0
 10
256.0788346538627
 20
5.569931514002424
 30
0.0
 10
255.7057511636575
 20
5.753674722565341
 30
0.0
 10
255.4069244055768
 20
5.890238072411624
 30
0.0
 10
255.2144199662098
 20
5.964905221820096
 30
0.0
 10
255.1239397396073
 20
6.000000000000005
 30
0.0
  0
SPLINE
  5
13E
330
1B
100
AcDbEntity
 67
     1
  8
0
  6
Continuous
 62
     7
370
    25
100
AcDbSpline
210
0.0
220
0.0
230
1.0
 70
     8
 71
     3
 72
    23
 73
    19
 74
     0
 42
0.000000001
 43
0.00000001
 40
0.0
 40
0.0
 40
0.0
 40
0.0
 40
0.1038907030212108
 40
0.2030074392236864
 40
0.2973847176494881
 40
0.3870625100709462
 40
0.4720874049093344
 40
0.5685547557015774
 40
0.6521331961895943
 40
0.7230624824113125
 40
0.7817375812465972
 40
0.8332259811856
 40
0.8754235055707257
 40
0.9120172362150368
 40
0.9326055762839995
 40
0.9562263754047519
 40
0.9781093951632983
 40
0.9999999999999999
 40
0.9999999999999999
 40
0.9999999999999999
 40
0.9999999999999999
 10
255.1239397396073
 20
6.000000000000005
 30
0.0
 10
255.3179646820246
 20
5.992950125457183
 30
0.0
 10
255.6970987677531
 20
5.979174330933063
 30
0.0
 10
256.2519448274473
 20
5.946812423273842
 30
0.0
 10
256.7796049650189
 20
5.90636391852227
 30
0.0
 10
257.2800605281533
 20
5.857188390761131
 30
0.0
 10
257.7830783843949
 20
5.7962286351734
 30
0.0
 10
258.2728370077111
 20
5.72319066065824
 30
0.0
 10
258.7330415114122
 20
5.636171288688818
 30
0.0
 10
259.1185877179956
 20
5.543333045086419
 30
0.0
 10
259.4382759052438
 20
5.445457142351256
 30
0.0
 10
259.6920659168576
 20
5.339480271956701
 30
0.0
 10
259.8789998908308
 20
5.224947986206055
 30
0.0
 10
259.9684510137175
 20
5.129264599356059
 30
0.0
 10
259.9957361305292
 20
5.06610115676813
 30
0.0
 10
260.0031011682117
 20
5.028339756417227
 30
0.0
 10
260.0029364684763
 20
5.00435512139806
 30
0.0
 10
260.0003522238803
 20
5.00145187482387
 30
0.0
 10
259.9990598776837
 20
5.000000000000004
 30
0.0
  0
SPLINE
  5
13F
330
1B
100
AcDbEntity
 67
     1
  8
0
  6
Continuous
 62
     7
370
    25
100
AcDbSpline
210
0.0
220
0.0
230
1.0
 70
     8
 71
     3
 72
    10
 73
     6
 74
     0
 42
0.000000001
 43
0.00000001
 40
0.0
 40
0.0
 40
0.0
 40
0.0
 40
0.234375
 40
0.234375
 40
0.25
 40
0.25
 40
0.25
 40
0.25
 10
254.9998433129472
 20
0.0885084112661749
 30
0.0
 10
255.0105843713776
 20
0.6951951256734673
 30
0.0
 10
255.1330841926532
 20
1.299493208003086
 30
0.0
 10
255.3739849363911
 20
1.90006803761901
 30
0.0
 10
255.3895005423234
 20
1.937420590338621
 30
0.0
 10
255.4054729646271
 20
1.97457825172756
 30
0.0
  0
LWPOLYLINE
  5
17A
330
1B
100
AcDbEntity
 67
     1
  8
0
  6
Continuous
 62
     7
370
    25
100
AcDbPolyline
 90
        2
 70
   128
 43
0.0
 10
259.9990598777
 20
5.0
 10
259.9990598777
 20
5.0
  0
LWPOLYLINE
  5
17B
330
1B
100
AcDbEntity
 67
     1
  8
0
  6
Continuous
 62
     7
370
    25
100
AcDbPolyline
 90
        2
 70
   128
 43
0.0
 10
-259.9990598777
 20
5.0
 10
-259.9990598777
 20
5.0
  0
LWPOLYLINE
  5
17E
330
1B
100
AcDbEntity
 67
     1
  8
0
  6
Continuous
 62
     7
370
    25
100
AcDbPolyline
 90
        9
 70
   128
 43
0.0
 10
-30.0
 20
-122.3412044417
 10
-29.903926402
 20
-122.5105898362
 10
-29.6193976626
 20
-122.6734658449
 10
-29.1573480615
 20
-122.8235732343
 10
-28.5355339059
 20
-122.9551434615
 10
-27.7778511651
 20
-123.0631203565
 10
-26.9134171618
 20
-123.1433544277
 10
-25.9754516101
 20
-123.1927623248
 10
-25.0
 20
-123.20944533
  0
LWPOLYLINE
  5
17F
330
1B
100
AcDbEntity
 67
     1
  8
0
  6
Continuous
 62
     7
370
    25
100
AcDbPolyline
 90
        9
 70
   128
 43
0.0
 10
25.0
 20
-123.20944533
 10
25.9754516101
 20
-123.1927623248
 10
26.9134171618
 20
-123.1433544277
 10
27.7778511651
 20
-123.0631203565
 10
28.5355339059
 20
-122.9551434615
 10
29.1573480615
 20
-122.8235732343
 10
29.6193976626
 20
-122.6734658449
 10
29.903926402
 20
-122.5105898362
 10
30.0
 20
-122.3412044417
  0
LWPOLYLINE
  5
181
330
1B
100
AcDbEntity
 67
     1
  8
0
  6
Continuous
 62
     7
370
    25
100
AcDbPolyline
 90
        9
 70
   128
 43
0.0
 10
-35.0
 20
-101.4729635533
 10
-34.0245483899
 20
-101.4896465586
 10
-33.0865828382
 20
-101.5390544557
 10
-32.2221488349
 20
-101.6192885269
 10
-31.4644660941
 20
-101.7272654218
 10
-30.8426519385
 20
-101.858835649
 10
-30.3806023374
 20
-102.0089430384
 10
-30.096073598
 20
-102.1718190472
 10
-30.0
 20
-102.3412044417
  0
LWPOLYLINE
  5
189
330
1B
100
AcDbEntity
 67
     1
  8
0
  6
Continuous
 62
     7
370
    25
100
AcDbPolyline
 90
        9
 70
   128
 43
0.0
 10
35.0
 20
-101.4729635533
 10
34.0245483899
 20
-101.4896465586
 10
33.0865828382
 20
-101.5390544557
 10
32.2221488349
 20
-101.6192885269
 10
31.4644660941
 20
-101.7272654218
 10
30.8426519385
 20
-101.858835649
 10
30.3806023374
 20
-102.0089430384
 10
30.096073598
 20
-102.1718190472
 10
30.0
 20
-102.3412044417
  0
LWPOLYLINE
  5
191
330
1B
100
AcDbEntity
 67
     1
  8
0
  6
Continuous
 62
     7
370
    25
100
AcDbPolyline
 90
        9
 70
   128
 43
0.0
 10
-24.375
 20
-149.0
 10
-24.3870091997
 20
-148.804909678
 10
-24.4225752922
 20
-148.6173165676
 10
-24.4803314923
 20
-148.444429767
 10
-24.5580582618
 20
-148.2928932188
 10
-24.6527686044
 20
-148.1685303877
 10
-24.7608228548
 20
-148.0761204675
 10
-24.8780685487
 20
-148.0192147196
 10
-25.0
 20
-148.0
  0
LWPOLYLINE
  5
192
330
1B
100
AcDbEntity
 67
     1
  8
0
  6
Continuous
 62
     7
370
    25
100
AcDbPolyline
 90
        9
 70
   128
 43
0.0
 10
24.375
 20
-149.0
 10
24.3870091997
 20
-148.804909678
 10
24.4225752922
 20
-148.6173165676
 10
24.4803314923
 20
-148.444429767
 10
24.5580582618
 20
-148.2928932188
 10
24.6527686044
 20
-148.1685303877
 10
24.7608228548
 20
-148.0761204675
 10
24.8780685487
 20
-148.0192147196
 10
25.0
 20
-148.0
  0
SPLINE
  5
194
330
1B
100
AcDbEntity
 67
     1
  8
0
  6
Continuous
 62
     7
370
    25
100
AcDbSpline
210
0.0
220
0.0
230
1.0
 70
     8
 71
     3
 72
    22
 73
    18
 74
     0
 42
0.000000001
 43
0.00000001
 40
0.0
 40
0.0
 40
0.0
 40
0.0
 40
0.062500000000003
 40
0.062500000000003
 40
0.125000000000006
 40
0.125000000000006
 40
0.2500000000000051
 40
0.2500000000000051
 40
0.3750000000000041
 40
0.3750000000000041
 40
0.5000000000000032
 40
0.5000000000000032
 40
0.6250000000000022
 40
0.6250000000000022
 40
0.7500000000000012
 40
0.7500000000000012
 40
1.0
 40
1.0
 40
1.0
 40
1.0
 10
30.22499999999999
 20
-143.0
 30
0.0
 10
30.22499999999999
 20
-143.2361917355859
 30
0.0
 10
30.21145680393276
 20
-143.4689524397559
 30
0.0
 10
30.15898478801311
 20
-143.9280810316055
 30
0.0
 10
30.11963419538133
 20
-144.1561170819096
 30
0.0
 10
29.96733745530036
 20
-144.8185968812221
 30
0.0
 10
29.82312054235231
 20
-145.2260964307339
 30
0.0
 10
29.46441160104212
 20
-145.9886014870896
 30
0.0
 10
29.25630143195675
 20
-146.3299481620583
 30
0.0
 10
28.79308930173562
 20
-146.9521993260832
 30
0.0
 10
28.53597537789035
 20
-147.2337864275665
 30
0.0
 10
27.99513928354484
 20
-147.7277724807759
 30
0.0
 10
27.7094871621932
 20
-147.9430526752796
 30
0.0
 10
27.10815632180012
 20
-148.3171365029763
 30
0.0
 10
26.79086355905613
 20
-148.4764651316765
 30
0.0
 10
25.80099757603364
 20
-148.8639355592985
 30
0.0
 10
25.10714042907064
 20
-149.0
 30
0.0
 10
24.37499999999999
 20
-149.0
 30
0.0
  0
SPLINE
  5
197
330
1B
100
AcDbEntity
 67
     1
  8
0
  6
Continuous
 62
     7
370
    25
100
AcDbSpline
210
0.0
220
0.0
230
1.0
 70
     8
 71
     3
 72
    26
 73
    22
 74
     0
 42
0.000000001
 43
0.00000001
 40
0.0
 40
0.0
 40
0.0
 40
0.0
 40
0.1250000000000013
 40
0.1250000000000013
 40
0.2500000000000026
 40
0.2500000000000026
 40
0.3750000000000039
 40
0.3750000000000039
 40
0.5000000000000052
 40
0.5000000000000052
 40
0.6250000000000066
 40
0.6250000000000066
 40
0.6875000000000054
 40
0.6875000000000054
 40
0.7500000000000042
 40
0.7500000000000042
 40
0.8125000000000031
 40
0.8125000000000031
 40
0.875000000000002
 40
0.875000000000002
 40
1.0
 40
1.0
 40
1.0
 40
1.0
 10
-24.37500000000001
 20
-149.0
 30
0.0
 10
-24.74092870180032
 20
-149.0000000000001
 30
0.0
 10
-25.09786457032089
 20
-148.9651127021993
 30
0.0
 10
-25.79499136614084
 20
-148.8319068764122
 30
0.0
 10
-26.13713567369537
 20
-148.7327367513271
 30
0.0
 10
-26.79545064939548
 20
-148.4742851692644
 30
0.0
 10
-27.10990030895413
 20
-148.3161917323262
 30
0.0
 10
-27.71107601232489
 20
-147.9419233314484
 30
0.0
 10
-27.9978226560603
 20
-147.7258586252433
 30
0.0
 10
-28.54272577406205
 20
-147.2270743418424
 30
0.0
 10
-28.79699767725971
 20
-146.9474351986223
 30
0.0
 10
-29.14259627590518
 20
-146.4824454206696
 30
0.0
 10
-29.25215087047102
 20
-146.3194615516866
 30
0.0
 10
-29.45898902302428
 20
-145.9751416717644
 30
0.0
 10
-29.55681024177935
 20
-145.7925914452064
 30
0.0
 10
-29.73497656881938
 20
-145.4130526711878
 30
0.0
 10
-29.81550669284595
 20
-145.2160678480281
 30
0.0
 10
-29.95784095079637
 20
-144.8056753869582
 30
0.0
 10
-30.02002726369593
 20
-144.5905833022991
 30
0.0
 10
-30.17144120131477
 20
-143.928335696829
 30
0.0
 10
-30.22500000000001
 20
-143.4724762045376
 30
0.0
 10
-30.22500000000001
 20
-143.0
 30
0.0
  0
LINE
  5
1C9
330
1B
100
AcDbEntity
 67
     1
  8
0
  6
Continuous
 62
     7
370
    25
100
AcDbLine
 10
39.0
 20
-152.0
 30
0.0
 11
39.0
 21
-123.0
 31
0.0
  0
LINE
  5
1CA
330
1B
100
AcDbEntity
 67
     1
  8
0
  6
Continuous
 62
     7
370
    25
100
AcDbLine
 10
-39.0
 20
-123.0
 30
0.0
 11
-39.0
 21
-152.0
 31
0.0
  0
LINE
  5
1CB
330
1B
100
AcDbEntity
 67
     1
  8
0
  6
Continuous
 62
     7
370
    25
100
AcDbLine
 10
258.2110189109
 20
4.6484479069
 30
0.0
 11
259.9990598777
 21
5.0
 31
0.0
  0
LINE
  5
1CC
330
1B
100
AcDbEntity
 67
     1
  8
0
  6
Continuous
 62
     7
370
    25
100
AcDbLine
 10
-393.3385244685
 20
2.0
 30
0.0
 11
-393.3385244685
 21
3.0
 31
0.0
  0
LINE
  5
1CD
330
1B
100
AcDbEntity
 67
     1
  8
0
  6
Continuous
 62
     7
370
    25
100
AcDbLine
 10
-406.2833719972
 20
1.0
 30
0.0
 11
-394.3385244685
 21
1.0
 31
0.0
  0
LINE
  5
1CE
330
1B
100
AcDbEntity
 67
     1
  8
0
  6
Continuous
 62
     7
370
    25
100
AcDbLine
 10
-405.7510657707
 20
11.1570078687
 30
0.0
 11
-406.2833719972
 21
1.0
 31
0.0
  0
LINE
  5
1CF
330
1B
100
AcDbEntity
 67
     1
  8
0
  6
Continuous
 62
     7
370
    25
100
AcDbLine
 10
402.7551771664
 20
14.0
 30
0.0
 11
-402.7551771664
 21
14.0
 31
0.0
  0
LINE
  5
1D0
330
1B
100
AcDbEntity
 67
     1
  8
0
  6
Continuous
 62
     7
370
    25
100
AcDbLine
 10
406.2833719972
 20
1.0
 30
0.0
 11
405.7510657707
 21
11.1570078687
 31
0.0
  0
LINE
  5
1D1
330
1B
100
AcDbEntity
 67
     1
  8
0
  6
Continuous
 62
     7
370
    25
100
AcDbLine
 10
394.3385244685
 20
1.0
 30
0.0
 11
406.2833719972
 21
1.0
 31
0.0
  0
LINE
  5
1D2
330
1B
100
AcDbEntity
 67
     1
  8
0
  6
Continuous
 62
     7
370
    25
100
AcDbLine
 10
393.3385244685
 20
3.0
 30
0.0
 11
393.3385244685
 21
2.0
 31
0.0
  0
LINE
  5
1D3
330
1B
100
AcDbEntity
 67
     1
  8
0
  6
Continuous
 62
     7
370
    25
100
AcDbLine
 10
255.1239397396
 20
6.0
 30
0.0
 11
390.3385244685
 21
6.0
 31
0.0
  0
LINE
  5
1D4
330
1B
100
AcDbEntity
 67
     1
  8
0
  6
Continuous
 62
     7
370
    25
100
AcDbLine
 10
254.9776904963
 20
-0.103840599
 30
0.0
 11
227.5
 21
-128.0
 31
0.0
  0
LINE
  5
1D5
330
1B
100
AcDbEntity
 67
     1
  8
0
  6
Continuous
 62
     7
370
    25
100
AcDbLine
 10
227.5
 20
-128.0
 30
0.0
 11
39.0
 21
-128.0
 31
0.0
  0
LINE
  5
1D6
330
1B
100
AcDbEntity
 67
     1
  8
0
  6
Continuous
 62
     7
370
    25
100
AcDbLine
 10
-39.0
 20
-128.0
 30
0.0
 11
-227.5
 21
-128.0
 31
0.0
  0
LINE
  5
1D7
330
1B
100
AcDbEntity
 67
     1
  8
0
  6
Continuous
 62
     7
370
    25
100
AcDbLine
 10
-227.5
 20
-128.0
 30
0.0
 11
-254.9776904963
 21
-0.103840599
 31
0.0
  0
LINE
  5
1D8
330
1B
100
AcDbEntity
 67
     1
  8
0
  6
Continuous
 62
     7
370
    25
100
AcDbLine
 10
-390.3385244685
 20
6.0
 30
0.0
 11
-255.1239397396
 21
6.0
 31
0.0
  0
LINE
  5
1D9
330
1B
100
AcDbEntity
 67
     1
  8
0
  6
Continuous
 62
     7
370
    25
100
AcDbLine
 10
-259.9990598777
 20
5.0
 30
0.0
 11
-390.3385244685
 21
5.0
 31
0.0
  0
LINE
  5
1DA
330
1B
100
AcDbEntity
 67
     1
  8
0
  6
Continuous
 62
     7
370
    25
100
AcDbLine
 10
390.3385244685
 20
5.0
 30
0.0
 11
259.9990598777
 21
5.0
 31
0.0
  0
LINE
  5
1DB
330
1B
100
AcDbEntity
 67
     1
  8
0
  6
Continuous
 62
     7
370
    25
100
AcDbLine
 10
-405.7510657707
 20
11.1570078687
 30
0.0
 11
-407.7483248402
 21
11.2616797812
 31
0.0
  0
LINE
  5
1DC
330
1B
100
AcDbEntity
 67
     1
  8
0
  6
Continuous
 62
     7
370
    25
100
AcDbLine
 10
-408.283373878
 20
1.0523359562
 30
0.0
 11
-406.2833719972
 21
1.0
 31
0.0
  0
LINE
  5
1DD
330
1B
100
AcDbEntity
 67
     1
  8
0
  6
Continuous
 62
     7
370
    25
100
AcDbLine
 10
-408.283373878
 20
1.0523359562
 30
0.0
 11
-407.7483248402
 21
11.2616797812
 31
0.0
  0
LINE
  5
1DE
330
1B
100
AcDbEntity
 67
     1
  8
0
  6
Continuous
 62
     7
370
    25
100
AcDbLine
 10
407.2847443432
 20
0.0
 30
0.0
 11
254.9943437112
 21
0.0
 31
0.0
  0
LINE
  5
1DF
330
1B
100
AcDbEntity
 67
     1
  8
0
  6
Continuous
 62
     7
370
    25
100
AcDbLine
 10
394.3385244685
 20
0.0
 30
0.0
 11
394.3385244685
 21
1.0
 31
0.0
  0
LINE
  5
1E0
330
1B
100
AcDbEntity
 67
     1
  8
0
  6
Continuous
 62
     7
370
    25
100
AcDbLine
 10
406.2833719972
 20
0.0
 30
0.0
 11
406.2833719972
 21
1.0
 31
0.0
  0
LINE
  5
1E1
330
1B
100
AcDbEntity
 67
     1
  8
0
  6
Continuous
 62
     7
370
    25
100
AcDbLine
 10
-402.7551771664
 20
14.0
 30
0.0
 11
-402.7551771664
 21
16.0
 31
0.0
  0
LINE
  5
1E2
330
1B
100
AcDbEntity
 67
     1
  8
0
  6
Continuous
 62
     7
370
    25
100
AcDbLine
 10
406.2833719972
 20
1.0
 30
0.0
 11
408.283373878
 21
1.0523359562
 31
0.0
  0
LINE
  5
1E3
330
1B
100
AcDbEntity
 67
     1
  8
0
  6
Continuous
 62
     7
370
    25
100
AcDbLine
 10
392.3385244685
 20
2.0
 30
0.0
 11
392.3385244685
 21
3.0
 31
0.0
  0
LINE
  5
1E4
330
1B
100
AcDbEntity
 67
     1
  8
0
  6
Continuous
 62
     7
370
    25
100
AcDbLine
 10
393.3385244685
 20
3.0
 30
0.0
 11
256.1071714723
 21
3.0
 31
0.0
  0
LINE
  5
1E5
330
1B
100
AcDbEntity
 67
     1
  8
0
  6
Continuous
 62
     7
370
    25
100
AcDbLine
 10
255.4228691266
 20
2.0
 30
0.0
 11
393.3385244685
 21
2.0
 31
0.0
  0
LINE
  5
1E6
330
1B
100
AcDbEntity
 67
     1
  8
0
  6
Continuous
 62
     7
370
    25
100
AcDbLine
 10
-402.7551771664
 20
16.0
 30
0.0
 11
402.7551771664
 21
16.0
 31
0.0
  0
LINE
  5
1E7
330
1B
100
AcDbEntity
 67
     1
  8
0
  6
Continuous
 62
     7
370
    25
100
AcDbLine
 10
402.7551771664
 20
14.0
 30
0.0
 11
402.7551771664
 21
16.0
 31
0.0
  0
LINE
  5
1E8
330
1B
100
AcDbEntity
 67
     1
  8
0
  6
Continuous
 62
     7
370
    25
100
AcDbLine
 10
405.7510657707
 20
11.1570078687
 30
0.0
 11
407.7483248402
 21
11.2616797812
 31
0.0
  0
LINE
  5
1E9
330
1B
100
AcDbEntity
 67
     1
  8
0
  6
Continuous
 62
     7
370
    25
100
AcDbLine
 10
407.7483248402
 20
11.2616797812
 30
0.0
 11
408.283373878
 21
1.0523359562
 31
0.0
  0
LINE
  5
1EA
330
1B
100
AcDbEntity
 67
     1
  8
0
  6
Continuous
 62
     7
370
    25
100
AcDbLine
 10
-392.3385244685
 20
3.0
 30
0.0
 11
-392.3385244685
 21
2.0
 31
0.0
  0
LINE
  5
1EB
330
1B
100
AcDbEntity
 67
     1
  8
0
  6
Continuous
 62
     7
370
    25
100
AcDbLine
 10
-393.3385244685
 20
2.0
 30
0.0
 11
-255.4228691266
 21
2.0
 31
0.0
  0
LINE
  5
1EC
330
1B
100
AcDbEntity
 67
     1
  8
0
  6
Continuous
 62
     7
370
    25
100
AcDbLine
 10
-256.1071714723
 20
3.0
 30
0.0
 11
-393.3385244685
 21
3.0
 31
0.0
  0
LINE
  5
1ED
330
1B
100
AcDbEntity
 67
     1
  8
0
  6
Continuous
 62
     7
370
    25
100
AcDbLine
 10
-394.3385244685
 20
0.0
 30
0.0
 11
-394.3385244685
 21
1.0
 31
0.0
  0
LINE
  5
1EE
330
1B
100
AcDbEntity
 67
     1
  8
0
  6
Continuous
 62
     7
370
    25
100
AcDbLine
 10
-254.9943437112
 20
0.0
 30
0.0
 11
-407.2847443432
 21
0.0
 31
0.0
  0
LINE
  5
1EF
330
1B
100
AcDbEntity
 67
     1
  8
0
  6
Continuous
 62
     7
370
    25
100
AcDbLine
 10
-406.2833719972
 20
0.0
 30
0.0
 11
-406.2833719972
 21
1.0
 31
0.0
  0
LINE
  5
1F0
330
1B
100
AcDbEntity
 67
     1
  8
0
  6
Continuous
 62
     7
370
    25
100
AcDbLine
 10
-25.0
 20
-123.20944533
 30
0.0
 11
25.0
 21
-123.20944533
 31
0.0
  0
LINE
  5
1F1
330
1B
100
AcDbEntity
 67
     1
  8
0
  6
Continuous
 62
     7
370
    25
100
AcDbLine
 10
-30.0
 20
-143.0
 30
0.0
 11
-30.0
 21
-74.2370914515
 31
0.0
  0
LINE
  5
1F2
330
1B
100
AcDbEntity
 67
     1
  8
0
  6
Continuous
 62
     7
370
    25
100
AcDbLine
 10
30.0
 20
-74.2370914515
 30
0.0
 11
30.0
 21
-143.0
 31
0.0
  0
LINE
  5
1F3
330
1B
100
AcDbEntity
 67
     1
  8
0
  6
Continuous
 62
     7
370
    25
100
AcDbLine
 10
25.0
 20
-148.0
 30
0.0
 11
25.0
 21
-73.8586446252
 31
0.0
  0
LINE
  5
1F4
330
1B
100
AcDbEntity
 67
     1
  8
0
  6
Continuous
 62
     7
370
    25
100
AcDbLine
 10
25.0
 20
-148.0
 30
0.0
 11
-25.0
 21
-148.0
 31
0.0
  0
LINE
  5
1F5
330
1B
100
AcDbEntity
 67
     1
  8
0
  6
Continuous
 62
     7
370
    25
100
AcDbLine
 10
-25.0
 20
-73.8586446252
 30
0.0
 11
-25.0
 21
-148.0
 31
0.0
  0
LINE
  5
1F6
330
1B
100
AcDbEntity
 67
     1
  8
0
  6
Continuous
 62
     7
370
    25
100
AcDbLine
 10
-35.0
 20
-118.0
 30
0.0
 11
-35.0
 21
-74.6848559031
 31
0.0
  0
LINE
  5
1F7
330
1B
100
AcDbEntity
 67
     1
  8
0
  6
Continuous
 62
     7
370
    25
100
AcDbLine
 10
35.0
 20
-74.6848559031
 30
0.0
 11
35.0
 21
-118.0
 31
0.0
  0
LINE
  5
1F8
330
1B
100
AcDbEntity
 67
     1
  8
0
  6
Continuous
 62
     7
370
    25
100
AcDbLine
 10
175.4102334529
 20
-118.0
 30
0.0
 11
35.0
 21
-118.0
 31
0.0
  0
LINE
  5
1F9
330
1B
100
AcDbEntity
 67
     1
  8
0
  6
Continuous
 62
     7
370
    25
100
AcDbLine
 10
-35.0
 20
-118.0
 30
0.0
 11
-175.4102334529
 21
-118.0
 31
0.0
  0
LINE
  5
1FA
330
1B
100
AcDbEntity
 67
     1
  8
0
  6
Continuous
 62
     7
370
    25
100
AcDbLine
 10
24.375
 20
-149.0
 30
0.0
 11
-24.375
 21
-149.0
 31
0.0
  0
LINE
  5
1FB
330
1B
100
AcDbEntity
 67
     1
  8
0
  6
Continuous
 62
     7
370
    25
100
AcDbLine
 10
38.0
 20
-153.0
 30
0.0
 11
-38.0
 21
-153.0
 31
0.0
  0
LINE
  5
1FC
330
1B
100
AcDbEntity
 67
     1
  8
0
  6
Continuous
 62
     7
370
    25
100
AcDbLine
 10
30.225
 20
-123.0
 30
0.0
 11
30.225
 21
-143.0
 31
0.0
  0
LINE
  5
1FD
330
1B
100
AcDbEntity
 67
     1
  8
0
  6
Continuous
 62
     7
370
    25
100
AcDbLine
 10
-30.225
 20
-143.0
 30
0.0
 11
-30.225
 21
-123.0
 31
0.0
  0
LINE
  5
1FE
330
1B
100
AcDbEntity
 67
     1
  8
0
  6
Continuous
 62
     7
370
    25
100
AcDbLine
 10
30.225
 20
-143.0
 30
0.0
 11
30.0
 21
-143.0
 31
0.0
  0
LINE
  5
1FF
330
1B
100
AcDbEntity
 67
     1
  8
0
  6
Continuous
 62
     7
370
    25
100
AcDbLine
 10
-30.225
 20
-143.0
 30
0.0
 11
-30.0
 21
-143.0
 31
0.0
  0
LINE
  5
200
330
1B
100
AcDbEntity
 67
     1
  8
0
  6
Continuous
 62
     7
370
    25
100
AcDbLine
 10
39.0
 20
-123.0
 30
0.0
 11
30.0
 21
-123.0
 31
0.0
  0
LINE
  5
201
330
1B
100
AcDbEntity
 67
     1
  8
0
  6
Continuous
 62
     7
370
    25
100
AcDbLine
 10
-30.0
 20
-123.0
 30
0.0
 11
-39.0
 21
-123.0
 31
0.0
  0
LINE
  5
202
330
1B
100
AcDbEntity
 67
     1
  8
0
  6
Continuous
 62
     7
370
    25
100
AcDbLine
 10
-172.5
 20
-128.0
 30
0.0
 11
-172.5
 21
-118.0
 31
0.0
  0
LINE
  5
203
330
1B
100
AcDbEntity
 67
     1
  8
0
  6
Continuous
 62
     7
370
    25
100
AcDbLine
 10
172.5
 20
-128.0
 30
0.0
 11
172.5
 21
-118.0
 31
0.0
  0
LINE
  5
204
330
1B
100
AcDbEntity
 67
     1
  8
0
  6
Continuous
 62
     7
370
    25
100
AcDbLine
 10
390.3385244685
 20
0.0
 30
0.0
 11
390.3385244685
 21
6.0
 31
0.0
  0
LINE
  5
205
330
1B
100
AcDbEntity
 67
     1
  8
0
  6
Continuous
 62
     7
370
    25
100
AcDbLine
 10
-390.3385244685
 20
0.0
 30
0.0
 11
-390.3385244685
 21
6.0
 31
0.0
  0
LINE
  5
206
330
1B
100
AcDbEntity
 67
     1
  8
0
  6
Continuous
 62
     8
370
    25
100
AcDbLine
 10
-141.2053913135
 20
-101.4729635533
 30
0.0
 11
-35.0
 21
-101.4729635533
 31
0.0
  0
LINE
  5
207
330
1B
100
AcDbEntity
 67
     1
  8
0
  6
Continuous
 62
     8
370
    25
100
AcDbLine
 10
35.0
 20
-101.4729635533
 30
0.0
 11
141.2053913135
 21
-101.4729635533
 31
0.0
  0
LINE
  5
208
330
1B
100
AcDbEntity
 67
     1
  8
0
  6
Continuous
 62
     8
370
    25
100
AcDbLine
 10
-39.0
 20
-152.0
 30
0.0
 11
39.0
 21
-152.0
 31
0.0
  0
LINE
  5
209
330
1B
100
AcDbEntity
 67
     1
  8
0
  6
Continuous
 62
     8
370
    25
100
AcDbLine
 10
-39.0
 20
-126.2635182233
 30
0.0
 11
-189.680748975
 21
-126.2635182233
 31
0.0
  0
LINE
  5
20A
330
1B
100
AcDbEntity
 67
     1
  8
0
  6
Continuous
 62
     8
370
    25
100
AcDbLine
 10
-189.8180923688
 20
-126.3472963553
 30
0.0
 11
-39.0
 21
-126.3472963553
 31
0.0
  0
LINE
  5
20B
330
1B
100
AcDbEntity
 67
     1
  8
0
  6
Continuous
 62
     8
370
    25
100
AcDbLine
 10
189.680748975
 20
-126.2635182233
 30
0.0
 11
39.0
 21
-126.2635182233
 31
0.0
  0
LINE
  5
20C
330
1B
100
AcDbEntity
 67
     1
  8
0
  6
Continuous
 62
     8
370
    25
100
AcDbLine
 10
39.0
 20
-126.3472963553
 30
0.0
 11
189.8180923688
 21
-126.3472963553
 31
0.0
  0
ARC
  5
20D
330
1B
100
AcDbEntity
 67
     1
  8
0
  6
Continuous
 62
     7
370
    25
100
AcDbCircle
 10
38.0
 20
-152.0
 30
0.0
 40
1.0
100
AcDbArc
 50
270.0
 51
0.0
  0
ARC
  5
20E
330
1B
100
AcDbEntity
 67
     1
  8
0
  6
Continuous
 62
     7
370
    25
100
AcDbCircle
 10
-38.0
 20
-152.0
 30
0.0
 40
1.000000000000007
100
AcDbArc
 50
180.0
 51
270.0
  0
ARC
  5
20F
330
1B
100
AcDbEntity
 67
     1
  8
0
  6
Continuous
 62
     7
370
    25
100
AcDbCircle
 10
44.0
 20
-123.0
 30
0.0
 40
5.000000000000014
100
AcDbArc
 50
90.0
 51
180.0
  0
ARC
  5
210
330
1B
100
AcDbEntity
 67
     1
  8
0
  6
Continuous
 62
     7
370
    25
100
AcDbCircle
 10
-44.0
 20
-123.0
 30
0.0
 40
5.0
100
AcDbArc
 50
0.0
 51
90.0
  0
ARC
  5
211
330
1B
100
AcDbEntity
 67
     1
  8
0
  6
Continuous
 62
     7
370
    25
100
AcDbCircle
 10
-390.3385244685
 20
3.0
 30
0.0
 40
3.000000000000011
100
AcDbArc
 50
90.0
 51
180.0
  0
ARC
  5
212
330
1B
100
AcDbEntity
 67
     1
  8
0
  6
Continuous
 62
     7
370
    25
100
AcDbCircle
 10
-394.3385244685
 20
2.0
 30
0.0
 40
0.9999999999999432
100
AcDbArc
 50
270.0
 51
0.0
  0
ARC
  5
213
330
1B
100
AcDbEntity
 67
     1
  8
0
  6
Continuous
 62
     7
370
    25
100
AcDbCircle
 10
-402.7551771664
 20
11.0
 30
0.0
 40
2.999999999999929
100
AcDbArc
 50
90.0
 51
177.0
  0
ARC
  5
214
330
1B
100
AcDbEntity
 67
     1
  8
0
  6
Continuous
 62
     7
370
    25
100
AcDbCircle
 10
402.7551771664
 20
11.0
 30
0.0
 40
3.00000000000005
100
AcDbArc
 50
3.0
 51
90.0
  0
ARC
  5
215
330
1B
100
AcDbEntity
 67
     1
  8
0
  6
Continuous
 62
     7
370
    25
100
AcDbCircle
 10
394.3385244685
 20
2.0
 30
0.0
 40
0.9999999999999432
100
AcDbArc
 50
180.0
 51
270.0
  0
ARC
  5
216
330
1B
100
AcDbEntity
 67
     1
  8
0
  6
Continuous
 62
     7
370
    25
100
AcDbCircle
 10
390.3385244685
 20
3.0
 30
0.0
 40
2.999999999999897
100
AcDbArc
 50
360.0
 51
90.0
  0
ARC
  5
217
330
1B
100
AcDbEntity
 67
     1
  8
0
  6
Continuous
 62
     7
370
    25
100
AcDbCircle
 10
254.0
 20
0.1062100935
 30
0.0
 40
1.000000000007509
100
AcDbArc
 50
347.874677026
 51
359.7926138547
  0
ARC
  5
218
330
1B
100
AcDbEntity
 67
     1
  8
0
  6
Continuous
 62
     7
370
    25
100
AcDbCircle
 10
0.0
 20
-437.375
 30
0.0
 40
364.3750000000022
100
AcDbArc
 50
58.1092081982
 51
121.8907918018
  0
ARC
  5
219
330
1B
100
AcDbEntity
 67
     1
  8
0
  6
Continuous
 62
     7
370
    25
100
AcDbCircle
 10
-254.0
 20
0.1062100935
 30
0.0
 40
0.9999999999928448
100
AcDbArc
 50
180.2061026316
 51
192.1253229741
  0
ARC
  5
21A
330
1B
100
AcDbEntity
 67
     1
  8
0
  6
Continuous
 62
     7
370
    25
100
AcDbCircle
 10
-402.7551771664
 20
11.0
 30
0.0
 40
5.000000000000042
100
AcDbArc
 50
90.0
 51
177.0
  0
ARC
  5
21B
330
1B
100
AcDbEntity
 67
     1
  8
0
  6
Continuous
 62
     7
370
    25
100
AcDbCircle
 10
407.2847443432
 20
1.0
 30
0.0
 40
0.9999999999999436
100
AcDbArc
 50
270.0
 51
3.0
  0
ARC
  5
21C
330
1B
100
AcDbEntity
 67
     1
  8
0
  6
Continuous
 62
     7
370
    25
100
AcDbCircle
 10
-394.3385244685
 20
2.0
 30
0.0
 40
2.0
100
AcDbArc
 50
270.0
 51
0.0
  0
ARC
  5
21D
330
1B
100
AcDbEntity
 67
     1
  8
0
  6
Continuous
 62
     7
370
    25
100
AcDbCircle
 10
-407.2847443432
 20
1.0
 30
0.0
 40
1.0
100
AcDbArc
 50
177.0
 51
270.0
  0
ARC
  5
21E
330
1B
100
AcDbEntity
 67
     1
  8
0
  6
Continuous
 62
     7
370
    25
100
AcDbCircle
 10
402.7551771664
 20
11.0
 30
0.0
 40
4.999999999999879
100
AcDbArc
 50
3.0
 51
90.0
  0
ARC
  5
21F
330
1B
100
AcDbEntity
 67
     1
  8
0
  6
Continuous
 62
     7
370
    25
100
AcDbCircle
 10
-390.3385244685
 20
3.0
 30
0.0
 40
2.000000000000227
100
AcDbArc
 50
90.0
 51
180.0
  0
ARC
  5
220
330
1B
100
AcDbEntity
 67
     1
  8
0
  6
Continuous
 62
     7
370
    25
100
AcDbCircle
 10
394.3385244685
 20
2.0
 30
0.0
 40
2.000000000000057
100
AcDbArc
 50
180.0
 51
270.0
  0
ARC
  5
221
330
1B
100
AcDbEntity
 67
     1
  8
0
  6
Continuous
 62
     7
370
    25
100
AcDbCircle
 10
390.3385244685
 20
3.0
 30
0.0
 40
2.00000000000012
100
AcDbArc
 50
0.0
 51
90.0
  0
ARC
  5
222
330
1B
100
AcDbEntity
 67
     1
  8
0
  6
Continuous
 62
     7
370
    25
100
AcDbCircle
 10
25.0
 20
-143.0
 30
0.0
 40
5.000000000000025
100
AcDbArc
 50
270.0
 51
0.0
  0
ARC
  5
223
330
1B
100
AcDbEntity
 67
     1
  8
0
  6
Continuous
 62
     7
370
    25
100
AcDbCircle
 10
-25.0
 20
-143.0
 30
0.0
 40
5.000000000000036
100
AcDbArc
 50
180.0
 51
270.0
  0
ARC
  5
224
330
1B
100
AcDbEntity
 67
     1
  8
0
  6
Continuous
 62
     7
370
    25
100
AcDbCircle
 10
-35.0
 20
-123.0
 30
0.0
 40
4.999999999999982
100
AcDbArc
 50
0.0
 51
90.0
  0
ARC
  5
225
330
1B
100
AcDbEntity
 67
     1
  8
0
  6
Continuous
 62
     7
370
    25
100
AcDbCircle
 10
35.0
 20
-123.0
 30
0.0
 40
5.0
100
AcDbArc
 50
90.0
 51
180.0
  0
VIEWPORT
  5
3DB
330
1B
100
AcDbEntity
 67
     1
  8
0
100
AcDbViewport
 10
0.0
 20
0.0
 30
0.0
 40
205.6
 41
156.0
 68
     1
 69
     1
 12
0.0
 22
0.3923721716
 13
0.0
 23
0.0
 14
10.0
 24
10.0
 15
10.0
 25
10.0
 16
0.0
 26
0.0
 36
1.0
 17
0.0
 27
0.0
 37
0.0
 42
50.0
 43
0.0
 44
0.0
 45
631.967592606
 50
0.0
 51
0.0
 72
   100
 90
   557152
  1

281
     0
 71
     1
 74
     0
110
0.0
120
0.0
130
0.0
111
1.0
121
0.0
131
0.0
112
0.0
122
1.0
132
0.0
 79
     0
146
0.0
  0
ENDSEC
  0
SECTION
  2
OBJECTS
  0
DICTIONARY
  5
C
330
0
100
AcDbDictionary
281
     1
  3
ACAD_GROUP
350
D
  3
ACAD_LAYOUT
350
1A
  3
ACAD_MLINESTYLE
350
17
  3
ACAD_PLOTSETTINGS
350
19
  3
ACAD_PLOTSTYLENAME
350
E
  3
ACAD_SCALELIST
350
47
  0
DICTIONARY
  5
D
102
{ACAD_REACTORS
330
C
102
}
330
C
100
AcDbDictionary
281
     1
  0
DICTIONARY
  5
1A
102
{ACAD_REACTORS
330
C
102
}
330
C
100
AcDbDictionary
281
     1
  3
_Back
350
288
  3
_Front
350
1E
  3
_Isometric
350
2D4
  3
_Left
350
26
  3
Model
350
22
  0
DICTIONARY
  5
17
102
{ACAD_REACTORS
330
C
102
}
330
C
100
AcDbDictionary
281
     1
  3
Standard
350
18
  0
DICTIONARY
  5
19
102
{ACAD_REACTORS
330
C
102
}
330
C
100
AcDbDictionary
281
     1
  0
ACDBDICTIONARYWDFLT
  5
E
102
{ACAD_REACTORS
330
C
102
}
330
C
100
AcDbDictionary
281
     1
  3
Normal
350
F
100
AcDbDictionaryWithDefault
340
F
  0
DICTIONARY
  5
47
102
{ACAD_REACTORS
330
C
102
}
330
C
100
AcDbDictionary
281
     1
  3
A0
350
48
  3
A1
350
49
  3
A2
350
4A
  3
A3
350
4B
  3
A4
350
4C
  3
A5
350
4D
  3
A6
350
4E
  3
A7
350
4F
  3
A8
350
50
  3
A9
350
51
  3
B0
350
52
  3
B1
350
53
  3
B2
350
54
  3
B3
350
55
  3
B4
350
56
  3
B5
350
57
  3
B6
350
58
  3
B7
350
59
  3
B8
350
5A
  3
B9
350
5B
  3
C0
350
5C
  3
C1
350
5D
  3
C2
350
5E
  3
C3
350
5F
  3
C4
350
60
  3
C5
350
61
  3
C6
350
62
  3
C7
350
63
  3
C8
350
64
  3
C9
350
65
  3
D0
350
66
  3
D1
350
67
  3
D2
350
68
  0
LAYOUT
  5
288
102
{ACAD_REACTORS
330
1A
102
}
330
1A
100
AcDbPlotSettings
  1

  2
none_device
  4
ISO_A4_(210.00_x_297.00_MM)
  6

 40
7.5
 41
20.0
 42
7.5
 43
20.0
 44
210.0
 45
297.0
 46
0.0
 47
0.0
 48
0.0
 49
0.0
140
0.0
141
0.0
142
1.0
143
3.1773131856
 70
   688
 72
     1
 73
     1
 74
     1
  7

 75
     0
147
0.3147313285
148
408.2847443432
149
153.0
100
AcDbLayout
  1
_Back
 70
     1
 71
     3
 10
0.0
 20
0.0
 11
0.0
 21
0.0
 12
0.0
 22
0.0
 32
0.0
 14
0.0
 24
0.0
 34
0.0
 15
0.0
 25
0.0
 35
0.0
146
0.0
 13
0.0
 23
0.0
 33
0.0
 16
1.0
 26
0.0
 36
0.0
 17
0.0
 27
1.0
 37
0.0
 76
     0
330
287
331
3DF
  0
LAYOUT
  5
1E
102
{ACAD_REACTORS
330
1A
102
}
330
1A
100
AcDbPlotSettings
  1

  2
none_device
  4
ISO_A4_(210.00_x_297.00_MM)
  6

 40
7.5
 41
20.0
 42
7.5
 43
20.0
 44
210.0
 45
297.0
 46
0.0
 47
0.0
 48
0.0
 49
0.0
140
0.0
141
0.0
142
1.0
143
3.1773131856
 70
   688
 72
     1
 73
     1
 74
     1
  7

 75
     0
147
0.3147313285
148
408.2847443432
149
153.0
100
AcDbLayout
  1
_Front
 70
     1
 71
     1
 10
-471.8310080543
 20
-176.8298488916
 11
471.8310080543
 21
490.405920074
 12
0.0
 22
0.0
 32
0.0
 14
-408.2847443432
 24
-153.0
 34
0.0
 15
408.2847443432
 25
16.0
 35
0.0
146
0.0
 13
0.0
 23
0.0
 33
0.0
 16
1.0
 26
0.0
 36
0.0
 17
0.0
 27
1.0
 37
0.0
 76
     0
330
1B
331
3DB
  0
LAYOUT
  5
2D4
102
{ACAD_REACTORS
330
1A
102
}
330
1A
100
AcDbPlotSettings
  1

  2
none_device
  4
ISO_A4_(210.00_x_297.00_MM)
  6

 40
7.5
 41
20.0
 42
7.5
 43
20.0
 44
210.0
 45
297.0
 46
0.0
 47
0.0
 48
0.0
 49
0.0
140
0.0
141
0.0
142
1.0
143
3.1773131856
 70
   688
 72
     1
 73
     1
 74
     1
  7

 75
     0
147
0.3147313285
148
408.2847443432
149
153.0
100
AcDbLayout
  1
_Isometric
 70
     1
 71
     4
 10
0.0
 20
0.0
 11
0.0
 21
0.0
 12
0.0
 22
0.0
 32
0.0
 14
0.0
 24
0.0
 34
0.0
 15
0.0
 25
0.0
 35
0.0
146
0.0
 13
0.0
 23
0.0
 33
0.0
 16
1.0
 26
0.0
 36
0.0
 17
0.0
 27
1.0
 37
0.0
 76
     0
330
2D3
331
3E1
  0
LAYOUT
  5
26
102
{ACAD_REACTORS
330
1A
102
}
330
1A
100
AcDbPlotSettings
  1

  2
none_device
  4
ISO_A4_(210.00_x_297.00_MM)
  6

 40
7.5
 41
20.0
 42
7.5
 43
20.0
 44
210.0
 45
297.0
 46
0.0
 47
0.0
 48
0.0
 49
0.0
140
0.0
141
0.0
142
1.0
143
3.1773131856
 70
   688
 72
     1
 73
     1
 74
     1
  7

 75
     0
147
0.3147313285
148
408.2847443432
149
153.0
100
AcDbLayout
  1
_Left
 70
     1
 71
     2
 10
0.0
 20
0.0
 11
0.0
 21
0.0
 12
0.0
 22
0.0
 32
0.0
 14
0.0
 24
0.0
 34
0.0
 15
0.0
 25
0.0
 35
0.0
146
0.0
 13
0.0
 23
0.0
 33
0.0
 16
1.0
 26
0.0
 36
0.0
 17
0.0
 27
1.0
 37
0.0
 76
     0
330
23
331
3DD
  0
LAYOUT
  5
22
102
{ACAD_REACTORS
330
1A
102
}
330
1A
100
AcDbPlotSettings
  1

  2
none_device
  4
ANSI_A_(11.00_x_8.50_Inches)
  6

 40
6.35
 41
19.05
 42
6.35000508
 43
19.05000254
 44
279.4
 45
215.9
 46
133.34999746
 47
88.7670859793
 48
0.0
 49
0.0
140
0.0
141
0.0
142
0.0133362808
143
1.0
 70
  1696
 72
     0
 73
     0
 74
     0
  7

 75
     0
147
0.0179189148
148
-1300.4909072572
149
0.0
100
AcDbLayout
  1
Model
 70
     1
 71
     0
 10
0.0
 20
0.0
 11
420.0
 21
297.0
 12
0.0
 22
0.0
 32
0.0
 14
-408.2847443432
 24
-232.5
 34
0.0
 15
408.2847443432
 25
233.2847443432
 35
0.0
146
0.0
 13
0.0
 23
0.0
 33
0.0
 16
1.0
 26
0.0
 36
0.0
 17
0.0
 27
1.0
 37
0.0
 76
     0
330
1F
331
29
  0
MLINESTYLE
  5
18
102
{ACAD_REACTORS
330
17
102
}
330
17
100
AcDbMlineStyle
  2
Standard
 70
     0
  3

 62
   256
 51
90.0
 52
90.0
 71
     2
 49
0.5
 62
   256
  6
BYLAYER
 49
-0.5
 62
   256
  6
BYLAYER
  0
ACDBPLACEHOLDER
  5
F
102
{ACAD_REACTORS
330
E
102
}
330
E
  0
SCALE
  5
48
102
{ACAD_REACTORS
330
47
102
}
330
47
100
AcDbScale
 70
     0
300
1:1
140
1.0
141
1.0
290
     1
  0
SCALE
  5
49
102
{ACAD_REACTORS
330
47
102
}
330
47
100
AcDbScale
 70
     0
300
1:2
140
1.0
141
2.0
290
     0
  0
SCALE
  5
4A
102
{ACAD_REACTORS
330
47
102
}
330
47
100
AcDbScale
 70
     0
300
1:4
140
1.0
141
4.0
290
     0
  0
SCALE
  5
4B
102
{ACAD_REACTORS
330
47
102
}
330
47
100
AcDbScale
 70
     0
300
1:5
140
1.0
141
5.0
290
     0
  0
SCALE
  5
4C
102
{ACAD_REACTORS
330
47
102
}
330
47
100
AcDbScale
 70
     0
300
1:8
140
1.0
141
8.0
290
     0
  0
SCALE
  5
4D
102
{ACAD_REACTORS
330
47
102
}
330
47
100
AcDbScale
 70
     0
300
1:10
140
1.0
141
10.0
290
     0
  0
SCALE
  5
4E
102
{ACAD_REACTORS
330
47
102
}
330
47
100
AcDbScale
 70
     0
300
1:16
140
1.0
141
16.0
290
     0
  0
SCALE
  5
4F
102
{ACAD_REACTORS
330
47
102
}
330
47
100
AcDbScale
 70
     0
300
1:20
140
1.0
141
20.0
290
     0
  0
SCALE
  5
50
102
{ACAD_REACTORS
330
47
102
}
330
47
100
AcDbScale
 70
     0
300
1:30
140
1.0
141
30.0
290
     0
  0
SCALE
  5
51
102
{ACAD_REACTORS
330
47
102
}
330
47
100
AcDbScale
 70
     0
300
1:40
140
1.0
141
40.0
290
     0
  0
SCALE
  5
52
102
{ACAD_REACTORS
330
47
102
}
330
47
100
AcDbScale
 70
     0
300
1:50
140
1.0
141
50.0
290
     0
  0
SCALE
  5
53
102
{ACAD_REACTORS
330
47
102
}
330
47
100
AcDbScale
 70
     0
300
1:100
140
1.0
141
100.0
290
     0
  0
SCALE
  5
54
102
{ACAD_REACTORS
330
47
102
}
330
47
100
AcDbScale
 70
     0
300
2:1
140
2.0
141
1.0
290
     0
  0
SCALE
  5
55
102
{ACAD_REACTORS
330
47
102
}
330
47
100
AcDbScale
 70
     0
300
4:1
140
4.0
141
1.0
290
     0
  0
SCALE
  5
56
102
{ACAD_REACTORS
330
47
102
}
330
47
100
AcDbScale
 70
     0
300
8:1
140
8.0
141
1.0
290
     0
  0
SCALE
  5
57
102
{ACAD_REACTORS
330
47
102
}
330
47
100
AcDbScale
 70
     0
300
10:1
140
10.0
141
1.0
290
     0
  0
SCALE
  5
58
102
{ACAD_REACTORS
330
47
102
}
330
47
100
AcDbScale
 70
     0
300
100:1
140
100.0
141
1.0
290
     0
  0
SCALE
  5
59
102
{ACAD_REACTORS
330
47
102
}
330
47
100
AcDbScale
 70
     0
300
1/128" = 1'-0"
140
0.0078125
141
12.0
290
     0
  0
SCALE
  5
5A
102
{ACAD_REACTORS
330
47
102
}
330
47
100
AcDbScale
 70
     0
300
1/64" = 1'-0"
140
0.015625
141
12.0
290
     0
  0
SCALE
  5
5B
102
{ACAD_REACTORS
330
47
102
}
330
47
100
AcDbScale
 70
     0
300
1/32" = 1'-0"
140
0.03125
141
12.0
290
     0
  0
SCALE
  5
5C
102
{ACAD_REACTORS
330
47
102
}
330
47
100
AcDbScale
 70
     0
300
1/16" = 1'-0"
140
0.0625
141
12.0
290
     0
  0
SCALE
  5
5D
102
{ACAD_REACTORS
330
47
102
}
330
47
100
AcDbScale
 70
     0
300
3/32" = 1'-0"
140
0.09375
141
12.0
290
     0
  0
SCALE
  5
5E
102
{ACAD_REACTORS
330
47
102
}
330
47
100
AcDbScale
 70
     0
300
1/8" = 1'-0"
140
0.125
141
12.0
290
     0
  0
SCALE
  5
5F
102
{ACAD_REACTORS
330
47
102
}
330
47
100
AcDbScale
 70
     0
300
3/16" = 1'-0"
140
0.1875
141
12.0
290
     0
  0
SCALE
  5
60
102
{ACAD_REACTORS
330
47
102
}
330
47
100
AcDbScale
 70
     0
300
1/4" = 1'-0"
140
0.25
141
12.0
290
     0
  0
SCALE
  5
61
102
{ACAD_REACTORS
330
47
102
}
330
47
100
AcDbScale
 70
     0
300
3/8" = 1'-0"
140
0.375
141
12.0
290
     0
  0
SCALE
  5
62
102
{ACAD_REACTORS
330
47
102
}
330
47
100
AcDbScale
 70
     0
300
1/2" = 1'-0"
140
0.5
141
12.0
290
     0
  0
SCALE
  5
63
102
{ACAD_REACTORS
330
47
102
}
330
47
100
AcDbScale
 70
     0
300
3/4" = 1'-0"
140
0.75
141
12.0
290
     0
  0
SCALE
  5
64
102
{ACAD_REACTORS
330
47
102
}
330
47
100
AcDbScale
 70
     0
300
1" = 1'-0"
140
1.0
141
12.0
290
     0
  0
SCALE
  5
65
102
{ACAD_REACTORS
330
47
102
}
330
47
100
AcDbScale
 70
     0
300
1-1/2" = 1'-0"
140
1.5
141
12.0
290
     0
  0
SCALE
  5
66
102
{ACAD_REACTORS
330
47
102
}
330
47
100
AcDbScale
 70
     0
300
3" = 1'-0"
140
3.0
141
12.0
290
     0
  0
SCALE
  5
67
102
{ACAD_REACTORS
330
47
102
}
330
47
100
AcDbScale
 70
     0
300
6" = 1'-0"
140
6.0
141
12.0
290
     0
  0
SCALE
  5
68
102
{ACAD_REACTORS
330
47
102
}
330
47
100
AcDbScale
 70
     0
300
1'-0" = 1'-0"
140
12.0
141
12.0
290
     0
  0
ENDSEC
  0
EOF
