  0
SECTION
  2
HEADER
  9
$ACADVER
  1
AC1015
  9
$ACADMAINTVER
 70
     6
  9
$DWGCODEPAGE
  3
ANSI_1252
  9
$INSBASE
 10
0.0
 20
0.0
 30
0.0
  9
$EXTMIN
 10
-308.2847443432
 20
-232.5
 30
0.0
  9
$EXTMAX
 10
308.2847443432
 20
233.2847443432
 30
0.0
  9
$LIMMIN
 10
0.0
 20
0.0
  9
$LIMMAX
 10
420.0
 20
297.0
  9
$ORTHOMODE
 70
     0
  9
$REGENMODE
 70
     1
  9
$FILLMODE
 70
     1
  9
$QTEXTMODE
 70
     0
  9
$MIRRTEXT
 70
     1
  9
$LTSCALE
 40
1.0
  9
$ATTMODE
 70
     1
  9
$TEXTSIZE
 40
3.5
  9
$TRACEWID
 40
1.0
  9
$TEXTSTYLE
  7
Standard
  9
$CLAYER
  8
0
  9
$CELTYPE
  6
ByLayer
  9
$CECOLOR
 62
   256
  9
$CELTSCALE
 40
1.0
  9
$DISPSILH
 70
     0
  9
$DIMSCALE
 40
1.0
  9
$DIMASZ
 40
3.302
  9
$DIMEXO
 40
1.0
  9
$DIMDLI
 40
3.75
  9
$DIMRND
 40
0.0
  9
$DIMDLE
 40
0.0
  9
$DIMEXE
 40
1.0
  9
$DIMTP
 40
0.0
  9
$DIMTM
 40
0.0
  9
$DIMTXT
 40
3.5
  9
$DIMCEN
 40
2.5
  9
$DIMTSZ
 40
0.0
  9
$DIMTOL
 70
     0
  9
$DIMLIM
 70
     0
  9
$DIMTIH
 70
     1
  9
$DIMTOH
 70
     1
  9
$DIMSE1
 70
     0
  9
$DIMSE2
 70
     0
  9
$DIMTAD
 70
     1
  9
$DIMZIN
 70
     1
  9
$DIMBLK
  1

  9
$DIMASO
 70
     1
  9
$DIMSHO
 70
     1
  9
$DIMPOST
  1

  9
$DIMAPOST
  1

  9
$DIMALT
 70
     0
  9
$DIMALTD
 70
     3
  9
$DIMALTF
 40
0.0393700787
  9
$DIMLFAC
 40
1.0
  9
$DIMTOFL
 70
     1
  9
$DIMTVP
 40
0.0
  9
$DIMTIX
 70
     0
  9
$DIMSOXD
 70
     0
  9
$DIMSAH
 70
     0
  9
$DIMBLK1
  1

  9
$DIMBLK2
  1

  9
$DIMSTYLE
  2
ISO-25
  9
$DIMCLRD
 70
     0
  9
$DIMCLRE
 70
     0
  9
$DIMCLRT
 70
     0
  9
$DIMTFAC
 40
1.0
  9
$DIMGAP
 40
1.524
  9
$DIMJUST
 70
     0
  9
$DIMSD1
 70
     0
  9
$DIMSD2
 70
     0
  9
$DIMTOLJ
 70
     0
  9
$DIMTZIN
 70
     1
  9
$DIMALTZ
 70
     0
  9
$DIMALTTZ
 70
     0
  9
$DIMUPT
 70
     0
  9
$DIMDEC
 70
     2
  9
$DIMTDEC
 70
     2
  9
$DIMALTU
 70
     2
  9
$DIMALTTD
 70
     3
  9
$DIMTXSTY
  7
Standard
  9
$DIMAUNIT
 70
     0
  9
$DIMADEC
 70
     2
  9
$DIMALTRND
 40
0.0
  9
$DIMAZIN
 70
     0
  9
$DIMDSEP
 70
    44
  9
$DIMATFIT
 70
     3
  9
$DIMFRAC
 70
     0
  9
$DIMLDRBLK
  1

  9
$DIMLUNIT
 70
     2
  9
$DIMLWD
 70
    -2
  9
$DIMLWE
 70
    -2
  9
$DIMTMOVE
 70
     0
  9
$LUNITS
 70
     2
  9
$LUPREC
 70
     2
  9
$SKETCHINC
 40
1.0
  9
$FILLETRAD
 40
10.0
  9
$AUNITS
 70
     0
  9
$AUPREC
 70
     2
  9
$MENU
  1
.
  9
$ELEVATION
 40
0.0
  9
$PELEVATION
 40
0.0
  9
$THICKNESS
 40
0.0
  9
$LIMCHECK
 70
     0
  9
$CHAMFERA
 40
0.0
  9
$CHAMFERB
 40
0.0
  9
$CHAMFERC
 40
0.0
  9
$CHAMFERD
 40
0.0
  9
$SKPOLY
 70
     0
  9
$TDCREATE
 40
2460411.61959081
  9
$TDUCREATE
 40
2460411.577924144
  9
$TDUPDATE
 40
2460411.61966397
  9
$TDUUPDATE
 40
2460411.577997303
  9
$TDINDWG
 40
0.0000000116
  9
$TDUSRTIMER
 40
0.0000000116
  9
$USRTIMER
 70
     1
  9
$ANGBASE
 50
0.0
  9
$ANGDIR
 70
     0
  9
$PDMODE
 70
     0
  9
$PDSIZE
 40
-1.0
  9
$PLINEWID
 40
0.0
  9
$SPLFRAME
 70
     0
  9
$SPLINETYPE
 70
     6
  9
$SPLINESEGS
 70
     8
  9
$HANDSEED
  5
3FA
  9
$SURFTAB1
 70
     6
  9
$SURFTAB2
 70
     6
  9
$SURFTYPE
 70
     6
  9
$SURFU
 70
     6
  9
$SURFV
 70
     6
  9
$UCSBASE
  2

  9
$UCSNAME
  2

  9
$UCSORG
 10
0.0
 20
0.0
 30
0.0
  9
$UCSXDIR
 10
1.0
 20
0.0
 30
0.0
  9
$UCSYDIR
 10
0.0
 20
1.0
 30
0.0
  9
$UCSORTHOREF
  2

  9
$UCSORTHOVIEW
 70
     0
  9
$UCSORGTOP
 10
0.0
 20
0.0
 30
0.0
  9
$UCSORGBOTTOM
 10
0.0
 20
0.0
 30
0.0
  9
$UCSORGLEFT
 10
0.0
 20
0.0
 30
0.0
  9
$UCSORGRIGHT
 10
0.0
 20
0.0
 30
0.0
  9
$UCSORGFRONT
 10
0.0
 20
0.0
 30
0.0
  9
$UCSORGBACK
 10
0.0
 20
0.0
 30
0.0
  9
$PUCSBASE
  2

  9
$PUCSNAME
  2

  9
$PUCSORG
 10
0.0
 20
0.0
 30
0.0
  9
$PUCSXDIR
 10
1.0
 20
0.0
 30
0.0
  9
$PUCSYDIR
 10
0.0
 20
1.0
 30
0.0
  9
$PUCSORTHOREF
  2

  9
$PUCSORTHOVIEW
 70
     0
  9
$PUCSORGTOP
 10
0.0
 20
0.0
 30
0.0
  9
$PUCSORGBOTTOM
 10
0.0
 20
0.0
 30
0.0
  9
$PUCSORGLEFT
 10
0.0
 20
0.0
 30
0.0
  9
$PUCSORGRIGHT
 10
0.0
 20
0.0
 30
0.0
  9
$PUCSORGFRONT
 10
0.0
 20
0.0
 30
0.0
  9
$PUCSORGBACK
 10
0.0
 20
0.0
 30
0.0
  9
$USERI1
 70
     0
  9
$USERI2
 70
     0
  9
$USERI3
 70
     0
  9
$USERI4
 70
     0
  9
$USERI5
 70
     0
  9
$USERR1
 40
0.0
  9
$USERR2
 40
0.0
  9
$USERR3
 40
0.0
  9
$USERR4
 40
0.0
  9
$USERR5
 40
0.0
  9
$WORLDVIEW
 70
     1
  9
$SHADEDGE
 70
     3
  9
$SHADEDIF
 70
    70
  9
$TILEMODE
 70
     0
  9
$MAXACTVP
 70
    64
  9
$PINSBASE
 10
0.0
 20
0.0
 30
0.0
  9
$PLIMCHECK
 70
     0
  9
$PEXTMIN
 10
-308.2847443432
 20
-232.5
 30
0.0
  9
$PEXTMAX
 10
308.2847443432
 20
233.2847443432
 30
0.0
  9
$PLIMMIN
 10
-356.2668057196
 20
-170.9932730161
  9
$PLIMMAX
 10
356.2668057196
 20
332.8183714359
  9
$UNITMODE
 70
     0
  9
$VISRETAIN
 70
     1
  9
$PLINEGEN
 70
     0
  9
$PSLTSCALE
 70
     1
  9
$TREEDEPTH
 70
  3020
  9
$CMLSTYLE
  2
Standard
  9
$CMLJUST
 70
     0
  9
$CMLSCALE
 40
20.0
  9
$PROXYGRAPHICS
 70
     1
  9
$MEASUREMENT
 70
     1
  9
$CELWEIGHT
370
    -1
  9
$ENDCAPS
280
     0
  9
$JOINSTYLE
280
     0
  9
$LWDISPLAY
290
     1
  9
$INSUNITS
 70
     4
  9
$HYPERLINKBASE
  1

  9
$STYLESHEET
  1

  9
$XEDIT
290
     1
  9
$CEPSNTYPE
380
     0
  9
$PSTYLEMODE
290
     1
  9
$FINGERPRINTGUID
  2
{f1b22e1a-a8c9-46b5-b5e5-24976ee3f9ad}
  9
$VERSIONGUID
  2
{FAEB1C32-E019-11D5-929B-00C0DF256EC4}
  9
$EXTNAMES
290
     1
  9
$PSVPSCALE
 40
0.0
  9
$OLESTARTUP
290
     0
  0
ENDSEC
  0
SECTION
  2
CLASSES
  0
CLASS
  1
ACDBDICTIONARYWDFLT
  2
AcDbDictionaryWithDefault
  3
ObjectDBX Classes
 90
        0
280
     0
281
     0
  0
CLASS
  1
VISUALSTYLE
  2
AcDbVisualStyle
  3
ObjectDBX Classes
 90
     4095
280
     0
281
     0
  0
CLASS
  1
MATERIAL
  2
AcDbMaterial
  3
ObjectDBX Classes
 90
     1153
280
     0
281
     0
  0
CLASS
  1
SCALE
  2
AcDbScale
  3
ObjectDBX Classes
 90
     1153
280
     0
281
     0
  0
CLASS
  1
TABLESTYLE
  2
AcDbTableStyle
  3
ObjectDBX Classes
 90
     4095
280
     0
281
     0
  0
CLASS
  1
MLEADERSTYLE
  2
AcDbMLeaderStyle
  3
ACDB_MLEADERSTYLE_CLASS
 90
     4095
280
     0
281
     0
  0
CLASS
  1
SUN
  2
AcDbSun
  3
SCENEOE
 90
     1153
280
     0
281
     0
  0
CLASS
  1
ACDBPLACEHOLDER
  2
AcDbPlaceHolder
  3
ObjectDBX Classes
 90
        0
280
     0
281
     0
  0
CLASS
  1
LAYOUT
  2
AcDbLayout
  3
ObjectDBX Classes
 90
        0
280
     0
281
     0
  0
ENDSEC
  0
SECTION
  2
TABLES
  0
TABLE
  2
VPORT
  5
8
330
0
100
AcDbSymbolTable
 70
     1
  0
VPORT
  5
29
330
8
100
AcDbSymbolTableRecord
100
AcDbViewportTableRecord
  2
*Active
 70
     0
 10
0.0
 20
0.0
 11
1.0
 21
1.0
 12
0.0
 22
0.3923721716
 13
0.0
 23
0.0
 14
10.0
 24
10.0
 15
10.0
 25
10.0
 16
0.0
 26
0.0
 36
1.0
 17
0.0
 27
0.0
 37
0.0
 40
475.1004392301
 41
1.323721947
 42
50.0
 43
0.0
 44
0.0
 50
0.0
 51
0.0
 71
     0
 72
   100
 73
     1
 74
     3
 75
     0
 76
     0
 77
     0
 78
     0
281
     0
 65
     1
110
0.0
120
0.0
130
0.0
111
1.0
121
0.0
131
0.0
112
0.0
122
1.0
132
0.0
 79
     0
146
0.0
  0
ENDTAB
  0
TABLE
  2
LTYPE
  5
5
330
0
100
AcDbSymbolTable
 70
     6
  0
LTYPE
  5
14
330
5
100
AcDbSymbolTableRecord
100
AcDbLinetypeTableRecord
  2
ByBlock
 70
     0
  3

 72
    65
 73
     0
 40
0.0
  0
LTYPE
  5
15
330
5
100
AcDbSymbolTableRecord
100
AcDbLinetypeTableRecord
  2
ByLayer
 70
     0
  3

 72
    65
 73
     0
 40
0.0
  0
LTYPE
  5
16
330
5
100
AcDbSymbolTableRecord
100
AcDbLinetypeTableRecord
  2
Continuous
 70
     0
  3
Solid line
 72
    65
 73
     0
 40
0.0
  0
LTYPE
  5
6E
330
5
100
AcDbSymbolTableRecord
100
AcDbLinetypeTableRecord
  2
HIDDEN
 70
     0
  3
Hidden __ __ __ __ __ __ __ __ __ __ __ __ __ __
 72
    65
 73
     2
 40
1.905
 49
1.27
 74
     0
 49
-0.635
 74
     0
  0
LTYPE
  5
6F
330
5
100
AcDbSymbolTableRecord
100
AcDbLinetypeTableRecord
  2
PHANTOM
 70
     0
  3
Phantom ______  __  __  ______  __  __  ______
 72
    65
 73
     6
 40
12.7
 49
6.35
 74
     0
 49
-1.27
 74
     0
 49
1.27
 74
     0
 49
-1.27
 74
     0
 49
1.27
 74
     0
 49
-1.27
 74
     0
  0
LTYPE
  5
70
330
5
100
AcDbSymbolTableRecord
100
AcDbLinetypeTableRecord
  2
CENTER
 70
     0
  3
Center ____ _ ____ _ ____ _ ____ _ ____ _ ____
 72
    65
 73
     4
 40
10.16
 49
6.35
 74
     0
 49
-1.27
 74
     0
 49
1.27
 74
     0
 49
-1.27
 74
     0
  0
LTYPE
  5
71
330
5
100
AcDbSymbolTableRecord
100
AcDbLinetypeTableRecord
  2
CENTERX2
 70
     0
  3
Center (2x) ________  __  ________  __  _____
 72
    65
 73
     4
 40
20.32
 49
12.7
 74
     0
 49
-2.54
 74
     0
 49
2.54
 74
     0
 49
-2.54
 74
     0
  0
LTYPE
  5
72
330
5
100
AcDbSymbolTableRecord
100
AcDbLinetypeTableRecord
  2
DOT2
 70
     0
  3
Dot (.5x) ........................................
 72
    65
 73
     2
 40
0.635
 49
0.0
 74
     0
 49
-0.635
 74
     0
  0
ENDTAB
  0
TABLE
  2
LAYER
  5
2
330
0
100
AcDbSymbolTable
 70
     1
  0
LAYER
  5
10
330
2
100
AcDbSymbolTableRecord
100
AcDbLayerTableRecord
  2
0
 70
     0
 62
     7
  6
Continuous
370
    -3
390
F
  0
ENDTAB
  0
TABLE
  2
STYLE
  5
3
330
0
100
AcDbSymbolTable
 70
     1
  0
STYLE
  5
11
330
3
100
AcDbSymbolTableRecord
100
AcDbTextStyleTableRecord
  2
Standard
 70
     0
 40
0.0
 41
1.0
 50
0.0
 71
     0
 42
3.5
  3
txt
  4

  0
ENDTAB
  0
TABLE
  2
VIEW
  5
6
330
0
100
AcDbSymbolTable
 70
     0
  0
ENDTAB
  0
TABLE
  2
UCS
  5
7
330
0
100
AcDbSymbolTable
 70
     0
  0
ENDTAB
  0
TABLE
  2
APPID
  5
9
330
0
100
AcDbSymbolTable
 70
     1
  0
APPID
  5
12
330
9
100
AcDbSymbolTableRecord
100
AcDbRegAppTableRecord
  2
ACAD
 70
     0
  0
ENDTAB
  0
TABLE
  2
DIMSTYLE
  5
A
330
0
100
AcDbSymbolTable
 70
     1
100
AcDbDimStyleTable
  0
DIMSTYLE
105
27
330
A
100
AcDbSymbolTableRecord
100
AcDbDimStyleTableRecord
  2
ISO-25
 70
     0
 41
2.5
 42
0.625
 43
3.75
 44
1.25
 73
     0
 74
     0
 77
     1
 78
     8
140
2.5
141
2.5
143
0.0393700787
147
0.625
171
     3
172
     1
178
     0
271
     2
272
     2
274
     3
278
    44
283
     0
284
     8
340
11
  0
ENDTAB
  0
TABLE
  2
BLOCK_RECORD
  5
1
330
0
100
AcDbSymbolTable
 70
     3
  0
BLOCK_RECORD
  5
1F
330
1
100
AcDbSymbolTableRecord
100
AcDbBlockTableRecord
  2
*Model_Space
340
22
  0
BLOCK_RECORD
  5
1B
330
1
100
AcDbSymbolTableRecord
100
AcDbBlockTableRecord
  2
*Paper_Space
340
1E
  0
BLOCK_RECORD
  5
23
330
1
100
AcDbSymbolTableRecord
100
AcDbBlockTableRecord
  2
*Paper_Space0
340
26
  0
BLOCK_RECORD
  5
289
330
1
100
AcDbSymbolTableRecord
100
AcDbBlockTableRecord
  2
*Paper_Space1
340
28A
  0
BLOCK_RECORD
  5
2DF
330
1
100
AcDbSymbolTableRecord
100
AcDbBlockTableRecord
  2
*Paper_Space2
340
2E0
  0
ENDTAB
  0
ENDSEC
  0
SECTION
  2
BLOCKS
  0
BLOCK
  5
20
330
1F
100
AcDbEntity
  8
0
100
AcDbBlockBegin
  2
*Model_Space
 70
     0
 10
0.0
 20
0.0
 30
0.0
  3
*Model_Space
  1

  0
ENDBLK
  5
21
330
1F
100
AcDbEntity
  8
0
100
AcDbBlockEnd
  0
BLOCK
  5
1C
330
1B
100
AcDbEntity
 67
     1
  8
0
100
AcDbBlockBegin
  2
*Paper_Space
 70
     0
 10
0.0
 20
0.0
 30
0.0
  3
*Paper_Space
  1

  0
ENDBLK
  5
1D
330
1B
100
AcDbEntity
 67
     1
  8
0
100
AcDbBlockEnd
  0
BLOCK
  5
24
330
23
100
AcDbEntity
  8
0
100
AcDbBlockBegin
  2
*Paper_Space0
 70
     0
 10
0.0
 20
0.0
 30
0.0
  3
*Paper_Space0
  1

  0
SPLINE
  5
248
330
23
100
AcDbEntity
  8
0
  6
Continuous
 62
     7
370
    25
100
AcDbSpline
210
0.0
220
0.0
230
1.0
 70
     8
 71
     3
 72
    36
 73
    32
 74
     0
 42
0.000000001
 43
0.00000001
 40
0.0
 40
0.0
 40
0.0
 40
0.0
 40
0.1249999999999976
 40
0.1249999999999976
 40
0.1562499999999976
 40
0.1562499999999976
 40
0.1874999999999975
 40
0.1874999999999975
 40
0.2499999999999955
 40
0.2499999999999955
 40
0.3124999999999935
 40
0.3124999999999935
 40
0.3437499999999925
 40
0.3437499999999925
 40
0.3749999999999915
 40
0.3749999999999915
 40
0.4999999999999903
 40
0.4999999999999903
 40
0.5624999999999898
 40
0.5624999999999898
 40
0.5937499999999896
 40
0.5937499999999896
 40
0.6249999999999893
 40
0.6249999999999893
 40
0.7499999999999923
 40
0.7499999999999923
 40
0.8124999999999947
 40
0.8124999999999947
 40
0.8749999999999969
 40
0.8749999999999969
 40
1.0
 40
1.0
 40
1.0
 40
1.0
 10
-132.5007425946081
 20
-0.1039721293602386
 30
0.0
 10
-134.8088095864494
 20
-0.1113677030588622
 30
0.0
 10
-137.0915238476144
 20
-0.1179564989384346
 30
0.0
 10
-139.9132412051125
 20
-0.1251568306969292
 30
0.0
 10
-140.4769034748237
 20
-0.1265477736203946
 30
0.0
 10
-141.5912280535876
 20
-0.1292047122690987
 30
0.0
 10
-142.1429340604497
 20
-0.1304735378765826
 30
0.0
 10
-143.7819909699151
 20
-0.1341083414682503
 30
0.0
 10
-144.8533198516828
 20
-0.1363028093635116
 30
0.0
 10
-146.9539086803686
 20
-0.1402713258729649
 30
0.0
 10
-147.9831654917478
 20
-0.1420501277192149
 30
0.0
 10
-149.4949471655931
 20
-0.1444133067810272
 30
0.0
 10
-149.9935150242195
 20
-0.1451501440487696
 30
0.0
 10
-150.9797269520299
 20
-0.1465222776809022
 30
0.0
 10
-151.467573579865
 20
-0.1471575319051677
 30
0.0
 10
-153.8524866345718
 20
-0.1500509379372683
 30
0.0
 10
-155.610144731537
 20
-0.1514976897790676
 30
0.0
 10
-158.0265315434257
 20
-0.1524552086790837
 30
0.0
 10
-158.7950542452417
 20
-0.1525709420391458
 30
0.0
 10
-159.8906404453611
 20
-0.152427446241124
 30
0.0
 10
-160.2455879379743
 20
-0.1523264201972047
 30
0.0
 10
-160.9287163214727
 20
-0.1520207403256646
 30
0.0
 10
-161.2578561895642
 20
-0.1518160365999721
 30
0.0
 10
-162.8423843305222
 20
-0.1505366583154505
 30
0.0
 10
-163.9158906782347
 20
-0.1486972595565322
 30
0.0
 10
-165.232874238077
 20
-0.1446462682547917
 30
0.0
 10
-165.6240039528215
 20
-0.1430654194098102
 30
0.0
 10
-166.2908488733425
 20
-0.1394976817360172
 30
0.0
 10
-166.5684464811555
 20
-0.1375101217304525
 30
0.0
 10
-167.2376636175842
 20
-0.1309286882081734
 30
0.0
 10
-167.46683293882
 20
-0.1256804043226201
 30
0.0
 10
-167.4701053439052
 20
-0.1195388926359675
 30
0.0
  0
SPLINE
  5
24F
330
23
100
AcDbEntity
  8
0
  6
Continuous
 62
     7
370
    25
100
AcDbSpline
210
0.0
220
0.0
230
1.0
 70
     8
 71
     3
 72
    26
 73
    22
 74
     0
 42
0.000000001
 43
0.00000001
 40
0.0
 40
0.0
 40
0.0
 40
0.0
 40
0.1250000000000013
 40
0.1250000000000013
 40
0.2500000000000026
 40
0.2500000000000026
 40
0.3750000000000039
 40
0.3750000000000039
 40
0.5000000000000052
 40
0.5000000000000052
 40
0.6250000000000066
 40
0.6250000000000066
 40
0.6875000000000054
 40
0.6875000000000054
 40
0.7500000000000042
 40
0.7500000000000042
 40
0.8125000000000031
 40
0.8125000000000031
 40
0.875000000000002
 40
0.875000000000002
 40
1.0
 40
1.0
 40
1.0
 40
1.0
 10
62.94436524219221
 20
-149.0
 30
0.0
 10
62.65138780497437
 20
-149.0000000000001
 30
0.0
 10
62.35479454331951
 20
-148.9651127021993
 30
0.0
 10
61.75457201250274
 20
-148.8319068764122
 30
0.0
 10
61.44911006885491
 20
-148.7327367513271
 30
0.0
 10
60.84086553899943
 20
-148.4742851692644
 30
0.0
 10
60.53982631029022
 20
-148.3161917323262
 30
0.0
 10
59.94585251931204
 20
-147.9419233314484
 30
0.0
 10
59.65286997454675
 20
-147.7258586252433
 30
0.0
 10
59.07948883484293
 20
-147.2270743418424
 30
0.0
 10
58.80307850479982
 20
-146.9474351986223
 30
0.0
 10
58.41792499049718
 20
-146.4824454206696
 30
0.0
 10
58.29411455645417
 20
-146.3194615516866
 30
0.0
 10
58.05763373322372
 20
-145.9751416717644
 30
0.0
 10
57.94432679367346
 20
-145.7925914452064
 30
0.0
 10
57.73588647350361
 20
-145.4130526711878
 30
0.0
 10
57.64056148013399
 20
-145.2160678480281
 30
0.0
 10
57.47078365719279
 20
-144.8056753869582
 30
0.0
 10
57.39586803260273
 20
-144.5905833022991
 30
0.0
 10
57.21253252653104
 20
-143.928335696829
 30
0.0
 10
57.14648808654088
 20
-143.4724762045376
 30
0.0
 10
57.14648808654087
 20
-143.0
 30
0.0
  0
SPLINE
  5
251
330
23
100
AcDbEntity
  8
0
  6
Continuous
 62
     7
370
    25
100
AcDbSpline
210
0.0
220
0.0
230
1.0
 70
     8
 71
     3
 72
    22
 73
    18
 74
     0
 42
0.000000001
 43
0.00000001
 40
0.0
 40
0.0
 40
0.0
 40
0.0
 40
0.0625000000000034
 40
0.0625000000000034
 40
0.1250000000000067
 40
0.1250000000000067
 40
0.250000000000006
 40
0.250000000000006
 40
0.3750000000000053
 40
0.3750000000000053
 40
0.5000000000000046
 40
0.5000000000000046
 40
0.7500000000000012
 40
0.7500000000000012
 40
0.8750000000000006
 40
0.8750000000000006
 40
1.0
 40
1.0
 40
1.0
 40
1.0
 10
57.77844931952909
 20
-143.0
 30
0.0
 10
57.77844931952912
 20
-143.2129207756099
 30
0.0
 10
57.7983940509969
 20
-143.4215575682923
 30
0.0
 10
57.87419710943212
 20
-143.8310885615591
 30
0.0
 10
57.93063736037236
 20
-144.0332124482306
 30
0.0
 10
58.14446325916467
 20
-144.6155621275904
 30
0.0
 10
58.33950574239434
 20
-144.9619271306618
 30
0.0
 10
58.79381180225045
 20
-145.5969435284119
 30
0.0
 10
59.04729849851033
 20
-145.876557432828
 30
0.0
 10
59.58141354418002
 20
-146.3781599313837
 30
0.0
 10
59.8653859104116
 20
-146.6022667734808
 30
0.0
 10
60.734666212691
 20
-147.195112187139
 30
0.0
 10
61.33167552784716
 20
-147.4861807690063
 30
0.0
 10
62.23875198886539
 20
-147.7903511614055
 30
0.0
 10
62.5411309009543
 20
-147.8678973228884
 30
0.0
 10
63.13758031221433
 20
-147.9725065484667
 30
0.0
 10
63.43282882810323
 20
-148.0
 30
0.0
 10
63.72498999199201
 20
-148.0
 30
0.0
  0
SPLINE
  5
257
330
23
100
AcDbEntity
  8
0
  6
Continuous
 62
     8
370
    25
100
AcDbSpline
210
0.0
220
0.0
230
1.0
 70
     8
 71
     3
 72
     9
 73
     5
 74
     0
 42
0.000000001
 43
0.00000001
 40
0.0
 40
0.0
 40
0.0
 40
0.0
 40
0.8411985633644168
 40
1.0
 40
1.0
 40
1.0
 40
1.0
 10
232.5000000000016
 20
0.1026117887961836
 30
0.0
 10
232.3339719698081
 20
0.0981084170899316
 30
0.0
 10
232.136601173632
 20
0.092754899023717
 30
0.0
 10
231.9391713142854
 20
0.0915796313144535
 30
0.0
 10
231.9078191689865
 20
0.0913929971138039
 30
0.0
  0
LWPOLYLINE
  5
25A
330
23
100
AcDbEntity
  8
0
  6
Continuous
 62
     8
370
    25
100
AcDbPolyline
 90
        3
 70
   128
 43
0.0
 10
62.5
 20
-0.103840599
 10
-35.0005220013
 20
-0.0258034835
 10
-132.5007425946
 20
-0.1039721294
  0
LINE
  5
260
330
23
100
AcDbEntity
  8
0
  6
Continuous
 62
     7
370
    25
100
AcDbLine
 10
-167.5
 20
0.0
 30
0.0
 11
-135.5
 21
-128.0
 31
0.0
  0
LINE
  5
261
330
23
100
AcDbEntity
  8
0
  6
Continuous
 62
     7
370
    25
100
AcDbLine
 10
-78.5
 20
-127.9585790305
 30
0.0
 11
190.5
 21
-127.9585790305
 31
0.0
  0
LINE
  5
262
330
23
100
AcDbEntity
  8
0
  6
Continuous
 62
     7
370
    25
100
AcDbLine
 10
71.5
 20
-152.0
 30
0.0
 11
71.5
 21
-149.0
 31
0.0
  0
LINE
  5
263
330
23
100
AcDbEntity
  8
0
  6
Continuous
 62
     7
370
    25
100
AcDbLine
 10
-6.5
 20
-128.0
 30
0.0
 11
-6.5
 21
-152.0
 31
0.0
  0
LINE
  5
264
330
23
100
AcDbEntity
  8
0
  6
Continuous
 62
     7
370
    25
100
AcDbLine
 10
231.5
 20
0.0
 30
0.0
 11
-232.2847443432
 21
0.0
 31
0.0
  0
LINE
  5
265
330
23
100
AcDbEntity
  8
0
  6
Continuous
 62
     7
370
    25
100
AcDbLine
 10
-223.2970785305
 20
0.0
 30
0.0
 11
-223.2970785305
 21
1.0523359562
 31
0.0
  0
LINE
  5
266
330
23
100
AcDbEntity
  8
0
  6
Continuous
 62
     7
370
    25
100
AcDbLine
 10
-223.2970785305
 20
1.0523359562
 30
0.0
 11
230.5
 21
1.0523359562
 31
0.0
  0
LINE
  5
267
330
23
100
AcDbEntity
  8
0
  6
Continuous
 62
     7
370
    25
100
AcDbLine
 10
230.5
 20
0.0
 30
0.0
 11
230.5
 21
16.0
 31
0.0
  0
LINE
  5
268
330
23
100
AcDbEntity
  8
0
  6
Continuous
 62
     7
370
    25
100
AcDbLine
 10
230.5
 20
11.2616797812
 30
0.0
 11
-222.7620294927
 21
11.2616797812
 31
0.0
  0
LINE
  5
269
330
23
100
AcDbEntity
  8
0
  6
Continuous
 62
     7
370
    25
100
AcDbLine
 10
-222.7620294927
 20
11.2616797812
 30
0.0
 11
-223.2970785305
 21
1.0523359562
 31
0.0
  0
LINE
  5
26A
330
23
100
AcDbEntity
  8
0
  6
Continuous
 62
     7
370
    25
100
AcDbLine
 10
-233.283373878
 20
1.0523359562
 30
0.0
 11
-232.7483248402
 21
11.2616797812
 31
0.0
  0
LINE
  5
26B
330
23
100
AcDbEntity
  8
0
  6
Continuous
 62
     7
370
    25
100
AcDbLine
 10
232.5
 20
14.0
 30
0.0
 11
232.5
 21
1.0
 31
0.0
  0
LINE
  5
26C
330
23
100
AcDbEntity
  8
0
  6
Continuous
 62
     7
370
    25
100
AcDbLine
 10
-222.7620294927
 20
16.0
 30
0.0
 11
-222.7620294927
 21
11.2616797812
 31
0.0
  0
LINE
  5
26D
330
23
100
AcDbEntity
  8
0
  6
Continuous
 62
     7
370
    25
100
AcDbLine
 10
-227.7551771664
 20
16.0
 30
0.0
 11
230.5
 21
16.0
 31
0.0
  0
LINE
  5
26E
330
23
100
AcDbEntity
  8
0
  6
Continuous
 62
     7
370
    25
100
AcDbLine
 10
232.5
 20
-128.0
 30
0.0
 11
-135.5
 21
-128.0
 31
0.0
  0
LINE
  5
26F
330
23
100
AcDbEntity
  8
0
  6
Continuous
 62
     7
370
    25
100
AcDbLine
 10
232.5
 20
-128.0
 30
0.0
 11
232.5
 21
0.82499
 31
0.0
  0
LINE
  5
270
330
23
100
AcDbEntity
  8
0
  6
Continuous
 62
     7
370
    25
100
AcDbLine
 10
70.4999999728
 20
-153.0
 30
0.0
 11
-5.5
 21
-153.0
 31
0.0
  0
LINE
  5
271
330
23
100
AcDbEntity
  8
0
  6
Continuous
 62
     7
370
    25
100
AcDbLine
 10
57.1464880865
 20
-143.0
 30
0.0
 11
102.8004714505
 21
-143.0
 31
0.0
  0
LINE
  5
272
330
23
100
AcDbEntity
  8
0
  6
Continuous
 62
     7
370
    25
100
AcDbLine
 10
102.8004714505
 20
-143.0
 30
0.0
 11
102.8004714505
 21
-148.0
 31
0.0
  0
LINE
  5
273
330
23
100
AcDbEntity
  8
0
  6
Continuous
 62
     7
370
    25
100
AcDbLine
 10
102.8004714505
 20
-148.0
 30
0.0
 11
63.724989992
 21
-148.0
 31
0.0
  0
LINE
  5
274
330
23
100
AcDbEntity
  8
0
  6
Continuous
 62
     8
370
    25
100
AcDbLine
 10
-132.5003753238
 20
0.0
 30
0.0
 11
-132.5007425946
 21
-0.1039721294
 31
0.0
  0
LINE
  5
275
330
23
100
AcDbEntity
  8
0
  6
Continuous
 62
     8
370
    25
100
AcDbLine
 10
232.5
 20
-0.103840599
 30
0.0
 11
231.8342411255
 21
-0.103840599
 31
0.0
  0
LINE
  5
276
330
23
100
AcDbEntity
  8
0
  6
Continuous
 62
     8
370
    25
100
AcDbLine
 10
-6.5
 20
-152.0
 30
0.0
 11
71.5
 21
-152.0
 31
0.0
  0
LINE
  5
277
330
23
100
AcDbEntity
  8
0
  6
Continuous
 62
     8
370
    25
100
AcDbLine
 10
71.5
 20
-149.0
 30
0.0
 11
62.9443652422
 21
-149.0
 31
0.0
  0
LINE
  5
278
330
23
100
AcDbEntity
  8
0
  6
Continuous
 62
     8
370
    25
100
AcDbLine
 10
57.1464880865
 20
-143.0
 30
0.0
 11
57.1464880865
 21
-128.0
 31
0.0
  0
LINE
  5
279
330
23
100
AcDbEntity
  8
0
  6
Continuous
 62
     8
370
    25
100
AcDbLine
 10
57.7784493195
 20
-128.0
 30
0.0
 11
57.7784493195
 21
-143.0
 31
0.0
  0
ARC
  5
27A
330
23
100
AcDbEntity
  8
0
  6
Continuous
 62
     7
370
    25
100
AcDbCircle
 10
70.5
 20
-152.0
 30
0.0
 40
1.000000000000028
100
AcDbArc
 50
270.0
 51
360.0
  0
ARC
  5
27B
330
23
100
AcDbEntity
  8
0
  6
Continuous
 62
     7
370
    25
100
AcDbCircle
 10
-5.5
 20
-152.0
 30
0.0
 40
1.000000000000028
100
AcDbArc
 50
180.0
 51
270.0
  0
ARC
  5
27C
330
23
100
AcDbEntity
  8
0
  6
Continuous
 62
     7
370
    25
100
AcDbCircle
 10
72.5
 20
-149.0
 30
0.0
 40
1.000000000000014
100
AcDbArc
 50
90.0
 51
180.0
  0
ARC
  5
27D
330
23
100
AcDbEntity
  8
0
  6
Continuous
 62
     7
370
    25
100
AcDbCircle
 10
-232.2847443432
 20
1.0
 30
0.0
 40
1.000000000000055
100
AcDbArc
 50
177.0
 51
270.0
  0
ARC
  5
27E
330
23
100
AcDbEntity
  8
0
  6
Continuous
 62
     7
370
    25
100
AcDbCircle
 10
-228.2902262042
 20
-477.5714413808
 30
0.0
 40
478.6498216400497
100
AcDbArc
 50
89.4022948214
 51
90.5977051786
  0
ARC
  5
27F
330
23
100
AcDbEntity
  8
0
  6
Continuous
 62
     7
370
    25
100
AcDbCircle
 10
231.0201863571
 20
-17.3097401572
 30
0.0
 40
18.36944291593068
100
AcDbArc
 50
85.3793344727
 51
91.622720287
  0
ARC
  5
280
330
23
100
AcDbEntity
  8
0
  6
Continuous
 62
     7
370
    25
100
AcDbCircle
 10
231.5
 20
1.0
 30
0.0
 40
1.000000000000057
100
AcDbArc
 50
270.0
 51
360.0
  0
ARC
  5
281
330
23
100
AcDbEntity
  8
0
  6
Continuous
 62
     7
370
    25
100
AcDbCircle
 10
-227.7551771664
 20
-84.4918926964
 30
0.0
 40
95.88366996480599
100
AcDbArc
 50
87.0149687808
 51
92.9850312192
  0
ARC
  5
282
330
23
100
AcDbEntity
  8
0
  6
Continuous
 62
     7
370
    25
100
AcDbCircle
 10
230.9986304738
 20
1.6295145422
 30
0.0
 40
9.645062962008504
100
AcDbArc
 50
81.0448095014
 51
92.9633983002
  0
ARC
  5
283
330
23
100
AcDbEntity
  8
0
  6
Continuous
 62
     7
370
    25
100
AcDbCircle
 10
-227.7551771664
 20
11.0
 30
0.0
 40
5.000000000000072
100
AcDbArc
 50
90.0
 51
177.0
  0
ARC
  5
284
330
23
100
AcDbEntity
  8
0
  6
Continuous
 62
     7
370
    25
100
AcDbCircle
 10
230.5
 20
14.0
 30
0.0
 40
2.000000000000028
100
AcDbArc
 50
0.0
 51
90.0
  0
ARC
  5
285
330
23
100
AcDbEntity
  8
0
  6
Continuous
 62
     7
370
    25
100
AcDbCircle
 10
-166.5000085854
 20
0.1231442652
 30
0.0
 40
0.9999914179272515
100
AcDbArc
 50
187.0736630563
 51
194.0450798046
  0
ARC
  5
286
330
23
100
AcDbEntity
  8
0
  6
Continuous
 62
     7
370
    25
100
AcDbCircle
 10
63.8500901122
 20
-148.90234375
 30
0.0
 40
0.9109743592594609
100
AcDbArc
 50
97.8931209029
 51
186.1539201034
  0
ARC
  5
287
330
23
100
AcDbEntity
  8
0
  6
Continuous
 62
     7
370
    25
100
AcDbCircle
 10
102.8004714505
 20
-118.0
 30
0.0
 40
30.00000000000003
100
AcDbArc
 50
270.0
 51
340.5287793655
  0
ARC
  5
288
330
23
100
AcDbEntity
  8
0
  6
Continuous
 62
     8
370
    25
100
AcDbCircle
 10
102.8004714505
 20
-118.0
 30
0.0
 40
24.99999999999999
100
AcDbArc
 50
270.0
 51
336.4218215218
  0
VIEWPORT
  5
3F4
330
23
100
AcDbEntity
  8
0
100
AcDbViewport
 10
0.0
 20
0.0
 30
0.0
 40
205.6
 41
156.0
 68
     1
 69
     1
 12
0.0
 22
0.3923721716
 13
0.0
 23
0.0
 14
10.0
 24
10.0
 15
10.0
 25
10.0
 16
0.0
 26
0.0
 36
1.0
 17
0.0
 27
0.0
 37
0.0
 42
50.0
 43
0.0
 44
0.0
 45
477.1816003881
 50
0.0
 51
0.0
 72
   100
 90
   557152
  1

281
     0
 71
     1
 74
     0
110
0.0
120
0.0
130
0.0
111
1.0
121
0.0
131
0.0
112
0.0
122
1.0
132
0.0
 79
     0
146
0.0
  0
ENDBLK
  5
25
330
23
100
AcDbEntity
  8
0
100
AcDbBlockEnd
  0
BLOCK
  5
28B
330
289
100
AcDbEntity
  8
0
100
AcDbBlockBegin
  2
*Paper_Space1
 70
     0
 10
0.0
 20
0.0
 30
0.0
  3
*Paper_Space1
  1

  0
SPLINE
  5
2AB
330
289
100
AcDbEntity
  8
0
  6
Continuous
 62
     7
370
    25
100
AcDbSpline
210
0.0
220
0.0
230
1.0
 70
     8
 71
     3
 72
    36
 73
    32
 74
     0
 42
0.000000001
 43
0.00000001
 40
0.0
 40
0.0
 40
0.0
 40
0.0
 40
0.1249999999999998
 40
0.1249999999999998
 40
0.1562499999999993
 40
0.1562499999999993
 40
0.1874999999999988
 40
0.1874999999999988
 40
0.2499999999999978
 40
0.2499999999999978
 40
0.3124999999999968
 40
0.3124999999999968
 40
0.3437499999999966
 40
0.3437499999999966
 40
0.3749999999999964
 40
0.3749999999999964
 40
0.4999999999999994
 40
0.4999999999999994
 40
0.5625000000000009
 40
0.5625000000000009
 40
0.5937500000000016
 40
0.5937500000000016
 40
0.6250000000000023
 40
0.6250000000000023
 40
0.7500000000000016
 40
0.7500000000000016
 40
0.8125000000000011
 40
0.8125000000000011
 40
0.8750000000000007
 40
0.8750000000000007
 40
1.0
 40
1.0
 40
1.0
 40
1.0
 10
-195.0007296645396
 20
-0.1195388925950003
 30
0.0
 10
-197.3088278261441
 20
-0.1256805356143059
 30
0.0
 10
-199.5915465282155
 20
-0.13096424296484
 30
0.0
 10
-202.4134029802064
 20
-0.1364997926155687
 30
0.0
 10
-202.9770790364636
 20
-0.1375567014064855
 30
0.0
 10
-204.0914464951509
 20
-0.1395526318003076
 30
0.0
 10
-204.6431915983723
 20
-0.1404933129181968
 30
0.0
 10
-206.2823928756968
 20
-0.1431483727151739
 30
0.0
 10
-207.3538508489597
 20
-0.1446958765029122
 30
0.0
 10
-209.4547169340614
 20
-0.1473715904962425
 30
0.0
 10
-210.4841325917533
 20
-0.1485032491592014
 30
0.0
 10
-211.9961778153098
 20
-0.1498932155136745
 30
0.0
 10
-212.4948377816918
 20
-0.1503050819829654
 30
0.0
 10
-213.4812436552826
 20
-0.1510253055722471
 30
0.0
 10
-213.9691510180785
 20
-0.1513334200203831
 30
0.0
 10
-216.3543721057442
 20
-0.1526020786841442
 30
0.0
 10
-218.1123881014731
 20
-0.1527733195679504
 30
0.0
 10
-220.529476257556
 20
-0.1518066046211769
 30
0.0
 10
-221.2982469810887
 20
-0.1512793747494856
 30
0.0
 10
-222.3942058524383
 20
-0.1501621238161888
 30
0.0
 10
-222.7492617135846
 20
-0.1497355439380177
 30
0.0
 10
-223.4326130124404
 20
-0.148781833130357
 30
0.0
 10
-223.7618647004084
 20
-0.1482537857357552
 30
0.0
 10
-225.3469663777173
 20
-0.1453594490826576
 30
0.0
 10
-226.4210030637609
 20
-0.1422335790337431
 30
0.0
 10
-227.7389535323262
 20
-0.1362306957525677
 30
0.0
 10
-228.1304531418667
 20
-0.1339915934287644
 30
0.0
 10
-228.7979992354765
 20
-0.129112965382594
 30
0.0
 10
-229.0759328954288
 20
-0.1264692710107734
 30
0.0
 10
-229.7455462967535
 20
-0.1179134604067239
 30
0.0
 10
-229.9743087063725
 20
-0.1113675004763975
 30
0.0
 10
-229.9776520839647
 20
-0.103972129407548
 30
0.0
  0
SPLINE
  5
2AC
330
289
100
AcDbEntity
  8
0
  6
Continuous
 62
     7
370
    25
100
AcDbSpline
210
0.0
220
0.0
230
1.0
 70
     8
 71
     3
 72
    36
 73
    32
 74
     0
 42
0.000000001
 43
0.00000001
 40
0.0
 40
0.0
 40
0.0
 40
0.0
 40
0.1249999999999976
 40
0.1249999999999976
 40
0.1562499999999976
 40
0.1562499999999976
 40
0.1874999999999975
 40
0.1874999999999975
 40
0.2499999999999955
 40
0.2499999999999955
 40
0.3124999999999935
 40
0.3124999999999935
 40
0.3437499999999925
 40
0.3437499999999925
 40
0.3749999999999915
 40
0.3749999999999915
 40
0.4999999999999903
 40
0.4999999999999903
 40
0.5624999999999898
 40
0.5624999999999898
 40
0.5937499999999896
 40
0.5937499999999896
 40
0.6249999999999893
 40
0.6249999999999893
 40
0.7499999999999923
 40
0.7499999999999923
 40
0.8124999999999947
 40
0.8124999999999947
 40
0.8749999999999969
 40
0.8749999999999969
 40
1.0
 40
1.0
 40
1.0
 40
1.0
 10
229.9776520839863
 20
-0.1039721293602386
 30
0.0
 10
229.9743086157602
 20
-0.1113677030588622
 30
0.0
 10
229.7454970657249
 20
-0.1179564989384346
 30
0.0
 10
229.1777841767904
 20
-0.1251568306969292
 30
0.0
 10
229.049766333116
 20
-0.1265477736203946
 30
0.0
 10
228.7675893141076
 20
-0.1292047122690987
 30
0.0
 10
228.6132684580286
 20
-0.1304735378765826
 30
0.0
 10
228.111355177601
 20
-0.1341083414682503
 30
0.0
 10
227.7249068399484
 20
-0.1363028093635116
 30
0.0
 10
226.8499865387553
 20
-0.1402713258729649
 30
0.0
 10
226.36150699327
 20
-0.1420501277192149
 30
0.0
 10
225.5509317272387
 20
-0.1444133067810272
 30
0.0
 10
225.2677426989443
 20
-0.1451501440487696
 30
0.0
 10
224.674872811236
 20
-0.1465222776809022
 30
0.0
 10
224.3649412655899
 20
-0.1471575319051677
 30
0.0
 10
222.766073372935
 20
-0.1500509379372683
 30
0.0
 10
221.3182612502852
 20
-0.1514976897790676
 30
0.0
 10
218.8994261475828
 20
-0.1524552086790837
 30
0.0
 10
218.0516740018316
 20
-0.1525709420391458
 30
0.0
 10
216.7158270826193
 20
-0.152427446241124
 30
0.0
 10
216.2605316211761
 20
-0.1523264201972047
 30
0.0
 10
215.3384485374197
 20
-0.1520207403256646
 30
0.0
 10
214.8705126487242
 20
-0.1518160365999721
 30
0.0
 10
212.496888865841
 20
-0.1505366583154505
 30
0.0
 10
210.4902733841848
 20
-0.1486972595565322
 30
0.0
 10
207.3176092738261
 20
-0.1446462682547917
 30
0.0
 10
206.2270569204641
 20
-0.1430654194098102
 30
0.0
 10
204.0328531099843
 20
-0.1394976817360172
 30
0.0
 10
202.926173656542
 20
-0.1375101217304525
 30
0.0
 10
199.5780716037125
 20
-0.1309286882081734
 30
0.0
 10
197.3087784862733
 20
-0.1256804043226201
 30
0.0
 10
195.0007296797765
 20
-0.1195388926359675
 30
0.0
  0
LWPOLYLINE
  5
2B1
330
289
100
AcDbEntity
  8
0
  6
Continuous
 62
     7
370
    25
100
AcDbPolyline
 90
        2
 70
   128
 43
0.0
 10
-229.9776904963
 20
-0.103840599
 10
-229.9776904963
 20
-0.103840599
  0
LWPOLYLINE
  5
2B2
330
289
100
AcDbEntity
  8
0
  6
Continuous
 62
     7
370
    25
100
AcDbPolyline
 90
        7
 70
   128
 43
0.0
 10
229.9776904963
 20
-0.103840599
 10
229.9776904963
 20
-0.103840599
 10
229.9776904963
 20
-0.103840599
 10
229.9776904963
 20
-0.103840599
 10
229.9776904963
 20
-0.103840599
 10
230.0129808565
 20
-0.0258034835
 10
229.977652084
 20
-0.1039721294
  0
LINE
  5
2BC
330
289
100
AcDbEntity
  8
0
  6
Continuous
 62
     7
370
    25
100
AcDbLine
 10
-229.9888439512
 20
0.0
 30
0.0
 11
-229.9776904963
 21
-0.103840599
 31
0.0
  0
LINE
  5
2BD
330
289
100
AcDbEntity
  8
0
  6
Continuous
 62
     7
370
    25
100
AcDbLine
 10
229.9776904963
 20
-0.103840599
 30
0.0
 11
229.9888427676
 21
0.0
 31
0.0
  0
LINE
  5
2BE
330
289
100
AcDbEntity
  8
0
  6
Continuous
 62
     7
370
    25
100
AcDbLine
 10
39.0
 20
-152.0
 30
0.0
 11
39.0
 21
-128.0
 31
0.0
  0
LINE
  5
2BF
330
289
100
AcDbEntity
  8
0
  6
Continuous
 62
     7
370
    25
100
AcDbLine
 10
-39.0
 20
-128.0
 30
0.0
 11
-39.0
 21
-152.0
 31
0.0
  0
LINE
  5
2C0
330
289
100
AcDbEntity
  8
0
  6
Continuous
 62
     7
370
    25
100
AcDbLine
 10
307.2847443432
 20
0.0
 30
0.0
 11
-307.2847443432
 21
0.0
 31
0.0
  0
LINE
  5
2C1
330
289
100
AcDbEntity
  8
0
  6
Continuous
 62
     7
370
    25
100
AcDbLine
 10
-298.2970785305
 20
0.0
 30
0.0
 11
-298.2970785305
 21
1.0523359562
 31
0.0
  0
LINE
  5
2C2
330
289
100
AcDbEntity
  8
0
  6
Continuous
 62
     7
370
    25
100
AcDbLine
 10
-298.2970785305
 20
1.0523359562
 30
0.0
 11
298.2970785305
 21
1.0523359562
 31
0.0
  0
LINE
  5
2C3
330
289
100
AcDbEntity
  8
0
  6
Continuous
 62
     7
370
    25
100
AcDbLine
 10
298.2970785305
 20
0.0
 30
0.0
 11
298.2970785305
 21
1.0523359562
 31
0.0
  0
LINE
  5
2C4
330
289
100
AcDbEntity
  8
0
  6
Continuous
 62
     7
370
    25
100
AcDbLine
 10
307.7483248402
 20
11.2616797812
 30
0.0
 11
308.283373878
 21
1.0523359562
 31
0.0
  0
LINE
  5
2C5
330
289
100
AcDbEntity
  8
0
  6
Continuous
 62
     7
370
    25
100
AcDbLine
 10
298.2970785305
 20
1.0523359562
 30
0.0
 11
297.7620294927
 21
11.2616797812
 31
0.0
  0
LINE
  5
2C6
330
289
100
AcDbEntity
  8
0
  6
Continuous
 62
     7
370
    25
100
AcDbLine
 10
297.7620294927
 20
11.2616797812
 30
0.0
 11
-297.7620294927
 21
11.2616797812
 31
0.0
  0
LINE
  5
2C7
330
289
100
AcDbEntity
  8
0
  6
Continuous
 62
     7
370
    25
100
AcDbLine
 10
-297.7620294927
 20
11.2616797812
 30
0.0
 11
-298.2970785305
 21
1.0523359562
 31
0.0
  0
LINE
  5
2C8
330
289
100
AcDbEntity
  8
0
  6
Continuous
 62
     7
370
    25
100
AcDbLine
 10
-308.283373878
 20
1.0523359562
 30
0.0
 11
-307.7483248402
 21
11.2616797812
 31
0.0
  0
LINE
  5
2C9
330
289
100
AcDbEntity
  8
0
  6
Continuous
 62
     7
370
    25
100
AcDbLine
 10
-297.7620294927
 20
16.0
 30
0.0
 11
-297.7620294927
 21
11.2616797812
 31
0.0
  0
LINE
  5
2CA
330
289
100
AcDbEntity
  8
0
  6
Continuous
 62
     7
370
    25
100
AcDbLine
 10
-302.7551771664
 20
16.0
 30
0.0
 11
302.7551771664
 21
16.0
 31
0.0
  0
LINE
  5
2CB
330
289
100
AcDbEntity
  8
0
  6
Continuous
 62
     7
370
    25
100
AcDbLine
 10
297.7620294927
 20
16.0
 30
0.0
 11
297.7620294927
 21
11.2616797812
 31
0.0
  0
LINE
  5
2CC
330
289
100
AcDbEntity
  8
0
  6
Continuous
 62
     7
370
    25
100
AcDbLine
 10
202.5
 20
-128.0
 30
0.0
 11
-202.5
 21
-128.0
 31
0.0
  0
LINE
  5
2CD
330
289
100
AcDbEntity
  8
0
  6
Continuous
 62
     7
370
    25
100
AcDbLine
 10
-229.9776904963
 20
-0.103840599
 30
0.0
 11
-202.5
 21
-128.0
 31
0.0
  0
LINE
  5
2CE
330
289
100
AcDbEntity
  8
0
  6
Continuous
 62
     7
370
    25
100
AcDbLine
 10
202.5
 20
-128.0
 30
0.0
 11
229.9776904963
 21
-0.103840599
 31
0.0
  0
LINE
  5
2CF
330
289
100
AcDbEntity
  8
0
  6
Continuous
 62
     7
370
    25
100
AcDbLine
 10
38.0
 20
-153.0
 30
0.0
 11
-38.0
 21
-153.0
 31
0.0
  0
LINE
  5
2D0
330
289
100
AcDbEntity
  8
0
  6
Continuous
 62
     8
370
    25
100
AcDbLine
 10
-195.0003702449
 20
0.0
 30
0.0
 11
-195.0007296645
 21
-0.1195388926
 31
0.0
  0
LINE
  5
2D1
330
289
100
AcDbEntity
  8
0
  6
Continuous
 62
     8
370
    25
100
AcDbLine
 10
195.00037026
 20
0.0
 30
0.0
 11
195.0007296798
 21
-0.1195388926
 31
0.0
  0
LINE
  5
2D2
330
289
100
AcDbEntity
  8
0
  6
Continuous
 62
     8
370
    25
100
AcDbLine
 10
-39.0
 20
-152.0
 30
0.0
 11
39.0
 21
-152.0
 31
0.0
  0
ARC
  5
2D3
330
289
100
AcDbEntity
  8
0
  6
Continuous
 62
     7
370
    25
100
AcDbCircle
 10
38.0
 20
-152.0
 30
0.0
 40
1.0
100
AcDbArc
 50
270.0
 51
0.0
  0
ARC
  5
2D4
330
289
100
AcDbEntity
  8
0
  6
Continuous
 62
     7
370
    25
100
AcDbCircle
 10
-38.0
 20
-152.0
 30
0.0
 40
1.000000000000007
100
AcDbArc
 50
180.0
 51
270.0
  0
ARC
  5
2D5
330
289
100
AcDbEntity
  8
0
  6
Continuous
 62
     7
370
    25
100
AcDbCircle
 10
-307.2847443432
 20
1.0
 30
0.0
 40
1.000000000000052
100
AcDbArc
 50
177.0
 51
270.0
  0
ARC
  5
2D6
330
289
100
AcDbEntity
  8
0
  6
Continuous
 62
     7
370
    25
100
AcDbCircle
 10
-303.2902262042
 20
-477.5714413808
 30
0.0
 40
478.6498216400351
100
AcDbArc
 50
89.4022948214
 51
90.5977051786
  0
ARC
  5
2D7
330
289
100
AcDbEntity
  8
0
  6
Continuous
 62
     7
370
    25
100
AcDbCircle
 10
303.2902262042
 20
-477.5714413808
 30
0.0
 40
478.6498216400526
100
AcDbArc
 50
89.4022948214
 51
90.5977051786
  0
ARC
  5
2D8
330
289
100
AcDbEntity
  8
0
  6
Continuous
 62
     7
370
    25
100
AcDbCircle
 10
307.2847443432
 20
1.0
 30
0.0
 40
0.9999999999999449
100
AcDbArc
 50
270.0
 51
3.0
  0
ARC
  5
2D9
330
289
100
AcDbEntity
  8
0
  6
Continuous
 62
     7
370
    25
100
AcDbCircle
 10
302.7551771664
 20
-84.4918926964
 30
0.0
 40
95.88366996480784
100
AcDbArc
 50
87.0149687808
 51
92.9850312192
  0
ARC
  5
2DA
330
289
100
AcDbEntity
  8
0
  6
Continuous
 62
     7
370
    25
100
AcDbCircle
 10
-302.7551771664
 20
-84.4918926964
 30
0.0
 40
95.88366996481902
100
AcDbArc
 50
87.0149687808
 51
92.9850312192
  0
ARC
  5
2DB
330
289
100
AcDbEntity
  8
0
  6
Continuous
 62
     7
370
    25
100
AcDbCircle
 10
-302.7551771664
 20
11.0
 30
0.0
 40
5.000000000000042
100
AcDbArc
 50
90.0
 51
177.0
  0
ARC
  5
2DC
330
289
100
AcDbEntity
  8
0
  6
Continuous
 62
     7
370
    25
100
AcDbCircle
 10
302.7551771664
 20
11.0
 30
0.0
 40
5.000000000000218
100
AcDbArc
 50
3.0
 51
90.0
  0
ARC
  5
2DD
330
289
100
AcDbEntity
  8
0
  6
Continuous
 62
     8
370
    25
100
AcDbCircle
 10
-229.0000120069
 20
0.1062560115
 30
0.0
 40
0.9999879956433989
100
AcDbArc
 50
186.0996090751
 51
192.1358701165
  0
ARC
  5
2DE
330
289
100
AcDbEntity
  8
0
  6
Continuous
 62
     8
370
    25
100
AcDbCircle
 10
229.0000120069
 20
0.1062560114
 30
0.0
 40
0.9999879956329485
100
AcDbArc
 50
347.8641298894
 51
353.900390928
  0
VIEWPORT
  5
3F6
330
289
100
AcDbEntity
  8
0
100
AcDbViewport
 10
0.0
 20
0.0
 30
0.0
 40
205.6
 41
156.0
 68
     1
 69
     1
 12
0.0
 22
0.3923721716
 13
0.0
 23
0.0
 14
10.0
 24
10.0
 15
10.0
 25
10.0
 16
0.0
 26
0.0
 36
1.0
 17
0.0
 27
0.0
 37
0.0
 42
50.0
 43
0.0
 44
0.0
 45
477.1816003881
 50
0.0
 51
0.0
 72
   100
 90
   557152
  1

281
     0
 71
     1
 74
     0
110
0.0
120
0.0
130
0.0
111
1.0
121
0.0
131
0.0
112
0.0
122
1.0
132
0.0
 79
     0
146
0.0
  0
ENDBLK
  5
28C
330
289
100
AcDbEntity
  8
0
100
AcDbBlockEnd
  0
BLOCK
  5
2E1
330
2DF
100
AcDbEntity
  8
0
100
AcDbBlockBegin
  2
*Paper_Space2
 70
     0
 10
0.0
 20
0.0
 30
0.0
  3
*Paper_Space2
  1

  0
SPLINE
  5
2E3
330
2DF
100
AcDbEntity
  8
0
  6
Continuous
 62
     7
370
    25
100
AcDbSpline
210
0.0
220
0.0
230
1.0
 70
     8
 71
     3
 72
    11
 73
     7
 74
     0
 42
0.000000001
 43
0.00000001
 40
0.0
 40
0.0
 40
0.0
 40
0.0
 40
0.1877989790816122
 40
0.4781614750923872
 40
0.7811584749825309
 40
1.0
 40
1.0
 40
1.0
 40
1.0
 10
52.3798700929328
 20
-219.574861701457
 30
0.0
 10
52.51765049906545
 20
-219.6422801847982
 30
0.0
 10
52.86845795583331
 20
-219.8139367166952
 30
0.0
 10
53.53996363353039
 20
-219.909401875736
 30
0.0
 10
54.24724234598089
 20
-219.8361919110571
 30
0.0
 10
54.63314020212509
 20
-219.6524690760442
 30
0.0
 10
54.79497278310319
 20
-219.5754218986594
 30
0.0
  0
SPLINE
  5
2E6
330
2DF
100
AcDbEntity
  8
0
  6
Continuous
 62
     7
370
    25
100
AcDbSpline
210
0.0
220
0.0
230
1.0
 70
     8
 71
     3
 72
    13
 73
     9
 74
     0
 42
0.000000001
 43
0.00000001
 40
0.0
 40
0.0
 40
0.0
 40
0.0
 40
0.1058335805269178
 40
0.2921244609820594
 40
0.4919770405698382
 40
0.6992288590971749
 40
0.9045467053841212
 40
0.9999999999999999
 40
0.9999999999999999
 40
0.9999999999999999
 40
0.9999999999999999
 10
41.1051602803886
 20
-208.9834062099162
 30
0.0
 10
41.18539649972674
 20
-209.0342958705768
 30
0.0
 10
41.40686649260322
 20
-209.1747627679076
 30
0.0
 10
41.81476179036947
 20
-209.5651183874265
 30
0.0
 10
42.24840860844964
 20
-210.1696442265409
 30
0.0
 10
42.57484748319735
 20
-210.8687605614432
 30
0.0
 10
42.7130320394819
 20
-211.4381807162202
 30
0.0
 10
42.72320991922149
 20
-211.706452661971
 30
0.0
 10
42.72643999026626
 20
-211.7915919509268
 30
0.0
  0
SPLINE
  5
2E8
330
2DF
100
AcDbEntity
  8
0
  6
Continuous
 62
     7
370
    25
100
AcDbSpline
210
0.0
220
0.0
230
1.0
 70
     8
 71
     3
 72
    11
 73
     7
 74
     0
 42
0.000000001
 43
0.00000001
 40
0.0
 40
0.0
 40
0.0
 40
0.0
 40
0.1877997874752785
 40
0.4778617568459045
 40
0.7807326382501578
 40
1.0
 40
1.0
 40
1.0
 40
1.0
 10
42.72643999026626
 20
-212.6081327628125
 30
0.0
 10
42.7369466893249
 20
-212.7611345058816
 30
0.0
 10
42.76368127586677
 20
-213.1504516756523
 30
0.0
 10
43.01666541586732
 20
-213.7791188623704
 30
0.0
 10
43.43357909994225
 20
-214.3547772369975
 30
0.0
 10
43.78571220536909
 20
-214.5971459036468
 30
0.0
 10
43.93358740513478
 20
-214.6989264929903
 30
0.0
  0
SPLINE
  5
2EA
330
2DF
100
AcDbEntity
  8
0
  6
Continuous
 62
     7
370
    25
100
AcDbSpline
210
0.0
220
0.0
230
1.0
 70
     8
 71
     3
 72
    12
 73
     8
 74
     0
 42
0.000000001
 43
0.00000001
 40
0.0
 40
0.0
 40
0.0
 40
0.0
 40
0.023947208063809
 40
0.1163772986126748
 40
0.2282345576554187
 40
0.5626745063660998
 40
1.0
 40
1.0
 40
1.0
 40
1.0
 10
-0.1043292352438385
 20
-186.1715034147734
 30
0.0
 10
-0.1054702354173487
 20
-186.1745418999842
 30
0.0
 10
-0.1110152040647572
 20
-186.1893081599911
 30
0.0
 10
-0.0197575049107335
 20
-186.1868562374955
 30
0.0
 10
0.2910592638146747
 20
-186.1607349143338
 30
0.0
 10
1.004799353626129
 20
-186.1222707954141
 30
0.0
 10
1.522807961475053
 20
-186.2369877649487
 30
0.0
 10
1.81634063047606
 20
-186.3019928203416
 30
0.0
  0
SPLINE
  5
2EC
330
2DF
100
AcDbEntity
  8
0
  6
Continuous
 62
     7
370
    25
100
AcDbSpline
210
0.0
220
0.0
230
1.0
 70
     8
 71
     3
 72
    26
 73
    22
 74
     0
 42
0.000000001
 43
0.00000001
 40
0.0
 40
0.0
 40
0.0
 40
0.0
 40
0.0508594702002878
 40
0.1004059793590227
 40
0.1459365774429559
 40
0.1912829908371759
 40
0.2454364099217409
 40
0.3007083018579269
 40
0.3563439696617405
 40
0.4118548196529714
 40
0.4663261829952464
 40
0.522030020196785
 40
0.5785200465780624
 40
0.6353033969831712
 40
0.691708254787568
 40
0.7471731513069767
 40
0.7922750009273656
 40
0.8356870326474437
 40
0.8814292454476423
 40
0.940026321796506
 40
1.0
 40
1.0
 40
1.0
 40
1.0
 10
115.5670034181443
 20
-111.0769045396511
 30
0.0
 10
114.875700644254
 20
-111.4661437584658
 30
0.0
 10
113.51094140133
 20
-112.2345738033741
 30
0.0
 10
111.4643083687338
 20
-113.2153455384438
 30
0.0
 10
109.3796769943987
 20
-114.0655748633256
 30
0.0
 10
107.0120801232794
 20
-114.8710169914219
 30
0.0
 10
104.3625596932608
 20
-115.6228396129927
 30
0.0
 10
101.3953170234945
 20
-116.2914518951877
 30
0.0
 10
98.29472380797289
 20
-116.8188147883325
 30
0.0
 10
95.12249933061895
 20
-117.1818623253233
 30
0.0
 10
91.89597231962541
 20
-117.383376550225
 30
0.0
 10
88.62850796893389
 20
-117.4263259705296
 30
0.0
 10
85.32236417024524
 20
-117.3072761380586
 30
0.0
 10
82.03873692533269
 20
-117.0252673140879
 30
0.0
 10
78.83966290838248
 20
-116.5857972290553
 30
0.0
 10
75.95561232280241
 20
-116.0322083250141
 30
0.0
 10
73.40285845820047
 20
-115.4092137812985
 30
0.0
 10
71.16351127925275
 20
-114.7341081256862
 30
0.0
 10
68.82911774085365
 20
-113.879965111389
 30
0.0
 10
66.37008835745895
 20
-112.8299526336399
 30
0.0
 10
64.70114150379293
 20
-111.9813813094024
 30
0.0
 10
63.85697987288841
 20
-111.5521697072274
 30
0.0
  0
SPLINE
  5
2ED
330
2DF
100
AcDbEntity
  8
0
  6
Continuous
 62
     7
370
    25
100
AcDbSpline
210
0.0
220
0.0
230
1.0
 70
     8
 71
     3
 72
    18
 73
    14
 74
     0
 42
0.000000001
 43
0.00000001
 40
0.0
 40
0.0
 40
0.0
 40
0.0
 40
0.0072335255370326
 40
0.02415699192135
 40
0.0429538216790951
 40
0.0752026273476995
 40
0.5757893622535455
 40
0.8260827297064687
 40
0.95122941343293
 40
0.9827315930204837
 40
0.9934810299842239
 40
0.9998417501657324
 40
1.0
 40
1.0
 40
1.0
 40
1.0
 10
63.85157170940373
 20
-111.6045427246374
 30
0.0
 10
63.19327706847665
 20
-111.2474418120303
 30
0.0
 10
60.99484447273485
 20
-110.0548720454908
 30
0.0
 10
57.15069778644367
 20
-107.7291963819113
 30
0.0
 10
50.83182530281403
 20
-104.0979512380511
 30
0.0
 10
0.2643435790304766
 20
-74.86889703525509
 30
0.0
 10
-71.81232026284414
 20
-33.27452447380552
 30
0.0
 10
-152.5495199208719
 20
13.28525869310035
 30
0.0
 10
-189.6894768837624
 20
34.79751429376235
 30
0.0
 10
-205.334339658243
 20
43.76392715288435
 30
0.0
 10
-209.7394297060576
 20
46.27209683619983
 30
0.0
 10
-211.2827029161978
 20
47.18274607180689
 30
0.0
 10
-211.8008852756988
 20
47.51478054343369
 30
0.0
 10
-211.8134642985066
 20
47.52284077380428
 30
0.0
  0
SPLINE
  5
2EE
330
2DF
100
AcDbEntity
  8
0
  6
Continuous
 62
     7
370
    25
100
AcDbSpline
210
0.0
220
0.0
230
1.0
 70
     8
 71
     3
 72
    18
 73
    14
 74
     0
 42
0.000000001
 43
0.00000001
 40
0.0
 40
0.0
 40
0.0
 40
0.0
 40
0.0047325072370961
 40
0.0208474140579308
 40
0.0411514979524585
 40
0.0674164379614432
 40
0.0993663926796809
 40
0.6277737410799638
 40
0.8919774152801051
 40
0.9580283338301404
 40
0.9827974282864039
 40
0.9969622428490278
 40
1.0
 40
1.0
 40
1.0
 40
1.0
 10
253.3409134131936
 20
-31.5608581912638
 30
0.0
 10
253.1492086950705
 20
-31.68206568136635
 30
0.0
 10
252.3047202589532
 20
-32.21600310744866
 30
0.0
 10
250.441224820239
 20
-33.27998912191514
 30
0.0
 10
247.5149826855216
 20
-34.93807058191593
 30
0.0
 10
243.9051666614234
 20
-37.03179682057505
 30
0.0
 10
216.9349188728241
 20
-52.58408528351087
 30
0.0
 10
178.9919643457924
 20
-74.51638589294238
 30
0.0
 10
139.5852233881038
 20
-97.23978064375294
 30
0.0
 10
123.2000312664998
 20
-106.7184026936435
 30
0.0
 10
118.4236556362619
 20
-109.4600452103713
 30
0.0
 10
116.4309109084048
 20
-110.6300678346564
 30
0.0
 10
115.6932553595951
 20
-111.0393263610723
 30
0.0
 10
115.5629946953376
 20
-111.1115962539648
 30
0.0
  0
SPLINE
  5
2EF
330
2DF
100
AcDbEntity
  8
0
  6
Continuous
 62
     7
370
    25
100
AcDbSpline
210
0.0
220
0.0
230
1.0
 70
     8
 71
     3
 72
    26
 73
    22
 74
     0
 42
0.000000001
 43
0.00000001
 40
0.0
 40
0.0
 40
0.0
 40
0.0
 40
0.0058572850351078
 40
0.0651247267151089
 40
0.1243340042159212
 40
0.1821198241489954
 40
0.2386780518573054
 40
0.2945955687161909
 40
0.3502886359354139
 40
0.4059506092755159
 40
0.4616655697580385
 40
0.5174696409721069
 40
0.5733591111727284
 40
0.6293128565236304
 40
0.6853028276951904
 40
0.7412984252225439
 40
0.7972592387766678
 40
0.853151701695462
 40
0.908944850048293
 40
0.9646123467949012
 40
1.0
 40
1.0
 40
1.0
 40
1.0
 10
-30.24356096176385
 20
-96.89287638077248
 30
0.0
 10
-30.23870087293461
 20
-96.93473137044093
 30
0.0
 10
-30.18466355787849
 20
-97.40009966778075
 30
0.0
 10
-30.37142426979349
 20
-98.28868740853878
 30
0.0
 10
-30.83412275620366
 20
-99.54808182593439
 30
0.0
 10
-31.63680958251823
 20
-100.7704073784162
 30
0.0
 10
-32.71662253355019
 20
-101.924072988797
 30
0.0
 10
-34.06231647756602
 20
-102.9897272302017
 30
0.0
 10
-35.65010956946657
 20
-103.9502997482235
 30
0.0
 10
-37.45549483948466
 20
-104.7882622630586
 30
0.0
 10
-39.44779628642661
 20
-105.4869197169615
 30
0.0
 10
-41.59215110427409
 20
-106.0318009729654
 30
0.0
 10
-43.85006484454075
 20
-106.4113744667891
 30
0.0
 10
-46.1802913468774
 20
-106.6174754599509
 30
0.0
 10
-48.5398476817033
 20
-106.6455727023692
 30
0.0
 10
-50.8850029675223
 20
-106.4949662581141
 30
0.0
 10
-53.17175010726524
 20
-106.1686261204641
 30
0.0
 10
-55.35869463637011
 20
-105.6741221761854
 30
0.0
 10
-57.40071839245682
 20
-105.0201297003722
 30
0.0
 10
-59.05081048445107
 20
-104.3245059389607
 30
0.0
 10
-59.95847088120762
 20
-103.8259554867373
 30
0.0
 10
-60.31122381572543
 20
-103.6321989499804
 30
0.0
  0
SPLINE
  5
2F0
330
2DF
100
AcDbEntity
  8
0
  6
Continuous
 62
     7
370
    25
100
AcDbSpline
210
0.0
220
0.0
230
1.0
 70
     8
 71
     3
 72
    14
 73
    10
 74
     0
 42
0.000000001
 43
0.00000001
 40
0.0
 40
0.0
 40
0.0
 40
0.0
 40
0.0839538594652399
 40
0.2441421949351645
 40
0.4042844583466077
 40
0.564867106965624
 40
0.7270197217342012
 40
0.8924100816759174
 40
1.0
 40
1.0
 40
1.0
 40
1.0
 10
-60.31122381572543
 20
-103.6321989499804
 30
0.0
 10
-60.5867754129513
 20
-103.4663925350407
 30
0.0
 10
-61.38809380609163
 20
-102.9842188465936
 30
0.0
 10
-62.53385697614404
 20
-102.1062471708405
 30
0.0
 10
-63.64035352260291
 20
-100.9914808777755
 30
0.0
 10
-64.46771990404504
 20
-99.82202086815691
 30
0.0
 10
-64.99927476768369
 20
-98.61844882250631
 30
0.0
 10
-65.25308408302239
 20
-97.54273966366371
 30
0.0
 10
-65.2025207874264
 20
-96.86831479759853
 30
0.0
 10
-65.182592238456
 20
-96.60250322792524
 30
0.0
  0
SPLINE
  5
2F1
330
2DF
100
AcDbEntity
  8
0
  6
Continuous
 62
     7
370
    25
100
AcDbSpline
210
0.0
220
0.0
230
1.0
 70
     8
 71
     3
 72
    26
 73
    22
 74
     0
 42
0.000000001
 43
0.00000001
 40
0.0
 40
0.0
 40
0.0
 40
0.0
 40
0.0058572850351148
 40
0.0651247267151187
 40
0.1243340042159342
 40
0.1821198241490087
 40
0.2386780518573149
 40
0.2945955687162037
 40
0.3502886359354253
 40
0.4059506092755298
 40
0.4616655697580535
 40
0.5174696409721199
 40
0.5733591111727435
 40
0.6293128565236434
 40
0.6853028276952026
 40
0.741298425222557
 40
0.7972592387766805
 40
0.853151701695476
 40
0.9089448500482984
 40
0.9646123467949033
 40
1.0
 40
1.0
 40
1.0
 40
1.0
 10
-100.9542390804184
 20
-56.07247078963663
 30
0.0
 10
-100.9493789915892
 20
-56.11432577930515
 30
0.0
 10
-100.8953416765331
 20
-56.57969407664505
 30
0.0
 10
-101.082102388448
 20
-57.46828181740312
 30
0.0
 10
-101.5448008748583
 20
-58.72767623479884
 30
0.0
 10
-102.3474877011728
 20
-59.95000178728069
 30
0.0
 10
-103.4273006522048
 20
-61.10366739766142
 30
0.0
 10
-104.7729945962207
 20
-62.16932163906623
 30
0.0
 10
-106.3607876881213
 20
-63.12989415708799
 30
0.0
 10
-108.1661729581395
 20
-63.96785667192312
 30
0.0
 10
-110.1584744050815
 20
-64.66651412582598
 30
0.0
 10
-112.302829222929
 20
-65.21139538182996
 30
0.0
 10
-114.5607429631957
 20
-65.59096887565356
 30
0.0
 10
-116.8909694655323
 20
-65.79706986881534
 30
0.0
 10
-119.2505258003582
 20
-65.82516711123364
 30
0.0
 10
-121.5956810861773
 20
-65.67456066697855
 30
0.0
 10
-123.8824282259203
 20
-65.34822052932844
 30
0.0
 10
-126.069372755025
 20
-64.85371658504977
 30
0.0
 10
-128.1113965111116
 20
-64.19972410923663
 30
0.0
 10
-129.7614886031056
 20
-63.50410034782508
 30
0.0
 10
-130.6691489998622
 20
-63.00554989560178
 30
0.0
 10
-131.02190193438
 20
-62.81179335884485
 30
0.0
  0
SPLINE
  5
2F2
330
2DF
100
AcDbEntity
  8
0
  6
Continuous
 62
     7
370
    25
100
AcDbSpline
210
0.0
220
0.0
230
1.0
 70
     8
 71
     3
 72
    14
 73
    10
 74
     0
 42
0.000000001
 43
0.00000001
 40
0.0
 40
0.0
 40
0.0
 40
0.0
 40
0.0839538594652415
 40
0.2441421949351691
 40
0.4042844583466015
 40
0.5648671069656215
 40
0.7270197217342067
 40
0.8924100816758921
 40
1.0
 40
1.0
 40
1.0
 40
1.0
 10
-131.02190193438
 20
-62.81179335884485
 30
0.0
 10
-131.2974535316059
 20
-62.64598694390511
 30
0.0
 10
-132.0987719247462
 20
-62.16381325545807
 30
0.0
 10
-133.2445350947985
 20
-61.28584157970498
 30
0.0
 10
-134.3510316412575
 20
-60.17107528664003
 30
0.0
 10
-135.1783980226996
 20
-59.00161527702146
 30
0.0
 10
-135.709952886338
 20
-57.79804323137089
 30
0.0
 10
-135.963762201677
 20
-56.72233407252839
 30
0.0
 10
-135.913198906081
 20
-56.0479092064632
 30
0.0
 10
-135.8932703571105
 20
-55.78209763678984
 30
0.0
  0
SPLINE
  5
2F3
330
2DF
100
AcDbEntity
  8
0
  6
Continuous
 62
     7
370
    25
100
AcDbSpline
210
0.0
220
0.0
230
1.0
 70
     8
 71
     3
 72
    16
 73
    12
 74
     0
 42
0.000000001
 43
0.00000001
 40
0.0
 40
0.0
 40
0.0
 40
0.0
 40
0.0467810103399112
 40
0.1816119176475587
 40
0.3163804246433222
 40
0.4512856731772218
 40
0.586407962658892
 40
0.7217350556664986
 40
0.8572144648196757
 40
0.9927777730957668
 40
1.0
 40
1.0
 40
1.0
 40
1.0
 10
-132.4537478665142
 20
-61.84060744833891
 30
0.0
 10
-132.3013488223339
 20
-61.71797226215272
 30
0.0
 10
-131.7097095554578
 20
-61.2418814045054
 30
0.0
 10
-130.4188321717476
 20
-60.51013672705396
 30
0.0
 10
-128.6167509283779
 20
-59.67434497340009
 30
0.0
 10
-126.6117492173253
 20
-58.98464736317236
 30
0.0
 10
-124.4614884979894
 20
-58.44830967163275
 30
0.0
 10
-122.1981570229428
 20
-58.07623350580126
 30
0.0
 10
-119.8664108332553
 20
-57.88533790101769
 30
0.0
 10
-118.2487553092057
 20
-57.85746850211955
 30
0.0
 10
-117.4251968671246
 20
-57.89552651873733
 30
0.0
 10
-117.3835405051542
 20
-57.89745152907675
 30
0.0
  0
SPLINE
  5
2F4
330
2DF
100
AcDbEntity
  8
0
  6
Continuous
 62
     7
370
    25
100
AcDbSpline
210
0.0
220
0.0
230
1.0
 70
     8
 71
     3
 72
    15
 73
    11
 74
     0
 42
0.000000001
 43
0.00000001
 40
0.0
 40
0.0
 40
0.0
 40
0.0
 40
0.13170408043534
 40
0.2853465299978681
 40
0.4484071431751171
 40
0.6049763880101661
 40
0.7577503216046046
 40
0.8687901091719379
 40
0.9914441362873512
 40
0.9999999999999999
 40
0.9999999999999999
 40
0.9999999999999999
 40
0.9999999999999999
 10
260.423835493286
 20
-24.24270581499353
 30
0.0
 10
260.3393258309369
 20
-24.48546861871366
 30
0.0
 10
260.1562294619945
 20
-25.01143200135999
 30
0.0
 10
259.6050810943404
 20
-26.00418292969212
 30
0.0
 10
258.7749012244262
 20
-27.15330108653528
 30
0.0
 10
257.6464585169653
 20
-28.37710617038664
 30
0.0
 10
256.3658201922509
 20
-29.5115980807575
 30
0.0
 10
255.0149852030681
 20
-30.50569414761657
 30
0.0
 10
254.0143446933417
 20
-31.17108054609907
 30
0.0
 10
253.4040261721348
 20
-31.53463949561852
 30
0.0
 10
253.3642288515532
 20
-31.55834625129046
 30
0.0
  0
SPLINE
  5
2F6
330
2DF
100
AcDbEntity
  8
0
  6
Continuous
 62
     7
370
    25
100
AcDbSpline
210
0.0
220
0.0
230
1.0
 70
     8
 71
     3
 72
    26
 73
    22
 74
     0
 42
0.000000001
 43
0.00000001
 40
0.0
 40
0.0
 40
0.0
 40
0.0
 40
0.005857285035108
 40
0.0651247267151092
 40
0.1243340042159214
 40
0.1821198241489956
 40
0.2386780518573056
 40
0.2945955687161911
 40
0.3502886359354141
 40
0.405950609275516
 40
0.4616655697580387
 40
0.5174696409721071
 40
0.5733591111727286
 40
0.6293128565236307
 40
0.6853028276951905
 40
0.7412984252225441
 40
0.7972592387766679
 40
0.853151701695462
 40
0.908944850048293
 40
0.9646123467949012
 40
1.0
 40
1.0
 40
1.0
 40
1.0
 10
-171.6649171990731
 20
-15.25206519850143
 30
0.0
 10
-171.6600571102439
 20
-15.29392018816988
 30
0.0
 10
-171.6060197951877
 20
-15.75928848550969
 30
0.0
 10
-171.7927805071028
 20
-16.64787622626771
 30
0.0
 10
-172.2554789935128
 20
-17.90727064366332
 30
0.0
 10
-173.0581658198276
 20
-19.12959619614518
 30
0.0
 10
-174.1379787708595
 20
-20.28326180652593
 30
0.0
 10
-175.4836727148753
 20
-21.34891604793068
 30
0.0
 10
-177.0714658067759
 20
-22.30948856595245
 30
0.0
 10
-178.876851076794
 20
-23.14745108078753
 30
0.0
 10
-180.8691525237359
 20
-23.84610853469044
 30
0.0
 10
-183.0135073415834
 20
-24.39098979069442
 30
0.0
 10
-185.27142108185
 20
-24.770563284518
 30
0.0
 10
-187.6016475841866
 20
-24.97666427767986
 30
0.0
 10
-189.9612039190126
 20
-25.00476152009817
 30
0.0
 10
-192.3063592048316
 20
-24.85415507584306
 30
0.0
 10
-194.5931063445746
 20
-24.52781493819308
 30
0.0
 10
-196.7800508736794
 20
-24.03331099391433
 30
0.0
 10
-198.8220746297661
 20
-23.37931851810123
 30
0.0
 10
-200.4721667217604
 20
-22.68369475668965
 30
0.0
 10
-201.3798271185169
 20
-22.18514430446628
 30
0.0
 10
-201.7325800530347
 20
-21.99138776770936
 30
0.0
  0
SPLINE
  5
2F7
330
2DF
100
AcDbEntity
  8
0
  6
Continuous
 62
     7
370
    25
100
AcDbSpline
210
0.0
220
0.0
230
1.0
 70
     8
 71
     3
 72
    14
 73
    10
 74
     0
 42
0.000000001
 43
0.00000001
 40
0.0
 40
0.0
 40
0.0
 40
0.0
 40
0.0839538594652399
 40
0.2441421949351646
 40
0.4042844583466079
 40
0.5648671069656244
 40
0.7270197217342016
 40
0.892410081675918
 40
1.0
 40
1.0
 40
1.0
 40
1.0
 10
-201.7325800530347
 20
-21.99138776770936
 30
0.0
 10
-202.0081316502606
 20
-21.82558135276961
 30
0.0
 10
-202.8094500434009
 20
-21.34340766432258
 30
0.0
 10
-203.9552132134533
 20
-20.46543598856947
 30
0.0
 10
-205.0617097599123
 20
-19.35066969550445
 30
0.0
 10
-205.8890761413543
 20
-18.18120968588586
 30
0.0
 10
-206.4206310049929
 20
-16.97763764023525
 30
0.0
 10
-206.6744403203317
 20
-15.90192848139271
 30
0.0
 10
-206.6238770247357
 20
-15.22750361532749
 30
0.0
 10
-206.6039484757653
 20
-14.96169204565422
 30
0.0
  0
SPLINE
  5
2F8
330
2DF
100
AcDbEntity
  8
0
  6
Continuous
 62
     7
370
    25
100
AcDbSpline
210
0.0
220
0.0
230
1.0
 70
     8
 71
     3
 72
    13
 73
     9
 74
     0
 42
0.000000001
 43
0.00000001
 40
0.0
 40
0.0
 40
0.0
 40
0.0
 40
0.1793572035199929
 40
0.3706648683795018
 40
0.5608784376865337
 40
0.7547568695333194
 40
0.9726472672897439
 40
1.0
 40
1.0
 40
1.0
 40
1.0
 10
378.0207204864197
 20
-21.03247635918635
 30
0.0
 10
377.9616446082379
 20
-20.59960671758029
 30
0.0
 10
377.8395566620558
 20
-19.70502559353024
 30
0.0
 10
377.3028913388683
 20
-18.44275719979163
 30
0.0
 10
376.5407407722375
 20
-17.27743174183247
 30
0.0
 10
375.5306194137681
 20
-16.22900847405242
 30
0.0
 10
374.6690257371347
 20
-15.60042954201554
 30
0.0
 10
374.1540177415515
 20
-15.29855664593983
 30
0.0
 10
374.0965772904366
 20
-15.26488781850677
 30
0.0
  0
SPLINE
  5
2FA
330
2DF
100
AcDbEntity
  8
0
  6
Continuous
 62
     7
370
    25
100
AcDbSpline
210
0.0
220
0.0
230
1.0
 70
     8
 71
     3
 72
    13
 73
     9
 74
     0
 42
0.000000001
 43
0.00000001
 40
0.0
 40
0.0
 40
0.0
 40
0.0
 40
0.1171199094225458
 40
0.3386991574336123
 40
0.559577771152633
 40
0.774780454442951
 40
0.9813314756209746
 40
1.0
 40
1.0
 40
1.0
 40
1.0
 10
375.6779642946339
 20
-34.33361388180393
 30
0.0
 10
375.9051501995101
 20
-34.19451014141141
 30
0.0
 10
376.5621492950676
 20
-33.79223592604436
 30
0.0
 10
377.4669181141252
 20
-33.00953790753307
 30
0.0
 10
378.2758453190107
 20
-31.95859791768639
 30
0.0
 10
378.7185898484847
 20
-30.8188386448971
 30
0.0
 10
378.8769648796567
 20
-29.98531080955955
 30
0.0
 10
378.7972414326475
 20
-29.57043185206901
 30
0.0
 10
378.7906331291344
 20
-29.53604239482585
 30
0.0
  0
SPLINE
  5
2FC
330
2DF
100
AcDbEntity
  8
0
  6
Continuous
 62
     7
370
    25
100
AcDbSpline
210
0.0
220
0.0
230
1.0
 70
     8
 71
     3
 72
    10
 73
     6
 74
     0
 42
0.000000001
 43
0.00000001
 40
0.0
 40
0.0
 40
0.0
 40
0.0
 40
0.4167689953459374
 40
0.9455859675857691
 40
1.0
 40
1.0
 40
1.0
 40
1.0
 10
-330.2004684551814
 20
5.367291745943664
 30
0.0
 10
-329.9257026610366
 20
5.121884068496368
 30
0.0
 10
-329.3023005312781
 20
4.565091075919292
 30
0.0
 10
-328.7599505734081
 20
3.818066050395336
 30
0.0
 10
-328.5975371244959
 20
3.307917547178657
 30
0.0
 10
-328.5823843452317
 20
3.260321934173513
 30
0.0
  0
SPLINE
  5
2FE
330
2DF
100
AcDbEntity
  8
0
  6
Continuous
 62
     7
370
    25
100
AcDbSpline
210
0.0
220
0.0
230
1.0
 70
     8
 71
     3
 72
    10
 73
     6
 74
     0
 42
0.000000001
 43
0.00000001
 40
0.0
 40
0.0
 40
0.0
 40
0.0
 40
0.4692757670860735
 40
0.83116998904754
 40
1.0
 40
1.0
 40
1.0
 40
1.0
 10
-369.9892472292616
 20
28.20032923336208
 30
0.0
 10
-369.9891439442181
 20
28.20649012862927
 30
0.0
 10
-369.9889610082249
 20
28.21740215863579
 30
0.0
 10
-369.7398496859306
 20
28.18130018783424
 30
0.0
 10
-369.5544853986718
 20
28.08268960087553
 30
0.0
 10
-369.4955187023967
 20
28.05132034082711
 30
0.0
  0
SPLINE
  5
2FF
330
2DF
100
AcDbEntity
  8
0
  6
Continuous
 62
     7
370
    25
100
AcDbSpline
210
0.0
220
0.0
230
1.0
 70
     8
 71
     3
 72
    11
 73
     7
 74
     0
 42
0.000000001
 43
0.00000001
 40
0.0
 40
0.0
 40
0.0
 40
0.0
 40
0.2588342488546765
 40
0.528544710887449
 40
0.7988990788410665
 40
0.9999999999999999
 40
0.9999999999999999
 40
0.9999999999999999
 40
0.9999999999999999
 10
-379.5630164723631
 20
42.79469827892562
 30
0.0
 10
-379.8116055965684
 20
42.6271790532945
 30
0.0
 10
-380.3192295580968
 20
42.28510144543888
 30
0.0
 10
-380.827917553684
 20
41.50275854705854
 30
0.0
 10
-381.1135103721403
 20
40.69946746537836
 30
0.0
 10
-381.1633410673677
 20
40.15380556334674
 30
0.0
 10
-381.1845965266734
 20
39.92105154897042
 30
0.0
  0
SPLINE
  5
301
330
2DF
100
AcDbEntity
  8
0
  6
Continuous
 62
     7
370
    25
100
AcDbSpline
210
0.0
220
0.0
230
1.0
 70
     8
 71
     3
 72
    11
 73
     7
 74
     0
 42
0.000000001
 43
0.00000001
 40
0.0
 40
0.0
 40
0.0
 40
0.0
 40
0.3182942013587442
 40
0.6655990270565741
 40
0.9936213858641907
 40
1.0
 40
1.0
 40
1.0
 40
1.0
 10
-372.3239458271429
 20
25.60143250504378
 30
0.0
 10
-372.1723061323725
 20
25.5278516740889
 30
0.0
 10
-371.8552056860826
 20
25.37398355684233
 30
0.0
 10
-371.3363439812347
 20
25.36242906135132
 30
0.0
 10
-370.9584981028363
 20
25.43590574411109
 30
0.0
 10
-370.8271200707027
 20
25.55168308044044
 30
0.0
 10
-370.8246140679075
 20
25.55389150390171
 30
0.0
  0
SPLINE
  5
305
330
2DF
100
AcDbEntity
  8
0
  6
Continuous
 62
     7
370
    25
100
AcDbSpline
210
0.0
220
0.0
230
1.0
 70
     8
 71
     3
 72
    17
 73
    13
 74
     0
 42
0.000000001
 43
0.00000001
 40
0.0
 40
0.0
 40
0.0
 40
0.0
 40
0.0394722420743133
 40
0.1146997752168013
 40
0.1895604144253712
 40
0.3181957025883208
 40
0.4471696423666024
 40
0.5777025549357722
 40
0.694598446564637
 40
0.8161935755852622
 40
0.9681893998505495
 40
0.9999999999999999
 40
0.9999999999999999
 40
0.9999999999999999
 40
0.9999999999999999
 10
-211.8034777280646
 20
47.52193697677779
 30
0.0
 10
-212.0141227168039
 20
47.65098462379938
 30
0.0
 10
-212.6262220450727
 20
48.02597563844119
 30
0.0
 10
-213.4841834717722
 20
48.59810293285524
 30
0.0
 10
-214.6566772786178
 20
49.45726786914881
 30
0.0
 10
-215.869056599895
 20
50.48558787651136
 30
0.0
 10
-217.0093169013647
 20
51.65523236238936
 30
0.0
 10
-217.862104191726
 20
52.74381058700614
 30
0.0
 10
-218.435912589145
 20
53.67332580090797
 30
0.0
 10
-218.8417995444558
 20
54.5695696762232
 30
0.0
 10
-219.055056056666
 20
55.20221684904684
 30
0.0
 10
-219.0888418668606
 20
55.53910160015035
 30
0.0
 10
-219.0946890340762
 20
55.59740481859293
 30
0.0
  0
SPLINE
  5
306
330
2DF
100
AcDbEntity
  8
0
  6
Continuous
 62
     7
370
    25
100
AcDbSpline
210
0.0
220
0.0
230
1.0
 70
     8
 71
     3
 72
    11
 73
     7
 74
     0
 42
0.000000001
 43
0.00000001
 40
0.0
 40
0.0
 40
0.0
 40
0.0
 40
0.0503296505019507
 40
0.3744496261281794
 40
0.6693397254780084
 40
0.9999999999999999
 40
0.9999999999999999
 40
0.9999999999999999
 40
0.9999999999999999
 10
-381.547186315945
 20
31.8436641629677
 30
0.0
 10
-381.5534006664507
 20
31.81636253903773
 30
0.0
 10
-381.5996350670531
 20
31.61324007004955
 30
0.0
 10
-381.4831840909387
 20
31.23381700534627
 30
0.0
 10
-381.2120116011897
 20
30.78166816696264
 30
0.0
 10
-380.9229983223296
 20
30.58259564800865
 30
0.0
 10
-380.7702285149409
 20
30.47736771351046
 30
0.0
  0
SPLINE
  5
307
330
2DF
100
AcDbEntity
  8
0
  6
Continuous
 62
     7
370
    25
100
AcDbSpline
210
0.0
220
0.0
230
1.0
 70
     8
 71
     3
 72
    15
 73
    11
 74
     0
 42
0.000000001
 43
0.00000001
 40
0.0
 40
0.0
 40
0.0
 40
0.0
 40
0.0888477525317988
 40
0.2249690767711276
 40
0.3627580740982899
 40
0.5012522474568635
 40
0.6408346853565781
 40
0.7829630707780139
 40
0.9295196304004953
 40
1.0
 40
1.0
 40
1.0
 40
1.0
 10
-47.00252317780967
 20
227.830448452088
 30
0.0
 10
-47.32116949982873
 20
228.0006691511149
 30
0.0
 10
-48.12800554056576
 20
228.4316805432571
 30
0.0
 10
-49.55625705929589
 20
228.9242248051975
 30
0.0
 10
-51.26960935319402
 20
229.2703817821913
 30
0.0
 10
-53.05362137047487
 20
229.3839577925919
 30
0.0
 10
-54.85572160450519
 20
229.2639955021423
 30
0.0
 10
-56.63223246008642
 20
228.8950341455129
 30
0.0
 10
-58.0367900890611
 20
228.3872096189435
 30
0.0
 10
-58.81181359199786
 20
227.9669297454901
 30
0.0
 10
-59.06349400017127
 20
227.830448452088
 30
0.0
  0
SPLINE
  5
31C
330
2DF
100
AcDbEntity
  8
0
  6
Continuous
 62
     7
370
    25
100
AcDbSpline
210
0.0
220
0.0
230
1.0
 70
     8
 71
     3
 72
    33
 73
    29
 74
     0
 42
0.000000001
 43
0.00000001
 40
0.0
 40
0.0
 40
0.0
 40
0.0
 40
0.0279081616264398
 40
0.0556271412125245
 40
0.0832133069920294
 40
0.1107238436049133
 40
0.1382164076220816
 40
0.165748768525953
 40
0.1933784461722544
 40
0.2211623560110498
 40
0.2491564727896878
 40
0.3313431514044731
 40
0.4138097771206024
 40
0.4981305188720361
 40
0.5160438212752562
 40
0.5609162305637643
 40
0.5870252235814951
 40
0.6078286007380979
 40
0.6235286754228478
 40
0.6492710433280593
 40
0.6754616423501842
 40
0.7075590548208252
 40
0.7487362176163177
 40
0.8038130657360741
 40
0.8743854617761947
 40
0.9210346751991364
 40
0.9628850092212288
 40
1.0
 40
1.0
 40
1.0
 40
1.0
 10
-1.767544713231983
 20
-188.7107357485838
 30
0.0
 10
-1.766674245669481
 20
-188.6516613465885
 30
0.0
 10
-1.764939211213623
 20
-188.5339129923321
 30
0.0
 10
-1.753637186440699
 20
-188.3631915665734
 30
0.0
 10
-1.735951597579471
 20
-188.1977499403451
 30
0.0
 10
-1.711269819282601
 20
-188.0379467736142
 30
0.0
 10
-1.679755616012801
 20
-187.8836890865135
 30
0.0
 10
-1.641363519490263
 20
-187.7350057487085
 30
0.0
 10
-1.596114968611617
 20
-187.5918858506429
 30
0.0
 10
-1.543974273892718
 20
-187.4543541569489
 30
0.0
 10
-1.447271401506633
 20
-187.237607088028
 30
0.0
 10
-1.282501312391215
 20
-186.9663677342924
 30
0.0
 10
-1.013312484124285
 20
-186.6889068727404
 30
0.0
 10
-0.7794295905473592
 20
-186.5345536649877
 30
0.0
 10
-0.5756140116609798
 20
-186.4442984902105
 30
0.0
 10
-0.4520381466336099
 20
-186.3905785407684
 30
0.0
 10
-0.3265967728501851
 20
-186.3309616425643
 30
0.0
 10
-0.247403230500709
 20
-186.2788921282978
 30
0.0
 10
-0.178265489110041
 20
-186.2122526289976
 30
0.0
 10
-0.1378094674289454
 20
-186.0919636584725
 30
0.0
 10
-0.1751789872109222
 20
-185.8889463279459
 30
0.0
 10
-0.2852211010930805
 20
-185.6514650290143
 30
0.0
 10
-0.465129844494927
 20
-185.3671349431197
 30
0.0
 10
-0.7246202802309865
 20
-185.0235809689621
 30
0.0
 10
-1.004915653475935
 20
-184.6866841398799
 30
0.0
 10
-1.268725519163183
 20
-184.3843561173717
 30
0.0
 10
-1.480027946100498
 20
-184.1508642742359
 30
0.0
 10
-1.616149140695466
 20
-184.0113144063821
 30
0.0
 10
-1.680128322632951
 20
-183.9457236920827
 30
0.0
  0
LWPOLYLINE
  5
320
330
2DF
100
AcDbEntity
  8
0
  6
Continuous
 62
     7
370
    25
100
AcDbPolyline
 90
       37
 70
   128
 43
0.0
 10
-45.9619407771
 20
-267.7988462859
 10
-51.706612482
 20
-259.7775456802
 10
-57.5913155247
 20
-251.9121325339
 10
-63.6087378006
 20
-244.2123801054
 10
-69.7514022935
 20
-236.6878558094
 10
-76.0116763659
 20
-229.3479093289
 10
-82.3817812433
 20
-222.2016609976
 10
-88.8538016796
 20
-215.2579904675
 10
-95.4196957924
 20
-208.5255256751
 10
-102.0713050556
 20
-202.0126321209
 10
-108.8003644365
 20
-195.7274024747
 10
-115.5985126661
 20
-189.6776465198
 10
-122.4573026283
 20
-183.8708814492
 10
-129.3682118559
 20
-178.3143225245
 10
-136.32265312
 20
-173.0148741112
 10
-143.311985101
 20
-167.979121099
 10
-150.327523125
 20
-163.2133207198
 10
-157.3605499557
 20
-158.723394773
 10
-164.4023266259
 20
-154.514922267
 10
-171.4441032961
 20
-150.5931324871
 10
-178.4771301268
 20
-146.9628984976
 10
-185.4926681508
 20
-143.6287310869
 10
-192.4820001317
 20
-140.5947731626
 10
-199.4364413959
 20
-137.8647946035
 10
-206.3473506234
 20
-135.4421875753
 10
-213.2061405856
 20
-133.3299623161
 10
-220.0042888153
 20
-131.5307433951
 10
-226.7333481962
 20
-130.0467664523
 10
-233.3849574593
 20
-128.8798754201
 10
-239.9508515721
 20
-128.0315202321
 10
-246.4228720084
 20
-127.5027550218
 10
-252.7929768858
 20
-127.2942368122
 10
-259.0532509582
 20
-127.4062247001
 10
-265.1959154511
 20
-127.8385795337
 10
-271.2133377271
 20
-128.5907640856
 10
-277.0980407697
 20
-129.6618437203
 10
-282.8427124746
 20
-131.0504875556
  0
SPLINE
  5
324
330
2DF
100
AcDbEntity
  8
0
  6
Continuous
 62
     7
370
    25
100
AcDbSpline
210
0.0
220
0.0
230
1.0
 70
     8
 71
     3
 72
    37
 73
    33
 74
     0
 42
0.000000001
 43
0.00000001
 40
0.0
 40
0.0
 40
0.0
 40
0.0
 40
0.0275370260347409
 40
0.0575896538712601
 40
0.0901890156655184
 40
0.1253594812776776
 40
0.1954813067834411
 40
0.2507833531463514
 40
0.2920235669206441
 40
0.3241628810181383
 40
0.3502726265633186
 40
0.3757108878537361
 40
0.3914819440169108
 40
0.4123369689619618
 40
0.4384908150613117
 40
0.4723632187412801
 40
0.493248336698158
 40
0.5011462071794752
 40
0.5295336179165282
 40
0.5576097775148884
 40
0.585429698520899
 40
0.6130499246119137
 40
0.6405282322637033
 40
0.6679232958891823
 40
0.6952943252492787
 40
0.7227006858790364
 40
0.7502015145075553
 40
0.8005781182104864
 40
0.850409625848463
 40
0.9000312458531443
 40
0.9497824293153264
 40
1.0
 40
1.0
 40
1.0
 40
1.0
 10
-327.1245249291127
 20
3.92932743593255
 30
0.0
 10
-327.1720904310434
 20
3.935814657131054
 30
0.0
 10
-327.2715667066933
 20
3.949381729440788
 30
0.0
 10
-327.4244668602288
 20
3.9607078219423
 30
0.0
 10
-327.5883186105323
 20
3.966873563072265
 30
0.0
 10
-327.8164800550391
 20
3.96723415657764
 30
0.0
 10
-328.0775937846957
 20
3.954414473384349
 30
0.0
 10
-328.3365077689008
 20
3.909728982161728
 30
0.0
 10
-328.517053974189
 20
3.833263633888223
 30
0.0
 10
-328.6278209083797
 20
3.723998845328799
 30
0.0
 10
-328.6670677238634
 20
3.566617201007274
 30
0.0
 10
-328.6283869133175
 20
3.400641731381812
 30
0.0
 10
-328.5599214248955
 20
3.254389255433268
 30
0.0
 10
-328.4807334956625
 20
3.110383025744637
 30
0.0
 10
-328.3702979480484
 20
2.930110922639728
 30
0.0
 10
-328.2576449091569
 20
2.751453432378439
 30
0.0
 10
-328.1710609229832
 20
2.612615984669151
 30
0.0
 10
-328.091803970899
 20
2.486104014433999
 30
0.0
 10
-328.0070711468383
 20
2.340581519371082
 30
0.0
 10
-327.8997098530927
 20
2.148166551545954
 30
0.0
 10
-327.7987817566904
 20
1.95487242344293
 30
0.0
 10
-327.7038652287537
 20
1.761001514629615
 30
0.0
 10
-327.6150745604803
 20
1.566476606570388
 30
0.0
 10
-327.5323799334363
 20
1.371320879957588
 30
0.0
 10
-327.4557970867947
 20
1.175532889424666
 30
0.0
 10
-327.3853008650383
 20
0.9791113232190674
 30
0.0
 10
-327.3032809566037
 20
0.7278514662094754
 30
0.0
 10
-327.2172484379929
 20
0.4239577891605034
 30
0.0
 10
-327.1374449737707
 20
0.0711877919377241
 30
0.0
 10
-327.0805727946975
 20
-0.2736287825194222
 30
0.0
 10
-327.0446161085994
 20
-0.6115745120709865
 30
0.0
 10
-327.0396174088925
 20
-0.8279193076975028
 30
0.0
 10
-327.0371063987474
 20
-0.9365963654377474
 30
0.0
  0
SPLINE
  5
330
330
2DF
100
AcDbEntity
  8
0
  6
Continuous
 62
     7
370
    25
100
AcDbSpline
210
0.0
220
0.0
230
1.0
 70
     8
 71
     3
 72
    25
 73
    21
 74
     0
 42
0.000000001
 43
0.00000001
 40
0.0
 40
0.0
 40
0.0
 40
0.0
 40
0.0039062500000001
 40
0.0039062500000001
 40
0.0078125000000003
 40
0.0156250000000003
 40
0.0312500000000004
 40
0.0625000000000004
 40
0.1250000000000003
 40
0.2500000000000002
 40
0.5
 40
0.7499999999999998
 40
0.8749999999999997
 40
0.9374999999999997
 40
0.9687499999999998
 40
0.9843749999999998
 40
0.9921874999999999
 40
0.99609375
 40
0.99609375
 40
1.0
 40
1.0
 40
1.0
 40
1.0
 10
59.02797153907677
 20
-112.2000552584913
 30
0.0
 10
58.66233474070849
 20
-111.9961834235276
 30
0.0
 10
58.30460169221495
 20
-111.7877480712665
 30
0.0
 10
57.58580918612155
 20
-111.3727979899597
 30
0.0
 10
56.50762042698136
 20
-110.7503728679992
 30
0.0
 10
53.99184665565419
 20
-109.298047583425
 30
0.0
 10
48.96029911299988
 20
-106.3933970142764
 30
0.0
 10
38.89720402769144
 20
-100.5840958759794
 30
0.0
 10
18.77101385707432
 20
-88.96549359938531
 30
0.0
 10
-21.48136648415982
 20
-65.72828904619709
 30
0.0
 10
-78.98476697163733
 20
-32.53228254164246
 30
0.0
 10
-136.4881674591146
 20
0.6637239629121647
 30
0.0
 10
-176.7405478003487
 20
23.9009285161003
 30
0.0
 10
-196.866737970966
 20
35.51953079269454
 30
0.0
 10
-206.9298330562744
 20
41.32883193099154
 30
0.0
 10
-211.9613805989287
 20
44.23348250014008
 30
0.0
 10
-214.4771543702559
 20
45.68580778471434
 30
0.0
 10
-215.555343129396
 20
46.3082329066747
 30
0.0
 10
-216.2741356354895
 20
46.72318298798164
 30
0.0
 10
-216.6351953084465
 20
46.92969783580975
 30
0.0
 10
-216.9883502213393
 20
47.14077562884081
 30
0.0
  0
SPLINE
  5
331
330
2DF
100
AcDbEntity
  8
0
  6
Continuous
 62
     7
370
    25
100
AcDbSpline
210
0.0
220
0.0
230
1.0
 70
     8
 71
     3
 72
    35
 73
    31
 74
     0
 42
0.000000001
 43
0.00000001
 40
0.0
 40
0.0
 40
0.0
 40
0.0
 40
0.0156249999999998
 40
0.0156249999999998
 40
0.0312499999999996
 40
0.0312499999999996
 40
0.0624999999999991
 40
0.1249999999999983
 40
0.1249999999999983
 40
0.1874999999999974
 40
0.1874999999999974
 40
0.2499999999999965
 40
0.2499999999999965
 40
0.3749999999999952
 40
0.3749999999999952
 40
0.4374999999999942
 40
0.4374999999999942
 40
0.4687499999999943
 40
0.4687499999999943
 40
0.4999999999999944
 40
0.4999999999999944
 40
0.6249999999999966
 40
0.6249999999999966
 40
0.6874999999999971
 40
0.6874999999999971
 40
0.7499999999999977
 40
0.7499999999999977
 40
0.8749999999999989
 40
0.8749999999999989
 40
1.0
 40
1.0
 40
1.0
 40
1.0
 10
120.5387677970549
 20
-111.6284440369252
 30
0.0
 10
120.2855532311569
 20
-111.7746216943392
 30
0.0
 10
120.03318374913
 20
-111.9214737921145
 30
0.0
 10
119.5225656571104
 20
-112.2104860022602
 30
0.0
 10
119.2646239231517
 20
-112.3528910247397
 30
0.0
 10
118.4829554412984
 20
-112.7738465660401
 30
0.0
 10
116.8882296810571
 20
-113.5907070329608
 30
0.0
 10
115.2015366108201
 20
-114.3341706834288
 30
0.0
 10
112.8731078423664
 20
-115.2620048525973
 30
0.0
 10
111.6688364969496
 20
-115.6939534754713
 30
0.0
 10
109.1778408828297
 20
-116.492047099515
 30
0.0
 10
107.8844756838139
 20
-116.8596042733044
 30
0.0
 10
103.9589298475389
 20
-117.8406000059423
 30
0.0
 10
101.2647006055432
 20
-118.3396775818651
 30
0.0
 10
97.1092769421031
 20
-118.8593626524787
 30
0.0
 10
95.70512132248956
 20
-118.9944335895903
 30
0.0
 10
93.56905137694262
 20
-119.1371651340028
 30
0.0
 10
92.85433615110328
 20
-119.1744978205875
 30
0.0
 10
91.43035133430212
 20
-119.2286478169092
 30
0.0
 10
90.71946336360477
 20
-119.2455770982402
 30
0.0
 10
87.17048410544463
 20
-119.2800607354735
 30
0.0
 10
84.34865553580252
 20
-119.1482205811
 30
0.0
 10
80.14219469603738
 20
-118.7090253840976
 30
0.0
 10
78.73795325551751
 20
-118.5209105485867
 30
0.0
 10
75.99468947280363
 20
-118.069971907683
 30
0.0
 10
74.65047727485938
 20
-117.8070771664062
 30
0.0
 10
70.69854480984924
 20
-116.9082390492382
 30
0.0
 10
68.16848200765364
 20
-116.1637723164395
 30
0.0
 10
63.33671082773716
 20
-114.3733560644304
 30
0.0
 10
61.09349122431868
 20
-113.3517481139784
 30
0.0
 10
59.02797153907677
 20
-112.2000552584913
 30
0.0
  0
SPLINE
  5
332
330
2DF
100
AcDbEntity
  8
0
  6
Continuous
 62
     7
370
    25
100
AcDbSpline
210
0.0
220
0.0
230
1.0
 70
     8
 71
     3
 72
    16
 73
    12
 74
     0
 42
0.000000001
 43
0.00000001
 40
0.0
 40
0.0
 40
0.0
 40
0.0
 40
0.0078125
 40
0.0078125
 40
0.015625
 40
0.03125
 40
0.0625000000000001
 40
0.1250000000000002
 40
0.2500000000000001
 40
0.5
 40
1.0
 40
1.0
 40
1.0
 40
1.0
 10
258.5521801693403
 20
-31.94840166754362
 30
0.0
 10
258.1997112784739
 20
-32.15990792352004
 30
0.0
 10
257.8390434696915
 20
-32.36668202515479
 30
0.0
 10
257.12019385884
 20
-32.78166507233683
 30
0.0
 10
256.0419194425629
 20
-33.40413964310985
 30
0.0
 10
253.5259458045824
 20
-34.85658030824704
 30
0.0
 10
248.493998528622
 20
-37.76146163852137
 30
0.0
 10
238.4301039767011
 20
-43.57122429907001
 30
0.0
 10
218.3023148728592
 20
-55.19074962016723
 30
0.0
 10
178.0467366651748
 20
-78.42980026236148
 30
0.0
 10
143.541955344303
 20
-98.34898652709978
 30
0.0
 10
120.5387677970549
 20
-111.6284440369252
 30
0.0
  0
SPLINE
  5
333
330
2DF
100
AcDbEntity
  8
0
  6
Continuous
 62
     7
370
    25
100
AcDbSpline
210
0.0
220
0.0
230
1.0
 70
     8
 71
     3
 72
    30
 73
    26
 74
     0
 42
0.000000001
 43
0.00000001
 40
0.0
 40
0.0
 40
0.0
 40
0.0
 40
0.1250000000000006
 40
0.1250000000000006
 40
0.1875000000000008
 40
0.1875000000000008
 40
0.2500000000000009
 40
0.2500000000000009
 40
0.3750000000000008
 40
0.3750000000000008
 40
0.4375000000000011
 40
0.4375000000000011
 40
0.5000000000000014
 40
0.5000000000000014
 40
0.625000000000002
 40
0.625000000000002
 40
0.6875000000000014
 40
0.6875000000000014
 40
0.7500000000000009
 40
0.7500000000000009
 40
0.8749999999999997
 40
0.8749999999999997
 40
0.9374999999999999
 40
0.9374999999999999
 40
1.0
 40
1.0
 40
1.0
 40
1.0
 10
258.4056875922758
 20
2.927335305573833
 30
0.0
 10
260.3629087525421
 20
1.764983989502616
 30
0.0
 10
262.091944719386
 20
0.5120817085545182
 30
0.0
 10
264.365547929354
 20
-1.494238094044767
 30
0.0
 10
265.0690838752188
 20
-2.184571901969953
 30
0.0
 10
266.3650235196623
 20
-3.609340241752884
 30
0.0
 10
266.9595811343152
 20
-4.347075887163237
 30
0.0
 10
268.5396985577751
 20
-6.582883445604606
 30
0.0
 10
269.3339908511115
 20
-8.114036829116197
 30
0.0
 10
270.1433654674294
 20
-10.47065254450957
 30
0.0
 10
270.349259096122
 20
-11.26620663468601
 30
0.0
 10
270.627120914639
 20
-12.87830662357491
 30
0.0
 10
270.6977009226679
 20
-13.68318210119153
 30
0.0
 10
270.7090184298976
 20
-16.0868730401208
 30
0.0
 10
270.4521523786544
 20
-17.67819510102498
 30
0.0
 10
269.6663258261698
 20
-20.04830559481625
 30
0.0
 10
269.3349429414322
 20
-20.83915645791497
 30
0.0
 10
268.5486707208863
 20
-22.38430791823128
 30
0.0
 10
268.0935345158007
 20
-23.14133053839865
 30
0.0
 10
266.5461863371087
 20
-25.36675772608737
 30
0.0
 10
265.275266679202
 20
-26.79033235780819
 30
0.0
 10
262.9938217493737
 20
-28.8316068026873
 30
0.0
 10
262.1784560205455
 20
-29.48944751727337
 30
0.0
 10
260.4449406886188
 20
-30.75546366269375
 30
0.0
 10
259.5255430862813
 20
-31.3643150953571
 30
0.0
 10
258.5521801693403
 20
-31.94840166754361
 30
0.0
  0
SPLINE
  5
334
330
2DF
100
AcDbEntity
  8
0
  6
Continuous
 62
     7
370
    25
100
AcDbSpline
210
0.0
220
0.0
230
1.0
 70
     8
 71
     3
 72
    25
 73
    21
 74
     0
 42
0.000000001
 43
0.00000001
 40
0.0
 40
0.0
 40
0.0
 40
0.0
 40
0.0039062500000001
 40
0.0039062500000001
 40
0.0078125000000002
 40
0.0156250000000003
 40
0.0312500000000003
 40
0.0625000000000002
 40
0.1250000000000002
 40
0.2500000000000002
 40
0.5000000000000003
 40
0.7500000000000004
 40
0.8750000000000006
 40
0.9375000000000007
 40
0.9687500000000006
 40
0.9843750000000004
 40
0.9921875000000003
 40
0.9960937500000002
 40
0.9960937500000002
 40
1.0
 40
1.0
 40
1.0
 40
1.0
 10
-17.56025197702864
 20
162.2390811729952
 30
0.0
 10
-17.19583135994719
 20
162.0345827060659
 30
0.0
 10
-16.83853379732704
 20
161.8259717291801
 30
0.0
 10
-16.11987249570182
 20
161.4110973906004
 30
0.0
 10
-15.04188054326398
 20
160.7887858827309
 30
0.0
 10
-12.52656598757591
 20
159.3367256977023
 30
0.0
 10
-7.495936876199538
 20
156.4326053276449
 30
0.0
 10
2.565321346552768
 20
150.6243645875304
 30
0.0
 10
22.6878377920577
 20
139.007883107301
 30
0.0
 10
62.93287068306766
 20
115.7749201468423
 30
0.0
 10
120.4257748130819
 20
82.58497306047299
 30
0.0
 10
177.918678943096
 20
49.3950259741035
 30
0.0
 10
218.1637118341059
 20
26.16206301364493
 30
0.0
 10
238.2862282796109
 20
14.54558153341559
 30
0.0
 10
248.3474865023634
 20
8.73734079330099
 30
0.0
 10
253.3781156137397
 20
5.833220423243607
 30
0.0
 10
255.8934301694277
 20
4.381160238214998
 30
0.0
 10
256.9714221218656
 20
3.758848730345501
 30
0.0
 10
257.6900834234909
 20
3.343974391765869
 30
0.0
 10
258.0514473340157
 20
3.137710933404217
 30
0.0
 10
258.4056875922758
 20
2.927335305573806
 30
0.0
  0
SPLINE
  5
335
330
2DF
100
AcDbEntity
  8
0
  6
Continuous
 62
     7
370
    25
100
AcDbSpline
210
0.0
220
0.0
230
1.0
 70
     8
 71
     3
 72
    32
 73
    28
 74
     0
 42
0.000000001
 43
0.00000001
 40
0.0
 40
0.0
 40
0.0
 40
0.0
 40
0.1250000000000014
 40
0.1250000000000014
 40
0.1875000000000023
 40
0.1875000000000023
 40
0.2500000000000031
 40
0.2500000000000031
 40
0.3750000000000048
 40
0.3750000000000048
 40
0.4375000000000051
 40
0.4375000000000051
 40
0.5000000000000054
 40
0.5000000000000054
 40
0.6250000000000052
 40
0.6250000000000052
 40
0.6562500000000047
 40
0.6562500000000047
 40
0.6875000000000041
 40
0.6875000000000041
 40
0.7500000000000037
 40
0.7500000000000037
 40
0.8750000000000023
 40
0.8750000000000023
 40
0.9375000000000011
 40
0.9375000000000011
 40
1.0
 40
1.0
 40
1.0
 40
1.0
 10
-77.973346245628
 20
162.3236495347853
 30
0.0
 10
-75.949788202291
 20
163.4474724084473
 30
0.0
 10
-73.7708832104131
 20
164.4393978490322
 30
0.0
 10
-70.28430799936149
 20
165.7420081025118
 30
0.0
 10
-69.08508201722093
 20
166.1447675691473
 30
0.0
 10
-66.6108644860771
 20
166.8859576959704
 30
0.0
 10
-65.33006962173073
 20
167.2256116070657
 30
0.0
 10
-61.44940142590693
 20
168.1270292327428
 30
0.0
 10
-58.79332082804965
 20
168.5782521177642
 30
0.0
 10
-54.70745169813701
 20
169.034203340617
 30
0.0
 10
-53.3284991301206
 20
169.1492904062732
 30
0.0
 10
-50.53492424090303
 20
169.3020298187264
 30
0.0
 10
-49.14001331772419
 20
169.3389398426186
 30
0.0
 10
-44.97603610885795
 20
169.3341068019841
 30
0.0
 10
-42.220777012886
 20
169.1782396003571
 30
0.0
 10
-38.80285533484965
 20
168.790794299946
 30
0.0
 10
-38.12058401453178
 20
168.7036348619343
 30
0.0
 10
-36.75873825413778
 20
168.5094534211786
 30
0.0
 10
-36.08268935881867
 20
168.4029151667297
 30
0.0
 10
-34.07792761953218
 20
168.0569178286356
 30
0.0
 10
-32.76871838334311
 20
167.790525203394
 30
0.0
 10
-28.92119122533157
 20
166.8865136678487
 30
0.0
 10
-26.4615135613479
 20
166.145972293454
 30
0.0
 10
-22.93714605272544
 20
164.8190172385935
 30
0.0
 10
-21.80140438148581
 20
164.3449901929976
 30
0.0
 10
-19.61700228142467
 20
163.3378806906188
 30
0.0
 10
-18.56698975040266
 20
162.8040226763152
 30
0.0
 10
-17.56025197702867
 20
162.2390811729952
 30
0.0
  0
LWPOLYLINE
  5
336
330
2DF
100
AcDbEntity
  8
0
  6
Continuous
 62
     7
370
    25
100
AcDbPolyline
 90
        6
 70
   128
 43
0.0
 10
-215.9981832571
 20
82.6502024693
 10
-201.8560476334
 20
90.8142835875
 10
-145.2875051385
 20
123.4706080604
 10
-111.6332818519
 20
142.8987776236
 10
-94.8839165124
 20
152.6586535172
 10
-77.9733462456
 20
162.3236495348
  0
SPLINE
  5
337
330
2DF
100
AcDbEntity
  8
0
  6
Continuous
 62
     7
370
    25
100
AcDbSpline
210
0.0
220
0.0
230
1.0
 70
     8
 71
     3
 72
    44
 73
    40
 74
     0
 42
0.000000001
 43
0.00000001
 40
0.0
 40
0.0
 40
0.0
 40
0.0
 40
0.1250000000000007
 40
0.1250000000000007
 40
0.1875000000000004
 40
0.1875000000000004
 40
0.2187500000000003
 40
0.2187500000000003
 40
0.2500000000000003
 40
0.2500000000000003
 40
0.3750000000000017
 40
0.3750000000000017
 40
0.4062500000000022
 40
0.4062500000000022
 40
0.4375000000000027
 40
0.4375000000000027
 40
0.5000000000000033
 40
0.5000000000000033
 40
0.6250000000000042
 40
0.6250000000000042
 40
0.6562500000000038
 40
0.6562500000000038
 40
0.6875000000000034
 40
0.6875000000000034
 40
0.7500000000000032
 40
0.7500000000000032
 40
0.812500000000003
 40
0.812500000000003
 40
0.8437500000000028
 40
0.8437500000000028
 40
0.8750000000000024
 40
0.8750000000000024
 40
0.9375000000000012
 40
0.9375000000000012
 40
0.9687500000000002
 40
0.9687500000000002
 40
0.9843750000000001
 40
0.9843750000000001
 40
1.0
 40
1.0
 40
1.0
 40
1.0
 10
-216.9883502213394
 20
47.14077562884081
 30
0.0
 10
-218.9829449759265
 20
48.33292854366474
 30
0.0
 10
-220.7384462057429
 20
49.61928216330168
 30
0.0
 10
-223.0373421056055
 20
51.68054583686995
 30
0.0
 10
-223.7467822417812
 20
52.39003546607229
 30
0.0
 10
-224.7237360053432
 20
53.48862846553418
 30
0.0
 10
-225.0353128799567
 20
53.86111924774345
 30
0.0
 10
-225.6269629955691
 20
54.61523119117781
 30
0.0
 10
-225.9055735144548
 20
54.99495179433391
 30
0.0
 10
-227.2138300168122
 20
56.90668036252387
 30
0.0
 10
-227.9907287850268
 20
58.4778109656339
 30
0.0
 10
-228.6292834948853
 20
60.49320240037692
 30
0.0
 10
-228.7402478094204
 20
60.89887289093729
 30
0.0
 10
-228.9278447436472
 20
61.71552806106073
 30
0.0
 10
-229.0045278153531
 20
62.12754412881316
 30
0.0
 10
-229.1812099098227
 20
63.36411390828047
 30
0.0
 10
-229.228043738819
 20
64.18538468424332
 30
0.0
 10
-229.1602927997015
 20
66.64007179443796
 30
0.0
 10
-228.8409016967752
 20
68.2645139120176
 30
0.0
 10
-228.0917224127381
 20
70.27973284865458
 30
0.0
 10
-227.9236556781911
 20
70.68312012656678
 30
0.0
 10
-227.5545374084844
 20
71.48163897680219
 30
0.0
 10
-227.3536512975741
 20
71.87676989456129
 30
0.0
 10
-226.7029119050285
 20
73.05000467023417
 30
0.0
 10
-226.2048330907387
 20
73.81591401853724
 30
0.0
 10
-225.0831325070681
 20
75.31598739916542
 30
0.0
 10
-224.4597448952925
 20
76.05021064156034
 30
0.0
 10
-223.4289165534071
 20
77.12733453798818
 30
0.0
 10
-223.0693143365039
 20
77.4823318382776
 30
0.0
 10
-222.3176102415651
 20
78.18410843880116
 30
0.0
 10
-221.9246359305963
 20
78.53156324852345
 30
0.0
 10
-220.706281904658
 20
79.55311475387141
 30
0.0
 10
-219.8402177294624
 20
80.20851434548152
 30
0.0
 10
-218.4596674045889
 20
81.15282262030013
 30
0.0
 10
-217.9859063531959
 20
81.46112593936586
 30
0.0
 10
-217.2546077823786
 20
81.91374337580584
 30
0.0
 10
-217.0074005151908
 20
82.06297710022567
 30
0.0
 10
-216.5060887976336
 20
82.35815988280656
 30
0.0
 10
-216.2515830999892
 20
82.50391785377239
 30
0.0
 10
-215.9981832571449
 20
82.65020246929086
 30
0.0
  0
LWPOLYLINE
  5
338
330
2DF
100
AcDbEntity
  8
0
  6
Continuous
 62
     7
370
    25
100
AcDbPolyline
 90
       46
 70
   128
 43
0.0
 10
-131.5218613007
 20
-62.8613014093
 10
-133.2151427846
 20
-61.7368041045
 10
-134.6208504308
 20
-60.4872071497
 10
-135.7116237389
 20
-59.136832528
 10
-136.4662320473
 20
-57.7119637456
 10
-136.8699877634
 20
-56.2403342525
 10
-136.9150322417
 20
-54.7505876429
 10
-136.6004887425
 20
-53.2717201398
 10
-135.9324794973
 20
-51.8325162172
 10
-134.9240065462
 20
-50.4609883423
 10
-133.5946986681
 20
-49.183831745
 10
-131.9704293287
 20
-48.0259048258
 10
-130.0828130832
 20
-47.0097453151
 10
-127.9685902346
 20
-46.1551316019
 10
-125.6689117258
 20
-45.4786977699
 10
-123.2285381831
 20
-44.9936098344
 10
-120.6949687017
 20
-44.7093094801
 10
-118.1175163297
 20
-44.6313302901
 10
-115.5463482455
 20
-44.7611900407
 10
-113.0315093114
 20
-45.0963611594
 10
-110.6219480065
 20
-45.6303199217
 10
-108.364563701
 20
-46.3526734278
 10
-106.3032938124
 20
-47.2493618881
 10
-104.4782586146
 20
-48.302932282
 10
-102.9249803418
 20
-49.4928780599
 10
-101.6736917886
 20
-50.796038281
 10
-100.7487478634
 20
-52.1870484138
 10
-100.1681515477
 20
-53.6388340283
 10
-99.9432034884
 20
-55.123137769
 10
-100.0782820434
 20
-56.6110693519
 10
-100.5707580624
 20
-58.0736678812
 10
-101.4110460599
 20
-59.4824655403
 10
-102.5827907858
 20
-60.8100416852
 10
-104.0631855618
 20
-62.0305565563
 10
-105.8234161876
 20
-63.1202542199
 10
-107.8292217763
 20
-64.0579249507
 10
-110.0415616036
 20
-64.8253180543
 10
-112.4173749913
 20
-65.407497097
 10
-114.9104194343
 20
-65.7931306258
 10
-117.4721706583
 20
-65.9747127228
 10
-120.0527670896
 20
-65.948709099
 10
-122.6019803541
 20
-65.7156258853
 10
-125.0701929153
 20
-65.2799997815
 10
-127.4093638233
 20
-64.650309754
 10
-129.5739637771
 20
-63.8388120031
 10
-131.5218613007
 20
-62.8613014093
  0
LWPOLYLINE
  5
339
330
2DF
100
AcDbEntity
  8
0
  6
Continuous
 62
     7
370
    25
100
AcDbPolyline
 90
       46
 70
   128
 43
0.0
 10
-60.811183182
 20
-103.6817070005
 10
-62.504464666
 20
-102.5572096957
 10
-63.9101723122
 20
-101.3076127408
 10
-65.0009456203
 20
-99.9572381192
 10
-65.7555539286
 20
-98.5323693367
 10
-66.1593096448
 20
-97.0607398436
 10
-66.2043541231
 20
-95.570993234
 10
-65.8898106239
 20
-94.092125731
 10
-65.2218013787
 20
-92.6529218083
 10
-64.2133284276
 20
-91.2813939334
 10
-62.8840205494
 20
-90.0042373361
 10
-61.25975121
 20
-88.846310417
 10
-59.3721349645
 20
-87.8301509063
 10
-57.2579121159
 20
-86.975537193
 10
-54.9582336071
 20
-86.2991033611
 10
-52.5178600645
 20
-85.8140154255
 10
-49.9842905831
 20
-85.5297150712
 10
-47.406838211
 20
-85.4517358813
 10
-44.8356701268
 20
-85.5815956318
 10
-42.3208311927
 20
-85.9167667505
 10
-39.9112698879
 20
-86.4507255129
 10
-37.6538855823
 20
-87.1730790189
 10
-35.5926156938
 20
-88.0697674793
 10
-33.767580496
 20
-89.1233378731
 10
-32.2143022231
 20
-90.313283651
 10
-30.9630136699
 20
-91.6164438721
 10
-30.0380697448
 20
-93.0074540049
 10
-29.4574734291
 20
-94.4592396194
 10
-29.2325253697
 20
-95.9435433601
 10
-29.3676039247
 20
-97.431474943
 10
-29.8600799437
 20
-98.8940734724
 10
-30.7003679412
 20
-100.3028711314
 10
-31.8721126671
 20
-101.6304472763
 10
-33.3525074431
 20
-102.8509621474
 10
-35.1127380689
 20
-103.9406598111
 10
-37.1185436576
 20
-104.8783305418
 10
-39.3308834849
 20
-105.6457236455
 10
-41.7066968726
 20
-106.2279026881
 10
-44.1997413156
 20
-106.6135362169
 10
-46.7614925396
 20
-106.7951183139
 10
-49.3420889709
 20
-106.7691146901
 10
-51.8913022355
 20
-106.5360314765
 10
-54.3595147967
 20
-106.1004053726
 10
-56.6986857046
 20
-105.4707153452
 10
-58.8632856584
 20
-104.6592175942
 10
-60.811183182
 20
-103.6817070005
  0
LWPOLYLINE
  5
33A
330
2DF
100
AcDbEntity
  8
0
  6
Continuous
 62
     7
370
    25
100
AcDbPolyline
 90
       46
 70
   128
 43
0.0
 10
-202.2325394194
 20
-22.0408958182
 10
-203.9258209033
 20
-20.9163985134
 10
-205.3315285495
 20
-19.6668015585
 10
-206.4223018576
 20
-18.3164269369
 10
-207.1769101659
 20
-16.8915581545
 10
-207.5806658821
 20
-15.4199286614
 10
-207.6257103604
 20
-13.9301820517
 10
-207.3111668612
 20
-12.4513145487
 10
-206.643157616
 20
-11.0121106261
 10
-205.6346846649
 20
-9.6405827511
 10
-204.3053767867
 20
-8.3634261539
 10
-202.6811074474
 20
-7.2054992347
 10
-200.7934912018
 20
-6.189339724
 10
-198.6792683532
 20
-5.3347260108
 10
-196.3795898445
 20
-4.6582921788
 10
-193.9392163018
 20
-4.1732042432
 10
-191.4056468204
 20
-3.888903889
 10
-188.8281944483
 20
-3.810924699
 10
-186.2570263642
 20
-3.9407844495
 10
-183.74218743
 20
-4.2759555683
 10
-181.3326261252
 20
-4.8099143306
 10
-179.0752418196
 20
-5.5322678366
 10
-177.0139719311
 20
-6.428956297
 10
-175.1889367333
 20
-7.4825266908
 10
-173.6356584604
 20
-8.6724724688
 10
-172.3843699072
 20
-9.9756326898
 10
-171.4594259821
 20
-11.3666428226
 10
-170.8788296664
 20
-12.8184284372
 10
-170.653881607
 20
-14.3027321779
 10
-170.788960162
 20
-15.7906637608
 10
-171.2814361811
 20
-17.2532622901
 10
-172.1217241785
 20
-18.6620599492
 10
-173.2934689044
 20
-19.989636094
 10
-174.7738636804
 20
-21.2101509651
 10
-176.5340943062
 20
-22.2998486288
 10
-178.5398998949
 20
-23.2375193596
 10
-180.7522397222
 20
-24.0049124632
 10
-183.1280531099
 20
-24.5870915058
 10
-185.6210975529
 20
-24.9727250346
 10
-188.1828487769
 20
-25.1543071316
 10
-190.7634452082
 20
-25.1283035078
 10
-193.3126584728
 20
-24.8952202942
 10
-195.780871034
 20
-24.4595941904
 10
-198.120041942
 20
-23.8299041629
 10
-200.2846418957
 20
-23.018406412
 10
-202.2325394194
 20
-22.0408958182
  0
LWPOLYLINE
  5
33B
330
2DF
100
AcDbEntity
  8
0
  6
Continuous
 62
     7
370
    25
100
AcDbPolyline
 90
        3
 70
   128
 43
0.0
 10
-1.0607709663
 20
-188.3138371128
 10
-1.4156218969
 20
-188.515946146
 10
-1.7675447132
 20
-188.7107357486
  0
SPLINE
  5
340
330
2DF
100
AcDbEntity
  8
0
  6
Continuous
 62
     7
370
    25
100
AcDbSpline
210
0.0
220
0.0
230
1.0
 70
     8
 71
     3
 72
    11
 73
     7
 74
     0
 42
0.000000001
 43
0.00000001
 40
0.0
 40
0.0
 40
0.0
 40
0.0
 40
0.000647305550278
 40
0.000647305550278
 40
0.000647305550278
 40
0.000647365550278
 40
0.000647365550278
 40
0.000647365550278
 40
0.000647365550278
 10
-71.21797273516204
 20
151.9407129221669
 30
0.0
 10
-71.3726225227187
 20
151.8498129672084
 30
0.0
 10
-71.52582480822058
 20
151.758053804274
 30
0.0
 10
-71.67755040415878
 20
151.6654874443365
 30
0.0
 10
-71.6775644678969
 20
151.665478864182
 30
0.0
 10
-71.67757853160981
 20
151.6654702840133
 30
0.0
 10
-71.67759259533534
 20
151.6654617038521
 30
0.0
  0
SPLINE
  5
341
330
2DF
100
AcDbEntity
  8
0
  6
Continuous
 62
     7
370
    25
100
AcDbSpline
210
0.0
220
0.0
230
1.0
 70
     8
 71
     3
 72
    30
 73
    26
 74
     0
 42
0.000000001
 43
0.00000001
 40
0.0
 40
0.0
 40
0.0
 40
0.0
 40
0.0625000000000004
 40
0.0625000000000004
 40
0.1250000000000008
 40
0.1250000000000008
 40
0.2500000000000034
 40
0.2500000000000034
 40
0.312500000000004
 40
0.312500000000004
 40
0.3750000000000046
 40
0.3750000000000046
 40
0.5000000000000048
 40
0.5000000000000048
 40
0.5625000000000044
 40
0.5625000000000044
 40
0.6250000000000039
 40
0.6250000000000039
 40
0.7500000000000017
 40
0.7500000000000017
 40
0.8125000000000012
 40
0.8125000000000012
 40
0.8750000000000009
 40
0.8750000000000009
 40
1.0
 40
1.0
 40
1.0
 40
1.0
 10
-24.32092725736256
 20
152.0456621888953
 30
0.0
 10
-25.10024282964993
 20
152.5020232131332
 30
0.0
 10
-25.9134930298084
 20
152.9340146234694
 30
0.0
 10
-27.60656392184958
 20
153.7472826849784
 30
0.0
 10
-28.48735824862785
 20
154.129510463115
 30
0.0
 10
-31.22153655252433
 20
155.198723817978
 30
0.0
 10
-33.13103711020896
 20
155.7928215562821
 30
0.0
 10
-36.11937798313885
 20
156.5153466337621
 30
0.0
 10
-37.13650253243263
 20
156.7276296493202
 30
0.0
 10
-39.21372247649727
 20
157.0939021797185
 30
0.0
 10
-40.27741479266439
 20
157.2480089417311
 30
0.0
 10
-43.46561538453008
 20
157.6128292932059
 30
0.0
 10
-45.60733643233353
 20
157.7310474769068
 30
0.0
 10
-48.84407277662032
 20
157.7227108990583
 30
0.0
 10
-49.92831022800079
 20
157.6888230701213
 30
0.0
 10
-52.09990435505748
 20
157.556991928938
 30
0.0
 10
-53.17154455084235
 20
157.4596305717693
 30
0.0
 10
-56.34621541465487
 20
157.0784526593698
 30
0.0
 10
-58.40900294085413
 20
156.7050583938536
 30
0.0
 10
-61.42131647259393
 20
155.9624134135054
 30
0.0
 10
-62.41536138644607
 20
155.6831348898731
 30
0.0
 10
-64.33469182303374
 20
155.0740610031332
 30
0.0
 10
-65.26447425023339
 20
154.7432403892375
 30
0.0
 10
-67.96637014604374
 20
153.6741288524613
 30
0.0
 10
-69.65334143147898
 20
152.8603709267358
 30
0.0
 10
-71.21797273516201
 20
151.9407129221668
 30
0.0
  0
SPLINE
  5
342
330
2DF
100
AcDbEntity
  8
0
  6
Continuous
 62
     7
370
    25
100
AcDbSpline
210
0.0
220
0.0
230
1.0
 70
     8
 71
     3
 72
    11
 73
     7
 74
     0
 42
0.000000001
 43
0.00000001
 40
-0.0000000599907586
 40
-0.0000000599907586
 40
-0.0000000599907586
 40
-0.0000000599907586
 40
0.0
 40
0.0
 40
0.0
 40
0.0004734262160878
 40
0.0004734262160878
 40
0.0004734262160878
 40
0.0004734262160878
 10
-23.98523575237545
 20
151.8463471252674
 30
0.0
 10
-23.98524983201868
 20
151.8463553227618
 30
0.0
 10
-23.98526390756708
 20
151.8463640739279
 30
0.0
 10
-23.98527798518187
 20
151.8463725482475
 30
0.0
 10
-24.09637362824878
 20
151.9132489332213
 30
0.0
 10
-24.20826048142846
 20
151.9796854176215
 30
0.0
 10
-24.32092725736256
 20
152.0456621888952
 30
0.0
  0
SPLINE
  5
344
330
2DF
100
AcDbEntity
  8
0
  6
Continuous
 62
     7
370
    25
100
AcDbSpline
210
0.0
220
0.0
230
1.0
 70
     8
 71
     3
 72
    11
 73
     7
 74
     0
 42
0.000000001
 43
0.00000001
 40
0.0000000000000001
 40
0.0000000000000001
 40
0.0000000000000001
 40
0.0000000000000001
 40
0.0004734262014806
 40
0.0004734262014806
 40
0.0004734262014806
 40
0.0004734862014806
 40
0.0004734862014806
 40
0.0004734862014806
 40
0.0004734862014806
 10
251.4507174016327
 20
-7.153919614395793
 30
0.0
 10
251.3402525155977
 20
-7.09108521902932
 30
0.0
 10
251.228986496215
 20
-7.02869829211801
 30
0.0
 10
251.1169412582156
 20
-6.966758188268695
 30
0.0
 10
251.1169270580842
 20
-6.966750338246425
 30
0.0
 10
251.1169128579276
 20
-6.96674248823853
 30
0.0
 10
251.1168986577836
 20
-6.96673463822324
 30
0.0
  0
SPLINE
  5
346
330
2DF
100
AcDbEntity
  8
0
  6
Continuous
 62
     7
370
    25
100
AcDbSpline
210
0.0
220
0.0
230
1.0
 70
     8
 71
     3
 72
    36
 73
    32
 74
     0
 42
0.000000001
 43
0.00000001
 40
0.0
 40
0.0
 40
0.0
 40
0.0
 40
0.0312500000000005
 40
0.0312500000000005
 40
0.0625000000000009
 40
0.0625000000000009
 40
0.1250000000000014
 40
0.1250000000000014
 40
0.187500000000002
 40
0.187500000000002
 40
0.2500000000000025
 40
0.2500000000000025
 40
0.3125000000000031
 40
0.3125000000000031
 40
0.3750000000000036
 40
0.3750000000000036
 40
0.5000000000000029
 40
0.5000000000000029
 40
0.5625000000000026
 40
0.5625000000000026
 40
0.6250000000000022
 40
0.6250000000000022
 40
0.7500000000000014
 40
0.7500000000000014
 40
0.8750000000000008
 40
0.8750000000000008
 40
0.937500000000002
 40
0.937500000000002
 40
0.968750000000001
 40
0.968750000000001
 40
1.0
 40
1.0
 40
1.0
 40
1.0
 10
-60.90492888417466
 20
53.03719472608465
 30
0.0
 10
-60.7150877135652
 20
53.13447052800115
 30
0.0
 10
-60.51844810314358
 20
53.22999583832166
 30
0.0
 10
-60.11952842867657
 20
53.41369578785843
 30
0.0
 10
-59.91583393750908
 20
53.5025815854053
 30
0.0
 10
-59.29260149837828
 20
53.76224994869725
 30
0.0
 10
-58.86188174272532
 20
53.92667730917211
 30
0.0
 10
-57.96866499493454
 20
54.2309028100395
 30
0.0
 10
-57.50495818879549
 20
54.37209798595448
 30
0.0
 10
-56.56200129964429
 20
54.62670708284134
 30
0.0
 10
-56.08113944172975
 20
54.74139415667081
 30
0.0
 10
-55.10086343032864
 20
54.94474511957092
 30
0.0
 10
-54.60139834874651
 20
55.03350166744065
 30
0.0
 10
-53.58349853960641
 20
55.18513091776256
 30
0.0
 10
-53.06230705697796
 20
55.24843382295828
 30
0.0
 10
-51.49215835334893
 20
55.39637575334916
 30
0.0
 10
-50.44076718964813
 20
55.44014550723567
 30
0.0
 10
-48.85685402727746
 20
55.42727566150936
 30
0.0
 10
-48.32773730526924
 20
55.4097589407016
 30
0.0
 10
-47.26717016481651
 20
55.34762789814437
 30
0.0
 10
-46.73588487728377
 20
55.30272323646248
 30
0.0
 10
-45.17497882228739
 20
55.12960728398053
 30
0.0
 10
-44.16536061243162
 20
54.96312212477103
 30
0.0
 10
-42.20724366075581
 20
54.52539633345236
 30
0.0
 10
-41.25171331820766
 20
54.25169321751769
 30
0.0
 10
-39.92160079806862
 20
53.7763049257882
 30
0.0
 10
-39.49329227402657
 20
53.6061946811065
 30
0.0
 10
-38.87284812244428
 20
53.33721413000006
 30
0.0
 10
-38.66994278677202
 20
53.24509314675685
 30
0.0
 10
-38.2722877371261
 20
53.05508741872425
 30
0.0
 10
-38.07615696518257
 20
52.95648386325779
 30
0.0
 10
-37.88660759425346
 20
52.8563093045769
 30
0.0
  0
LWPOLYLINE
  5
349
330
2DF
100
AcDbEntity
  8
0
  6
Continuous
 62
     7
370
    25
100
AcDbPolyline
 90
       14
 70
   128
 43
0.0
 10
-33.9984844277
 20
-102.9315185837
 10
-35.3553390593
 20
-102.0510139778
 10
-37.2423485661
 20
-101.1070890817
 10
-39.3428504625
 20
-100.3278022792
 10
-41.6140845871
 20
-99.7290176023
 10
-44.0098151629
 20
-99.3229245803
 10
-46.4812720241
 20
-99.117790096
 10
-48.9781434361
 20
-99.117790096
 10
-51.4496002973
 20
-99.3229245803
 10
-53.8453308731
 20
-99.7290176023
 10
-56.1165649977
 20
-100.3278022792
 10
-58.217066894
 20
-101.1070890817
 10
-60.1040764009
 20
-102.0510139778
 10
-61.4294979177
 20
-102.9086202593
  0
SPLINE
  5
34D
330
2DF
100
AcDbEntity
  8
0
  6
Continuous
 62
     7
370
    25
100
AcDbSpline
210
0.0
220
0.0
230
1.0
 70
     8
 71
     3
 72
    11
 73
     7
 74
     0
 42
0.000000001
 43
0.00000001
 40
0.0
 40
0.0
 40
0.0
 40
0.0
 40
0.2223315031398946
 40
0.4449319137981579
 40
0.6622800739654537
 40
1.0
 40
1.0
 40
1.0
 40
1.0
 10
-117.1489369387124
 20
-57.4826503966818
 30
0.0
 10
-117.1338938860556
 20
-57.54184502231902
 30
0.0
 10
-117.1037895863346
 20
-57.66030586884498
 30
0.0
 10
-117.1322811355463
 20
-57.78876317358527
 30
0.0
 10
-117.2181080823345
 20
-57.8830173864655
 30
0.0
 10
-117.3208735137842
 20
-57.8903964558296
 30
0.0
 10
-117.3833990575343
 20
-57.89488610101329
 30
0.0
  0
SPLINE
  5
34F
330
2DF
100
AcDbEntity
  8
0
  6
Continuous
 62
     7
370
    25
100
AcDbSpline
210
0.0
220
0.0
230
1.0
 70
     8
 71
     3
 72
    32
 73
    28
 74
     0
 42
0.000000001
 43
0.00000001
 40
0.0
 40
0.0
 40
0.0
 40
0.0
 40
0.0312500000000031
 40
0.0312500000000031
 40
0.0625000000000062
 40
0.0625000000000062
 40
0.1250000000000126
 40
0.1250000000000126
 40
0.187500000000019
 40
0.187500000000019
 40
0.2500000000000254
 40
0.2500000000000254
 40
0.3750000000000313
 40
0.3750000000000313
 40
0.4375000000000312
 40
0.4375000000000312
 40
0.5000000000000311
 40
0.5000000000000311
 40
0.6250000000000231
 40
0.6250000000000231
 40
0.7500000000000151
 40
0.7500000000000151
 40
0.8750000000000072
 40
0.8750000000000072
 40
0.9375000000000037
 40
0.9375000000000037
 40
1.0
 40
1.0
 40
1.0
 40
1.0
 10
-44.41179588002448
 20
42.51789249649726
 30
0.0
 10
-44.49588911442275
 20
42.56643848738492
 30
0.0
 10
-44.57998234882093
 20
42.61498447827253
 30
0.0
 10
-44.74816881761746
 20
42.71207646004779
 30
0.0
 10
-44.832212394995
 20
42.76065904785153
 30
0.0
 10
-45.09274934201358
 20
42.90021148307008
 30
0.0
 10
-45.27611542004896
 20
42.98611618705775
 30
0.0
 10
-45.65677182944031
 20
43.14766350676608
 30
0.0
 10
-45.85474112715134
 20
43.22280572849774
 30
0.0
 10
-46.26679830302277
 20
43.3612108782188
 30
0.0
 10
-46.48112564314952
 20
43.42433459883041
 30
0.0
 10
-47.13108269951991
 20
43.59281099964033
 30
0.0
 10
-47.57951874122937
 20
43.6781500539642
 30
0.0
 10
-48.27542573682254
 20
43.76469962167354
 30
0.0
 10
-48.51294401015608
 20
43.786557370031
 30
0.0
 10
-48.98798387102017
 20
43.81452224725861
 30
0.0
 10
-49.22487087143071
 20
43.82074574118972
 30
0.0
 10
-49.93364296428369
 20
43.81626052623583
 30
0.0
 10
-50.40487981398985
 20
43.78255099359011
 30
0.0
 10
-51.33735101362775
 20
43.65450145638253
 30
0.0
 10
-51.78408859774944
 20
43.56267700238342
 30
0.0
 10
-52.64104159669176
 20
43.32695588189075
 30
0.0
 10
-53.05289610475228
 20
43.18070813197533
 30
0.0
 10
-53.61629486354699
 20
42.92964257549947
 30
0.0
 10
-53.79543546110957
 20
42.84000013750062
 30
0.0
 10
-54.13495637963258
 20
42.64781569847145
 30
0.0
 10
-54.30190884428646
 20
42.54979270233808
 30
0.0
 10
-54.4701605468014
 20
42.45266306193871
 30
0.0
  0
LWPOLYLINE
  5
352
330
2DF
100
AcDbEntity
  8
0
  6
Continuous
 62
     7
370
    25
100
AcDbPolyline
 90
       14
 70
   128
 43
0.0
 10
-202.8541024219
 20
-21.2701690733
 10
-201.5254326382
 20
-20.4102027956
 10
-199.6384231314
 20
-19.4662778995
 10
-197.537921235
 20
-18.6869910969
 10
-195.2666871104
 20
-18.08820642
 10
-192.8709565346
 20
-17.682113398
 10
-190.3994996734
 20
-17.4769789137
 10
-187.9026282614
 20
-17.4769789137
 10
-185.4311714002
 20
-17.682113398
 10
-183.0354408244
 20
-18.08820642
 10
-180.7642066998
 20
-18.6869910969
 10
-178.6637048035
 20
-19.4662778995
 10
-176.7766952966
 20
-20.4102027956
 10
-175.4212242222
 20
-21.2896966438
  0
SPLINE
  5
362
330
2DF
100
AcDbEntity
  8
0
  6
Continuous
 62
     8
370
    25
100
AcDbSpline
210
0.0
220
0.0
230
1.0
 70
     8
 71
     3
 72
    12
 73
     8
 74
     0
 42
0.000000001
 43
0.00000001
 40
0.0
 40
0.0
 40
0.0
 40
0.0
 40
0.3300055667367258
 40
0.6153045048573051
 40
0.7931107582796617
 40
0.924877557172571
 40
1.0
 40
1.0
 40
1.0
 40
1.0
 10
-1.680128322632951
 20
-183.9457236920827
 30
0.0
 10
-1.31177486322806
 20
-184.1768085451385
 30
0.0
 10
-0.6249696520528591
 20
-184.6076726438735
 30
0.0
 10
0.2665125517321287
 20
-185.2245012756975
 30
0.0
 10
0.957042708353284
 20
-185.7128878173588
 30
0.0
 10
1.419825128661817
 20
-186.0536061607774
 30
0.0
 10
1.698824873244437
 20
-186.2269959831994
 30
0.0
 10
1.800130973972497
 20
-186.289954631573
 30
0.0
  0
SPLINE
  5
364
330
2DF
100
AcDbEntity
  8
0
  6
Continuous
 62
     8
370
    25
100
AcDbSpline
210
0.0
220
0.0
230
1.0
 70
     8
 71
     3
 72
     9
 73
     5
 74
     0
 42
0.000000001
 43
0.00000001
 40
0.0
 40
0.0
 40
0.0
 40
0.0
 40
0.5055361532361424
 40
1.0
 40
1.0
 40
1.0
 40
1.0
 10
-1.060770966257785
 20
-188.3138371128056
 30
0.0
 10
-1.005905889798764
 20
-187.8119351137524
 30
0.0
 10
-0.8973773976072574
 20
-186.8191238264878
 30
0.0
 10
-0.3105855045743289
 20
-186.3398090740827
 30
0.0
 10
-0.0204381278954002
 20
-186.1028052577979
 30
0.0
  0
SPLINE
  5
369
330
2DF
100
AcDbEntity
  8
0
  6
Continuous
 62
     8
370
    25
100
AcDbSpline
210
0.0
220
0.0
230
1.0
 70
     8
 71
     3
 72
    15
 73
    11
 74
     0
 42
0.000000001
 43
0.00000001
 40
0.0
 40
0.0
 40
0.0
 40
0.0
 40
0.0000020079795586
 40
0.1147402844146132
 40
0.2306915246413956
 40
0.4182729434297084
 40
0.6112558724862259
 40
0.7984805907106292
 40
0.9910981359375837
 40
1.0
 40
1.0
 40
1.0
 40
1.0
 10
-209.5634149192686
 20
72.06567080543527
 30
0.0
 10
-209.5634289790625
 20
72.06566222764793
 30
0.0
 10
-210.3668359344587
 20
71.5755089505884
 30
0.0
 10
-211.8989263756088
 20
70.54089950685902
 30
0.0
 10
-214.3447539568481
 20
68.5080619043808
 30
0.0
 10
-216.6886692834709
 20
65.87210945552164
 30
0.0
 10
-218.5225140832246
 20
62.62682322160862
 30
0.0
 10
-219.3317717749507
 20
59.22791417586723
 30
0.0
 10
-219.5000656586719
 20
56.86888674093473
 30
0.0
 10
-219.133924700757
 20
55.68405778498411
 30
0.0
 10
-219.1177508887826
 20
55.63171947007796
 30
0.0
  0
SPLINE
  5
36A
330
2DF
100
AcDbEntity
  8
0
  6
Continuous
 62
     8
370
    25
100
AcDbSpline
210
0.0
220
0.0
230
1.0
 70
     8
 71
     3
 72
    13
 73
     9
 74
     0
 42
0.000000001
 43
0.00000001
 40
0.0
 40
0.0
 40
0.0
 40
0.0
 40
0.118379934906688
 40
0.296493237156291
 40
0.4698163748709533
 40
0.6482683820857975
 40
0.8215956873009258
 40
1.0
 40
1.0
 40
1.0
 40
1.0
 10
260.3348066618223
 20
-24.27399646546973
 30
0.0
 10
260.5760995745573
 20
-23.53914879304327
 30
0.0
 10
261.180439464219
 20
-21.69865643776172
 30
0.0
 10
261.0374262481579
 20
-18.7330442116987
 30
0.0
 10
260.0412203235038
 20
-15.4718559343328
 30
0.0
 10
258.0698212680562
 20
-12.41167116969714
 30
0.0
 10
255.2562689475057
 20
-9.555456824110145
 30
0.0
 10
252.731382923015
 20
-7.962098367389717
 30
0.0
 10
251.4507174016326
 20
-7.15391961439571
 30
0.0
  0
LWPOLYLINE
  5
36F
330
2DF
100
AcDbEntity
  8
0
  6
Continuous
 62
     8
370
    25
100
AcDbPolyline
 90
       24
 70
   128
 43
0.0
 10
-30.2300088367
 20
-96.8872096401
 10
-30.2742957244
 20
-96.2257661856
 10
-30.6296375756
 20
-94.7990245087
 10
-31.3330875426
 20
-93.4159986858
 10
-32.3703254127
 20
-92.1048431344
 10
-33.7202360139
 20
-90.8922492004
 10
-35.3553390593
 20
-89.8029017996
 10
-37.2423485661
 20
-88.8589769034
 10
-39.3428504625
 20
-88.0796901009
 10
-41.6140845871
 20
-87.480905424
 10
-44.0098151629
 20
-87.074812402
 10
-46.4812720241
 20
-86.8696779177
 10
-48.9781434361
 20
-86.8696779177
 10
-51.4496002973
 20
-87.074812402
 10
-53.8453308731
 20
-87.480905424
 10
-56.1165649977
 20
-88.0796901009
 10
-58.217066894
 20
-88.8589769034
 10
-60.1040764009
 20
-89.8029017996
 10
-61.7391794463
 20
-90.8922492004
 10
-63.0890900475
 20
-92.1048431344
 10
-64.1263279176
 20
-93.4159986858
 10
-64.8297778846
 20
-94.7990245087
 10
-65.1851197358
 20
-96.2257661856
 10
-65.2167270639
 20
-96.5574327601
  0
LWPOLYLINE
  5
372
330
2DF
100
AcDbEntity
  8
0
  6
Continuous
 62
     8
370
    25
100
AcDbPolyline
 90
       24
 70
   128
 43
0.0
 10
-100.9406869554
 20
-56.066804049
 10
-100.9849738431
 20
-55.4053605945
 10
-101.3403156943
 20
-53.9786189176
 10
-102.0437656613
 20
-52.5955930947
 10
-103.0810035313
 20
-51.2844375433
 10
-104.4309141326
 20
-50.0718436093
 10
-106.066017178
 20
-48.9824962084
 10
-107.9530266848
 20
-48.0385713123
 10
-110.0535285811
 20
-47.2592845098
 10
-112.3247627058
 20
-46.6604998329
 10
-114.7204932816
 20
-46.2544068109
 10
-117.1919501428
 20
-46.0492723266
 10
-119.6888215547
 20
-46.0492723266
 10
-122.1602784159
 20
-46.2544068109
 10
-124.5560089917
 20
-46.6604998329
 10
-126.8272431163
 20
-47.2592845098
 10
-128.9277450127
 20
-48.0385713123
 10
-130.8147545195
 20
-48.9824962084
 10
-132.4498575649
 20
-50.0718436093
 10
-133.7997681662
 20
-51.2844375433
 10
-134.8370060362
 20
-52.5955930947
 10
-135.5404560032
 20
-53.9786189176
 10
-135.8957978544
 20
-55.4053605945
 10
-135.9274051826
 20
-55.737027169
  0
LWPOLYLINE
  5
377
330
2DF
100
AcDbEntity
  8
0
  6
Continuous
 62
     8
370
    25
100
AcDbPolyline
 90
       24
 70
   128
 43
0.0
 10
-171.6513650741
 20
-15.2463984579
 10
-171.6956519617
 20
-14.5849550033
 10
-172.0509938129
 20
-13.1582133264
 10
-172.7544437799
 20
-11.7751875035
 10
-173.79168165
 20
-10.4640319521
 10
-175.1415922512
 20
-9.2514380182
 10
-176.7766952966
 20
-8.1620906173
 10
-178.6637048035
 20
-7.2181657212
 10
-180.7642066998
 20
-6.4388789187
 10
-183.0354408244
 20
-5.8400942418
 10
-185.4311714002
 20
-5.4340012197
 10
-187.9026282614
 20
-5.2288667355
 10
-190.3994996734
 20
-5.2288667355
 10
-192.8709565346
 20
-5.4340012197
 10
-195.2666871104
 20
-5.8400942418
 10
-197.537921235
 20
-6.4388789187
 10
-199.6384231314
 20
-7.2181657212
 10
-201.5254326382
 20
-8.1620906173
 10
-203.1605356836
 20
-9.2514380182
 10
-204.5104462848
 20
-10.4640319521
 10
-205.5476841549
 20
-11.7751875035
 10
-206.2511341219
 20
-13.1582133264
 10
-206.6064759731
 20
-14.5849550033
 10
-206.6380833012
 20
-14.9166215778
  0
SPLINE
  5
37C
330
2DF
100
AcDbEntity
  8
0
  6
Continuous
 62
     8
370
    25
100
AcDbSpline
210
0.0
220
0.0
230
1.0
 70
     8
 71
     3
 72
    12
 73
     8
 74
     0
 42
0.000000001
 43
0.00000001
 40
0.0
 40
0.0
 40
0.0
 40
0.0
 40
0.0292364739514892
 40
0.0754874869882919
 40
0.2505111773351059
 40
0.5008046234469617
 40
1.0
 40
1.0
 40
1.0
 40
1.0
 10
-330.1945617117306
 20
5.364814853619684
 30
0.0
 10
-330.1833319381676
 20
5.358690512882972
 30
0.0
 10
-330.1543370810204
 20
5.342877693168838
 30
0.0
 10
-329.9709418741602
 20
5.270753897019268
 30
0.0
 10
-329.5141285319187
 20
5.087926380462848
 30
0.0
 10
-328.5225448728871
 20
4.65543523140817
 30
0.0
 10
-327.6834213199681
 20
4.219608721310844
 30
0.0
 10
-327.1245249291127
 20
3.92932743593255
 30
0.0
  0
LINE
  5
388
330
2DF
100
AcDbEntity
  8
0
  6
Continuous
 62
     7
370
    25
100
AcDbLine
 10
54.7949727831
 20
-219.5754218987
 30
0.0
 11
375.6779642946
 21
-34.3336138818
 31
0.0
  0
LINE
  5
389
330
2DF
100
AcDbEntity
  8
0
  6
Continuous
 62
     7
370
    25
100
AcDbLine
 10
43.9335874051
 20
-214.698926493
 30
0.0
 11
52.3798700929
 21
-219.5748617015
 31
0.0
  0
LINE
  5
38A
330
2DF
100
AcDbEntity
  8
0
  6
Continuous
 62
     7
370
    25
100
AcDbLine
 10
1.7986632568
 20
-186.2922484731
 30
0.0
 11
41.1051602804
 21
-208.9834062099
 31
0.0
  0
LINE
  5
38B
330
2DF
100
AcDbEntity
  8
0
  6
Continuous
 62
     7
370
    25
100
AcDbLine
 10
42.7264399903
 20
-211.7915919509
 30
0.0
 11
42.7264399903
 21
-212.6081327628
 31
0.0
  0
LINE
  5
38C
330
2DF
100
AcDbEntity
  8
0
  6
Continuous
 62
     7
370
    25
100
AcDbLine
 10
223.6254750207
 20
-136.3673034566
 30
0.0
 11
230.9338817785
 21
-117.8925941155
 31
0.0
  0
LINE
  5
38D
330
2DF
100
AcDbEntity
  8
0
  6
Continuous
 62
     7
370
    25
100
AcDbLine
 10
-126.6892442263
 20
-59.0452230877
 30
0.0
 11
-125.7082717625
 21
-64.9032955732
 31
0.0
  0
LINE
  5
38E
330
2DF
100
AcDbEntity
  8
0
  6
Continuous
 62
     7
370
    25
100
AcDbLine
 10
378.796149788
 20
-29.437236535
 30
0.0
 11
378.0331092218
 21
-21.0307452244
 31
0.0
  0
LINE
  5
38F
330
2DF
100
AcDbEntity
  8
0
  6
Continuous
 62
     7
370
    25
100
AcDbLine
 10
374.0965772904
 20
-15.2648878185
 30
0.0
 11
-47.0025231778
 21
227.8304484521
 31
0.0
  0
LINE
  5
390
330
2DF
100
AcDbEntity
  8
0
  6
Continuous
 62
     7
370
    25
100
AcDbLine
 10
-369.4955187024
 20
28.0513203408
 30
0.0
 11
-330.1946748226
 21
5.3634260944
 31
0.0
  0
LINE
  5
391
330
2DF
100
AcDbEntity
  8
0
  6
Continuous
 62
     7
370
    25
100
AcDbLine
 10
-59.0634940002
 20
227.8304484521
 30
0.0
 11
-379.5681487088
 21
42.8070496226
 31
0.0
  0
LINE
  5
392
330
2DF
100
AcDbEntity
  8
0
  6
Continuous
 62
     7
370
    25
100
AcDbLine
 10
-370.8240677282
 20
25.5519244545
 30
0.0
 11
-367.9950183258
 21
27.1850999114
 31
0.0
  0
LINE
  5
393
330
2DF
100
AcDbEntity
  8
0
  6
Continuous
 62
     7
370
    25
100
AcDbLine
 10
-380.7702285149
 20
30.4773677135
 30
0.0
 11
-372.3239458271
 21
25.601432505
 31
0.0
  0
LINE
  5
394
330
2DF
100
AcDbEntity
  8
0
  6
Continuous
 62
     7
370
    25
100
AcDbLine
 10
-381.1845965267
 20
39.921051549
 30
0.0
 11
-381.5624025754
 21
31.8145031822
 31
0.0
  0
LINE
  5
395
330
2DF
100
AcDbEntity
  8
0
  6
Continuous
 62
     7
370
    25
100
AcDbLine
 10
375.1274690384
 20
-25.496129306
 30
0.0
 11
54.6228143298
 21
-210.5195281355
 31
0.0
  0
LINE
  5
396
330
2DF
100
AcDbEntity
  8
0
  6
Continuous
 62
     7
370
    25
100
AcDbLine
 10
51.0921257502
 20
-204.6122731649
 30
0.0
 11
371.5967804588
 21
-19.5888743354
 31
0.0
  0
LINE
  5
397
330
2DF
100
AcDbEntity
  8
0
  6
Continuous
 62
     7
370
    25
100
AcDbLine
 10
-371.8239864608
 20
26.4676140675
 30
0.0
 11
-371.8239864608
 21
27.2841548794
 31
0.0
  0
LINE
  5
398
330
2DF
100
AcDbEntity
  8
0
  6
Continuous
 62
     7
370
    25
100
AcDbLine
 10
-380.9773759298
 20
30.93521252
 30
0.0
 11
-372.531093242
 21
26.0592773115
 31
0.0
  0
LINE
  5
399
330
2DF
100
AcDbEntity
  8
0
  6
Continuous
 62
     7
370
    25
100
AcDbLine
 10
-380.6009785873
 20
39.0115344108
 30
0.0
 11
-380.9773759298
 21
30.93521252
 31
0.0
  0
LINE
  5
39A
330
2DF
100
AcDbEntity
  8
0
  6
Continuous
 62
     7
370
    25
100
AcDbLine
 10
49.6779121878
 20
-207.0617629005
 30
0.0
 11
-378.4825654396
 21
40.1100196345
 31
0.0
  0
LINE
  5
39B
330
2DF
100
AcDbEntity
  8
0
  6
Continuous
 62
     7
370
    25
100
AcDbLine
 10
52.1727226781
 20
-219.117016895
 30
0.0
 11
51.7963253356
 21
-210.6061158829
 31
0.0
  0
LINE
  5
39C
330
2DF
100
AcDbEntity
  8
0
  6
Continuous
 62
     7
370
    25
100
AcDbLine
 10
43.7264399903
 20
-214.2410816865
 30
0.0
 11
52.1727226781
 21
-219.117016895
 31
0.0
  0
LINE
  5
39D
330
2DF
100
AcDbEntity
  8
0
  6
Continuous
 62
     7
370
    25
100
AcDbLine
 10
43.0193332091
 20
-212.1997960068
 30
0.0
 11
43.0193332091
 21
-213.0163368187
 31
0.0
  0
LINE
  5
39E
330
2DF
100
AcDbEntity
  8
0
  6
Continuous
 62
     7
370
    25
100
AcDbLine
 10
-1.6801283226
 20
-183.9457236921
 30
0.0
 11
40.8980128655
 21
-208.5255614034
 31
0.0
  0
LINE
  5
39F
330
2DF
100
AcDbEntity
  8
0
  6
Continuous
 62
     7
370
    25
100
AcDbLine
 10
-1.7835421543
 20
-188.8700591162
 30
0.0
 11
-21.2132034356
 21
-282.0859882428
 31
0.0
  0
LINE
  5
3A0
330
2DF
100
AcDbEntity
  8
0
  6
Continuous
 62
     7
370
    25
100
AcDbLine
 10
-21.2132034356
 20
-282.0859882428
 30
0.0
 11
-45.9619407771
 21
-267.7988462859
 31
0.0
  0
LINE
  5
3A1
330
2DF
100
AcDbEntity
  8
0
  6
Continuous
 62
     7
370
    25
100
AcDbLine
 10
-282.8427124746
 20
-131.0504875556
 30
0.0
 11
-307.5914498161
 21
-116.7633455987
 31
0.0
  0
LINE
  5
3A2
330
2DF
100
AcDbEntity
  8
0
  6
Continuous
 62
     7
370
    25
100
AcDbLine
 10
-307.5914498161
 20
-116.7633455987
 30
0.0
 11
-327.0211110974
 21
-1.1144070567
 31
0.0
  0
LINE
  5
3A3
330
2DF
100
AcDbEntity
  8
0
  6
Continuous
 62
     7
370
    25
100
AcDbLine
 10
-369.7026661173
 20
28.5091651473
 30
0.0
 11
-327.1245249291
 21
3.9293274359
 31
0.0
  0
LINE
  5
3A4
330
2DF
100
AcDbEntity
  8
0
  6
Continuous
 62
     7
370
    25
100
AcDbLine
 10
54.6228143298
 20
-210.5195281355
 30
0.0
 11
55.0011511327
 21
-219.0742832185
 31
0.0
  0
LINE
  5
3A5
330
2DF
100
AcDbEntity
  8
0
  6
Continuous
 62
     7
370
    25
100
AcDbLine
 10
-377.0683518772
 20
42.5595093701
 30
0.0
 11
51.0921257502
 21
-204.6122731649
 31
0.0
  0
LINE
  5
3A6
330
2DF
100
AcDbEntity
  8
0
  6
Continuous
 62
     7
370
    25
100
AcDbLine
 10
375.8841426442
 20
-33.8324752017
 30
0.0
 11
375.1274690384
 21
-25.496129306
 31
0.0
  0
LINE
  5
3A7
330
2DF
100
AcDbEntity
  8
0
  6
Continuous
 62
     7
370
    25
100
AcDbLine
 10
55.0011511327
 20
-219.0742832185
 30
0.0
 11
375.8841426442
 21
-33.8324752017
 31
0.0
  0
LINE
  5
3A8
330
2DF
100
AcDbEntity
  8
0
  6
Continuous
 62
     7
370
    25
100
AcDbLine
 10
371.5967804588
 20
-15.512428071
 30
0.0
 11
-49.5023200094
 21
227.5829081996
 31
0.0
  0
LINE
  5
3A9
330
2DF
100
AcDbEntity
  8
0
  6
Continuous
 62
     7
370
    25
100
AcDbLine
 10
-56.5636971686
 20
227.5829081996
 30
0.0
 11
-377.0683518772
 21
42.5595093701
 31
0.0
  0
LINE
  5
3AA
330
2DF
100
AcDbEntity
  8
0
  6
Continuous
 62
     7
370
    25
100
AcDbLine
 10
214.2533546995
 20
-146.1540376243
 30
0.0
 11
-21.2132034356
 21
-282.0859882428
 31
0.0
  0
LINE
  5
3AB
330
2DF
100
AcDbEntity
  8
0
  6
Continuous
 62
     7
370
    25
100
AcDbLine
 10
-71.6775925953
 20
151.6654617039
 30
0.0
 11
-209.5634149193
 21
72.0656708054
 31
0.0
  0
LINE
  5
3AC
330
2DF
100
AcDbEntity
  8
0
  6
Continuous
 62
     7
370
    25
100
AcDbLine
 10
251.1168986578
 20
-6.9667346382
 30
0.0
 11
-23.9852357524
 21
151.8463471253
 31
0.0
  0
LINE
  5
3AD
330
2DF
100
AcDbEntity
  8
0
  6
Continuous
 62
     7
370
    25
100
AcDbLine
 10
-37.8866075943
 20
52.8563093046
 30
0.0
 11
180.8608956506
 21
-73.4239363681
 31
0.0
  0
LINE
  5
3AE
330
2DF
100
AcDbEntity
  8
0
  6
Continuous
 62
     7
370
    25
100
AcDbLine
 10
-141.1296237814
 20
6.7244641561
 30
0.0
 11
-60.9049288842
 21
53.0371947261
 31
0.0
  0
LINE
  5
3AF
330
2DF
100
AcDbEntity
  8
0
  6
Continuous
 62
     7
370
    25
100
AcDbLine
 10
-65.2167270639
 20
-96.5574327601
 30
0.0
 11
-65.2297077301
 21
-96.946472778
 31
0.0
  0
LINE
  5
3B0
330
2DF
100
AcDbEntity
  8
0
  6
Continuous
 62
     7
370
    25
100
AcDbLine
 10
-135.9274051826
 20
-55.737027169
 30
0.0
 11
-135.9403858487
 21
-56.1260671869
 31
0.0
  0
LINE
  5
3B1
330
2DF
100
AcDbEntity
  8
0
  6
Continuous
 62
     7
370
    25
100
AcDbLine
 10
-110.4552465004
 20
-64.7097658078
 30
0.0
 11
-115.7402773989
 21
-61.658782412
 31
0.0
  0
LINE
  5
3B2
330
2DF
100
AcDbEntity
  8
0
  6
Continuous
 62
     7
370
    25
100
AcDbLine
 10
-206.6380833012
 20
-14.9166215778
 30
0.0
 11
-206.6510639674
 21
-15.3056615957
 31
0.0
  0
LINE
  5
3B3
330
2DF
100
AcDbEntity
  8
0
  6
Continuous
 62
     7
370
    25
100
AcDbLine
 10
-370.4097728985
 20
27.2841548794
 30
0.0
 11
-370.4097728985
 21
26.4676140675
 31
0.0
  0
LINE
  5
3B4
330
2DF
100
AcDbEntity
  8
0
  6
Continuous
 62
     8
370
    25
100
AcDbLine
 10
2.1198829809
 20
-186.4776846727
 30
0.0
 11
-1.0607709663
 21
-188.3138371128
 31
0.0
  0
LINE
  5
3B5
330
2DF
100
AcDbEntity
  8
0
  6
Continuous
 62
     8
370
    25
100
AcDbLine
 10
2.2402519711
 20
-186.5471722116
 30
0.0
 11
-1.7835421543
 21
-188.8700591162
 31
0.0
  0
LINE
  5
3B6
330
2DF
100
AcDbEntity
  8
0
  6
Continuous
 62
     8
370
    25
100
AcDbLine
 10
-42.2514199502
 20
-99.5998206854
 30
0.0
 11
-42.4485699357
 21
-106.1449356744
 31
0.0
  0
LINE
  5
3B7
330
2DF
100
AcDbEntity
  8
0
  6
Continuous
 62
     8
370
    25
100
AcDbLine
 10
-49.4097109309
 20
-106.5597618392
 30
0.0
 11
-49.1858259991
 21
-99.1270825023
 31
0.0
  0
LINE
  5
3B8
330
2DF
100
AcDbEntity
  8
0
  6
Continuous
 62
     8
370
    25
100
AcDbLine
 10
-125.6036749165
 20
-58.7650291596
 30
0.0
 11
-124.5311759223
 21
-65.1696705543
 31
0.0
  0
LINE
  5
3B9
330
2DF
100
AcDbEntity
  8
0
  6
Continuous
 62
     8
370
    25
100
AcDbLine
 10
168.6439996998
 20
-80.4766002803
 30
0.0
 11
-44.41179588
 21
42.5178924965
 31
0.0
  0
LINE
  5
3BA
330
2DF
100
AcDbEntity
  8
0
  6
Continuous
 62
     8
370
    25
100
AcDbLine
 10
-54.4701605468
 20
42.4526630619
 30
0.0
 11
-128.7447729903
 21
-0.4251580216
 31
0.0
  0
LINE
  5
3BB
330
2DF
100
AcDbEntity
  8
0
  6
Continuous
 62
     8
370
    25
100
AcDbLine
 10
-190.3191495478
 20
-17.4737686536
 30
0.0
 11
-190.3191495478
 21
-24.951826118
 31
0.0
  0
LINE
  5
3BC
330
2DF
100
AcDbEntity
  8
0
  6
Continuous
 62
     8
370
    25
100
AcDbLine
 10
-369.2881890266
 20
27.9316314667
 30
0.0
 11
-370.4097728985
 21
27.2841548794
 31
0.0
  0
LINE
  5
3BD
330
2DF
100
AcDbEntity
  8
0
  6
Continuous
 62
     8
370
    25
100
AcDbLine
 10
-370.4097728985
 20
26.4676140675
 30
0.0
 11
-368.5809673114
 21
27.5233610607
 31
0.0
  0
ARC
  5
3BE
330
2DF
100
AcDbEntity
  8
0
  6
Continuous
 62
     7
370
    25
100
AcDbCircle
 10
47.1670476396
 20
-210.9677239332
 30
0.0
 40
4.643379412537694
100
AcDbArc
 50
4.4664914493
 51
57.2659196393
  0
ARC
  5
3BF
330
2DF
100
AcDbEntity
  8
0
  6
Continuous
 62
     7
370
    25
100
AcDbCircle
 10
52.7483443906
 20
-207.201484605
 30
0.0
 40
3.073609615144161
100
AcDbArc
 50
122.60547834
 51
177.3945215143
  0
ARC
  5
3C0
330
2DF
100
AcDbEntity
  8
0
  6
Continuous
 62
     7
370
    25
100
AcDbCircle
 10
46.9073515031
 20
-211.1222082194
 30
0.0
 40
7.738965687562896
100
AcDbArc
 50
4.4664914493
 51
57.2659196393
  0
ARC
  5
3C1
330
2DF
100
AcDbEntity
  8
0
  6
Continuous
 62
     7
370
    25
100
AcDbCircle
 10
53.1208432066
 20
-207.6665134679
 30
0.0
 40
3.224222378909047
100
AcDbArc
 50
245.7447579081
 51
297.7645863135
  0
ARC
  5
3C2
330
2DF
100
AcDbEntity
  8
0
  6
Continuous
 62
     7
370
    25
100
AcDbCircle
 10
367.4120062118
 20
-26.0988093899
 30
0.0
 40
7.738965687562605
100
AcDbArc
 50
4.4664914493
 51
57.2659196393
  0
ARC
  5
3C3
330
2DF
100
AcDbEntity
  8
0
  6
Continuous
 62
     7
370
    25
100
AcDbCircle
 10
-370.5307633585
 20
27.4939364701
 30
0.0
 40
1.310127592285443
100
AcDbArc
 50
50.7967147643
 51
189.2140369905
  0
ARC
  5
3C4
330
2DF
100
AcDbEntity
  8
0
  6
Continuous
 62
     7
370
    25
100
AcDbCircle
 10
-372.2550608283
 20
26.3976868706
 30
0.0
 40
0.43670919742855
100
AcDbArc
 50
230.7967147643
 51
9.2140369905
  0
ARC
  5
3C5
330
2DF
100
AcDbEntity
  8
0
  6
Continuous
 62
     7
370
    25
100
AcDbCircle
 10
-379.3116342634
 20
39.1169596412
 30
0.0
 40
1.29364727223265
100
AcDbArc
 50
50.1427513332
 51
184.6744789353
  0
ARC
  5
3C6
330
2DF
100
AcDbEntity
  8
0
  6
Continuous
 62
     7
370
    25
100
AcDbCircle
 10
44.5545493104
 20
-212.9464759665
 30
0.0
 40
1.536804807571999
100
AcDbArc
 50
182.6054784857
 51
237.39452166
  0
ARC
  5
3C7
330
2DF
100
AcDbEntity
  8
0
  6
Continuous
 62
     7
370
    25
100
AcDbCircle
 10
38.413684905
 20
-212.4093785636
 30
0.0
 40
4.610414422715965
100
AcDbArc
 50
2.6054784857
 51
57.39452166
  0
ARC
  5
3C8
330
2DF
100
AcDbEntity
  8
0
  6
Continuous
 62
     7
370
    25
100
AcDbCircle
 10
-2.5630792339
 20
-188.7124532208
 30
0.0
 40
0.7953097991576746
100
AcDbArc
 50
348.5700816179
 51
0.1332340936
  0
ARC
  5
3C9
330
2DF
100
AcDbEntity
  8
0
  6
Continuous
 62
     7
370
    25
100
AcDbCircle
 10
-325.9408545792
 20
-0.9289852044
 30
0.0
 40
1.096054473293953
100
AcDbArc
 50
180.4046048883
 51
189.7396875176
  0
ARC
  5
3CA
330
2DF
100
AcDbEntity
  8
0
  6
Continuous
 62
     7
370
    25
100
AcDbCircle
 10
53.544468568
 20
-216.284783693
 30
0.0
 40
3.146940052949321
100
AcDbArc
 50
244.1575306856
 51
297.5736589596
  0
ARC
  5
3CB
330
2DF
100
AcDbEntity
  8
0
  6
Continuous
 62
     7
370
    25
100
AcDbCircle
 10
-375.4121332369
 20
39.97029793
 30
0.0
 40
3.073609615144053
100
AcDbArc
 50
122.60547834
 51
177.3945215143
  0
ARC
  5
3CC
330
2DF
100
AcDbEntity
  8
0
  6
Continuous
 62
     7
370
    25
100
AcDbCircle
 10
-53.033008589
 20
220.7738506058
 30
0.0
 40
7.670008289584132
100
AcDbArc
 50
62.591986056
 51
117.408013944
  0
ARC
  5
3CD
330
2DF
100
AcDbEntity
  8
0
  6
Continuous
 62
     7
370
    25
100
AcDbCircle
 10
370.8246429591
 20
-17.5506512032
 30
0.0
 40
2.179575613537923
100
AcDbArc
 50
290.7481276285
 51
69.2518723715
  0
ARC
  5
3CE
330
2DF
100
AcDbEntity
  8
0
  6
Continuous
 62
     7
370
    25
100
AcDbCircle
 10
204.9558739159
 20
-127.8704293955
 30
0.0
 40
20.51178877585463
100
AcDbArc
 50
296.9539986525
 51
335.5469938863
  0
ARC
  5
3CF
330
2DF
100
AcDbEntity
  8
0
  6
Continuous
 62
     7
370
    25
100
AcDbCircle
 10
-117.6626106617
 20
-86.4815354048
 30
0.0
 40
24.89707676241128
100
AcDbArc
 50
66.339454663
 51
85.5717165278
  0
ARC
  5
3D0
330
2DF
100
AcDbEntity
  8
0
  6
Continuous
 62
     7
370
    25
100
AcDbCircle
 10
68.0288598211
 20
2.6544019969
 30
0.0
 40
194.6979236751485
100
AcDbArc
 50
197.9913626853
 51
199.2883758826
  0
ARC
  5
3D1
330
2DF
100
AcDbEntity
  8
0
  6
Continuous
 62
     7
370
    25
100
AcDbCircle
 10
266.6518482584
 20
-10.2013335187
 30
0.0
 40
15.50358380596249
100
AcDbArc
 50
122.1330668195
 51
168.6640200403
  0
ARC
  5
3D2
330
2DF
100
AcDbEntity
  8
0
  6
Continuous
 62
     7
370
    25
100
AcDbCircle
 10
374.0717240647
 20
-29.469406077
 30
0.0
 40
4.724535246370198
100
AcDbArc
 50
292.5579946416
 51
0.3901321784
  0
ARC
  5
3D3
330
2DF
100
AcDbEntity
  8
0
  6
Continuous
 62
     7
370
    25
100
AcDbCircle
 10
-8.7579661526
 20
149.0623779678
 30
0.0
 40
15.8463163887388
100
AcDbArc
 50
123.7436692851
 51
169.1485340906
  0
ARC
  5
3D4
330
2DF
100
AcDbEntity
  8
0
  6
Continuous
 62
     7
370
    25
100
AcDbCircle
 10
-52.9321091386
 20
55.6710013488
 30
0.0
 40
15.67163075448024
100
AcDbArc
 50
302.9343358625
 51
348.9342414715
  0
ARC
  5
3D5
330
2DF
100
AcDbEntity
  8
0
  6
Continuous
 62
     7
370
    25
100
AcDbCircle
 10
-371.1168796796
 20
28.6488659643
 30
0.0
 40
1.537021907911579
100
AcDbArc
 50
242.6096722366
 51
297.3903277634
  0
ARC
  5
3D6
330
2DF
100
AcDbEntity
  8
0
  6
Continuous
 62
     7
370
    25
100
AcDbCircle
 10
-371.1168796796
 20
27.8323251524
 30
0.0
 40
1.537021907911592
100
AcDbArc
 50
242.6096722366
 51
297.3903277634
  0
ARC
  5
3D7
330
2DF
100
AcDbEntity
  8
0
  6
Continuous
 62
     7
370
    25
100
AcDbCircle
 10
-224.515543606
 20
69.5002185398
 30
0.0
 40
15.66740261363365
100
AcDbArc
 50
10.4050949545
 51
57.0685144432
  0
ARC
  5
3D8
330
2DF
100
AcDbEntity
  8
0
  6
Continuous
 62
     7
370
    25
100
AcDbCircle
 10
-86.8802345766
 20
149.1395586958
 30
0.0
 40
15.91077971033097
100
AcDbArc
 50
10.1399922299
 51
55.9578853583
  0
ARC
  5
3D9
330
2DF
100
AcDbEntity
  8
0
  6
Continuous
 62
     7
370
    25
100
AcDbCircle
 10
-45.9528001979
 20
55.6026469914
 30
0.0
 40
15.66740261363409
100
AcDbArc
 50
190.4050949545
 51
237.0685144432
  0
ARC
  5
3DA
330
2DF
100
AcDbEntity
  8
0
  6
Continuous
 62
     8
370
    25
100
AcDbCircle
 10
52.6733950422
 20
-219.1662844776
 30
0.0
 40
0.5030905593799695
100
AcDbArc
 50
174.3800255913
 51
234.2973185446
  0
ARC
  5
3DB
330
2DF
100
AcDbEntity
  8
0
  6
Continuous
 62
     8
370
    25
100
AcDbCircle
 10
54.4919793453
 20
-219.1577893109
 30
0.0
 40
0.5159740076627439
100
AcDbArc
 50
305.9683681157
 51
9.3138092239
  0
ARC
  5
3DC
330
2DF
100
AcDbEntity
  8
0
  6
Continuous
 62
     8
370
    25
100
AcDbCircle
 10
375.3749984894
 20
-33.9159855041
 30
0.0
 40
0.5159474207459303
100
AcDbArc
 50
305.9587654593
 51
9.3147672091
  0
ARC
  5
3DD
330
2DF
100
AcDbEntity
  8
0
  6
Continuous
 62
     8
370
    25
100
AcDbCircle
 10
44.2164418927
 20
-214.2951684238
 30
0.0
 40
0.4929779300805742
100
AcDbArc
 50
173.701152487
 51
234.9866671197
  0
ARC
  5
3DE
330
2DF
100
AcDbEntity
  8
0
  6
Continuous
 62
     8
370
    25
100
AcDbCircle
 10
41.4005420704
 20
-208.5744933803
 30
0.0
 40
0.5049058725116901
100
AcDbArc
 50
174.4385613426
 51
233.6284657309
  0
ARC
  5
3DF
330
2DF
100
AcDbEntity
  8
0
  6
Continuous
 62
     8
370
    25
100
AcDbCircle
 10
43.2281306008
 20
-211.7402280608
 30
0.0
 40
0.504776235405287
100
AcDbArc
 50
186.3717738045
 51
245.5660818996
  0
ARC
  5
3E0
330
2DF
100
AcDbEntity
  8
0
  6
Continuous
 62
     8
370
    25
100
AcDbCircle
 10
43.2269498722
 20
-212.5581639657
 30
0.0
 40
0.5030179341234523
100
AcDbArc
 50
185.7240052147
 51
245.622795888
  0
ARC
  5
3E1
330
2DF
100
AcDbEntity
  8
0
  6
Continuous
 62
     8
370
    25
100
AcDbCircle
 10
117.6144362738
 20
-115.6191408485
 30
0.0
 40
4.947461561169664
100
AcDbArc
 50
53.7665160247
 51
114.1793738266
  0
ARC
  5
3E2
330
2DF
100
AcDbEntity
  8
0
  6
Continuous
 62
     8
370
    25
100
AcDbCircle
 10
61.9389242077
 20
-115.9416691933
 30
0.0
 40
4.740603366245312
100
AcDbArc
 50
66.4930441225
 51
127.8826969169
  0
ARC
  5
3E3
330
2DF
100
AcDbEntity
  8
0
  6
Continuous
 62
     8
370
    25
100
AcDbCircle
 10
-214.0829105414
 20
43.1292830967
 30
0.0
 40
4.953145674165243
100
AcDbArc
 50
62.7248537136
 51
125.9150238753
  0
ARC
  5
3E4
330
2DF
100
AcDbEntity
  8
0
  6
Continuous
 62
     8
370
    25
100
AcDbCircle
 10
255.6305040888
 20
-36.2151815245
 30
0.0
 40
5.17122823584555
100
AcDbArc
 50
55.5986201141
 51
116.1674864296
  0
ARC
  5
3E5
330
2DF
100
AcDbEntity
  8
0
  6
Continuous
 62
     8
370
    25
100
AcDbCircle
 10
-119.16891049
 20
-80.8211801483
 30
0.0
 40
23.42578203852824
100
AcDbArc
 50
85.0533192651
 51
125.2021354422
  0
ARC
  5
3E6
330
2DF
100
AcDbEntity
  8
0
  6
Continuous
 62
     8
370
    25
100
AcDbCircle
 10
373.0494870941
 20
-17.4372383657
 30
0.0
 40
2.411483203108793
100
AcDbArc
 50
64.2488229943
 51
127.0428468661
  0
ARC
  5
3E7
330
2DF
100
AcDbEntity
  8
0
  6
Continuous
 62
     8
370
    25
100
AcDbCircle
 10
373.0434010665
 20
-20.9619928315
 30
0.0
 40
4.990163612590143
100
AcDbArc
 50
294.6853774734
 51
359.2125749514
  0
ARC
  5
3E8
330
2DF
100
AcDbEntity
  8
0
  6
Continuous
 62
     8
370
    25
100
AcDbCircle
 10
-48.0495385729
 20
225.65785464
 30
0.0
 40
2.411722436278892
100
AcDbArc
 50
64.2696746482
 51
127.0407837809
  0
ARC
  5
3E9
330
2DF
100
AcDbEntity
  8
0
  6
Continuous
 62
     8
370
    25
100
AcDbCircle
 10
-369.2126642149
 20
28.45507841
 30
0.0
 40
0.4929779300368647
100
AcDbArc
 50
173.701152484
 51
234.9866671227
  0
ARC
  5
3EA
330
2DF
100
AcDbEntity
  8
0
  6
Continuous
 62
     8
370
    25
100
AcDbCircle
 10
-369.4315135271
 20
27.3926773726
 30
0.0
 40
0.9842603969918339
100
AcDbArc
 50
124.6700059337
 51
186.3301830992
  0
ARC
  5
3EB
330
2DF
100
AcDbEntity
  8
0
  6
Continuous
 62
     8
370
    25
100
AcDbCircle
 10
-380.148018676
 20
39.9442074856
 30
0.0
 40
1.036847021374082
100
AcDbArc
 50
181.2881705974
 51
244.0961127746
  0
ARC
  5
3EC
330
2DF
100
AcDbEntity
  8
0
  6
Continuous
 62
     8
370
    25
100
AcDbCircle
 10
-378.5286535642
 20
40.5577181614
 30
0.0
 40
2.477831523760685
100
AcDbArc
 50
53.8893423959
 51
114.8234775054
  0
ARC
  5
3ED
330
2DF
100
AcDbEntity
  8
0
  6
Continuous
 62
     8
370
    25
100
AcDbCircle
 10
-58.0164786051
 20
225.65785464
 30
0.0
 40
2.411722436279061
100
AcDbArc
 50
52.9592162191
 51
115.7303253518
  0
ARC
  5
3EE
330
2DF
100
AcDbEntity
  8
0
  6
Continuous
 62
     8
370
    25
100
AcDbCircle
 10
-371.4111782667
 20
26.3690898569
 30
0.0
 40
1.006240394555963
100
AcDbArc
 50
305.7136853158
 51
5.619015504
  0
ARC
  5
3EF
330
2DF
100
AcDbEntity
  8
0
  6
Continuous
 62
     8
370
    25
100
AcDbCircle
 10
-372.0304255055
 20
26.0100088929
 30
0.0
 40
0.5030860358543741
100
AcDbArc
 50
174.3798792278
 51
234.2989982719
  0
ARC
  5
3F0
330
2DF
100
AcDbEntity
  8
0
  6
Continuous
 62
     8
370
    25
100
AcDbCircle
 10
-380.4873740274
 20
30.8811257826
 30
0.0
 40
0.49297793003635
100
AcDbArc
 50
173.7011524839
 51
234.9866671227
  0
ARC
  5
3F1
330
2DF
100
AcDbEntity
  8
0
  6
Continuous
 62
     8
370
    25
100
AcDbCircle
 10
-380.5260893011
 20
31.8697372003
 30
0.0
 40
1.0377841776277
100
AcDbArc
 50
183.0508965042
 51
244.2238716283
  0
VIEWPORT
  5
3F8
330
2DF
100
AcDbEntity
  8
0
100
AcDbViewport
 10
0.0
 20
0.0
 30
0.0
 40
205.6
 41
156.0
 68
     1
 69
     1
 12
0.0
 22
0.3923721716
 13
0.0
 23
0.0
 14
10.0
 24
10.0
 15
10.0
 25
10.0
 16
0.0
 26
0.0
 36
1.0
 17
0.0
 27
0.0
 37
0.0
 42
50.0
 43
0.0
 44
0.0
 45
477.1816003881
 50
0.0
 51
0.0
 72
   100
 90
   557152
  1

281
     0
 71
     1
 74
     0
110
0.0
120
0.0
130
0.0
111
1.0
121
0.0
131
0.0
112
0.0
122
1.0
132
0.0
 79
     0
146
0.0
  0
ENDBLK
  5
2E2
330
2DF
100
AcDbEntity
  8
0
100
AcDbBlockEnd
  0
ENDSEC
  0
SECTION
  2
ENTITIES
  0
SPLINE
  5
73
330
1F
100
AcDbEntity
  8
0
  6
Continuous
 62
     7
370
    25
100
AcDbSpline
210
0.0
220
0.0
230
1.0
 70
     8
 71
     3
 72
     9
 73
     5
 74
     0
 42
0.000000001
 43
0.00000001
 40
0.0
 40
0.0
 40
0.0
 40
0.0
 40
0.543631044928376
 40
1.0
 40
1.0
 40
1.0
 40
1.0
 10
-10.85362978620421
 20
-100.6968330840485
 30
0.0
 10
-10.87089022841566
 20
-100.6909908708759
 30
0.0
 10
-10.90264051635905
 20
-100.6802442197654
 30
0.0
 10
-10.8881632162316
 20
-100.6875928983997
 30
0.0
 10
-10.88155622590018
 20
-100.6909466071891
 30
0.0
  0
SPLINE
  5
77
330
1F
100
AcDbEntity
  8
0
  6
Continuous
 62
     7
370
    25
100
AcDbSpline
210
0.0
220
0.0
230
1.0
 70
     8
 71
     3
 72
    30
 73
    26
 74
     0
 42
0.000000001
 43
0.00000001
 40
0.0
 40
0.0
 40
0.0
 40
0.0
 40
0.0625000000000004
 40
0.0625000000000004
 40
0.1250000000000008
 40
0.1250000000000008
 40
0.2500000000000034
 40
0.2500000000000034
 40
0.312500000000004
 40
0.312500000000004
 40
0.3750000000000046
 40
0.3750000000000046
 40
0.5000000000000048
 40
0.5000000000000048
 40
0.5625000000000044
 40
0.5625000000000044
 40
0.6250000000000039
 40
0.6250000000000039
 40
0.7500000000000017
 40
0.7500000000000017
 40
0.8125000000000012
 40
0.8125000000000012
 40
0.8750000000000009
 40
0.8750000000000009
 40
1.0
 40
1.0
 40
1.0
 40
1.0
 10
-194.9999999999989
 20
160.6050148231467
 30
0.0
 10
-196.0913491050829
 20
160.5942452765333
 30
0.0
 10
-197.177069252924
 20
160.5298559617077
 30
0.0
 10
-199.3375286609127
 20
160.2959515521127
 30
0.0
 10
-200.4137992875452
 20
160.126590896154
 30
0.0
 10
-203.6167563671109
 20
159.462835936403
 30
0.0
 10
-205.6751845072752
 20
158.8208224905308
 30
0.0
 10
-208.6527957777217
 20
157.5722815694859
 30
0.0
 10
-209.6267025503132
 20
157.1077570098435
 30
0.0
 10
-211.5364121940508
 20
156.0798340366531
 30
0.0
 10
-212.4748855625419
 20
155.5140193054285
 30
0.0
 10
-215.1730015390211
 20
153.7033387653254
 30
0.0
 10
-216.8355100717712
 20
152.336996345452
 30
0.0
 10
-219.126817643852
 20
150.0508674816165
 30
0.0
 10
-219.8574386045379
 20
149.2481451337273
 30
0.0
 10
-221.2452562412885
 20
147.5648649040245
 30
0.0
 10
-221.8919640215951
 20
146.696044585468
 30
0.0
 10
-223.6978777765739
 20
144.0122957487724
 30
0.0
 10
-224.7229141032882
 20
142.1201099796417
 30
0.0
 10
-225.9875351608219
 20
139.124676386469
 30
0.0
 10
-226.364491317374
 20
138.0958407442433
 30
0.0
 10
-227.0107334761751
 20
136.0277397689468
 30
0.0
 10
-227.281986197777
 20
134.9840815719467
 30
0.0
 10
-227.9439444453658
 20
131.8249819995603
 30
0.0
 10
-228.1868841094045
 20
129.6821839924025
 30
0.0
 10
-228.2174229266404
 20
127.4999999998563
 30
0.0
  0
SPLINE
  5
79
330
1F
100
AcDbEntity
  8
0
  6
Continuous
 62
     7
370
    25
100
AcDbSpline
210
0.0
220
0.0
230
1.0
 70
     8
 71
     3
 72
    32
 73
    28
 74
     0
 42
0.000000001
 43
0.00000001
 40
0.0
 40
0.0
 40
0.0
 40
0.0
 40
0.1250000000000014
 40
0.1250000000000014
 40
0.1875000000000023
 40
0.1875000000000023
 40
0.2500000000000031
 40
0.2500000000000031
 40
0.3750000000000048
 40
0.3750000000000048
 40
0.4375000000000051
 40
0.4375000000000051
 40
0.5000000000000054
 40
0.5000000000000054
 40
0.6250000000000052
 40
0.6250000000000052
 40
0.6562500000000047
 40
0.6562500000000047
 40
0.6875000000000041
 40
0.6875000000000041
 40
0.7500000000000037
 40
0.7500000000000037
 40
0.8750000000000023
 40
0.8750000000000023
 40
0.9375000000000011
 40
0.9375000000000011
 40
1.0
 40
1.0
 40
1.0
 40
1.0
 10
-237.9594817703061
 20
127.6885180061251
 30
0.0
 10
-237.9051556081746
 20
130.4959350731299
 30
0.0
 10
-237.5794243554138
 20
133.2516408110054
 30
0.0
 10
-236.7095814878104
 20
137.3125598931049
 30
0.0
 10
-236.3549317082761
 20
138.653871761864
 30
0.0
 10
-235.5132628897256
 20
141.3112749321184
 30
0.0
 10
-235.0236386197001
 20
142.6329681298693
 30
0.0
 10
-233.3837180713067
 20
146.4811411750798
 30
0.0
 10
-232.0582782688841
 20
148.9119665769031
 30
0.0
 10
-229.7276169348274
 20
152.3595967804504
 30
0.0
 10
-228.8935177906039
 20
153.4756310597849
 30
0.0
 10
-227.1052491260222
 20
155.6380738910396
 30
0.0
 10
-226.1641084141822
 20
156.6696351250615
 30
0.0
 10
-223.2138120099247
 20
159.6080917629951
 30
0.0
 10
-221.074631377037
 20
161.3654359114828
 30
0.0
 10
-218.1832227153297
 20
163.3076984419835
 30
0.0
 10
-217.5940243957961
 20
163.6833774768616
 30
0.0
 10
-216.3932055286266
 20
164.4084993539016
 30
0.0
 10
-215.7846704500413
 20
164.7560417919039
 30
0.0
 10
-213.9432854440948
 20
165.749818026983
 30
0.0
 10
-212.6912363585458
 20
166.3492703992367
 30
0.0
 10
-208.8633203438414
 20
167.962579472991
 30
0.0
 10
-206.2169930545641
 20
168.7947616951857
 30
0.0
 10
-202.0995313809449
 20
169.6615083510474
 30
0.0
 10
-200.7158156386014
 20
169.8839738835233
 30
0.0
 10
-197.9376242412449
 20
170.1949935617495
 30
0.0
 10
-196.5412425425705
 20
170.2835538251082
 30
0.0
 10
-195.1373872493859
 20
170.3034407447824
 30
0.0
  0
SPLINE
  5
7B
330
1F
100
AcDbEntity
  8
0
  6
Continuous
 62
     7
370
    25
100
AcDbSpline
210
0.0
220
0.0
230
1.0
 70
     8
 71
     3
 72
    11
 73
     7
 74
     0
 42
0.000000001
 43
0.00000001
 40
0.0000000000000001
 40
0.0000000000000001
 40
0.0000000000000001
 40
0.0000000000000001
 40
0.0004734262014806
 40
0.0004734262014806
 40
0.0004734262014806
 40
0.0004734862014806
 40
0.0004734862014806
 40
0.0004734862014806
 40
0.0004734862014806
 10
194.9999999946337
 20
160.6050148231997
 30
0.0
 10
194.8422220858286
 20
160.6065717920082
 30
0.0
 10
194.6844291788351
 20
160.6070107853593
 30
0.0
 10
194.5266447510753
 20
160.6063393179411
 30
0.0
 10
194.5266247541557
 20
160.6063392328422
 30
0.0
 10
194.5266047572363
 20
160.6063391477077
 30
0.0
 10
194.5265847603168
 20
160.6063390625909
 30
0.0
  0
SPLINE
  5
7D
330
1F
100
AcDbEntity
  8
0
  6
Continuous
 62
     7
370
    25
100
AcDbSpline
210
0.0
220
0.0
230
1.0
 70
     8
 71
     3
 72
    11
 73
     7
 74
     0
 42
0.000000001
 43
0.00000001
 40
-0.0000000599907586
 40
-0.0000000599907586
 40
-0.0000000599907586
 40
-0.0000000599907586
 40
0.0
 40
0.0
 40
0.0
 40
0.0004734262160878
 40
0.0004734262160878
 40
0.0004734262160878
 40
0.0004734262160878
 10
-194.5265847603169
 20
160.6063390625909
 30
0.0
 10
-194.5266047570553
 20
160.6063391477069
 30
0.0
 10
-194.5266247479958
 20
160.606339232816
 30
0.0
 10
-194.5266447418354
 20
160.6063393179018
 30
0.0
 10
-194.6844291744634
 20
160.607010785384
 30
0.0
 10
-194.842222086326
 20
160.6065717920286
 30
0.0
 10
-194.9999999999989
 20
160.6050148231467
 30
0.0
  0
SPLINE
  5
7E
330
1F
100
AcDbEntity
  8
0
  6
Continuous
 62
     7
370
    25
100
AcDbSpline
210
0.0
220
0.0
230
1.0
 70
     8
 71
     3
 72
    25
 73
    21
 74
     0
 42
0.000000001
 43
0.00000001
 40
0.0
 40
0.0
 40
0.0
 40
0.0
 40
0.0039062500000001
 40
0.0039062500000001
 40
0.0078125000000002
 40
0.0156250000000003
 40
0.0312500000000003
 40
0.0625000000000002
 40
0.1250000000000002
 40
0.2500000000000002
 40
0.5000000000000003
 40
0.7500000000000004
 40
0.8750000000000006
 40
0.9375000000000007
 40
0.9687500000000006
 40
0.9843750000000004
 40
0.9921875000000003
 40
0.9960937500000002
 40
0.9960937500000002
 40
1.0
 40
1.0
 40
1.0
 40
1.0
 10
-195.1373872493859
 20
170.3034407447824
 30
0.0
 10
-194.629217370629
 20
170.3106394451105
 30
0.0
 10
-194.1210469307025
 20
170.3077640640442
 30
0.0
 10
-193.1047063711914
 20
170.3077640640443
 30
0.0
 10
-191.5801955319248
 20
170.3077640640442
 30
0.0
 10
-188.0230035736362
 20
170.3077640640442
 30
0.0
 10
-180.9086196570589
 20
170.3077640640443
 30
0.0
 10
-166.6798518239047
 20
170.3077640640443
 30
0.0
 10
-138.2223161575959
 20
170.3077640640442
 30
0.0
 10
-81.30724482497817
 20
170.3077640640442
 30
0.0
 10
-0.0000000640958698
 20
170.3077640640443
 30
0.0
 10
81.30724469678647
 20
170.3077640640442
 30
0.0
 10
138.222316029404
 20
170.3077640640442
 30
0.0
 10
166.6798516957129
 20
170.3077640640442
 30
0.0
 10
180.9086195288672
 20
170.3077640640443
 30
0.0
 10
188.0230034454445
 20
170.3077640640442
 30
0.0
 10
191.580195403733
 20
170.3077640640442
 30
0.0
 10
193.1047062429997
 20
170.3077640640442
 30
0.0
 10
194.1210468025108
 20
170.3077640640443
 30
0.0
 10
194.6292171617844
 20
170.3106394479871
 30
0.0
 10
195.137387242461
 20
170.3034407448805
 30
0.0
  0
SPLINE
  5
80
330
1F
100
AcDbEntity
  8
0
  6
Continuous
 62
     7
370
    25
100
AcDbSpline
210
0.0
220
0.0
230
1.0
 70
     8
 71
     3
 72
    11
 73
     7
 74
     0
 42
0.000000001
 43
0.00000001
 40
0.0
 40
0.0
 40
0.0
 40
0.0
 40
0.000647305550278
 40
0.000647305550278
 40
0.000647305550278
 40
0.000647365550278
 40
0.000647365550278
 40
0.000647365550278
 40
0.000647365550278
 10
-228.2174229266404
 20
127.4999999998563
 30
0.0
 10
-228.2204414151409
 20
127.2843106613761
 30
0.0
 10
-228.2213734688533
 20
127.0685819651451
 30
0.0
 10
-228.2202373409046
 20
126.8528734416615
 30
0.0
 10
-228.2202372355947
 20
126.8528534472224
 30
0.0
 10
-228.2202371302493
 20
126.8528334527835
 30
0.0
 10
-228.2202370249216
 20
126.8528134583444
 30
0.0
  0
LWPOLYLINE
  5
83
330
1F
100
AcDbEntity
  8
0
  6
Continuous
 62
     7
370
    25
100
AcDbPolyline
 90
        6
 70
   128
 43
0.0
 10
-237.9675602102
 20
-67.5
 10
-237.9675602102
 20
-47.5
 10
-237.9675602102
 20
32.5
 10
-237.9675602102
 20
80.0942590031
 10
-238.0786236558
 20
103.8925020728
 10
-237.9594817703
 20
127.6885180061
  0
CIRCLE
  5
88
330
1F
100
AcDbEntity
  8
0
  6
Continuous
 62
     7
370
    25
100
AcDbCircle
 10
-100.0
 20
-167.5
 30
0.0
 40
18.50000000000011
  0
CIRCLE
  5
89
330
1F
100
AcDbEntity
  8
0
  6
Continuous
 62
     7
370
    25
100
AcDbCircle
 10
-100.0
 20
-167.5
 30
0.0
 40
17.5
  0
SPLINE
  5
8A
330
1F
100
AcDbEntity
  8
0
  6
Continuous
 62
     7
370
    25
100
AcDbSpline
210
0.0
220
0.0
230
1.0
 70
     8
 71
     3
 72
    11
 73
     7
 74
     0
 42
0.000000001
 43
0.00000001
 40
-0.0000000599894507
 40
-0.0000000599894507
 40
-0.0000000599894507
 40
-0.0000000599894507
 40
0.0
 40
0.0
 40
0.0
 40
0.000573156322498
 40
0.000573156322498
 40
0.000573156322498
 40
0.000573156322498
 10
194.4269034195851
 20
-101.7358712332114
 30
0.0
 10
194.4269234160444
 20
-101.7358712643376
 30
0.0
 10
194.4269434055206
 20
-101.7358712954709
 30
0.0
 10
194.4269633984884
 20
-101.7358713265736
 30
0.0
 10
194.6179819151257
 20
-101.7361684910048
 30
0.0
 10
194.8090083048427
 20
-101.7348213834582
 30
0.0
 10
194.9999999999989
 20
-101.7318216520811
 30
0.0
  0
SPLINE
  5
8C
330
1F
100
AcDbEntity
  8
0
  6
Continuous
 62
     7
370
    25
100
AcDbSpline
210
0.0
220
0.0
230
1.0
 70
     8
 71
     3
 72
    25
 73
    21
 74
     0
 42
0.000000001
 43
0.00000001
 40
0.0
 40
0.0
 40
0.0
 40
0.0
 40
0.0039062500000001
 40
0.0039062500000001
 40
0.0078125000000003
 40
0.0156250000000003
 40
0.0312500000000004
 40
0.0625000000000004
 40
0.1250000000000003
 40
0.2500000000000002
 40
0.5
 40
0.7499999999999998
 40
0.8749999999999997
 40
0.9374999999999997
 40
0.9687499999999998
 40
0.9843749999999998
 40
0.9921874999999999
 40
0.99609375
 40
0.99609375
 40
1.0
 40
1.0
 40
1.0
 40
1.0
 10
195.1730128351665
 20
-111.6948549252306
 30
0.0
 10
194.664750533826
 20
-111.7036811430452
 30
0.0
 10
194.1564872775523
 20
-111.7013288156601
 30
0.0
 10
193.1399611669029
 20
-111.7013288156601
 30
0.0
 10
191.6151720009286
 20
-111.7013288156601
 30
0.0
 10
188.0573306136553
 20
-111.7013288156601
 30
0.0
 10
180.9416478391085
 20
-111.7013288156601
 30
0.0
 10
166.7102822900152
 20
-111.7013288156601
 30
0.0
 10
138.2475511918284
 20
-111.7013288156602
 30
0.0
 10
81.32208899545482
 20
-111.7013288156602
 30
0.0
 10
0.0000001434924286
 20
-111.7013288156602
 30
0.0
 10
-81.32208870846983
 20
-111.7013288156601
 30
0.0
 10
-138.2475509048433
 20
-111.7013288156602
 30
0.0
 10
-166.7102820030303
 20
-111.7013288156602
 30
0.0
 10
-180.9416475521237
 20
-111.7013288156602
 30
0.0
 10
-188.0573303266703
 20
-111.7013288156601
 30
0.0
 10
-191.6151717139438
 20
-111.7013288156602
 30
0.0
 10
-193.1399608799179
 20
-111.7013288156602
 30
0.0
 10
-194.1564869905675
 20
-111.7013288156602
 30
0.0
 10
-194.6647501427174
 20
-111.703681149832
 30
0.0
 10
-195.1730128347433
 20
-111.6948549252379
 30
0.0
  0
SPLINE
  5
8E
330
1F
100
AcDbEntity
  8
0
  6
Continuous
 62
     7
370
    25
100
AcDbSpline
210
0.0
220
0.0
230
1.0
 70
     8
 71
     3
 72
    11
 73
     7
 74
     0
 42
0.000000001
 43
0.00000001
 40
0.0
 40
0.0
 40
0.0
 40
0.0
 40
0.000573156311624
 40
0.000573156311624
 40
0.000573156311624
 40
0.0005732163116241
 40
0.0005732163116241
 40
0.0005732163116241
 40
0.0005732163116241
 10
-194.9999999996742
 20
-101.7318216520862
 30
0.0
 10
-194.8090083081415
 20
-101.7348213834046
 30
0.0
 10
-194.6179819220494
 20
-101.7361684909551
 30
0.0
 10
-194.4269634090361
 20
-101.73587132659
 30
0.0
 10
-194.4269434125525
 20
-101.7358712954818
 30
0.0
 10
-194.4269234160689
 20
-101.7358712643376
 30
0.0
 10
-194.4269034195853
 20
-101.7358712332114
 30
0.0
  0
SPLINE
  5
93
330
1F
100
AcDbEntity
  8
0
  6
Continuous
 62
     7
370
    25
100
AcDbSpline
210
0.0
220
0.0
230
1.0
 70
     8
 71
     3
 72
    44
 73
    40
 74
     0
 42
0.000000001
 43
0.00000001
 40
0.0
 40
0.0
 40
0.0
 40
0.0
 40
0.1250000000000007
 40
0.1250000000000007
 40
0.1875000000000004
 40
0.1875000000000004
 40
0.2187500000000003
 40
0.2187500000000003
 40
0.2500000000000003
 40
0.2500000000000003
 40
0.3750000000000017
 40
0.3750000000000017
 40
0.4062500000000022
 40
0.4062500000000022
 40
0.4375000000000027
 40
0.4375000000000027
 40
0.5000000000000033
 40
0.5000000000000033
 40
0.6250000000000042
 40
0.6250000000000042
 40
0.6562500000000038
 40
0.6562500000000038
 40
0.6875000000000034
 40
0.6875000000000034
 40
0.7500000000000032
 40
0.7500000000000032
 40
0.812500000000003
 40
0.812500000000003
 40
0.8437500000000028
 40
0.8437500000000028
 40
0.8750000000000024
 40
0.8750000000000024
 40
0.9375000000000012
 40
0.9375000000000012
 40
0.9687500000000002
 40
0.9687500000000002
 40
0.9843750000000001
 40
0.9843750000000001
 40
1.0
 40
1.0
 40
1.0
 40
1.0
 10
-195.1730128347433
 20
-111.6948549252379
 30
0.0
 10
-198.0436456999717
 20
-111.6450050133849
 30
0.0
 10
-200.860598244731
 20
-111.3107061165947
 30
0.0
 10
-205.0109588044244
 20
-110.4114753169708
 30
0.0
 10
-206.3816466823026
 20
-110.0440873013641
 30
0.0
 10
-208.4180992583679
 20
-109.3892559875396
 30
0.0
 10
-209.0946729906652
 20
-109.1533184970426
 30
0.0
 10
-210.4367276189383
 20
-108.6479834864481
 30
0.0
 10
-211.0988462632028
 20
-108.3798796166116
 30
0.0
 10
-214.3655567877989
 20
-106.9633231807121
 30
0.0
 10
-216.8393498409151
 20
-105.588230902196
 30
0.0
 10
-219.7594840087593
 20
-103.5711494653508
 30
0.0
 10
-220.3348443206171
 20
-103.1527163920481
 30
0.0
 10
-221.4677980011145
 20
-102.2850648401938
 30
0.0
 10
-222.0266903689947
 20
-101.8346187123245
 30
0.0
 10
-223.6662700867436
 20
-100.4449052088031
 30
0.0
 10
-224.705342773146
 20
-99.47206555854507
 30
0.0
 10
-227.6641268550028
 20
-96.41746717972472
 30
0.0
 10
-229.4280259854216
 20
-94.20188081984638
 30
0.0
 10
-231.3666727466348
 20
-91.20373455449892
 30
0.0
 10
-231.7419316555203
 20
-90.5907933902332
 30
0.0
 10
-232.4590134683412
 20
-89.35169951427352
 30
0.0
 10
-232.8009525431242
 20
-88.72566457694884
 30
0.0
 10
-233.7778792897308
 20
-86.82845335583369
 30
0.0
 10
-234.3638295788519
 20
-85.53811325241323
 30
0.0
 10
-235.4080737561086
 20
-82.9075448968078
 30
0.0
 10
-235.8666057437621
 20
-81.5674096939658
 30
0.0
 10
-236.4570449547491
 20
-79.51915906140607
 30
0.0
 10
-236.6375960260796
 20
-78.83005365787153
 30
0.0
 10
-236.9656513938699
 20
-77.4389281641274
 30
0.0
 10
-237.11336620352
 20
-76.73546375424105
 30
0.0
 10
-237.5031353552417
 20
-74.62268181526557
 30
0.0
 10
-237.6935197759025
 20
-73.20749769215772
 30
0.0
 10
-237.8739853227532
 20
-71.07463915233225
 30
0.0
 10
-237.9166194969216
 20
-70.36200567395973
 30
0.0
 10
-237.9539142729049
 20
-69.29049854098245
 30
0.0
 10
-237.9619053825467
 20
-68.93290356136656
 30
0.0
 10
-237.9689872427425
 20
-68.21685987122481
 30
0.0
 10
-237.9675602102043
 20
-67.8583614944531
 30
0.0
 10
-237.9675602102043
 20
-67.49999999999943
 30
0.0
  0
SPLINE
  5
95
330
1F
100
AcDbEntity
  8
0
  6
Continuous
 62
     7
370
    25
100
AcDbSpline
210
0.0
220
0.0
230
1.0
 70
     8
 71
     3
 72
    38
 73
    34
 74
     0
 42
0.000000001
 43
0.00000001
 40
0.0
 40
0.0
 40
0.0
 40
0.0
 40
0.0039062500000002
 40
0.0039062500000002
 40
0.0078125000000004
 40
0.0156250000000001
 40
0.0312499999999994
 40
0.0312499999999994
 40
0.0624999999999989
 40
0.0624999999999989
 40
0.1249999999999989
 40
0.1249999999999989
 40
0.1874999999999989
 40
0.1874999999999989
 40
0.2499999999999989
 40
0.2499999999999989
 40
0.3124999999999989
 40
0.3124999999999989
 40
0.3749999999999989
 40
0.3749999999999989
 40
0.4999999999999996
 40
0.4999999999999996
 40
0.5624999999999999
 40
0.5624999999999999
 40
0.6250000000000003
 40
0.6250000000000003
 40
0.7500000000000009
 40
0.7500000000000009
 40
0.8125000000000011
 40
0.8125000000000011
 40
0.8750000000000012
 40
0.8750000000000012
 40
1.0
 40
1.0
 40
1.0
 40
1.0
 10
-228.2202370249216
 20
-68.14718653112858
 30
0.0
 10
-228.2198766101857
 20
-68.2155812536026
 30
0.0
 10
-228.2193021673063
 20
-68.28460433559117
 30
0.0
 10
-228.2177348582581
 20
-68.42195388251717
 30
0.0
 10
-228.2147513359363
 20
-68.62790961663733
 30
0.0
 10
-228.2033603537568
 20
-69.10799273313249
 30
0.0
 10
-228.1860034413432
 20
-69.5186692309192
 30
0.0
 10
-228.1412100918828
 20
-70.33892883005154
 30
0.0
 10
-228.0979314001592
 20
-70.88431384920693
 30
0.0
 10
-227.9282908108578
 20
-72.51613432229229
 30
0.0
 10
-227.7624229213283
 20
-73.59828629218987
 30
0.0
 10
-227.3253517472678
 20
-75.75110363812787
 30
0.0
 10
-227.0551565168341
 20
-76.81250654763707
 30
0.0
 10
-226.4177749153297
 20
-78.89165410763407
 30
0.0
 10
-226.0503451799369
 20
-79.91186420635806
 30
0.0
 10
-225.2195041689494
 20
-81.91412703464732
 30
0.0
 10
-224.755749348522
 20
-82.8960358088711
 30
0.0
 10
-223.7294694105739
 20
-84.82061831489776
 30
0.0
 10
-223.1637062146116
 20
-85.76789141495658
 30
0.0
 10
-221.3480117187037
 20
-88.49675755274475
 30
0.0
 10
-219.9776468201661
 20
-90.17735473078382
 30
0.0
 10
-217.6860202367149
 20
-92.49356864126058
 30
0.0
 10
-216.8822840493503
 20
-93.23108924110906
 30
0.0
 10
-215.1934381740421
 20
-94.63558541510376
 30
0.0
 10
-214.318711975192
 20
-95.29265140032149
 30
0.0
 10
-211.6207300575986
 20
-97.12404112525499
 30
0.0
 10
-209.718582303864
 20
-98.1643154063214
 30
0.0
 10
-206.7074686022943
 20
-99.44911726591317
 30
0.0
 10
-205.6725235827548
 20
-99.8326409253367
 30
0.0
 10
-203.5901850627369
 20
-100.4915951932729
 30
0.0
 10
-202.5392243422357
 20
-100.7686632119246
 30
0.0
 10
-199.3575907378586
 20
-101.4460581660192
 30
0.0
 10
-197.1990750068814
 20
-101.6972827979738
 30
0.0
 10
-194.9999999996741
 20
-101.7318216520862
 30
0.0
  0
SPLINE
  5
97
330
1F
100
AcDbEntity
  8
0
  6
Continuous
 62
     7
370
    25
100
AcDbSpline
210
0.0
220
0.0
230
1.0
 70
     8
 71
     3
 72
    11
 73
     7
 74
     0
 42
0.000000001
 43
0.00000001
 40
-0.0000000599833173
 40
-0.0000000599833173
 40
-0.0000000599833173
 40
-0.0000000599833173
 40
0.0
 40
0.0
 40
0.0
 40
0.0006473055671037
 40
0.0006473055671037
 40
0.0006473055671037
 40
0.0006473055671037
 10
228.2202370249215
 20
126.8528134583444
 30
0.0
 10
228.2202371302477
 20
126.8528334525061
 30
0.0
 10
228.2202372355359
 20
126.8528534361036
 30
0.0
 10
228.2202373408166
 20
126.8528734249834
 30
0.0
 10
228.2213734689013
 20
127.0685819540735
 30
0.0
 10
228.2204414152182
 20
127.2843106559133
 30
0.0
 10
228.2174229266383
 20
127.5
 30
0.0
  0
SPLINE
  5
99
330
1F
100
AcDbEntity
  8
0
  6
Continuous
 62
     7
370
    25
100
AcDbSpline
210
0.0
220
0.0
230
1.0
 70
     8
 71
     3
 72
    16
 73
    12
 74
     0
 42
0.000000001
 43
0.00000001
 40
0.0
 40
0.0
 40
0.0
 40
0.0
 40
0.0078125
 40
0.0078125
 40
0.015625
 40
0.03125
 40
0.0625000000000001
 40
0.1250000000000002
 40
0.2500000000000001
 40
0.5
 40
1.0
 40
1.0
 40
1.0
 40
1.0
 10
237.9594817703024
 20
127.6885180063108
 30
0.0
 10
237.9693179003831
 20
127.1802155904522
 30
0.0
 10
237.9675602102042
 20
126.6719119739398
 30
0.0
 10
237.9675602102041
 20
125.6553051049669
 30
0.0
 10
237.9675602102042
 20
124.1303948015078
 30
0.0
 10
237.9675602102041
 20
120.5722707601029
 30
0.0
 10
237.9675602102042
 20
113.4560226772932
 30
0.0
 10
237.9675602102043
 20
99.22352651167388
 30
0.0
 10
237.9675602102043
 20
70.75853418043516
 30
0.0
 10
237.9675602102039
 20
13.82854951795777
 30
0.0
 10
237.9675602102043
 20
-34.96858019273729
 30
0.0
 10
237.9675602102042
 20
-67.49999999986734
 30
0.0
  0
CIRCLE
  5
9B
330
1F
100
AcDbEntity
  8
0
  6
Continuous
 62
     7
370
    25
100
AcDbCircle
 10
0.0
 20
-167.5
 30
0.0
 40
17.50000000000003
  0
CIRCLE
  5
9C
330
1F
100
AcDbEntity
  8
0
  6
Continuous
 62
     7
370
    25
100
AcDbCircle
 10
0.0
 20
-167.5
 30
0.0
 40
18.50000000000003
  0
SPLINE
  5
9D
330
1F
100
AcDbEntity
  8
0
  6
Continuous
 62
     7
370
    25
100
AcDbSpline
210
0.0
220
0.0
230
1.0
 70
     8
 71
     3
 72
    30
 73
    26
 74
     0
 42
0.000000001
 43
0.00000001
 40
0.0
 40
0.0
 40
0.0
 40
0.0
 40
0.0624999999999998
 40
0.0624999999999998
 40
0.1249999999999997
 40
0.1249999999999997
 40
0.2499999999999993
 40
0.2499999999999993
 40
0.3124999999999988
 40
0.3124999999999988
 40
0.3749999999999983
 40
0.3749999999999983
 40
0.4999999999999965
 40
0.4999999999999965
 40
0.5624999999999968
 40
0.5624999999999968
 40
0.6249999999999969
 40
0.6249999999999969
 40
0.7499999999999973
 40
0.7499999999999973
 40
0.8124999999999976
 40
0.8124999999999976
 40
0.8749999999999977
 40
0.8749999999999977
 40
1.0
 40
1.0
 40
1.0
 40
1.0
 10
228.2174229266382
 20
127.5000000000001
 30
0.0
 10
228.2021529638197
 20
128.5911315969397
 30
0.0
 10
228.133425815921
 20
129.6764293435754
 30
0.0
 10
227.8912259082211
 20
131.835663963919
 30
0.0
 10
227.7179222779768
 20
132.911002656279
 30
0.0
 10
227.0425754162563
 20
136.1114145423264
 30
0.0
 10
226.3935868332625
 20
138.167619727566
 30
0.0
 10
225.1352676826313
 20
141.1409770997357
 30
0.0
 10
224.6676394067174
 20
142.1133246213052
 30
0.0
 10
223.6337448256651
 20
144.0195979744184
 30
0.0
 10
223.0650498777649
 20
144.9562606282933
 30
0.0
 10
221.2459543430944
 20
147.6487029943636
 30
0.0
 10
219.8745484811008
 20
149.3070348485768
 30
0.0
 10
217.581607124526
 20
151.5914628116252
 30
0.0
 10
216.7766735934114
 20
152.3195394152653
 30
0.0
 10
215.0890939467697
 20
153.7022963487553
 30
0.0
 10
214.2182811070833
 20
154.3464077963836
 30
0.0
 10
211.5288003065259
 20
156.1439842396123
 30
0.0
 10
209.6333483773915
 20
157.1631432537101
 30
0.0
 10
206.6335588192039
 20
158.4179381857832
 30
0.0
 10
205.603342295552
 20
158.7914469613618
 30
0.0
 10
203.5328672269978
 20
159.430649787638
 30
0.0
 10
202.488189694034
 20
159.6982472367743
 30
0.0
 10
199.3265081406773
 20
160.3487343302704
 30
0.0
 10
197.1826249705488
 20
160.5834764530066
 30
0.0
 10
194.9999999946337
 20
160.6050148231996
 30
0.0
  0
SPLINE
  5
9E
330
1F
100
AcDbEntity
  8
0
  6
Continuous
 62
     7
370
    25
100
AcDbSpline
210
0.0
220
0.0
230
1.0
 70
     8
 71
     3
 72
    30
 73
    26
 74
     0
 42
0.000000001
 43
0.00000001
 40
0.0
 40
0.0
 40
0.0
 40
0.0
 40
0.1250000000000006
 40
0.1250000000000006
 40
0.1875000000000008
 40
0.1875000000000008
 40
0.2500000000000009
 40
0.2500000000000009
 40
0.3750000000000008
 40
0.3750000000000008
 40
0.4375000000000011
 40
0.4375000000000011
 40
0.5000000000000014
 40
0.5000000000000014
 40
0.625000000000002
 40
0.625000000000002
 40
0.6875000000000014
 40
0.6875000000000014
 40
0.7500000000000009
 40
0.7500000000000009
 40
0.8749999999999997
 40
0.8749999999999997
 40
0.9374999999999999
 40
0.9374999999999999
 40
1.0
 40
1.0
 40
1.0
 40
1.0
 10
195.137387242461
 20
170.3034407448805
 30
0.0
 10
197.9450896752664
 20
170.2636670214872
 30
0.0
 10
200.7023546580155
 20
169.9516281528797
 30
0.0
 10
204.7675310689436
 20
169.1018122369433
 30
0.0
 10
206.1105805176261
 20
168.7537128645198
 30
0.0
 10
208.7721150377492
 20
167.9249137655857
 30
0.0
 10
210.0961666178628
 20
167.4416936277265
 30
0.0
 10
213.9520689356739
 20
165.8204148003143
 30
0.0
 10
216.3891938679787
 20
164.5065888017344
 30
0.0
 10
219.8480739243798
 20
162.1923373047705
 30
0.0
 10
220.9681190816675
 20
161.3634697095862
 30
0.0
 10
223.139222206083
 20
159.585322537383
 30
0.0
 10
224.1750037431904
 20
158.6493562048626
 30
0.0
 10
227.1272335923076
 20
155.7131317279618
 30
0.0
 10
228.894776595583
 20
153.5823252713051
 30
0.0
 10
231.2422085398011
 20
150.1235667588904
 30
0.0
 10
231.9765809536245
 20
148.9205481751328
 30
0.0
 10
233.3132239306334
 20
146.4719483601106
 30
0.0
 10
233.918654075788
 20
145.222858420997
 30
0.0
 10
235.550389574885
 20
141.4028421418804
 30
0.0
 10
236.395418329711
 20
138.7604615701563
 30
0.0
 10
237.2825044703331
 20
134.6469250679636
 30
0.0
 10
237.5117281830423
 20
133.2646000832514
 30
0.0
 10
237.8366625409273
 20
130.4881048323739
 30
0.0
 10
237.932318736869
 20
129.0922240779932
 30
0.0
 10
237.9594817703023
 20
127.6885180063108
 30
0.0
  0
SPLINE
  5
AA
330
1F
100
AcDbEntity
  8
0
  6
Continuous
 62
     7
370
    25
100
AcDbSpline
210
0.0
220
0.0
230
1.0
 70
     8
 71
     3
 72
    35
 73
    31
 74
     0
 42
0.000000001
 43
0.00000001
 40
0.0
 40
0.0
 40
0.0
 40
0.0
 40
0.0156249999999998
 40
0.0156249999999998
 40
0.0312499999999996
 40
0.0312499999999996
 40
0.0624999999999991
 40
0.1249999999999983
 40
0.1249999999999983
 40
0.1874999999999974
 40
0.1874999999999974
 40
0.2499999999999965
 40
0.2499999999999965
 40
0.3749999999999952
 40
0.3749999999999952
 40
0.4374999999999942
 40
0.4374999999999942
 40
0.4687499999999943
 40
0.4687499999999943
 40
0.4999999999999944
 40
0.4999999999999944
 40
0.6249999999999966
 40
0.6249999999999966
 40
0.6874999999999971
 40
0.6874999999999971
 40
0.7499999999999977
 40
0.7499999999999977
 40
0.8749999999999989
 40
0.8749999999999989
 40
1.0
 40
1.0
 40
1.0
 40
1.0
 10
237.9675602102042
 20
-67.49999999986731
 30
0.0
 10
237.9675602102041
 20
-67.85809947315067
 30
0.0
 10
237.9689838816241
 20
-68.21642748878216
 30
0.0
 10
237.9619269454394
 20
-68.9314935835247
 30
0.0
 10
237.9539633168636
 20
-69.28831465341518
 30
0.0
 10
237.9168592413903
 20
-70.3566567462584
 30
0.0
 10
237.7897719218129
 20
-72.48485222508009
 30
0.0
 10
237.5077517780815
 20
-74.58817629683854
 30
0.0
 10
236.9977872869193
 20
-77.37110734904331
 30
0.0
 10
236.6753230401295
 20
-78.75173997171919
 30
0.0
 10
235.8914901438371
 20
-81.490706856727
 30
0.0
 10
235.4271553860711
 20
-82.85546670451062
 30
0.0
 10
233.8529749936165
 20
-86.8328464734333
 30
0.0
 10
232.5591761646647
 20
-89.34926317865401
 30
0.0
 10
230.2573985100988
 20
-92.92414202633117
 30
0.0
 10
229.4299559134802
 20
-94.08247535065243
 30
0.0
 10
228.0943550399507
 20
-95.76773356429293
 30
0.0
 10
227.6347030282932
 20
-96.31884151825203
 30
0.0
 10
226.6941208249885
 20
-97.3920779554809
 30
0.0
 10
226.212183417552
 20
-97.9154879575325
 30
0.0
 10
223.7449143522657
 20
-100.4672334917171
 30
0.0
 10
221.5880921848468
 20
-102.3010795581778
 30
0.0
 10
218.0757148460599
 20
-104.7375361885781
 30
0.0
 10
216.8523485547886
 20
-105.5000671873365
 30
0.0
 10
214.3602234959976
 20
-106.8875029752263
 30
0.0
 10
213.0877080585088
 20
-107.5159906587776
 30
0.0
 10
209.1923031474648
 20
-109.2094622373334
 30
0.0
 10
206.4913979661236
 20
-110.086606184513
 30
0.0
 10
200.8817790568268
 20
-111.3101436081375
 30
0.0
 10
198.0442385798674
 20
-111.6449947177137
 30
0.0
 10
195.1730128351665
 20
-111.6948549252306
 30
0.0
  0
CIRCLE
  5
AB
330
1F
100
AcDbEntity
  8
0
  6
Continuous
 62
     7
370
    25
100
AcDbCircle
 10
100.0
 20
-167.5
 30
0.0
 40
18.50000000000006
  0
CIRCLE
  5
AF
330
1F
100
AcDbEntity
  8
0
  6
Continuous
 62
     7
370
    25
100
AcDbCircle
 10
100.0
 20
-167.5
 30
0.0
 40
17.50000000000003
  0
SPLINE
  5
B0
330
1F
100
AcDbEntity
  8
0
  6
Continuous
 62
     7
370
    25
100
AcDbSpline
210
0.0
220
0.0
230
1.0
 70
     8
 71
     3
 72
    34
 73
    30
 74
     0
 42
0.000000001
 43
0.00000001
 40
0.0
 40
0.0
 40
0.0
 40
0.0
 40
0.1249999999999973
 40
0.1249999999999973
 40
0.2499999999999946
 40
0.2499999999999946
 40
0.312499999999994
 40
0.312499999999994
 40
0.3749999999999933
 40
0.3749999999999933
 40
0.4999999999999934
 40
0.4999999999999934
 40
0.5624999999999943
 40
0.5624999999999943
 40
0.6249999999999952
 40
0.6249999999999952
 40
0.7499999999999962
 40
0.7499999999999962
 40
0.8124999999999968
 40
0.8124999999999968
 40
0.8749999999999973
 40
0.8749999999999973
 40
0.9374999999999979
 40
0.9374999999999979
 40
0.9687499999999986
 40
0.9687499999999986
 40
0.9843749999999993
 40
0.9843749999999993
 40
1.0
 40
1.0
 40
1.0
 40
1.0
 10
194.9999999999989
 20
-101.7318216520811
 30
0.0
 10
197.1991914431383
 20
-101.6972809691947
 30
0.0
 10
199.373009349971
 20
-101.4457206109455
 30
0.0
 10
203.6719142390575
 20
-100.5244987897958
 30
0.0
 10
205.7445796551386
 20
-99.8620233950381
 30
0.0
 10
208.7353640687151
 20
-98.58279308156712
 30
0.0
 10
209.7127689549929
 20
-98.1078883706342
 30
0.0
 10
211.6278408797682
 20
-97.05934566360929
 30
0.0
 10
212.5690827329747
 20
-96.48267076555089
 30
0.0
 10
215.2755869923134
 20
-94.63817178531824
 30
0.0
 10
216.94065316457
 20
-93.24930144542229
 30
0.0
 10
219.2318168422874
 20
-90.92998131536557
 30
0.0
 10
219.9614607456518
 20
-90.11692884619444
 30
0.0
 10
221.3475299377699
 20
-88.41107568821828
 30
0.0
 10
221.9926873847214
 20
-87.53131331780713
 30
0.0
 10
223.7923021433782
 20
-84.81593169843619
 30
0.0
 10
224.8105395828804
 20
-82.90402663936464
 30
0.0
 10
226.0620158257375
 20
-79.88153679435035
 30
0.0
 10
226.4346215969273
 20
-78.84282723516918
 30
0.0
 10
227.0716122117516
 20
-76.75237261652053
 30
0.0
 10
227.3374436999332
 20
-75.6979859785382
 30
0.0
 10
227.7665329390133
 20
-73.5713531048361
 30
0.0
 10
227.930381460647
 20
-72.49921105270695
 30
0.0
 10
228.0984701740783
 20
-70.87751499141496
 30
0.0
 10
228.1414833761615
 20
-70.3346856491782
 30
0.0
 10
228.1860744661778
 20
-69.516985343001
 30
0.0
 10
228.1976110016131
 20
-69.24384135755184
 30
0.0
 10
228.2139682225164
 20
-68.69638863079074
 30
0.0
 10
228.2187956031141
 20
-68.42072043716142
 30
0.0
 10
228.2202370249215
 20
-68.14718653112857
 30
0.0
  0
SPLINE
  5
C5
330
1F
100
AcDbEntity
  8
0
  6
Continuous
 62
     7
370
    25
100
AcDbSpline
210
0.0
220
0.0
230
1.0
 70
     8
 71
     3
 72
    32
 73
    28
 74
     0
 42
0.000000001
 43
0.00000001
 40
0.0
 40
0.0
 40
0.0
 40
0.0
 40
0.0624999999999986
 40
0.0624999999999986
 40
0.1249999999999973
 40
0.1249999999999973
 40
0.2499999999999946
 40
0.2499999999999946
 40
0.312499999999994
 40
0.312499999999994
 40
0.3749999999999935
 40
0.3749999999999935
 40
0.4999999999999946
 40
0.4999999999999946
 40
0.5624999999999964
 40
0.5624999999999964
 40
0.6249999999999981
 40
0.6249999999999981
 40
0.7499999999999988
 40
0.7499999999999988
 40
0.8124999999999991
 40
0.8124999999999991
 40
0.8749999999999993
 40
0.8749999999999993
 40
0.9374999999999997
 40
0.9374999999999997
 40
1.0
 40
1.0
 40
1.0
 40
1.0
 10
204.2073090993219
 20
-78.5650680536891
 30
0.0
 10
204.1584656635451
 20
-79.06568375967878
 30
0.0
 10
204.0868585154523
 20
-79.56256633802224
 30
0.0
 10
203.8987687818691
 20
-80.54852753692262
 30
0.0
 10
203.7813062427226
 20
-81.03891703204705
 30
0.0
 10
203.3651835717841
 20
-82.47945444298968
 30
0.0
 10
203.0039786108907
 20
-83.40522436133817
 30
0.0
 10
202.3373109937557
 20
-84.74192022590837
 30
0.0
 10
202.0937559095872
 20
-85.17930311044789
 30
0.0
 10
201.5646435159038
 20
-86.033850762021
 30
0.0
 10
201.2825020945201
 20
-86.44529149915083
 30
0.0
 10
200.3846217291664
 20
-87.63327241696885
 30
0.0
 10
199.7178731379333
 20
-88.36381877022615
 30
0.0
 10
198.6140144378116
 20
-89.36627101478255
 30
0.0
 10
198.2272852930942
 20
-89.68592578650036
 30
0.0
 10
197.4245097625621
 20
-90.28810164856614
 30
0.0
 10
197.0122776385996
 20
-90.56798673517267
 30
0.0
 10
195.7445522485198
 20
-91.347101275474
 30
0.0
 10
194.8585045118291
 20
-91.78663233702464
 30
0.0
 10
193.4681739266372
 20
-92.32658295576594
 30
0.0
 10
192.9934550871776
 20
-92.48729287691269
 30
0.0
 10
192.0277906204982
 20
-92.76523778494818
 30
0.0
 10
191.541487625763
 20
-92.88122882454999
 30
0.0
 10
190.5621146297305
 20
-93.0681862114826
 30
0.0
 10
190.069062024941
 20
-93.13964485154112
 30
0.0
 10
189.0764372042873
 20
-93.23775148946167
 30
0.0
 10
188.5753144117816
 20
-93.26259576279969
 30
0.0
 10
188.0730965702422
 20
-93.26412876678847
 30
0.0
  0
SPLINE
  5
C6
330
1F
100
AcDbEntity
  8
0
  6
Continuous
 62
     7
370
    25
100
AcDbSpline
210
0.0
220
0.0
230
1.0
 70
     8
 71
     3
 72
     8
 73
     4
 74
     0
 42
0.000000001
 43
0.00000001
 40
0.0
 40
0.0
 40
0.0
 40
0.0
 40
1.0
 40
1.0
 40
1.0
 40
1.0
 10
204.2797629750784
 20
-76.85281345892483
 30
0.0
 10
204.2858122951229
 20
-77.42423460301416
 30
0.0
 10
204.2628604557015
 20
-77.99570021438198
 30
0.0
 10
204.2073090993219
 20
-78.56506805368936
 30
0.0
  0
SPLINE
  5
C9
330
1F
100
AcDbEntity
  8
0
  6
Continuous
 62
     7
370
    25
100
AcDbSpline
210
0.0
220
0.0
230
1.0
 70
     8
 71
     3
 72
    38
 73
    34
 74
     0
 42
0.000000001
 43
0.00000001
 40
0.0
 40
0.0
 40
0.0
 40
0.0
 40
0.0312499999999996
 40
0.0312499999999996
 40
0.0624999999999992
 40
0.0624999999999992
 40
0.1249999999999981
 40
0.1249999999999981
 40
0.1874999999999969
 40
0.1874999999999969
 40
0.2499999999999958
 40
0.2499999999999958
 40
0.3124999999999947
 40
0.3124999999999947
 40
0.3749999999999936
 40
0.3749999999999936
 40
0.499999999999994
 40
0.499999999999994
 40
0.5624999999999931
 40
0.5624999999999931
 40
0.6249999999999921
 40
0.6249999999999921
 40
0.7499999999999948
 40
0.7499999999999948
 40
0.8124999999999961
 40
0.8124999999999961
 40
0.8749999999999974
 40
0.8749999999999974
 40
0.9374999999999987
 40
0.9374999999999987
 40
0.9687499999999994
 40
0.9687499999999994
 40
1.0
 40
1.0
 40
1.0
 40
1.0
 10
187.9734152295105
 20
134.3936609374092
 30
0.0
 10
188.2391323560913
 20
134.3913959030545
 30
0.0
 10
188.5080838558059
 20
134.3826338046713
 30
0.0
 10
189.0401022121872
 20
134.3514831396468
 30
0.0
 10
189.3052114768799
 20
134.3290499970533
 30
0.0
 10
190.0979763320022
 20
134.241994626674
 30
0.0
 10
190.6232798206711
 20
134.1592365649797
 30
0.0
 10
191.667091929353
 20
133.9424363364797
 30
0.0
 10
192.1873259929741
 20
133.8076045471517
 30
0.0
 10
193.2034294183792
 20
133.490807830815
 30
0.0
 10
193.7013403340282
 20
133.3090531490329
 30
0.0
 10
194.6772587218422
 20
132.8997099494038
 30
0.0
 10
195.1551792652295
 20
132.6719220083442
 30
0.0
 10
196.090651035344
 20
132.1694286753807
 30
0.0
 10
196.5504739954007
 20
131.893432201945
 30
0.0
 10
197.8814903101048
 20
131.0034670518968
 30
0.0
 10
198.6986144509597
 20
130.333359602183
 30
0.0
 10
199.8209587961838
 20
129.2151986218913
 30
0.0
 10
200.1777031753197
 20
128.8234836662753
 30
0.0
 10
200.8557347243905
 20
128.0012805890722
 30
0.0
 10
201.1767558906914
 20
127.5703838001577
 30
0.0
 10
202.0642906720369
 20
126.2497251170535
 30
0.0
 10
202.5648633379808
 20
125.322931346435
 30
0.0
 10
203.1817818682831
 20
123.8645061770573
 30
0.0
 10
203.3650546534639
 20
123.3669645107898
 30
0.0
 10
203.6855458010228
 20
122.348446797833
 30
0.0
 10
203.8209835044731
 20
121.8306755439541
 30
0.0
 10
204.0396053331042
 20
120.7913751238717
 30
0.0
 10
204.1233115183126
 20
120.267813365886
 30
0.0
 10
204.2120862468394
 20
119.4770731401213
 30
0.0
 10
204.2351571754006
 20
119.2125351228616
 30
0.0
 10
204.2675662198483
 20
118.6813915094425
 30
0.0
 10
204.2769513623178
 20
118.41276962199
 30
0.0
 10
204.2797629750784
 20
118.1471865317094
 30
0.0
  0
SPLINE
  5
CD
330
1F
100
AcDbEntity
  8
0
  6
Continuous
 62
     7
370
    25
100
AcDbSpline
210
0.0
220
0.0
230
1.0
 70
     8
 71
     3
 72
    36
 73
    32
 74
     0
 42
0.000000001
 43
0.00000001
 40
0.0
 40
0.0
 40
0.0
 40
0.0
 40
0.0312500000000005
 40
0.0312500000000005
 40
0.0625000000000009
 40
0.0625000000000009
 40
0.1250000000000014
 40
0.1250000000000014
 40
0.187500000000002
 40
0.187500000000002
 40
0.2500000000000025
 40
0.2500000000000025
 40
0.3125000000000031
 40
0.3125000000000031
 40
0.3750000000000036
 40
0.3750000000000036
 40
0.5000000000000029
 40
0.5000000000000029
 40
0.5625000000000026
 40
0.5625000000000026
 40
0.6250000000000022
 40
0.6250000000000022
 40
0.7500000000000014
 40
0.7500000000000014
 40
0.8750000000000008
 40
0.8750000000000008
 40
0.937500000000002
 40
0.937500000000002
 40
0.968750000000001
 40
0.968750000000001
 40
1.0
 40
1.0
 40
1.0
 40
1.0
 10
-204.2797629750785
 20
118.1471865317093
 30
0.0
 10
-204.2769505110146
 20
118.4128500258181
 30
0.0
 10
-204.2675639004279
 20
118.6815538191894
 30
0.0
 10
-204.2351057577446
 20
119.2132532904348
 30
0.0
 10
-204.2119870494901
 20
119.47820209417
 30
0.0
 10
-204.1229491534906
 20
120.2705479661002
 30
0.0
 10
-204.0389193287758
 20
120.7956478614119
 30
0.0
 10
-203.8190266425804
 20
121.8389544140809
 30
0.0
 10
-203.6826854141809
 20
122.358393639888
 30
0.0
 10
-203.3630894997721
 20
123.3723401468499
 30
0.0
 10
-203.1799764531684
 20
123.8692684613369
 30
0.0
 10
-202.7675823318756
 20
124.8431939702366
 30
0.0
 10
-202.5381853259909
 20
125.3201472566571
 30
0.0
 10
-202.0322324178837
 20
126.2537220637728
 30
0.0
 10
-201.7542233216437
 20
126.7127890308593
 30
0.0
 10
-200.8596466445669
 20
128.0387379453973
 30
0.0
 10
-200.1863559790501
 20
128.8523389229454
 30
0.0
 10
-199.0633803241406
 20
129.9693547438817
 30
0.0
 10
-198.67007467183
 20
130.3243331359136
 30
0.0
 10
-197.8447712367997
 20
130.9988981347187
 30
0.0
 10
-197.4125751013848
 20
131.3180528584219
 30
0.0
 10
-196.0877224095125
 20
132.2006546791158
 30
0.0
 10
-195.1578991103115
 20
132.6986471451116
 30
0.0
 10
-193.2062354190986
 20
133.5161790036713
 30
0.0
 10
-192.1760054316186
 20
133.8372729858819
 30
0.0
 10
-190.6177766360096
 20
134.1601073557358
 30
0.0
 10
-190.0944090174223
 20
134.2424594607288
 30
0.0
 10
-189.3036893852375
 20
134.3291803624067
 30
0.0
 10
-189.0391095009668
 20
134.3515519557216
 30
0.0
 10
-188.5078265359487
 20
134.382638155059
 30
0.0
 10
-188.2392128005174
 20
134.3913952173089
 30
0.0
 10
-187.9734152295106
 20
134.3936609374093
 30
0.0
  0
SPLINE
  5
D0
330
1F
100
AcDbEntity
  8
0
  6
Continuous
 62
     7
370
    25
100
AcDbSpline
210
0.0
220
0.0
230
1.0
 70
     8
 71
     3
 72
     8
 73
     4
 74
     0
 42
0.000000001
 43
0.00000001
 40
0.0
 40
0.0
 40
0.0
 40
0.0
 40
1.0
 40
1.0
 40
1.0
 40
1.0
 10
-204.2073090995778
 20
-78.56506805106953
 30
0.0
 10
-204.2628604557789
 20
-77.99570021259576
 30
0.0
 10
-204.2858122946324
 20
-77.42423460220816
 30
0.0
 10
-204.2797629750786
 20
-76.85281345892486
 30
0.0
  0
SPLINE
  5
D1
330
1F
100
AcDbEntity
  8
0
  6
Continuous
 62
     7
370
    25
100
AcDbSpline
210
0.0
220
0.0
230
1.0
 70
     8
 71
     3
 72
    38
 73
    34
 74
     0
 42
0.000000001
 43
0.00000001
 40
0.0
 40
0.0
 40
0.0
 40
0.0
 40
0.0156250000000006
 40
0.0156250000000006
 40
0.0312500000000012
 40
0.0312500000000012
 40
0.0625000000000023
 40
0.0625000000000023
 40
0.1250000000000012
 40
0.1250000000000012
 40
0.1875000000000001
 40
0.1875000000000001
 40
0.249999999999999
 40
0.249999999999999
 40
0.3749999999999935
 40
0.3749999999999935
 40
0.4374999999999922
 40
0.4374999999999922
 40
0.499999999999991
 40
0.499999999999991
 40
0.6249999999999922
 40
0.6249999999999922
 40
0.6874999999999936
 40
0.6874999999999936
 40
0.7499999999999949
 40
0.7499999999999949
 40
0.8124999999999962
 40
0.8124999999999962
 40
0.8749999999999974
 40
0.8749999999999974
 40
0.9374999999999988
 40
0.9374999999999988
 40
1.0
 40
1.0
 40
1.0
 40
1.0
 10
-188.0730965702423
 20
-93.2641287667885
 30
0.0
 10
-188.1973629602492
 20
-93.26374944758216
 30
0.0
 10
-188.3244261287602
 20
-93.26194055732293
 30
0.0
 10
-188.5750445406216
 20
-93.25538817483412
 30
0.0
 10
-188.7001138920096
 20
-93.25063951221506
 30
0.0
 10
-189.0745919102672
 20
-93.23188478472869
 30
0.0
 10
-189.3232631619317
 20
-93.21332820899354
 30
0.0
 10
-190.0664642191252
 20
-93.13995750354151
 30
0.0
 10
-190.558431046343
 20
-93.06873125826154
 30
0.0
 10
-191.5351828298475
 20
-92.88258890030939
 30
0.0
 10
-192.019944191291
 20
-92.76717439403922
 30
0.0
 10
-192.9820787534705
 20
-92.49088274356231
 30
0.0
 10
-193.4595833104093
 20
-92.3296780819979
 30
0.0
 10
-194.8548990621935
 20
-91.78850947855868
 30
0.0
 10
-195.7442835754045
 20
-91.34751874892918
 30
0.0
 10
-197.0169177930824
 20
-90.56500815630574
 30
0.0
 10
-197.4324462296255
 20
-90.2824948611398
 30
0.0
 10
-198.23368844937
 20
-89.680769917796
 30
0.0
 10
-198.6173981973075
 20
-89.36334686998845
 30
0.0
 10
-199.7189926319836
 20
-88.36250298741126
 30
0.0
 10
-200.3874227550094
 20
-87.63059602758564
 30
0.0
 10
-201.29016133964
 20
-86.43463498846926
 30
0.0
 10
-201.574710355632
 20
-86.01855643123261
 30
0.0
 10
-202.101305529307
 20
-85.16611304413662
 30
0.0
 10
-202.344687022684
 20
-84.72842058069
 30
0.0
 10
-202.7913958277565
 20
-83.83012193272909
 30
0.0
 10
-202.9942376288751
 20
-83.36995310789204
 30
0.0
 10
-203.3543467913388
 20
-82.44108420981334
 30
0.0
 10
-203.5129327632947
 20
-81.97072632408526
 30
0.0
 10
-203.7864418993856
 20
-81.01824093512005
 30
0.0
 10
-203.9013943805166
 20
-80.53604131399227
 30
0.0
 10
-204.0871764083147
 20
-79.55960248958769
 30
0.0
 10
-204.1584973524164
 20
-79.06535896877081
 30
0.0
 10
-204.2073090995778
 20
-78.56506805106939
 30
0.0
  0
SPLINE
  5
D4
330
1F
100
AcDbEntity
  8
0
  6
Continuous
 62
     7
370
    25
100
AcDbSpline
210
0.0
220
0.0
230
1.0
 70
     8
 71
     3
 72
    16
 73
    12
 74
     0
 42
0.000000001
 43
0.00000001
 40
0.0
 40
0.0
 40
0.0
 40
0.0
 40
0.0179880761985672
 40
0.1541790146069218
 40
0.290093699248487
 40
0.4255621017588537
 40
0.5606118141397426
 40
0.6954538417838805
 40
0.8303881535215
 40
0.9656734575261684
 40
1.0
 40
1.0
 40
1.0
 40
1.0
 10
-10.96298719125354
 20
-100.1544141878296
 30
0.0
 10
-10.93708770213546
 20
-100.1403412147253
 30
0.0
 10
-10.71509855404821
 20
-100.0197192481597
 30
0.0
 10
-9.119387707718165
 20
-99.81895846917669
 30
0.0
 10
-6.279777878567934
 20
-99.59743539663339
 30
0.0
 10
-2.616150142998363
 20
-99.47174017747926
 30
0.0
 10
1.295691298753647
 20
-99.45312853543443
 30
0.0
 10
5.089857212801845
 20
-99.54284783046087
 30
0.0
 10
8.213567028716813
 20
-99.73374710381518
 30
0.0
 10
10.14039624817345
 20
-99.92781717284511
 30
0.0
 10
10.54252652409351
 20
-100.0580619701998
 30
0.0
 10
10.62391082762524
 20
-100.0844212939217
 30
0.0
  0
SPLINE
  5
D5
330
1F
100
AcDbEntity
  8
0
  6
Continuous
 62
     7
370
    25
100
AcDbSpline
210
0.0
220
0.0
230
1.0
 70
     8
 71
     3
 72
    16
 73
    12
 74
     0
 42
0.000000001
 43
0.00000001
 40
0.0
 40
0.0
 40
0.0
 40
0.0
 40
0.0943037530345072
 40
0.2177819036609067
 40
0.3410228937658072
 40
0.4638464223341756
 40
0.5863346863084702
 40
0.70871609879555
 40
0.8312640613287245
 40
0.9541790165071407
 40
1.0
 40
1.0
 40
1.0
 40
1.0
 10
11.20258544486548
 20
-100.5912880993503
 30
0.0
 10
10.9999465741459
 20
-100.6723085669498
 30
0.0
 10
10.53197920698442
 20
-100.8594144996572
 30
0.0
 10
8.349822508375905
 20
-101.1064800200798
 30
0.0
 10
5.188771483219994
 20
-101.2998048239419
 30
0.0
 10
1.406270227632819
 20
-101.3931290775792
 30
0.0
 10
-2.51316736484609
 20
-101.3773971436086
 30
0.0
 10
-6.156767226700072
 20
-101.2548426772009
 30
0.0
 10
-9.079662132944666
 20
-101.0387685956511
 30
0.0
 10
-10.67709583032209
 20
-100.8145242136019
 30
0.0
 10
-11.07655705670591
 20
-100.6711981248049
 30
0.0
 10
-11.1850325030412
 20
-100.6322772973832
 30
0.0
  0
SPLINE
  5
DE
330
1F
100
AcDbEntity
  8
0
  6
Continuous
 62
     7
370
    25
100
AcDbSpline
210
0.0
220
0.0
230
1.0
 70
     8
 71
     3
 72
    26
 73
    22
 74
     0
 42
0.000000001
 43
0.00000001
 40
0.0
 40
0.0
 40
0.0
 40
0.0
 40
0.0625000000000043
 40
0.0625000000000043
 40
0.1250000000000086
 40
0.1250000000000086
 40
0.250000000000009
 40
0.250000000000009
 40
0.3750000000000093
 40
0.3750000000000093
 40
0.4375000000000058
 40
0.4375000000000058
 40
0.5000000000000023
 40
0.5000000000000023
 40
0.6250000000000018
 40
0.6250000000000018
 40
0.7500000000000011
 40
0.7500000000000011
 40
0.8750000000000006
 40
0.8750000000000006
 40
1.0
 40
1.0
 40
1.0
 40
1.0
 10
187.4999999986239
 20
-83.29867118433967
 30
0.0
 10
187.7094735373953
 20
-83.29867118433968
 30
0.0
 10
187.9191117865989
 20
-83.30015833767735
 30
0.0
 10
188.3376797408096
 20
-83.29673527258277
 30
0.0
 10
188.5457515615165
 20
-83.28407930611941
 30
0.0
 10
189.1662277270896
 20
-83.21234968748963
 30
0.0
 10
189.5780887665068
 20
-83.12689011995911
 30
0.0
 10
190.3825484485261
 20
-82.87543619090157
 30
0.0
 10
190.7676743433869
 20
-82.71544405413034
 30
0.0
 10
191.3191893237356
 20
-82.42302047061631
 30
0.0
 10
191.4987341147983
 20
-82.316944492581
 30
0.0
 10
191.8486454252774
 20
-82.08640525581377
 30
0.0
 10
192.0199967627362
 20
-81.96102990237459
 30
0.0
 10
192.5095816405872
 20
-81.56286570317995
 30
0.0
 10
192.804148123214
 20
-81.26828449505108
 30
0.0
 10
193.331086454251
 20
-80.62217496999092
 30
0.0
 10
193.5653690853502
 20
-80.26649944489924
 30
0.0
 10
193.9580651671954
 20
-79.5255167434945
 30
0.0
 10
194.1175918457284
 20
-79.13930632022391
 30
0.0
 10
194.3662500930787
 20
-78.33683373832037
 30
0.0
 10
194.4517568599722
 20
-77.92043182004849
 30
0.0
 10
194.4978757718987
 20
-77.49999999986865
 30
0.0
  0
SPLINE
  5
E1
330
1F
100
AcDbEntity
  8
0
  6
Continuous
 62
     7
370
    25
100
AcDbSpline
210
0.0
220
0.0
230
1.0
 70
     8
 71
     3
 72
    26
 73
    22
 74
     0
 42
0.000000001
 43
0.00000001
 40
0.0
 40
0.0
 40
0.0
 40
0.0
 40
0.1250000000000049
 40
0.1250000000000049
 40
0.2500000000000097
 40
0.2500000000000097
 40
0.3750000000000145
 40
0.3750000000000145
 40
0.5000000000000194
 40
0.5000000000000194
 40
0.5625000000000187
 40
0.5625000000000187
 40
0.6250000000000179
 40
0.6250000000000179
 40
0.7500000000000089
 40
0.7500000000000089
 40
0.875
 40
0.875
 40
0.9375
 40
0.9375
 40
1.0
 40
1.0
 40
1.0
 40
1.0
 10
-194.497875772011
 20
-77.49999999884827
 30
0.0
 10
-194.4517980270927
 20
-77.92005653066991
 30
0.0
 10
-194.3678415536506
 20
-78.3293167651669
 30
0.0
 10
-194.1225049054911
 20
-79.12576972208646
 30
0.0
 10
-193.9623455724601
 20
-79.51634398631637
 30
0.0
 10
-193.5685189045208
 20
-80.26163156627673
 30
0.0
 10
-193.3349510221426
 20
-80.61694341033305
 30
0.0
 10
-192.8060779707354
 20
-81.26640581775357
 30
0.0
 10
-192.5114305123619
 20
-81.56096993663999
 30
0.0
 10
-192.024300446288
 20
-81.9577227796007
 30
0.0
 10
-191.8534154801782
 20
-82.08306094705974
 30
0.0
 10
-191.5024346821186
 20
-82.31470312289642
 30
0.0
 10
-191.3223468013381
 20
-82.421240210514
 30
0.0
 10
-190.7692037023083
 20
-82.71484313092333
 30
0.0
 10
-190.3825526323281
 20
-82.87547653652504
 30
0.0
 10
-189.576879274485
 20
-83.127226461108
 30
0.0
 10
-189.1684080702901
 20
-83.21194690638363
 30
0.0
 10
-188.5481504781862
 20
-83.28387670919932
 30
0.0
 10
-188.3398659892495
 20
-83.2966639022945
 30
0.0
 10
-187.9202799701933
 20
-83.30020184944846
 30
0.0
 10
-187.7100352022946
 20
-83.29867118433971
 30
0.0
 10
-187.5000000000001
 20
-83.29867118433971
 30
0.0
  0
SPLINE
  5
E5
330
1F
100
AcDbEntity
  8
0
  6
Continuous
 62
     7
370
    25
100
AcDbSpline
210
0.0
220
0.0
230
1.0
 70
     8
 71
     3
 72
    30
 73
    26
 74
     0
 42
0.000000001
 43
0.00000001
 40
0.0
 40
0.0
 40
0.0
 40
0.0
 40
0.0624999999999991
 40
0.0624999999999991
 40
0.1249999999999983
 40
0.1249999999999983
 40
0.1874999999999974
 40
0.1874999999999974
 40
0.2499999999999965
 40
0.2499999999999965
 40
0.3749999999999982
 40
0.3749999999999982
 40
0.4999999999999999
 40
0.4999999999999999
 40
0.6250000000000016
 40
0.6250000000000016
 40
0.7500000000000032
 40
0.7500000000000032
 40
0.875000000000005
 40
0.875000000000005
 40
0.9375000000000061
 40
0.9375000000000061
 40
0.9687500000000031
 40
0.9687500000000031
 40
1.0
 40
1.0
 40
1.0
 40
1.0
 10
194.5324397897957
 20
117.4999999988543
 30
0.0
 10
194.5324397897957
 20
117.7374623572969
 30
0.0
 10
194.5344096821335
 20
117.9751328905114
 30
0.0
 10
194.529848844149
 20
118.449575626026
 30
0.0
 10
194.5131361040519
 20
118.6852718113648
 30
0.0
 10
194.4530711350941
 20
119.1538489675251
 30
0.0
 10
194.4113602246695
 20
119.3869033900048
 30
0.0
 10
194.3013389706005
 20
119.8502012534451
 30
0.0
 10
194.2328233704467
 20
120.0811360974506
 30
0.0
 10
193.9952135184274
 20
120.7533327848675
 30
0.0
 10
193.7929082406177
 20
121.1794961251265
 30
0.0
 10
193.2983081713984
 20
121.986790268978
 30
0.0
 10
193.0016000768255
 20
122.3701090988971
 30
0.0
 10
192.340838872501
 20
123.0476186930808
 30
0.0
 10
191.9745071507566
 20
123.3470838637034
 30
0.0
 10
191.1708909021957
 20
123.8684725528234
 30
0.0
 10
190.7456801406055
 20
124.0831353394331
 30
0.0
 10
189.8594419467293
 20
124.4212288112818
 30
0.0
 10
189.3924298691645
 20
124.546233952182
 30
0.0
 10
188.6879922487825
 20
124.6542399449698
 30
0.0
 10
188.4520647498512
 20
124.6788747591356
 30
0.0
 10
188.0958659791189
 20
124.6923014208976
 30
0.0
 10
187.9766876443025
 20
124.6922359359559
 30
0.0
 10
187.7383438209497
 20
124.6922359359559
 30
0.0
 10
187.6191719092732
 20
124.6922359359559
 30
0.0
 10
187.4999999975967
 20
124.6922359359559
 30
0.0
  0
SPLINE
  5
E8
330
1F
100
AcDbEntity
  8
0
  6
Continuous
 62
     7
370
    25
100
AcDbSpline
210
0.0
220
0.0
230
1.0
 70
     8
 71
     3
 72
    32
 73
    28
 74
     0
 42
0.000000001
 43
0.00000001
 40
0.0
 40
0.0
 40
0.0
 40
0.0
 40
0.0312500000000031
 40
0.0312500000000031
 40
0.0625000000000062
 40
0.0625000000000062
 40
0.1250000000000126
 40
0.1250000000000126
 40
0.187500000000019
 40
0.187500000000019
 40
0.2500000000000254
 40
0.2500000000000254
 40
0.3750000000000313
 40
0.3750000000000313
 40
0.4375000000000312
 40
0.4375000000000312
 40
0.5000000000000311
 40
0.5000000000000311
 40
0.6250000000000231
 40
0.6250000000000231
 40
0.7500000000000151
 40
0.7500000000000151
 40
0.8750000000000072
 40
0.8750000000000072
 40
0.9375000000000037
 40
0.9375000000000037
 40
1.0
 40
1.0
 40
1.0
 40
1.0
 10
-187.4999999988327
 20
124.6922359359559
 30
0.0
 10
-187.6189257914225
 20
124.6922359359559
 30
0.0
 10
-187.7378515840122
 20
124.6922359359559
 30
0.0
 10
-187.9757031691919
 20
124.6922359359559
 30
0.0
 10
-188.094638675708
 20
124.6923158755144
 30
0.0
 10
-188.449800768144
 20
124.6790230839774
 30
0.0
 10
-188.6846829121035
 20
124.6545864335001
 30
0.0
 10
-189.1517233320293
 20
124.5832973966604
 30
0.0
 10
-189.3837487883265
 20
124.5353519872012
 30
0.0
 10
-189.8446465777767
 20
124.4135129300609
 30
0.0
 10
-190.0735177241126
 20
124.3392794452022
 30
0.0
 10
-190.7394697338519
 20
124.0860533708624
 30
0.0
 10
-191.1610917950177
 20
123.8734910999857
 30
0.0
 10
-191.7591849765387
 20
123.4874231701885
 30
0.0
 10
-191.953908824387
 20
123.3462454545771
 30
0.0
 10
-192.3240662827452
 20
123.0445950990335
 30
0.0
 10
-192.4991937053545
 20
122.8847137129123
 30
0.0
 10
-192.9948774192458
 20
122.3780423204594
 30
0.0
 10
-193.2868021401302
 20
122.0035374973994
 30
0.0
 10
-193.789313840193
 20
121.1873357804119
 30
0.0
 10
-193.9927312994713
 20
120.7589708894035
 30
0.0
 10
-194.3099590583349
 20
119.8642840948466
 30
0.0
 10
-194.4220485824707
 20
119.3939233879588
 30
0.0
 10
-194.5129070917216
 20
118.6880157314981
 30
0.0
 10
-194.5297776096774
 20
118.4515431868091
 30
0.0
 10
-194.5344527411157
 20
117.9760632305629
 30
0.0
 10
-194.5324397897958
 20
117.7379438394579
 30
0.0
 10
-194.5324397897958
 20
117.4999999998688
 30
0.0
  0
SPLINE
  5
EA
330
1F
100
AcDbEntity
  8
0
  6
Continuous
 62
     7
370
    25
100
AcDbSpline
210
0.0
220
0.0
230
1.0
 70
     8
 71
     3
 72
    19
 73
    15
 74
     0
 42
0.000000001
 43
0.00000001
 40
0.0
 40
0.0
 40
0.0
 40
0.0
 40
0.5
 40
0.75
 40
0.875
 40
0.9375
 40
0.9687499999999999
 40
0.9843749999999999
 40
0.9921875
 40
0.9960937500000001
 40
0.9960937500000001
 40
0.9980468750000001
 40
0.9980468750000001
 40
1.0
 40
1.0
 40
1.0
 40
1.0
 10
-194.5324397897958
 20
117.4999999998688
 30
0.0
 10
-194.5324397897956
 20
84.99999790416805
 30
0.0
 10
-194.5324397897962
 20
36.24999476061672
 30
0.0
 10
-194.5324397897956
 20
-20.6250089068595
 30
0.0
 10
-194.5324397897957
 20
-49.06251074059767
 30
0.0
 10
-194.5324397897958
 20
-63.28126165746688
 30
0.0
 10
-194.5324397897958
 20
-70.39063711590137
 30
0.0
 10
-194.5324397897959
 20
-73.94532484511859
 30
0.0
 10
-194.5324397897959
 20
-75.7226687097272
 30
0.0
 10
-194.5324397897958
 20
-76.48438750884533
 30
0.0
 10
-194.5324397897958
 20
-76.86524690840432
 30
0.0
 10
-194.5323563492243
 20
-76.9922000112322
 30
0.0
 10
-194.5215837313744
 20
-77.24610235818433
 30
0.0
 10
-194.5118012324916
 20
-77.37305193218684
 30
0.0
 10
-194.497875772011
 20
-77.49999999884831
 30
0.0
  0
SPLINE
  5
EB
330
1F
100
AcDbEntity
  8
0
  6
Continuous
 62
     7
370
    25
100
AcDbSpline
210
0.0
220
0.0
230
1.0
 70
     8
 71
     3
 72
    19
 73
    15
 74
     0
 42
0.000000001
 43
0.00000001
 40
0.0
 40
0.0
 40
0.0
 40
0.0
 40
0.0019531249999999
 40
0.0019531249999999
 40
0.0039062499999998
 40
0.0039062499999998
 40
0.0078124999999997
 40
0.0156249999999996
 40
0.0312499999999996
 40
0.0624999999999997
 40
0.1249999999999997
 40
0.2499999999999998
 40
0.4999999999999998
 40
1.0
 40
1.0
 40
1.0
 40
1.0
 10
194.4978757718987
 20
-77.49999999986866
 30
0.0
 10
194.5117968605175
 20
-77.37309178841384
 30
0.0
 10
194.5215790169649
 20
-77.24617020192196
 30
0.0
 10
194.5323539998943
 20
-76.99229862605009
 30
0.0
 10
194.5324397897956
 20
-76.86534570556418
 30
0.0
 10
194.5324397897956
 20
-76.4844861124138
 30
0.0
 10
194.5324397897957
 20
-75.72276692611295
 30
0.0
 10
194.5324397897956
 20
-73.94542215807779
 30
0.0
 10
194.5324397897957
 20
-70.39073262200739
 30
0.0
 10
194.5324397897957
 20
-63.28135354986675
 30
0.0
 10
194.5324397897957
 20
-49.06259540558539
 30
0.0
 10
194.5324397897958
 20
-20.62507911702243
 30
0.0
 10
194.5324397897956
 20
36.24995346010325
 30
0.0
 10
194.5324397897955
 20
84.99998138335386
 30
0.0
 10
194.5324397897957
 20
117.4999999988543
 30
0.0
  0
CIRCLE
  5
ED
330
1F
100
AcDbEntity
  8
0
  6
Continuous
 62
     7
370
    25
100
AcDbCircle
 10
0.0
 20
-32.5
 30
0.0
 40
34.82842712474629
  0
CIRCLE
  5
EE
330
1F
100
AcDbEntity
  8
0
  6
Continuous
 62
     7
370
    25
100
AcDbCircle
 10
0.0
 20
-32.5
 30
0.0
 40
33.41421356237318
  0
CIRCLE
  5
EF
330
1F
100
AcDbEntity
  8
0
  6
Continuous
 62
     7
370
    25
100
AcDbCircle
 10
0.0
 20
-32.5
 30
0.0
 40
24.00000000000001
  0
SPLINE
  5
F1
330
1F
100
AcDbEntity
  8
0
  6
Continuous
 62
     8
370
    25
100
AcDbSpline
210
0.0
220
0.0
230
1.0
 70
     8
 71
     3
 72
    10
 73
     6
 74
     0
 42
0.000000001
 43
0.00000001
 40
0.0
 40
0.0
 40
0.0
 40
0.0
 40
0.4631603908210796
 40
0.8532447945404062
 40
0.9999999999999999
 40
0.9999999999999999
 40
0.9999999999999999
 40
0.9999999999999999
 10
10.62391082762525
 20
-100.0844212939217
 30
0.0
 10
10.94041494060926
 20
-100.160171370332
 30
0.0
 10
11.52348614489659
 20
-100.2997199147757
 30
0.0
 10
11.62224484839198
 20
-100.4779894758167
 30
0.0
 10
11.29267858288928
 20
-100.5669649734007
 30
0.0
 10
11.20258544486548
 20
-100.5912880993503
 30
0.0
  0
SPLINE
  5
F2
330
1F
100
AcDbEntity
  8
0
  6
Continuous
 62
     8
370
    25
100
AcDbSpline
210
0.0
220
0.0
230
1.0
 70
     8
 71
     3
 72
     9
 73
     5
 74
     0
 42
0.000000001
 43
0.00000001
 40
0.0
 40
0.0
 40
0.0
 40
0.0
 40
0.2260798859521421
 40
1.0
 40
1.0
 40
1.0
 40
1.0
 10
-11.1850325030412
 20
-100.6322772973832
 30
0.0
 10
-11.23898746053027
 20
-100.6164060432932
 30
0.0
 10
-11.47764185148521
 20
-100.5462040701138
 30
0.0
 10
-11.4900431601197
 20
-100.4728120845123
 30
0.0
 10
-11.49964078231244
 20
-100.4160125506454
 30
0.0
  0
SPLINE
  5
F3
330
1F
100
AcDbEntity
  8
0
  6
Continuous
 62
     8
370
    25
100
AcDbSpline
210
0.0
220
0.0
230
1.0
 70
     8
 71
     3
 72
    14
 73
    10
 74
     0
 42
0.000000001
 43
0.00000001
 40
0.0
 40
0.0
 40
0.0
 40
0.0
 40
0.1373231876740802
 40
0.291737630877154
 40
0.4460190403834792
 40
0.6005302780966083
 40
0.7555360124764415
 40
0.9110845097593802
 40
0.9999999999999999
 40
0.9999999999999999
 40
0.9999999999999999
 40
0.9999999999999999
 10
9.221118762355022
 20
-100.9731982892386
 30
0.0
 10
8.671161872556045
 20
-100.891714451411
 30
0.0
 10
7.502800412033339
 20
-100.7186052904218
 30
0.0
 10
4.615516019370197
 20
-100.5406356170585
 30
0.0
 10
1.194929074820499
 20
-100.4494630313082
 30
0.0
 10
-2.404052609522525
 20
-100.4678964874612
 30
0.0
 10
-5.684818093181988
 20
-100.5957852629294
 30
0.0
 10
-8.103519837060922
 20
-100.7781689995744
 30
0.0
 10
-8.90882933718906
 20
-100.9313944599437
 30
0.0
 10
-9.201733374813093
 20
-100.9871250281312
 30
0.0
  0
LINE
  5
F4
330
1F
100
AcDbEntity
  8
0
  6
Continuous
 62
     7
370
    25
100
AcDbLine
 10
298.2970785305
 20
233.2847443432
 30
0.0
 11
-298.2970785305
 21
233.2847443432
 31
0.0
  0
LINE
  5
F5
330
1F
100
AcDbEntity
  8
0
  6
Continuous
 62
     7
370
    25
100
AcDbLine
 10
308.2847443432
 20
-230.5
 30
0.0
 11
308.2847443432
 21
223.2970785305
 31
0.0
  0
LINE
  5
F6
330
1F
100
AcDbEntity
  8
0
  6
Continuous
 62
     7
370
    25
100
AcDbLine
 10
-308.2847443432
 20
223.2970785305
 30
0.0
 11
-308.2847443432
 21
-230.5
 31
0.0
  0
LINE
  5
F7
330
1F
100
AcDbEntity
  8
0
  6
Continuous
 62
     7
370
    25
100
AcDbLine
 10
-228.2174229266
 20
127.4999999999
 30
0.0
 11
-237.9594817703
 21
127.6885180061
 31
0.0
  0
LINE
  5
F8
330
1F
100
AcDbEntity
  8
0
  6
Continuous
 62
     7
370
    25
100
AcDbLine
 10
-195.0
 20
160.6050148231
 30
0.0
 11
-195.1373872494
 21
170.3034407448
 31
0.0
  0
LINE
  5
F9
330
1F
100
AcDbEntity
  8
0
  6
Continuous
 62
     7
370
    25
100
AcDbLine
 10
194.5265847603
 20
160.6063390626
 30
0.0
 11
-194.5265847603
 21
160.6063390626
 31
0.0
  0
LINE
  5
FA
330
1F
100
AcDbEntity
  8
0
  6
Continuous
 62
     7
370
    25
100
AcDbLine
 10
194.9999999946
 20
160.6050148232
 30
0.0
 11
195.1373872425
 21
170.3034407449
 31
0.0
  0
LINE
  5
FB
330
1F
100
AcDbEntity
  8
0
  6
Continuous
 62
     7
370
    25
100
AcDbLine
 10
-228.2202370249
 20
126.8528134583
 30
0.0
 11
-228.2202370249
 21
-68.1471865311
 31
0.0
  0
LINE
  5
FC
330
1F
100
AcDbEntity
  8
0
  6
Continuous
 62
     7
370
    25
100
AcDbLine
 10
-237.9675602102
 20
-67.5
 30
0.0
 11
-228.2202370249
 21
-67.5
 31
0.0
  0
LINE
  5
FD
330
1F
100
AcDbEntity
  8
0
  6
Continuous
 62
     7
370
    25
100
AcDbLine
 10
306.2833719972
 20
-232.5
 30
0.0
 11
-306.2833719972
 21
-232.5
 31
0.0
  0
LINE
  5
FE
330
1F
100
AcDbEntity
  8
0
  6
Continuous
 62
     7
370
    25
100
AcDbLine
 10
302.7551771664
 20
-232.5
 30
0.0
 11
302.7551771664
 21
222.7620294927
 31
0.0
  0
LINE
  5
FF
330
1F
100
AcDbEntity
  8
0
  6
Continuous
 62
     7
370
    25
100
AcDbLine
 10
-308.2847443432
 20
-230.5
 30
0.0
 11
308.2847443432
 21
-230.5
 31
0.0
  0
LINE
  5
100
330
1F
100
AcDbEntity
  8
0
  6
Continuous
 62
     7
370
    25
100
AcDbLine
 10
195.1730128352
 20
-111.6948549252
 30
0.0
 11
195.0
 21
-101.7318216521
 31
0.0
  0
LINE
  5
101
330
1F
100
AcDbEntity
  8
0
  6
Continuous
 62
     7
370
    25
100
AcDbLine
 10
-195.1730128347
 20
-111.6948549252
 30
0.0
 11
-194.9999999997
 21
-101.7318216521
 31
0.0
  0
LINE
  5
102
330
1F
100
AcDbEntity
  8
0
  6
Continuous
 62
     7
370
    25
100
AcDbLine
 10
-194.4269034196
 20
-101.7358712332
 30
0.0
 11
194.4269034196
 21
-101.7358712332
 31
0.0
  0
LINE
  5
103
330
1F
100
AcDbEntity
  8
0
  6
Continuous
 62
     7
370
    25
100
AcDbLine
 10
-302.7551771664
 20
222.7620294927
 30
0.0
 11
-302.7551771664
 21
-232.5
 31
0.0
  0
LINE
  5
104
330
1F
100
AcDbEntity
  8
0
  6
Continuous
 62
     7
370
    25
100
AcDbLine
 10
228.2202370249
 20
-68.1471865311
 30
0.0
 11
228.2202370249
 21
126.8528134583
 31
0.0
  0
LINE
  5
105
330
1F
100
AcDbEntity
  8
0
  6
Continuous
 62
     7
370
    25
100
AcDbLine
 10
228.2174229266
 20
127.5
 30
0.0
 11
237.9594817703
 21
127.6885180063
 31
0.0
  0
LINE
  5
106
330
1F
100
AcDbEntity
  8
0
  6
Continuous
 62
     7
370
    25
100
AcDbLine
 10
237.9675602102
 20
-67.4999999999
 30
0.0
 11
228.2202370249
 21
-67.4999999999
 31
0.0
  0
LINE
  5
107
330
1F
100
AcDbEntity
  8
0
  6
Continuous
 62
     7
370
    25
100
AcDbLine
 10
302.7551771664
 20
222.7620294927
 30
0.0
 11
307.7483248402
 21
222.7620294927
 31
0.0
  0
LINE
  5
108
330
1F
100
AcDbEntity
  8
0
  6
Continuous
 62
     7
370
    25
100
AcDbLine
 10
307.7483248402
 20
222.7620294927
 30
0.0
 11
307.7483248402
 21
-230.5
 31
0.0
  0
LINE
  5
109
330
1F
100
AcDbEntity
  8
0
  6
Continuous
 62
     7
370
    25
100
AcDbLine
 10
297.7620294927
 20
227.7551771664
 30
0.0
 11
297.7620294927
 21
232.7483248402
 31
0.0
  0
LINE
  5
10A
330
1F
100
AcDbEntity
  8
0
  6
Continuous
 62
     7
370
    25
100
AcDbLine
 10
297.7620294927
 20
227.7551771664
 30
0.0
 11
-297.7620294927
 21
227.7551771664
 31
0.0
  0
LINE
  5
10B
330
1F
100
AcDbEntity
  8
0
  6
Continuous
 62
     7
370
    25
100
AcDbLine
 10
-297.7620294927
 20
227.7551771664
 30
0.0
 11
-297.7620294927
 21
232.7483248402
 31
0.0
  0
LINE
  5
10C
330
1F
100
AcDbEntity
  8
0
  6
Continuous
 62
     7
370
    25
100
AcDbLine
 10
-297.7620294927
 20
232.7483248402
 30
0.0
 11
297.7620294927
 21
232.7483248402
 31
0.0
  0
LINE
  5
10D
330
1F
100
AcDbEntity
  8
0
  6
Continuous
 62
     7
370
    25
100
AcDbLine
 10
-302.7551771664
 20
222.7620294927
 30
0.0
 11
-307.7483248402
 21
222.7620294927
 31
0.0
  0
LINE
  5
10E
330
1F
100
AcDbEntity
  8
0
  6
Continuous
 62
     7
370
    25
100
AcDbLine
 10
-307.7483248402
 20
-230.5
 30
0.0
 11
-307.7483248402
 21
222.7620294927
 31
0.0
  0
LINE
  5
10F
330
1F
100
AcDbEntity
  8
0
  6
Continuous
 62
     7
370
    25
100
AcDbLine
 10
297.7620294927
 20
232.7483248402
 30
0.0
 11
298.2970785305
 21
233.283373878
 31
0.0
  0
LINE
  5
110
330
1F
100
AcDbEntity
  8
0
  6
Continuous
 62
     7
370
    25
100
AcDbLine
 10
308.283373878
 20
223.2970785305
 30
0.0
 11
307.7483248402
 21
222.7620294927
 31
0.0
  0
LINE
  5
111
330
1F
100
AcDbEntity
  8
0
  6
Continuous
 62
     7
370
    25
100
AcDbLine
 10
-307.7483248402
 20
222.7620294927
 30
0.0
 11
-308.283373878
 21
223.2970785305
 31
0.0
  0
LINE
  5
112
330
1F
100
AcDbEntity
  8
0
  6
Continuous
 62
     7
370
    25
100
AcDbLine
 10
-298.2970785305
 20
233.283373878
 30
0.0
 11
-297.7620294927
 21
232.7483248402
 31
0.0
  0
LINE
  5
113
330
1F
100
AcDbEntity
  8
0
  6
Continuous
 62
     7
370
    25
100
AcDbLine
 10
308.283373878
 20
-230.5
 30
0.0
 11
308.283373878
 21
223.2970785305
 31
0.0
  0
LINE
  5
114
330
1F
100
AcDbEntity
  8
0
  6
Continuous
 62
     7
370
    25
100
AcDbLine
 10
298.2970785305
 20
233.283373878
 30
0.0
 11
-298.2970785305
 21
233.283373878
 31
0.0
  0
LINE
  5
115
330
1F
100
AcDbEntity
  8
0
  6
Continuous
 62
     7
370
    25
100
AcDbLine
 10
-308.283373878
 20
223.2970785305
 30
0.0
 11
-308.283373878
 21
-230.5
 31
0.0
  0
LINE
  5
116
330
1F
100
AcDbEntity
  8
0
  6
Continuous
 62
     7
370
    25
100
AcDbLine
 10
204.2797629751
 20
118.1471865317
 30
0.0
 11
204.2797629751
 21
-76.8528134589
 31
0.0
  0
LINE
  5
117
330
1F
100
AcDbEntity
  8
0
  6
Continuous
 62
     7
370
    25
100
AcDbLine
 10
-187.9734152295
 20
134.3936609374
 30
0.0
 11
187.9734152295
 21
134.3936609374
 31
0.0
  0
LINE
  5
118
330
1F
100
AcDbEntity
  8
0
  6
Continuous
 62
     7
370
    25
100
AcDbLine
 10
-204.2797629751
 20
-76.8528134589
 30
0.0
 11
-204.2797629751
 21
118.1471865317
 31
0.0
  0
LINE
  5
119
330
1F
100
AcDbEntity
  8
0
  6
Continuous
 62
     7
370
    25
100
AcDbLine
 10
188.0730965702
 20
-93.2641287668
 30
0.0
 11
-188.0730965702
 21
-93.2641287668
 31
0.0
  0
LINE
  5
11A
330
1F
100
AcDbEntity
  8
0
  6
Continuous
 62
     7
370
    25
100
AcDbLine
 10
308.2847443432
 20
223.2970785305
 30
0.0
 11
308.283373878
 21
223.2970785305
 31
0.0
  0
LINE
  5
11B
330
1F
100
AcDbEntity
  8
0
  6
Continuous
 62
     7
370
    25
100
AcDbLine
 10
298.2970785305
 20
233.2847443432
 30
0.0
 11
298.2970785305
 21
233.283373878
 31
0.0
  0
LINE
  5
11C
330
1F
100
AcDbEntity
  8
0
  6
Continuous
 62
     7
370
    25
100
AcDbLine
 10
-298.2970785305
 20
233.2847443432
 30
0.0
 11
-298.2970785305
 21
233.283373878
 31
0.0
  0
LINE
  5
11D
330
1F
100
AcDbEntity
  8
0
  6
Continuous
 62
     7
370
    25
100
AcDbLine
 10
-308.2847443432
 20
223.2970785305
 30
0.0
 11
-308.283373878
 21
223.2970785305
 31
0.0
  0
LINE
  5
11E
330
1F
100
AcDbEntity
  8
0
  6
Continuous
 62
     7
370
    25
100
AcDbLine
 10
10.3169244025
 20
-153.3645456078
 30
0.0
 11
-10.3169244025
 21
-153.3645456078
 31
0.0
  0
LINE
  5
11F
330
1F
100
AcDbEntity
  8
0
  6
Continuous
 62
     7
370
    25
100
AcDbLine
 10
187.4999999986
 20
-93.2641287668
 30
0.0
 11
187.4999999986
 21
-83.2986711843
 31
0.0
  0
LINE
  5
120
330
1F
100
AcDbEntity
  8
0
  6
Continuous
 62
     7
370
    25
100
AcDbLine
 10
204.2073090993
 20
-78.5650680537
 30
0.0
 11
194.4978757719
 21
-77.4999999999
 31
0.0
  0
LINE
  5
121
330
1F
100
AcDbEntity
  8
0
  6
Continuous
 62
     7
370
    25
100
AcDbLine
 10
-194.497875772
 20
-77.4999999988
 30
0.0
 11
-204.2073090996
 21
-78.5650680511
 31
0.0
  0
LINE
  5
122
330
1F
100
AcDbEntity
  8
0
  6
Continuous
 62
     7
370
    25
100
AcDbLine
 10
-187.5
 20
-93.2641287668
 30
0.0
 11
-187.5
 21
-83.2986711843
 31
0.0
  0
LINE
  5
123
330
1F
100
AcDbEntity
  8
0
  6
Continuous
 62
     7
370
    25
100
AcDbLine
 10
-187.5
 20
-83.2986711843
 30
0.0
 11
187.4999999986
 21
-83.2986711843
 31
0.0
  0
LINE
  5
124
330
1F
100
AcDbEntity
  8
0
  6
Continuous
 62
     7
370
    25
100
AcDbLine
 10
204.2797629751
 20
117.4999999989
 30
0.0
 11
194.5324397898
 21
117.4999999989
 31
0.0
  0
LINE
  5
125
330
1F
100
AcDbEntity
  8
0
  6
Continuous
 62
     7
370
    25
100
AcDbLine
 10
187.4999999976
 20
124.692235936
 30
0.0
 11
187.4999999976
 21
134.3936609374
 31
0.0
  0
LINE
  5
126
330
1F
100
AcDbEntity
  8
0
  6
Continuous
 62
     7
370
    25
100
AcDbLine
 10
-187.4999999988
 20
124.692235936
 30
0.0
 11
-187.4999999988
 21
134.3936609374
 31
0.0
  0
LINE
  5
127
330
1F
100
AcDbEntity
  8
0
  6
Continuous
 62
     7
370
    25
100
AcDbLine
 10
-194.5324397898
 20
117.4999999999
 30
0.0
 11
-204.2797629751
 21
117.4999999999
 31
0.0
  0
LINE
  5
128
330
1F
100
AcDbEntity
  8
0
  6
Continuous
 62
     7
370
    25
100
AcDbLine
 10
187.4999999976
 20
124.692235936
 30
0.0
 11
-187.4999999988
 21
124.692235936
 31
0.0
  0
LINE
  5
129
330
1F
100
AcDbEntity
  8
0
  6
Continuous
 62
     8
370
    25
100
AcDbLine
 10
-11.4996407823
 20
-100.4160125506
 30
0.0
 11
-10.9629871913
 21
-100.1544141878
 31
0.0
  0
ARC
  5
12A
330
1F
100
AcDbEntity
  8
0
  6
Continuous
 62
     7
370
    25
100
AcDbCircle
 10
305.7496943651
 20
-230.5013695262
 30
0.0
 40
1.998630944352633
100
AcDbArc
 50
270.0393147922
 51
0.0392609126
  0
ARC
  5
12B
330
1F
100
AcDbEntity
  8
0
  6
Continuous
 62
     7
370
    25
100
AcDbCircle
 10
297.7643667674
 20
222.7643667674
 30
0.0
 40
4.990810946329362
100
AcDbArc
 50
359.9731674904
 51
90.0268325096
  0
ARC
  5
12C
330
1F
100
AcDbEntity
  8
0
  6
Continuous
 62
     7
370
    25
100
AcDbCircle
 10
297.7483594019
 20
222.7483594019
 30
0.0
 40
9.999974781924392
100
AcDbArc
 50
0.0783240726
 51
89.9216759274
  0
ARC
  5
12D
330
1F
100
AcDbEntity
  8
0
  6
Continuous
 62
     7
370
    25
100
AcDbCircle
 10
-297.7643667674
 20
222.7643667674
 30
0.0
 40
4.990810946329476
100
AcDbArc
 50
89.9731674904
 51
180.0268325096
  0
ARC
  5
12E
330
1F
100
AcDbEntity
  8
0
  6
Continuous
 62
     7
370
    25
100
AcDbCircle
 10
-305.7496943651
 20
-230.5013695262
 30
0.0
 40
1.998630944352519
100
AcDbArc
 50
179.9607390874
 51
269.9606852078
  0
ARC
  5
12F
330
1F
100
AcDbEntity
  8
0
  6
Continuous
 62
     7
370
    25
100
AcDbCircle
 10
-297.7483594019
 20
222.7483594019
 30
0.0
 40
9.999974781924392
100
AcDbArc
 50
90.0783240726
 51
179.9216759274
  0
ARC
  5
130
330
1F
100
AcDbEntity
  8
0
  6
Continuous
 62
     7
370
    25
100
AcDbCircle
 10
298.2980911517
 20
223.2980911517
 30
0.0
 40
9.985282777608823
100
AcDbArc
 50
359.9941895561
 51
90.0058104439
  0
ARC
  5
131
330
1F
100
AcDbEntity
  8
0
  6
Continuous
 62
     7
370
    25
100
AcDbCircle
 10
-298.2980911517
 20
223.2980911517
 30
0.0
 40
9.985282777608823
100
AcDbArc
 50
89.9941895561
 51
180.0058104439
  0
ARC
  5
132
330
1F
100
AcDbEntity
  8
0
  6
Continuous
 62
     7
370
    25
100
AcDbCircle
 10
306.2833729376
 20
-230.4999990596
 30
0.0
 40
2.000000940376872
100
AcDbArc
 50
269.9999730602
 51
359.9999730602
  0
ARC
  5
133
330
1F
100
AcDbEntity
  8
0
  6
Continuous
 62
     7
370
    25
100
AcDbCircle
 10
-306.283372899
 20
-230.499999021
 30
0.0
 40
2.0000009790129
100
AcDbArc
 50
180.0000280466
 51
270.0000258329
  0
SPLINE
  5
134
330
1B
100
AcDbEntity
 67
     1
  8
0
  6
Continuous
 62
     7
370
    25
100
AcDbSpline
210
0.0
220
0.0
230
1.0
 70
     8
 71
     3
 72
    12
 73
     8
 74
     0
 42
0.000000001
 43
0.00000001
 40
0.0
 40
0.0
 40
0.0
 40
0.0
 40
0.1661616060887885
 40
0.3054617153551618
 40
0.563780668423027
 40
0.8190147184299592
 40
1.0
 40
1.0
 40
1.0
 40
1.0
 10
230.4054729646267
 20
1.974578251726505
 30
0.0
 10
230.5089879095198
 20
2.193112126818109
 30
0.0
 10
230.6992836906947
 20
2.594851938559101
 30
0.0
 10
231.2484240185467
 20
3.35401666640206
 30
0.0
 10
232.077672468739
 20
4.084515428547999
 30
0.0
 10
233.1006305599181
 20
4.650612376226951
 30
0.0
 10
233.7606418355562
 20
4.830958518075828
 30
0.0
 10
234.0344773075628
 20
4.905783256228979
 30
0.0
  0
LWPOLYLINE
  5
13B
330
1B
100
AcDbEntity
 67
     1
  8
0
  6
Continuous
 62
     7
370
    25
100
AcDbPolyline
 90
        3
 70
   128
 43
0.0
 10
-230.0003112684
 20
0.1026117888
 10
-230.0000273894
 20
0.0920582664
 10
-229.9998433129
 20
0.0885084113
  0
SPLINE
  5
13C
330
1B
100
AcDbEntity
 67
     1
  8
0
  6
Continuous
 62
     7
370
    25
100
AcDbSpline
210
0.0
220
0.0
230
1.0
 70
     8
 71
     3
 72
     8
 73
     4
 74
     0
 42
0.000000001
 43
0.00000001
 40
0.0
 40
0.0
 40
0.0
 40
0.0
 40
1.0
 40
1.0
 40
1.0
 40
1.0
 10
-229.9998433129474
 20
0.0885084112661472
 30
0.0
 10
-230.0112984677557
 20
0.7355293988764305
 30
0.0
 10
-230.1499142077695
 20
1.380055669504471
 30
0.0
 10
-230.4054729646273
 20
1.97457825172756
 30
0.0
  0
SPLINE
  5
13D
330
1B
100
AcDbEntity
 67
     1
  8
0
  6
Continuous
 62
     7
370
    25
100
AcDbSpline
210
0.0
220
0.0
230
1.0
 70
     8
 71
     3
 72
     8
 73
     4
 74
     0
 42
0.000000001
 43
0.00000001
 40
0.0
 40
0.0
 40
0.0
 40
0.0
 40
1.0
 40
1.0
 40
1.0
 40
1.0
 10
-233.1061052327405
 20
4.627820514258044
 30
0.0
 10
-233.7050584808833
 20
4.872815178524434
 30
0.0
 10
-234.3519374943746
 20
5.000000000000004
 30
0.0
 10
-234.9990598776838
 20
5.000000000000004
 30
0.0
  0
SPLINE
  5
13E
330
1B
100
AcDbEntity
 67
     1
  8
0
  6
Continuous
 62
     7
370
    25
100
AcDbSpline
210
0.0
220
0.0
230
1.0
 70
     8
 71
     3
 72
    24
 73
    20
 74
     0
 42
0.000000001
 43
0.00000001
 40
0.0
 40
0.0
 40
0.0
 40
0.0
 40
0.0145693558108214
 40
0.0291395654048132
 40
0.0437114824163535
 40
0.0582767576848204
 40
0.0729608512346588
 40
0.0879121619600473
 40
0.1149216026188119
 40
0.1443362464762413
 40
0.1779936511011743
 40
0.2171385380688724
 40
0.2756860919938441
 40
0.3465786835028976
 40
0.4302201941910543
 40
0.5268548197970326
 40
0.6713737617658184
 40
0.8290262887274533
 40
1.0
 40
1.0
 40
1.0
 40
1.0
 10
-234.9990598776838
 20
5.000000000000004
 30
0.0
 10
-234.9991364682065
 20
5.000642895592169
 30
0.0
 10
-234.9992896537399
 20
5.001928724451029
 30
0.0
 10
-235.0000173095699
 20
5.012313638688148
 30
0.0
 10
-235.0025062187953
 20
5.028793551102972
 30
0.0
 10
-235.0012009884949
 20
5.051998954620551
 30
0.0
 10
-234.9899234641541
 20
5.081548029583827
 30
0.0
 10
-234.9670195888766
 20
5.126635570981697
 30
0.0
 10
-234.9111988481289
 20
5.19327173404796
 30
0.0
 10
-234.7985901689986
 20
5.27635634548948
 30
0.0
 10
-234.6437137195914
 20
5.360053756057873
 30
0.0
 10
-234.4239255879753
 20
5.449508935422898
 30
0.0
 10
-234.1264403565632
 20
5.541255305668499
 30
0.0
 10
-233.7411070236809
 20
5.634460018719895
 30
0.0
 10
-233.2804748102672
 20
5.721914970088685
 30
0.0
 10
-232.6802333295382
 20
5.811748149407644
 30
0.0
 10
-231.9392601654786
 20
5.894912449938408
 30
0.0
 10
-231.0572233252955
 20
5.963405204911024
 30
0.0
 10
-230.4433292000591
 20
5.987476484063309
 30
0.0
 10
-230.1239397396068
 20
6.000000000000005
 30
0.0
  0
SPLINE
  5
13F
330
1B
100
AcDbEntity
 67
     1
  8
0
  6
Continuous
 62
     7
370
    25
100
AcDbSpline
210
0.0
220
0.0
230
1.0
 70
     8
 71
     3
 72
    37
 73
    33
 74
     0
 42
0.000000001
 43
0.00000001
 40
0.0
 40
0.0
 40
0.0
 40
0.0
 40
0.0275370260347409
 40
0.0575896538712601
 40
0.0901890156655184
 40
0.1253594812776776
 40
0.1954813067834411
 40
0.2507833531463514
 40
0.2920235669206441
 40
0.3241628810181383
 40
0.3502726265633186
 40
0.3757108878537361
 40
0.3914819440169108
 40
0.4123369689619618
 40
0.4384908150613117
 40
0.4723632187412801
 40
0.493248336698158
 40
0.5011462071794752
 40
0.5295336179165282
 40
0.5576097775148884
 40
0.585429698520899
 40
0.6130499246119137
 40
0.6405282322637033
 40
0.6679232958891823
 40
0.6952943252492787
 40
0.7227006858790364
 40
0.7502015145075553
 40
0.8005781182104864
 40
0.850409625848463
 40
0.9000312458531443
 40
0.9497824293153264
 40
1.0
 40
1.0
 40
1.0
 40
1.0
 10
-230.1239397396068
 20
6.000000000000005
 30
0.0
 10
-230.1912075175385
 20
5.974316337554603
 30
0.0
 10
-230.3318882156969
 20
5.920602721984414
 30
0.0
 10
-230.5481216865157
 20
5.826374379456406
 30
0.0
 10
-230.7798430540134
 20
5.718083575571519
 30
0.0
 10
-231.1025120632454
 20
5.557216901342906
 30
0.0
 10
-231.4717826410478
 20
5.35691162768083
 30
0.0
 10
-231.8379423089987
 20
5.119136185271642
 30
0.0
 10
-232.0932732011521
 20
4.897846016525848
 30
0.0
 10
-232.2499213017471
 20
4.685720454579919
 30
0.0
 10
-232.3054246804842
 20
4.465231354686614
 30
0.0
 10
-232.2507217536066
 20
4.289311779188551
 30
0.0
 10
-232.1538969313258
 20
4.158604055548631
 30
0.0
 10
-232.0419082878281
 20
4.038227939908046
 30
0.0
 10
-231.885728838624
 20
3.895529599796083
 30
0.0
 10
-231.7264133831814
 20
3.756376389660809
 30
0.0
 10
-231.6039651356501
 20
3.647559322425095
 30
0.0
 10
-231.4918788791004
 20
3.548656849304152
 30
0.0
 10
-231.3720485701355
 20
3.430343991555854
 30
0.0
 10
-231.2202167724464
 20
3.270601073267598
 30
0.0
 10
-231.07748288969
 20
3.10523324807084
 30
0.0
 10
-230.9432506485885
 20
2.934908921916973
 30
0.0
 10
-230.817681681304
 20
2.759452723976028
 30
0.0
 10
-230.7007338182031
 20
2.578914124534301
 30
0.0
 10
-230.5924293178374
 20
2.393280226015343
 30
0.0
 10
-230.4927326049335
 20
2.202567206689862
 30
0.0
 10
-230.3767389380405
 20
1.95284206281994
 30
0.0
 10
-230.2550705834158
 20
1.641494292427534
 30
0.0
 10
-230.1422114419887
 20
1.265884851379059
 30
0.0
 10
-230.0617820350217
 20
0.8838035643480846
 30
0.0
 10
-230.0109316018836
 20
0.495349770143691
 30
0.0
 10
-230.0038623729641
 20
0.2339309842089021
 30
0.0
 10
-230.0003112683615
 20
0.102611788796142
 30
0.0
  0
LWPOLYLINE
  5
140
330
1B
100
AcDbEntity
 67
     1
  8
0
  6
Continuous
 62
     7
370
    25
100
AcDbPolyline
 90
        3
 70
   128
 43
0.0
 10
229.9998433129
 20
0.0885084113
 10
230.0000283118
 20
0.0920515082
 10
230.0003142944
 20
0.102589369
  0
SPLINE
  5
141
330
1B
100
AcDbEntity
 67
     1
  8
0
  6
Continuous
 62
     7
370
    25
100
AcDbSpline
210
0.0
220
0.0
230
1.0
 70
     8
 71
     3
 72
    33
 73
    29
 74
     0
 42
0.000000001
 43
0.00000001
 40
0.0
 40
0.0
 40
0.0
 40
0.0
 40
0.0279081616264398
 40
0.0556271412125245
 40
0.0832133069920294
 40
0.1107238436049133
 40
0.1382164076220816
 40
0.165748768525953
 40
0.1933784461722544
 40
0.2211623560110498
 40
0.2491564727896878
 40
0.3313431514044731
 40
0.4138097771206024
 40
0.4981305188720361
 40
0.5160438212752562
 40
0.5609162305637643
 40
0.5870252235814951
 40
0.6078286007380979
 40
0.6235286754228478
 40
0.6492710433280593
 40
0.6754616423501842
 40
0.7075590548208252
 40
0.7487362176163177
 40
0.8038130657360741
 40
0.8743854617761947
 40
0.9210346751991364
 40
0.9628850092212288
 40
1.0
 40
1.0
 40
1.0
 40
1.0
 10
230.0003142944472
 20
0.1025893690387164
 30
0.0
 10
230.0015453214797
 20
0.1755519342352962
 30
0.0
 10
230.0039990307384
 20
0.3209824707122028
 30
0.0
 10
230.0199825074546
 20
0.5380517747834573
 30
0.0
 10
230.0449937070806
 20
0.7531681496198983
 30
0.0
 10
230.0798990126914
 20
0.9663254731981791
 30
0.0
 10
230.1244668263631
 20
1.177521835822579
 30
0.0
 10
230.1787614499531
 20
1.386754027137088
 30
0.0
 10
230.2427525642834
 20
1.594020250715936
 30
0.0
 10
230.3164906419065
 20
1.79931541002061
 30
0.0
 10
230.4532491555553
 20
2.1331290356289
 30
0.0
 10
230.6862692502557
 20
2.581801160975603
 30
0.0
 10
231.0669597420303
 20
3.111915832576237
 30
0.0
 10
231.3977201021337
 20
3.46630219522881
 30
0.0
 10
231.6859588580178
 20
3.720931726262116
 30
0.0
 10
231.8607215223215
 20
3.874088526280323
 30
0.0
 10
232.0381224144087
 20
4.035786092347421
 30
0.0
 10
232.1501189960516
 20
4.155543698725422
 30
0.0
 10
232.2478945275983
 20
4.286035483453715
 30
0.0
 10
232.3051079821393
 20
4.461952881127454
 30
0.0
 10
232.2522595004443
 20
4.684163900232491
 30
0.0
 10
232.0966364505599
 20
4.897203268557249
 30
0.0
 10
231.8422070656514
 20
5.118222201603739
 30
0.0
 10
231.4752321721275
 20
5.355507749837521
 30
0.0
 10
231.078834653814
 20
5.569931513848769
 30
0.0
 10
230.7057511638713
 20
5.753674722438151
 30
0.0
 10
230.4069244059342
 20
5.89023807225228
 30
0.0
 10
230.2144199664116
 20
5.964905221734845
 30
0.0
 10
230.123939739606
 20
6.000000000000005
 30
0.0
  0
SPLINE
  5
142
330
1B
100
AcDbEntity
 67
     1
  8
0
  6
Continuous
 62
     7
370
    25
100
AcDbSpline
210
0.0
220
0.0
230
1.0
 70
     8
 71
     3
 72
    23
 73
    19
 74
     0
 42
0.000000001
 43
0.00000001
 40
0.0
 40
0.0
 40
0.0
 40
0.0
 40
0.103890702999054
 40
0.2030074391903998
 40
0.2973847176160523
 40
0.3870625100483701
 40
0.4720874049085157
 40
0.5685547557234317
 40
0.652133196218867
 40
0.7230624824330454
 40
0.781737581246494
 40
0.833225981213965
 40
0.8754235055990416
 40
0.9120172362163388
 40
0.9326055762463114
 40
0.9562263754044025
 40
0.9781093951629608
 40
1.0
 40
1.0
 40
1.0
 40
1.0
 10
230.123939739606
 20
6.000000000000005
 30
0.0
 10
230.3179646819822
 20
5.992950125458391
 30
0.0
 10
230.6970987676493
 20
5.979174330935977
 30
0.0
 10
231.2519448272819
 20
5.946812423277992
 30
0.0
 10
231.7796049648535
 20
5.906363918525878
 30
0.0
 10
232.2800605280492
 20
5.857188390761603
 30
0.0
 10
232.7830783843958
 20
5.796228635173234
 30
0.0
 10
233.2728370078116
 20
5.723190660662445
 30
0.0
 10
233.7330415115563
 20
5.636171288692426
 30
0.0
 10
234.118587718102
 20
5.543333045100407
 30
0.0
 10
234.438275905333
 20
5.44545714232017
 30
0.0
 10
234.6920659169321
 20
5.33948027189192
 30
0.0
 10
234.8789998909274
 20
5.224947986170791
 30
0.0
 10
234.9684510137366
 20
5.12926459937349
 30
0.0
 10
234.9957361304161
 20
5.066101156789459
 30
0.0
 10
235.0031011682043
 20
5.028339756431189
 30
0.0
 10
235.0029364685977
 20
5.004355121397769
 30
0.0
 10
235.0003522239206
 20
5.001451874823773
 30
0.0
 10
234.9990598776837
 20
5.000000000000004
 30
0.0
  0
SPLINE
  5
143
330
1B
100
AcDbEntity
 67
     1
  8
0
  6
Continuous
 62
     7
370
    25
100
AcDbSpline
210
0.0
220
0.0
230
1.0
 70
     8
 71
     3
 72
    32
 73
    28
 74
     0
 42
0.000000001
 43
0.00000001
 40
0.0
 40
0.0
 40
0.0
 40
0.0
 40
0.2343749999999998
 40
0.2343749999999998
 40
0.2499999999999998
 40
0.2499999999999998
 40
0.375
 40
0.375
 40
0.4687500000000002
 40
0.4687500000000002
 40
0.4843750000000002
 40
0.4843750000000002
 40
0.5000000000000003
 40
0.5000000000000003
 40
0.6250000000000001
 40
0.6250000000000001
 40
0.6875
 40
0.6875
 40
0.7343749999999999
 40
0.7343749999999999
 40
0.7499999999999999
 40
0.7499999999999999
 40
0.875
 40
0.875
 40
0.9375
 40
0.9375
 40
1.0
 40
1.0
 40
1.0
 40
1.0
 10
229.9998433129472
 20
0.0885084112661333
 30
0.0
 10
230.0105843713777
 20
0.6951951256734118
 30
0.0
 10
230.1330841926533
 20
1.299493208003044
 30
0.0
 10
230.3739849363911
 20
1.900068037618982
 30
0.0
 10
230.3895005423235
 20
1.937420590338579
 30
0.0
 10
230.5332523430559
 20
2.271839542839077
 30
0.0
 10
230.6902194204208
 20
2.5564881178083
 30
0.0
 10
231.009987017671
 20
3.023778050796053
 30
0.0
 10
231.1615187345909
 20
3.214130677116678
 30
0.0
 10
231.3535205248783
 20
3.422174483090679
 30
0.0
 10
231.3813116089007
 20
3.451560877799658
 30
0.0
 10
231.4376048904855
 20
3.509645787027033
 30
0.0
 10
231.4661070880479
 20
3.538344301545426
 30
0.0
 10
231.7257665764247
 20
3.793447351510021
 30
0.0
 10
231.9788150369961
 20
3.9974815427892
 30
0.0
 10
232.3841382990876
 20
4.264434979269732
 30
0.0
 10
232.5235378149905
 20
4.346903149690204
 30
0.0
 10
232.7738878369479
 20
4.479088029843425
 30
0.0
 10
232.8832381257206
 20
4.531838344096831
 30
0.0
 10
233.031425046543
 20
4.596736706351328
 30
0.0
 10
233.0686706547313
 20
4.612508347741337
 30
0.0
 10
233.4055818568116
 20
4.750317846391211
 30
0.0
 10
233.7170120409122
 20
4.843362717826705
 30
0.0
 10
234.1932099408877
 20
4.936993525430005
 30
0.0
 10
234.3534513448502
 20
4.960547711372776
 30
0.0
 10
234.6754720746805
 20
4.992050948657775
 30
0.0
 10
234.8372514005483
 20
5.000000000000004
 30
0.0
 10
234.9990598776837
 20
5.000000000000004
 30
0.0
  0
LWPOLYLINE
  5
17D
330
1B
100
AcDbEntity
 67
     1
  8
0
  6
Continuous
 62
     7
370
    25
100
AcDbPolyline
 90
        2
 70
   128
 43
0.0
 10
-234.9990598777
 20
5.0
 10
-234.9990598777
 20
5.0
  0
LWPOLYLINE
  5
181
330
1B
100
AcDbEntity
 67
     1
  8
0
  6
Continuous
 62
     7
370
    25
100
AcDbPolyline
 90
        9
 70
   128
 43
0.0
 10
-30.0
 20
-122.3412044417
 10
-29.903926402
 20
-122.5105898362
 10
-29.6193976626
 20
-122.6734658449
 10
-29.1573480615
 20
-122.8235732343
 10
-28.5355339059
 20
-122.9551434615
 10
-27.7778511651
 20
-123.0631203565
 10
-26.9134171618
 20
-123.1433544277
 10
-25.9754516101
 20
-123.1927623248
 10
-25.0
 20
-123.20944533
  0
LWPOLYLINE
  5
182
330
1B
100
AcDbEntity
 67
     1
  8
0
  6
Continuous
 62
     7
370
    25
100
AcDbPolyline
 90
        9
 70
   128
 43
0.0
 10
25.0
 20
-123.20944533
 10
25.9754516101
 20
-123.1927623248
 10
26.9134171618
 20
-123.1433544277
 10
27.7778511651
 20
-123.0631203565
 10
28.5355339059
 20
-122.9551434615
 10
29.1573480615
 20
-122.8235732343
 10
29.6193976626
 20
-122.6734658449
 10
29.903926402
 20
-122.5105898362
 10
30.0
 20
-122.3412044417
  0
LWPOLYLINE
  5
184
330
1B
100
AcDbEntity
 67
     1
  8
0
  6
Continuous
 62
     7
370
    25
100
AcDbPolyline
 90
        9
 70
   128
 43
0.0
 10
-35.0
 20
-101.4729635533
 10
-34.0245483899
 20
-101.4896465586
 10
-33.0865828382
 20
-101.5390544557
 10
-32.2221488349
 20
-101.6192885269
 10
-31.4644660941
 20
-101.7272654218
 10
-30.8426519385
 20
-101.858835649
 10
-30.3806023374
 20
-102.0089430384
 10
-30.096073598
 20
-102.1718190472
 10
-30.0
 20
-102.3412044417
  0
LWPOLYLINE
  5
18C
330
1B
100
AcDbEntity
 67
     1
  8
0
  6
Continuous
 62
     7
370
    25
100
AcDbPolyline
 90
        9
 70
   128
 43
0.0
 10
35.0
 20
-101.4729635533
 10
34.0245483899
 20
-101.4896465586
 10
33.0865828382
 20
-101.5390544557
 10
32.2221488349
 20
-101.6192885269
 10
31.4644660941
 20
-101.7272654218
 10
30.8426519385
 20
-101.858835649
 10
30.3806023374
 20
-102.0089430384
 10
30.096073598
 20
-102.1718190472
 10
30.0
 20
-102.3412044417
  0
LWPOLYLINE
  5
194
330
1B
100
AcDbEntity
 67
     1
  8
0
  6
Continuous
 62
     7
370
    25
100
AcDbPolyline
 90
        9
 70
   128
 43
0.0
 10
-24.375
 20
-149.0
 10
-24.3870091997
 20
-148.804909678
 10
-24.4225752922
 20
-148.6173165676
 10
-24.4803314923
 20
-148.444429767
 10
-24.5580582618
 20
-148.2928932188
 10
-24.6527686044
 20
-148.1685303877
 10
-24.7608228548
 20
-148.0761204675
 10
-24.8780685487
 20
-148.0192147196
 10
-25.0
 20
-148.0
  0
LWPOLYLINE
  5
195
330
1B
100
AcDbEntity
 67
     1
  8
0
  6
Continuous
 62
     7
370
    25
100
AcDbPolyline
 90
        9
 70
   128
 43
0.0
 10
24.375
 20
-149.0
 10
24.3870091997
 20
-148.804909678
 10
24.4225752922
 20
-148.6173165676
 10
24.4803314923
 20
-148.444429767
 10
24.5580582618
 20
-148.2928932188
 10
24.6527686044
 20
-148.1685303877
 10
24.7608228548
 20
-148.0761204675
 10
24.8780685487
 20
-148.0192147196
 10
25.0
 20
-148.0
  0
SPLINE
  5
197
330
1B
100
AcDbEntity
 67
     1
  8
0
  6
Continuous
 62
     7
370
    25
100
AcDbSpline
210
0.0
220
0.0
230
1.0
 70
     8
 71
     3
 72
    22
 73
    18
 74
     0
 42
0.000000001
 43
0.00000001
 40
0.0
 40
0.0
 40
0.0
 40
0.0
 40
0.062500000000003
 40
0.062500000000003
 40
0.125000000000006
 40
0.125000000000006
 40
0.2500000000000051
 40
0.2500000000000051
 40
0.3750000000000041
 40
0.3750000000000041
 40
0.5000000000000032
 40
0.5000000000000032
 40
0.6250000000000022
 40
0.6250000000000022
 40
0.7500000000000012
 40
0.7500000000000012
 40
1.0
 40
1.0
 40
1.0
 40
1.0
 10
30.22499999999999
 20
-143.0
 30
0.0
 10
30.22499999999999
 20
-143.2361917355859
 30
0.0
 10
30.21145680393276
 20
-143.4689524397559
 30
0.0
 10
30.15898478801311
 20
-143.9280810316055
 30
0.0
 10
30.11963419538133
 20
-144.1561170819096
 30
0.0
 10
29.96733745530036
 20
-144.8185968812221
 30
0.0
 10
29.82312054235231
 20
-145.2260964307339
 30
0.0
 10
29.46441160104212
 20
-145.9886014870896
 30
0.0
 10
29.25630143195675
 20
-146.3299481620583
 30
0.0
 10
28.79308930173562
 20
-146.9521993260832
 30
0.0
 10
28.53597537789035
 20
-147.2337864275665
 30
0.0
 10
27.99513928354484
 20
-147.7277724807759
 30
0.0
 10
27.7094871621932
 20
-147.9430526752796
 30
0.0
 10
27.10815632180012
 20
-148.3171365029763
 30
0.0
 10
26.79086355905613
 20
-148.4764651316765
 30
0.0
 10
25.80099757603364
 20
-148.8639355592985
 30
0.0
 10
25.10714042907064
 20
-149.0
 30
0.0
 10
24.37499999999999
 20
-149.0
 30
0.0
  0
SPLINE
  5
19A
330
1B
100
AcDbEntity
 67
     1
  8
0
  6
Continuous
 62
     7
370
    25
100
AcDbSpline
210
0.0
220
0.0
230
1.0
 70
     8
 71
     3
 72
    26
 73
    22
 74
     0
 42
0.000000001
 43
0.00000001
 40
0.0
 40
0.0
 40
0.0
 40
0.0
 40
0.1250000000000013
 40
0.1250000000000013
 40
0.2500000000000026
 40
0.2500000000000026
 40
0.3750000000000039
 40
0.3750000000000039
 40
0.5000000000000052
 40
0.5000000000000052
 40
0.6250000000000066
 40
0.6250000000000066
 40
0.6875000000000054
 40
0.6875000000000054
 40
0.7500000000000042
 40
0.7500000000000042
 40
0.8125000000000031
 40
0.8125000000000031
 40
0.875000000000002
 40
0.875000000000002
 40
1.0
 40
1.0
 40
1.0
 40
1.0
 10
-24.37500000000001
 20
-149.0
 30
0.0
 10
-24.74092870180032
 20
-149.0000000000001
 30
0.0
 10
-25.09786457032089
 20
-148.9651127021993
 30
0.0
 10
-25.79499136614084
 20
-148.8319068764122
 30
0.0
 10
-26.13713567369537
 20
-148.7327367513271
 30
0.0
 10
-26.79545064939548
 20
-148.4742851692644
 30
0.0
 10
-27.10990030895413
 20
-148.3161917323262
 30
0.0
 10
-27.71107601232489
 20
-147.9419233314484
 30
0.0
 10
-27.9978226560603
 20
-147.7258586252433
 30
0.0
 10
-28.54272577406205
 20
-147.2270743418424
 30
0.0
 10
-28.79699767725971
 20
-146.9474351986223
 30
0.0
 10
-29.14259627590518
 20
-146.4824454206696
 30
0.0
 10
-29.25215087047102
 20
-146.3194615516866
 30
0.0
 10
-29.45898902302428
 20
-145.9751416717644
 30
0.0
 10
-29.55681024177935
 20
-145.7925914452064
 30
0.0
 10
-29.73497656881938
 20
-145.4130526711878
 30
0.0
 10
-29.81550669284595
 20
-145.2160678480281
 30
0.0
 10
-29.95784095079637
 20
-144.8056753869582
 30
0.0
 10
-30.02002726369593
 20
-144.5905833022991
 30
0.0
 10
-30.17144120131477
 20
-143.928335696829
 30
0.0
 10
-30.22500000000001
 20
-143.4724762045376
 30
0.0
 10
-30.22500000000001
 20
-143.0
 30
0.0
  0
LINE
  5
1CC
330
1B
100
AcDbEntity
 67
     1
  8
0
  6
Continuous
 62
     7
370
    25
100
AcDbLine
 10
39.0
 20
-152.0
 30
0.0
 11
39.0
 21
-123.0
 31
0.0
  0
LINE
  5
1CD
330
1B
100
AcDbEntity
 67
     1
  8
0
  6
Continuous
 62
     7
370
    25
100
AcDbLine
 10
-39.0
 20
-123.0
 30
0.0
 11
-39.0
 21
-152.0
 31
0.0
  0
LINE
  5
1CE
330
1B
100
AcDbEntity
 67
     1
  8
0
  6
Continuous
 62
     7
370
    25
100
AcDbLine
 10
-293.3385244685
 20
2.0
 30
0.0
 11
-293.3385244685
 21
3.0
 31
0.0
  0
LINE
  5
1CF
330
1B
100
AcDbEntity
 67
     1
  8
0
  6
Continuous
 62
     7
370
    25
100
AcDbLine
 10
-306.2833719972
 20
1.0
 30
0.0
 11
-294.3385244685
 21
1.0
 31
0.0
  0
LINE
  5
1D0
330
1B
100
AcDbEntity
 67
     1
  8
0
  6
Continuous
 62
     7
370
    25
100
AcDbLine
 10
-305.7510657707
 20
11.1570078687
 30
0.0
 11
-306.2833719972
 21
1.0
 31
0.0
  0
LINE
  5
1D1
330
1B
100
AcDbEntity
 67
     1
  8
0
  6
Continuous
 62
     7
370
    25
100
AcDbLine
 10
302.7551771664
 20
14.0
 30
0.0
 11
-302.7551771664
 21
14.0
 31
0.0
  0
LINE
  5
1D2
330
1B
100
AcDbEntity
 67
     1
  8
0
  6
Continuous
 62
     7
370
    25
100
AcDbLine
 10
306.2833719972
 20
1.0
 30
0.0
 11
305.7510657707
 21
11.1570078687
 31
0.0
  0
LINE
  5
1D3
330
1B
100
AcDbEntity
 67
     1
  8
0
  6
Continuous
 62
     7
370
    25
100
AcDbLine
 10
294.3385244685
 20
1.0
 30
0.0
 11
306.2833719972
 21
1.0
 31
0.0
  0
LINE
  5
1D4
330
1B
100
AcDbEntity
 67
     1
  8
0
  6
Continuous
 62
     7
370
    25
100
AcDbLine
 10
293.3385244685
 20
3.0
 30
0.0
 11
293.3385244685
 21
2.0
 31
0.0
  0
LINE
  5
1D5
330
1B
100
AcDbEntity
 67
     1
  8
0
  6
Continuous
 62
     7
370
    25
100
AcDbLine
 10
230.1239397396
 20
6.0
 30
0.0
 11
290.3385244685
 21
6.0
 31
0.0
  0
LINE
  5
1D6
330
1B
100
AcDbEntity
 67
     1
  8
0
  6
Continuous
 62
     7
370
    25
100
AcDbLine
 10
229.9776904963
 20
-0.103840599
 30
0.0
 11
202.5
 21
-128.0
 31
0.0
  0
LINE
  5
1D7
330
1B
100
AcDbEntity
 67
     1
  8
0
  6
Continuous
 62
     7
370
    25
100
AcDbLine
 10
202.5
 20
-128.0
 30
0.0
 11
39.0
 21
-128.0
 31
0.0
  0
LINE
  5
1D8
330
1B
100
AcDbEntity
 67
     1
  8
0
  6
Continuous
 62
     7
370
    25
100
AcDbLine
 10
-39.0
 20
-128.0
 30
0.0
 11
-202.5
 21
-128.0
 31
0.0
  0
LINE
  5
1D9
330
1B
100
AcDbEntity
 67
     1
  8
0
  6
Continuous
 62
     7
370
    25
100
AcDbLine
 10
-202.5
 20
-128.0
 30
0.0
 11
-229.9776904963
 21
-0.103840599
 31
0.0
  0
LINE
  5
1DA
330
1B
100
AcDbEntity
 67
     1
  8
0
  6
Continuous
 62
     7
370
    25
100
AcDbLine
 10
-290.3385244685
 20
6.0
 30
0.0
 11
-230.1239397396
 21
6.0
 31
0.0
  0
LINE
  5
1DB
330
1B
100
AcDbEntity
 67
     1
  8
0
  6
Continuous
 62
     7
370
    25
100
AcDbLine
 10
-290.3385244685
 20
0.0
 30
0.0
 11
-290.3385244685
 21
6.0
 31
0.0
  0
LINE
  5
1DC
330
1B
100
AcDbEntity
 67
     1
  8
0
  6
Continuous
 62
     7
370
    25
100
AcDbLine
 10
-234.9990598777
 20
5.0
 30
0.0
 11
-290.3385244685
 21
5.0
 31
0.0
  0
LINE
  5
1DD
330
1B
100
AcDbEntity
 67
     1
  8
0
  6
Continuous
 62
     7
370
    25
100
AcDbLine
 10
290.3385244685
 20
5.0
 30
0.0
 11
234.9990590537
 21
5.0
 31
0.0
  0
LINE
  5
1DE
330
1B
100
AcDbEntity
 67
     1
  8
0
  6
Continuous
 62
     7
370
    25
100
AcDbLine
 10
293.3385244685
 20
3.0
 30
0.0
 11
231.1071714723
 21
3.0
 31
0.0
  0
LINE
  5
1DF
330
1B
100
AcDbEntity
 67
     1
  8
0
  6
Continuous
 62
     7
370
    25
100
AcDbLine
 10
-305.7510657707
 20
11.1570078687
 30
0.0
 11
-307.7483248402
 21
11.2616797812
 31
0.0
  0
LINE
  5
1E0
330
1B
100
AcDbEntity
 67
     1
  8
0
  6
Continuous
 62
     7
370
    25
100
AcDbLine
 10
-302.7551771664
 20
14.0
 30
0.0
 11
-302.7551771664
 21
16.0
 31
0.0
  0
LINE
  5
1E1
330
1B
100
AcDbEntity
 67
     1
  8
0
  6
Continuous
 62
     7
370
    25
100
AcDbLine
 10
307.2847443432
 20
0.0
 30
0.0
 11
229.9943437112
 21
0.0
 31
0.0
  0
LINE
  5
1E2
330
1B
100
AcDbEntity
 67
     1
  8
0
  6
Continuous
 62
     7
370
    25
100
AcDbLine
 10
294.3385244685
 20
0.0
 30
0.0
 11
294.3385244685
 21
1.0
 31
0.0
  0
LINE
  5
1E3
330
1B
100
AcDbEntity
 67
     1
  8
0
  6
Continuous
 62
     7
370
    25
100
AcDbLine
 10
306.2833719972
 20
0.0
 30
0.0
 11
306.2833719972
 21
1.0
 31
0.0
  0
LINE
  5
1E4
330
1B
100
AcDbEntity
 67
     1
  8
0
  6
Continuous
 62
     7
370
    25
100
AcDbLine
 10
306.2833719972
 20
1.0
 30
0.0
 11
308.283373878
 21
1.0523359562
 31
0.0
  0
LINE
  5
1E5
330
1B
100
AcDbEntity
 67
     1
  8
0
  6
Continuous
 62
     7
370
    25
100
AcDbLine
 10
-229.9943437112
 20
0.0
 30
0.0
 11
-307.2847443432
 21
0.0
 31
0.0
  0
LINE
  5
1E6
330
1B
100
AcDbEntity
 67
     1
  8
0
  6
Continuous
 62
     7
370
    25
100
AcDbLine
 10
-308.283373878
 20
1.0523359562
 30
0.0
 11
-306.2833719972
 21
1.0
 31
0.0
  0
LINE
  5
1E7
330
1B
100
AcDbEntity
 67
     1
  8
0
  6
Continuous
 62
     7
370
    25
100
AcDbLine
 10
-306.2833719972
 20
0.0
 30
0.0
 11
-306.2833719972
 21
1.0
 31
0.0
  0
LINE
  5
1E8
330
1B
100
AcDbEntity
 67
     1
  8
0
  6
Continuous
 62
     7
370
    25
100
AcDbLine
 10
-302.7551771664
 20
16.0
 30
0.0
 11
302.7551771664
 21
16.0
 31
0.0
  0
LINE
  5
1E9
330
1B
100
AcDbEntity
 67
     1
  8
0
  6
Continuous
 62
     7
370
    25
100
AcDbLine
 10
302.7551771664
 20
14.0
 30
0.0
 11
302.7551771664
 21
16.0
 31
0.0
  0
LINE
  5
1EA
330
1B
100
AcDbEntity
 67
     1
  8
0
  6
Continuous
 62
     7
370
    25
100
AcDbLine
 10
305.7510657707
 20
11.1570078687
 30
0.0
 11
307.7483248402
 21
11.2616797812
 31
0.0
  0
LINE
  5
1EB
330
1B
100
AcDbEntity
 67
     1
  8
0
  6
Continuous
 62
     7
370
    25
100
AcDbLine
 10
307.7483248402
 20
11.2616797812
 30
0.0
 11
308.283373878
 21
1.0523359562
 31
0.0
  0
LINE
  5
1EC
330
1B
100
AcDbEntity
 67
     1
  8
0
  6
Continuous
 62
     7
370
    25
100
AcDbLine
 10
-292.3385244685
 20
3.0
 30
0.0
 11
-292.3385244685
 21
2.0
 31
0.0
  0
LINE
  5
1ED
330
1B
100
AcDbEntity
 67
     1
  8
0
  6
Continuous
 62
     7
370
    25
100
AcDbLine
 10
-293.3385244685
 20
2.0
 30
0.0
 11
-230.4228691266
 21
2.0
 31
0.0
  0
LINE
  5
1EE
330
1B
100
AcDbEntity
 67
     1
  8
0
  6
Continuous
 62
     7
370
    25
100
AcDbLine
 10
-231.1071714723
 20
3.0
 30
0.0
 11
-293.3385244685
 21
3.0
 31
0.0
  0
LINE
  5
1EF
330
1B
100
AcDbEntity
 67
     1
  8
0
  6
Continuous
 62
     7
370
    25
100
AcDbLine
 10
-294.3385244685
 20
0.0
 30
0.0
 11
-294.3385244685
 21
1.0
 31
0.0
  0
LINE
  5
1F0
330
1B
100
AcDbEntity
 67
     1
  8
0
  6
Continuous
 62
     7
370
    25
100
AcDbLine
 10
-308.283373878
 20
1.0523359562
 30
0.0
 11
-307.7483248402
 21
11.2616797812
 31
0.0
  0
LINE
  5
1F1
330
1B
100
AcDbEntity
 67
     1
  8
0
  6
Continuous
 62
     7
370
    25
100
AcDbLine
 10
292.3385244685
 20
2.0
 30
0.0
 11
292.3385244685
 21
3.0
 31
0.0
  0
LINE
  5
1F2
330
1B
100
AcDbEntity
 67
     1
  8
0
  6
Continuous
 62
     7
370
    25
100
AcDbLine
 10
230.4228691266
 20
2.0
 30
0.0
 11
293.3385244685
 21
2.0
 31
0.0
  0
LINE
  5
1F3
330
1B
100
AcDbEntity
 67
     1
  8
0
  6
Continuous
 62
     7
370
    25
100
AcDbLine
 10
-25.0
 20
-123.20944533
 30
0.0
 11
25.0
 21
-123.20944533
 31
0.0
  0
LINE
  5
1F4
330
1B
100
AcDbEntity
 67
     1
  8
0
  6
Continuous
 62
     7
370
    25
100
AcDbLine
 10
-30.0
 20
-143.0
 30
0.0
 11
-30.0
 21
-74.5971137738
 31
0.0
  0
LINE
  5
1F5
330
1B
100
AcDbEntity
 67
     1
  8
0
  6
Continuous
 62
     7
370
    25
100
AcDbLine
 10
30.0
 20
-74.5971137738
 30
0.0
 11
30.0
 21
-143.0
 31
0.0
  0
LINE
  5
1F6
330
1B
100
AcDbEntity
 67
     1
  8
0
  6
Continuous
 62
     7
370
    25
100
AcDbLine
 10
25.0
 20
-148.0
 30
0.0
 11
25.0
 21
-74.1081452394
 31
0.0
  0
LINE
  5
1F7
330
1B
100
AcDbEntity
 67
     1
  8
0
  6
Continuous
 62
     7
370
    25
100
AcDbLine
 10
25.0
 20
-148.0
 30
0.0
 11
-25.0
 21
-148.0
 31
0.0
  0
LINE
  5
1F8
330
1B
100
AcDbEntity
 67
     1
  8
0
  6
Continuous
 62
     7
370
    25
100
AcDbLine
 10
-25.0
 20
-74.1081452394
 30
0.0
 11
-25.0
 21
-148.0
 31
0.0
  0
LINE
  5
1F9
330
1B
100
AcDbEntity
 67
     1
  8
0
  6
Continuous
 62
     7
370
    25
100
AcDbLine
 10
-35.0
 20
-118.0
 30
0.0
 11
-35.0
 21
-75.1760850687
 31
0.0
  0
LINE
  5
1FA
330
1B
100
AcDbEntity
 67
     1
  8
0
  6
Continuous
 62
     7
370
    25
100
AcDbLine
 10
35.0
 20
-75.1760850687
 30
0.0
 11
35.0
 21
-118.0
 31
0.0
  0
LINE
  5
1FB
330
1B
100
AcDbEntity
 67
     1
  8
0
  6
Continuous
 62
     7
370
    25
100
AcDbLine
 10
-35.0
 20
-118.0
 30
0.0
 11
-152.9872989381
 21
-118.0
 31
0.0
  0
LINE
  5
1FC
330
1B
100
AcDbEntity
 67
     1
  8
0
  6
Continuous
 62
     7
370
    25
100
AcDbLine
 10
152.9872989381
 20
-118.0
 30
0.0
 11
35.0
 21
-118.0
 31
0.0
  0
LINE
  5
1FD
330
1B
100
AcDbEntity
 67
     1
  8
0
  6
Continuous
 62
     7
370
    25
100
AcDbLine
 10
24.375
 20
-149.0
 30
0.0
 11
-24.375
 21
-149.0
 31
0.0
  0
LINE
  5
1FE
330
1B
100
AcDbEntity
 67
     1
  8
0
  6
Continuous
 62
     7
370
    25
100
AcDbLine
 10
38.0
 20
-153.0
 30
0.0
 11
-38.0
 21
-153.0
 31
0.0
  0
LINE
  5
1FF
330
1B
100
AcDbEntity
 67
     1
  8
0
  6
Continuous
 62
     7
370
    25
100
AcDbLine
 10
30.225
 20
-123.0
 30
0.0
 11
30.225
 21
-143.0
 31
0.0
  0
LINE
  5
200
330
1B
100
AcDbEntity
 67
     1
  8
0
  6
Continuous
 62
     7
370
    25
100
AcDbLine
 10
-30.225
 20
-143.0
 30
0.0
 11
-30.225
 21
-123.0
 31
0.0
  0
LINE
  5
201
330
1B
100
AcDbEntity
 67
     1
  8
0
  6
Continuous
 62
     7
370
    25
100
AcDbLine
 10
30.225
 20
-143.0
 30
0.0
 11
30.0
 21
-143.0
 31
0.0
  0
LINE
  5
202
330
1B
100
AcDbEntity
 67
     1
  8
0
  6
Continuous
 62
     7
370
    25
100
AcDbLine
 10
-30.225
 20
-143.0
 30
0.0
 11
-30.0
 21
-143.0
 31
0.0
  0
LINE
  5
203
330
1B
100
AcDbEntity
 67
     1
  8
0
  6
Continuous
 62
     7
370
    25
100
AcDbLine
 10
-30.0
 20
-123.0
 30
0.0
 11
-39.0
 21
-123.0
 31
0.0
  0
LINE
  5
204
330
1B
100
AcDbEntity
 67
     1
  8
0
  6
Continuous
 62
     7
370
    25
100
AcDbLine
 10
39.0
 20
-123.0
 30
0.0
 11
30.0
 21
-123.0
 31
0.0
  0
LINE
  5
205
330
1B
100
AcDbEntity
 67
     1
  8
0
  6
Continuous
 62
     7
370
    25
100
AcDbLine
 10
-147.5
 20
-128.0
 30
0.0
 11
-147.5
 21
-118.0
 31
0.0
  0
LINE
  5
206
330
1B
100
AcDbEntity
 67
     1
  8
0
  6
Continuous
 62
     7
370
    25
100
AcDbLine
 10
147.5
 20
-128.0
 30
0.0
 11
147.5
 21
-118.0
 31
0.0
  0
LINE
  5
207
330
1B
100
AcDbEntity
 67
     1
  8
0
  6
Continuous
 62
     7
370
    25
100
AcDbLine
 10
290.3385244685
 20
0.0
 30
0.0
 11
290.3385244685
 21
6.0
 31
0.0
  0
LINE
  5
208
330
1B
100
AcDbEntity
 67
     1
  8
0
  6
Continuous
 62
     8
370
    25
100
AcDbLine
 10
35.0
 20
-101.4729635533
 30
0.0
 11
123.6112871795
 21
-101.4729635533
 31
0.0
  0
LINE
  5
209
330
1B
100
AcDbEntity
 67
     1
  8
0
  6
Continuous
 62
     8
370
    25
100
AcDbLine
 10
-123.6112871795
 20
-101.4729635533
 30
0.0
 11
-35.0
 21
-101.4729635533
 31
0.0
  0
LINE
  5
20A
330
1B
100
AcDbEntity
 67
     1
  8
0
  6
Continuous
 62
     8
370
    25
100
AcDbLine
 10
-39.0
 20
-152.0
 30
0.0
 11
39.0
 21
-152.0
 31
0.0
  0
LINE
  5
20B
330
1B
100
AcDbEntity
 67
     1
  8
0
  6
Continuous
 62
     8
370
    25
100
AcDbLine
 10
-39.0
 20
-126.2635182233
 30
0.0
 11
-165.1149239021
 21
-126.2635182233
 31
0.0
  0
LINE
  5
20C
330
1B
100
AcDbEntity
 67
     1
  8
0
  6
Continuous
 62
     8
370
    25
100
AcDbLine
 10
-165.231203485
 20
-126.3472963553
 30
0.0
 11
-39.0
 21
-126.3472963553
 31
0.0
  0
LINE
  5
20D
330
1B
100
AcDbEntity
 67
     1
  8
0
  6
Continuous
 62
     8
370
    25
100
AcDbLine
 10
165.1149239021
 20
-126.2635182233
 30
0.0
 11
39.0
 21
-126.2635182233
 31
0.0
  0
LINE
  5
20E
330
1B
100
AcDbEntity
 67
     1
  8
0
  6
Continuous
 62
     8
370
    25
100
AcDbLine
 10
39.0
 20
-126.3472963553
 30
0.0
 11
165.231203485
 21
-126.3472963553
 31
0.0
  0
ARC
  5
20F
330
1B
100
AcDbEntity
 67
     1
  8
0
  6
Continuous
 62
     7
370
    25
100
AcDbCircle
 10
38.0
 20
-152.0
 30
0.0
 40
1.0
100
AcDbArc
 50
270.0
 51
0.0
  0
ARC
  5
210
330
1B
100
AcDbEntity
 67
     1
  8
0
  6
Continuous
 62
     7
370
    25
100
AcDbCircle
 10
-38.0
 20
-152.0
 30
0.0
 40
1.000000000000007
100
AcDbArc
 50
180.0
 51
270.0
  0
ARC
  5
211
330
1B
100
AcDbEntity
 67
     1
  8
0
  6
Continuous
 62
     7
370
    25
100
AcDbCircle
 10
44.0
 20
-123.0
 30
0.0
 40
5.000000000000014
100
AcDbArc
 50
90.0
 51
180.0
  0
ARC
  5
212
330
1B
100
AcDbEntity
 67
     1
  8
0
  6
Continuous
 62
     7
370
    25
100
AcDbCircle
 10
-44.0
 20
-123.0
 30
0.0
 40
5.0
100
AcDbArc
 50
0.0
 51
90.0
  0
ARC
  5
213
330
1B
100
AcDbEntity
 67
     1
  8
0
  6
Continuous
 62
     7
370
    25
100
AcDbCircle
 10
-290.3385244685
 20
3.0
 30
0.0
 40
3.0
100
AcDbArc
 50
90.0
 51
180.0
  0
ARC
  5
214
330
1B
100
AcDbEntity
 67
     1
  8
0
  6
Continuous
 62
     7
370
    25
100
AcDbCircle
 10
-294.3385244685
 20
2.0
 30
0.0
 40
1.000000000000057
100
AcDbArc
 50
270.0
 51
360.0
  0
ARC
  5
215
330
1B
100
AcDbEntity
 67
     1
  8
0
  6
Continuous
 62
     7
370
    25
100
AcDbCircle
 10
-302.7551771664
 20
11.0
 30
0.0
 40
2.999999999999929
100
AcDbArc
 50
90.0
 51
177.0
  0
ARC
  5
216
330
1B
100
AcDbEntity
 67
     1
  8
0
  6
Continuous
 62
     7
370
    25
100
AcDbCircle
 10
302.7551771664
 20
11.0
 30
0.0
 40
3.000000000000126
100
AcDbArc
 50
3.0
 51
90.0
  0
ARC
  5
217
330
1B
100
AcDbEntity
 67
     1
  8
0
  6
Continuous
 62
     7
370
    25
100
AcDbCircle
 10
294.3385244685
 20
2.0
 30
0.0
 40
1.000000000000057
100
AcDbArc
 50
180.0
 51
270.0
  0
ARC
  5
218
330
1B
100
AcDbEntity
 67
     1
  8
0
  6
Continuous
 62
     7
370
    25
100
AcDbCircle
 10
290.3385244685
 20
3.0
 30
0.0
 40
2.999999999999886
100
AcDbArc
 50
360.0
 51
90.0
  0
ARC
  5
219
330
1B
100
AcDbEntity
 67
     1
  8
0
  6
Continuous
 62
     7
370
    25
100
AcDbCircle
 10
229.0
 20
0.1062100935
 30
0.0
 40
0.9999999999979844
100
AcDbArc
 50
347.8746770259
 51
359.7926138548
  0
ARC
  5
21A
330
1B
100
AcDbEntity
 67
     1
  8
0
  6
Continuous
 62
     7
370
    25
100
AcDbCircle
 10
0.0
 20
-355.5568181818
 30
0.0
 40
282.5568181818197
100
AcDbArc
 50
53.6439624032
 51
126.3560375968
  0
ARC
  5
21B
330
1B
100
AcDbEntity
 67
     1
  8
0
  6
Continuous
 62
     7
370
    25
100
AcDbCircle
 10
-229.0
 20
0.1062100935
 30
0.0
 40
1.000000000001714
100
AcDbArc
 50
180.2061026316
 51
192.1253229741
  0
ARC
  5
21C
330
1B
100
AcDbEntity
 67
     1
  8
0
  6
Continuous
 62
     7
370
    25
100
AcDbCircle
 10
290.3385244685
 20
3.0
 30
0.0
 40
2.000000000000057
100
AcDbArc
 50
0.0
 51
90.0
  0
ARC
  5
21D
330
1B
100
AcDbEntity
 67
     1
  8
0
  6
Continuous
 62
     7
370
    25
100
AcDbCircle
 10
-302.7551771664
 20
11.0
 30
0.0
 40
5.00000000000022
100
AcDbArc
 50
90.0
 51
177.0
  0
ARC
  5
21E
330
1B
100
AcDbEntity
 67
     1
  8
0
  6
Continuous
 62
     7
370
    25
100
AcDbCircle
 10
307.2847443432
 20
1.0
 30
0.0
 40
0.9999999999999436
100
AcDbArc
 50
270.0
 51
3.0
  0
ARC
  5
21F
330
1B
100
AcDbEntity
 67
     1
  8
0
  6
Continuous
 62
     7
370
    25
100
AcDbCircle
 10
-307.2847443432
 20
1.0
 30
0.0
 40
0.9999999999999437
100
AcDbArc
 50
177.0
 51
270.0
  0
ARC
  5
220
330
1B
100
AcDbEntity
 67
     1
  8
0
  6
Continuous
 62
     7
370
    25
100
AcDbCircle
 10
302.7551771664
 20
11.0
 30
0.0
 40
5.000000000000107
100
AcDbArc
 50
3.0
 51
90.0
  0
ARC
  5
221
330
1B
100
AcDbEntity
 67
     1
  8
0
  6
Continuous
 62
     7
370
    25
100
AcDbCircle
 10
-294.3385244685
 20
2.0
 30
0.0
 40
2.000000000000023
100
AcDbArc
 50
270.0
 51
0.0
  0
ARC
  5
222
330
1B
100
AcDbEntity
 67
     1
  8
0
  6
Continuous
 62
     7
370
    25
100
AcDbCircle
 10
-290.3385244685
 20
3.0
 30
0.0
 40
2.000000000000057
100
AcDbArc
 50
90.0
 51
180.0
  0
ARC
  5
223
330
1B
100
AcDbEntity
 67
     1
  8
0
  6
Continuous
 62
     7
370
    25
100
AcDbCircle
 10
294.3385244685
 20
2.0
 30
0.0
 40
2.000000000000057
100
AcDbArc
 50
180.0
 51
270.0
  0
ARC
  5
224
330
1B
100
AcDbEntity
 67
     1
  8
0
  6
Continuous
 62
     7
370
    25
100
AcDbCircle
 10
25.0
 20
-143.0
 30
0.0
 40
5.000000000000025
100
AcDbArc
 50
270.0
 51
0.0
  0
ARC
  5
225
330
1B
100
AcDbEntity
 67
     1
  8
0
  6
Continuous
 62
     7
370
    25
100
AcDbCircle
 10
-25.0
 20
-143.0
 30
0.0
 40
5.000000000000036
100
AcDbArc
 50
180.0
 51
270.0
  0
ARC
  5
226
330
1B
100
AcDbEntity
 67
     1
  8
0
  6
Continuous
 62
     7
370
    25
100
AcDbCircle
 10
-35.0
 20
-123.0
 30
0.0
 40
4.999999999999982
100
AcDbArc
 50
0.0
 51
90.0
  0
ARC
  5
227
330
1B
100
AcDbEntity
 67
     1
  8
0
  6
Continuous
 62
     7
370
    25
100
AcDbCircle
 10
35.0
 20
-123.0
 30
0.0
 40
5.0
100
AcDbArc
 50
90.0
 51
180.0
  0
VIEWPORT
  5
3F2
330
1B
100
AcDbEntity
 67
     1
  8
0
100
AcDbViewport
 10
0.0
 20
0.0
 30
0.0
 40
205.6
 41
156.0
 68
     1
 69
     1
 12
0.0
 22
0.3923721716
 13
0.0
 23
0.0
 14
10.0
 24
10.0
 15
10.0
 25
10.0
 16
0.0
 26
0.0
 36
1.0
 17
0.0
 27
0.0
 37
0.0
 42
50.0
 43
0.0
 44
0.0
 45
477.1816003881
 50
0.0
 51
0.0
 72
   100
 90
   557152
  1

281
     0
 71
     1
 74
     0
110
0.0
120
0.0
130
0.0
111
1.0
121
0.0
131
0.0
112
0.0
122
1.0
132
0.0
 79
     0
146
0.0
  0
ENDSEC
  0
SECTION
  2
OBJECTS
  0
DICTIONARY
  5
C
330
0
100
AcDbDictionary
281
     1
  3
ACAD_GROUP
350
D
  3
ACAD_LAYOUT
350
1A
  3
ACAD_MLINESTYLE
350
17
  3
ACAD_PLOTSETTINGS
350
19
  3
ACAD_PLOTSTYLENAME
350
E
  3
ACAD_SCALELIST
350
47
  0
DICTIONARY
  5
D
102
{ACAD_REACTORS
330
C
102
}
330
C
100
AcDbDictionary
281
     1
  0
DICTIONARY
  5
1A
102
{ACAD_REACTORS
330
C
102
}
330
C
100
AcDbDictionary
281
     1
  3
_Back
350
28A
  3
_Front
350
1E
  3
_Isometric
350
2E0
  3
_Left
350
26
  3
Model
350
22
  0
DICTIONARY
  5
17
102
{ACAD_REACTORS
330
C
102
}
330
C
100
AcDbDictionary
281
     1
  3
Standard
350
18
  0
DICTIONARY
  5
19
102
{ACAD_REACTORS
330
C
102
}
330
C
100
AcDbDictionary
281
     1
  0
ACDBDICTIONARYWDFLT
  5
E
102
{ACAD_REACTORS
330
C
102
}
330
C
100
AcDbDictionary
281
     1
  3
Normal
350
F
100
AcDbDictionaryWithDefault
340
F
  0
DICTIONARY
  5
47
102
{ACAD_REACTORS
330
C
102
}
330
C
100
AcDbDictionary
281
     1
  3
A0
350
48
  3
A1
350
49
  3
A2
350
4A
  3
A3
350
4B
  3
A4
350
4C
  3
A5
350
4D
  3
A6
350
4E
  3
A7
350
4F
  3
A8
350
50
  3
A9
350
51
  3
B0
350
52
  3
B1
350
53
  3
B2
350
54
  3
B3
350
55
  3
B4
350
56
  3
B5
350
57
  3
B6
350
58
  3
B7
350
59
  3
B8
350
5A
  3
B9
350
5B
  3
C0
350
5C
  3
C1
350
5D
  3
C2
350
5E
  3
C3
350
5F
  3
C4
350
60
  3
C5
350
61
  3
C6
350
62
  3
C7
350
63
  3
C8
350
64
  3
C9
350
65
  3
D0
350
66
  3
D1
350
67
  3
D2
350
68
  0
LAYOUT
  5
28A
102
{ACAD_REACTORS
330
1A
102
}
330
1A
100
AcDbPlotSettings
  1

  2
none_device
  4
ISO_A4_(210.00_x_297.00_MM)
  6

 40
7.5
 41
20.0
 42
7.5
 43
20.0
 44
210.0
 45
297.0
 46
0.0
 47
0.0
 48
0.0
 49
0.0
140
0.0
141
0.0
142
1.0
143
2.3991030688
 70
   688
 72
     1
 73
     1
 74
     1
  7

 75
     0
147
0.4168224421
148
308.2847443432
149
153.0
100
AcDbLayout
  1
_Back
 70
     1
 71
     3
 10
0.0
 20
0.0
 11
0.0
 21
0.0
 12
0.0
 22
0.0
 32
0.0
 14
0.0
 24
0.0
 34
0.0
 15
0.0
 25
0.0
 35
0.0
146
0.0
 13
0.0
 23
0.0
 33
0.0
 16
1.0
 26
0.0
 36
0.0
 17
0.0
 27
1.0
 37
0.0
 76
     0
330
289
331
3F6
  0
LAYOUT
  5
1E
102
{ACAD_REACTORS
330
1A
102
}
330
1A
100
AcDbPlotSettings
  1

  2
none_device
  4
ANSI_A_(11.00_x_8.50_Inches)
  6

 40
6.35
 41
19.05
 42
6.35000508
 43
19.05000254
 44
279.4
 45
215.9
 46
133.34999746
 47
88.7239723471
 48
0.0
 49
0.0
140
0.0
141
0.0
142
0.0176622428
143
1.0
 70
   672
 72
     0
 73
     0
 74
     1
  7

 75
     0
147
0.015028401
148
7830.4325063185
149
5905.5
100
AcDbLayout
  1
_Front
 70
     1
 71
     1
 10
-356.2668057196
 20
-170.9932730161
 11
356.2668057196
 21
332.8183714359
 12
0.0
 22
0.0
 32
0.0
 14
-308.2847443432
 24
-232.5
 34
0.0
 15
308.2847443432
 25
233.2847443432
 35
0.0
146
0.0
 13
0.0
 23
0.0
 33
0.0
 16
1.0
 26
0.0
 36
0.0
 17
0.0
 27
1.0
 37
0.0
 76
     0
330
1B
331
3F2
  0
LAYOUT
  5
2E0
102
{ACAD_REACTORS
330
1A
102
}
330
1A
100
AcDbPlotSettings
  1

  2
none_device
  4
ISO_A4_(210.00_x_297.00_MM)
  6

 40
7.5
 41
20.0
 42
7.5
 43
20.0
 44
210.0
 45
297.0
 46
0.0
 47
0.0
 48
0.0
 49
0.0
140
0.0
141
0.0
142
1.0
143
2.3991030688
 70
   688
 72
     1
 73
     1
 74
     1
  7

 75
     0
147
0.4168224421
148
308.2847443432
149
153.0
100
AcDbLayout
  1
_Isometric
 70
     1
 71
     4
 10
0.0
 20
0.0
 11
0.0
 21
0.0
 12
0.0
 22
0.0
 32
0.0
 14
0.0
 24
0.0
 34
0.0
 15
0.0
 25
0.0
 35
0.0
146
0.0
 13
0.0
 23
0.0
 33
0.0
 16
1.0
 26
0.0
 36
0.0
 17
0.0
 27
1.0
 37
0.0
 76
     0
330
2DF
331
3F8
  0
LAYOUT
  5
26
102
{ACAD_REACTORS
330
1A
102
}
330
1A
100
AcDbPlotSettings
  1

  2
none_device
  4
ISO_A4_(210.00_x_297.00_MM)
  6

 40
7.5
 41
20.0
 42
7.5
 43
20.0
 44
210.0
 45
297.0
 46
0.0
 47
0.0
 48
0.0
 49
0.0
140
0.0
141
0.0
142
1.0
143
2.3991030688
 70
   688
 72
     1
 73
     1
 74
     1
  7

 75
     0
147
0.4168224421
148
308.2847443432
149
153.0
100
AcDbLayout
  1
_Left
 70
     1
 71
     2
 10
0.0
 20
0.0
 11
0.0
 21
0.0
 12
0.0
 22
0.0
 32
0.0
 14
0.0
 24
0.0
 34
0.0
 15
0.0
 25
0.0
 35
0.0
146
0.0
 13
0.0
 23
0.0
 33
0.0
 16
1.0
 26
0.0
 36
0.0
 17
0.0
 27
1.0
 37
0.0
 76
     0
330
23
331
3F4
  0
LAYOUT
  5
22
102
{ACAD_REACTORS
330
1A
102
}
330
1A
100
AcDbPlotSettings
  1

  2
none_device
  4
Letter_(8.50_x_11.00_Inches)
  6

 40
6.35
 41
6.35
 42
6.35000508
 43
6.35000508
 44
215.9
 45
279.4
 46
0.0
 47
0.0
 48
0.0
 49
0.0
140
0.0
141
0.0
142
1.0
143
1.0
 70
  1712
 72
     1
 73
     0
 74
     0
  7

 75
     0
147
1.0
148
0.0
149
0.0
100
AcDbLayout
  1
Model
 70
     1
 71
     0
 10
0.0
 20
0.0
 11
420.0
 21
297.0
 12
0.0
 22
0.0
 32
0.0
 14
-308.2847443432
 24
-232.5
 34
0.0
 15
308.2847443432
 25
233.2847443432
 35
0.0
146
0.0
 13
0.0
 23
0.0
 33
0.0
 16
1.0
 26
0.0
 36
0.0
 17
0.0
 27
1.0
 37
0.0
 76
     0
330
1F
331
29
  0
MLINESTYLE
  5
18
102
{ACAD_REACTORS
330
17
102
}
330
17
100
AcDbMlineStyle
  2
Standard
 70
     0
  3

 62
   256
 51
90.0
 52
90.0
 71
     2
 49
0.5
 62
   256
  6
BYLAYER
 49
-0.5
 62
   256
  6
BYLAYER
  0
ACDBPLACEHOLDER
  5
F
102
{ACAD_REACTORS
330
E
102
}
330
E
  0
SCALE
  5
48
102
{ACAD_REACTORS
330
47
102
}
330
47
100
AcDbScale
 70
     0
300
1:1
140
1.0
141
1.0
290
     1
  0
SCALE
  5
49
102
{ACAD_REACTORS
330
47
102
}
330
47
100
AcDbScale
 70
     0
300
1:2
140
1.0
141
2.0
290
     0
  0
SCALE
  5
4A
102
{ACAD_REACTORS
330
47
102
}
330
47
100
AcDbScale
 70
     0
300
1:4
140
1.0
141
4.0
290
     0
  0
SCALE
  5
4B
102
{ACAD_REACTORS
330
47
102
}
330
47
100
AcDbScale
 70
     0
300
1:5
140
1.0
141
5.0
290
     0
  0
SCALE
  5
4C
102
{ACAD_REACTORS
330
47
102
}
330
47
100
AcDbScale
 70
     0
300
1:8
140
1.0
141
8.0
290
     0
  0
SCALE
  5
4D
102
{ACAD_REACTORS
330
47
102
}
330
47
100
AcDbScale
 70
     0
300
1:10
140
1.0
141
10.0
290
     0
  0
SCALE
  5
4E
102
{ACAD_REACTORS
330
47
102
}
330
47
100
AcDbScale
 70
     0
300
1:16
140
1.0
141
16.0
290
     0
  0
SCALE
  5
4F
102
{ACAD_REACTORS
330
47
102
}
330
47
100
AcDbScale
 70
     0
300
1:20
140
1.0
141
20.0
290
     0
  0
SCALE
  5
50
102
{ACAD_REACTORS
330
47
102
}
330
47
100
AcDbScale
 70
     0
300
1:30
140
1.0
141
30.0
290
     0
  0
SCALE
  5
51
102
{ACAD_REACTORS
330
47
102
}
330
47
100
AcDbScale
 70
     0
300
1:40
140
1.0
141
40.0
290
     0
  0
SCALE
  5
52
102
{ACAD_REACTORS
330
47
102
}
330
47
100
AcDbScale
 70
     0
300
1:50
140
1.0
141
50.0
290
     0
  0
SCALE
  5
53
102
{ACAD_REACTORS
330
47
102
}
330
47
100
AcDbScale
 70
     0
300
1:100
140
1.0
141
100.0
290
     0
  0
SCALE
  5
54
102
{ACAD_REACTORS
330
47
102
}
330
47
100
AcDbScale
 70
     0
300
2:1
140
2.0
141
1.0
290
     0
  0
SCALE
  5
55
102
{ACAD_REACTORS
330
47
102
}
330
47
100
AcDbScale
 70
     0
300
4:1
140
4.0
141
1.0
290
     0
  0
SCALE
  5
56
102
{ACAD_REACTORS
330
47
102
}
330
47
100
AcDbScale
 70
     0
300
8:1
140
8.0
141
1.0
290
     0
  0
SCALE
  5
57
102
{ACAD_REACTORS
330
47
102
}
330
47
100
AcDbScale
 70
     0
300
10:1
140
10.0
141
1.0
290
     0
  0
SCALE
  5
58
102
{ACAD_REACTORS
330
47
102
}
330
47
100
AcDbScale
 70
     0
300
100:1
140
100.0
141
1.0
290
     0
  0
SCALE
  5
59
102
{ACAD_REACTORS
330
47
102
}
330
47
100
AcDbScale
 70
     0
300
1/128" = 1'-0"
140
0.0078125
141
12.0
290
     0
  0
SCALE
  5
5A
102
{ACAD_REACTORS
330
47
102
}
330
47
100
AcDbScale
 70
     0
300
1/64" = 1'-0"
140
0.015625
141
12.0
290
     0
  0
SCALE
  5
5B
102
{ACAD_REACTORS
330
47
102
}
330
47
100
AcDbScale
 70
     0
300
1/32" = 1'-0"
140
0.03125
141
12.0
290
     0
  0
SCALE
  5
5C
102
{ACAD_REACTORS
330
47
102
}
330
47
100
AcDbScale
 70
     0
300
1/16" = 1'-0"
140
0.0625
141
12.0
290
     0
  0
SCALE
  5
5D
102
{ACAD_REACTORS
330
47
102
}
330
47
100
AcDbScale
 70
     0
300
3/32" = 1'-0"
140
0.09375
141
12.0
290
     0
  0
SCALE
  5
5E
102
{ACAD_REACTORS
330
47
102
}
330
47
100
AcDbScale
 70
     0
300
1/8" = 1'-0"
140
0.125
141
12.0
290
     0
  0
SCALE
  5
5F
102
{ACAD_REACTORS
330
47
102
}
330
47
100
AcDbScale
 70
     0
300
3/16" = 1'-0"
140
0.1875
141
12.0
290
     0
  0
SCALE
  5
60
102
{ACAD_REACTORS
330
47
102
}
330
47
100
AcDbScale
 70
     0
300
1/4" = 1'-0"
140
0.25
141
12.0
290
     0
  0
SCALE
  5
61
102
{ACAD_REACTORS
330
47
102
}
330
47
100
AcDbScale
 70
     0
300
3/8" = 1'-0"
140
0.375
141
12.0
290
     0
  0
SCALE
  5
62
102
{ACAD_REACTORS
330
47
102
}
330
47
100
AcDbScale
 70
     0
300
1/2" = 1'-0"
140
0.5
141
12.0
290
     0
  0
SCALE
  5
63
102
{ACAD_REACTORS
330
47
102
}
330
47
100
AcDbScale
 70
     0
300
3/4" = 1'-0"
140
0.75
141
12.0
290
     0
  0
SCALE
  5
64
102
{ACAD_REACTORS
330
47
102
}
330
47
100
AcDbScale
 70
     0
300
1" = 1'-0"
140
1.0
141
12.0
290
     0
  0
SCALE
  5
65
102
{ACAD_REACTORS
330
47
102
}
330
47
100
AcDbScale
 70
     0
300
1-1/2" = 1'-0"
140
1.5
141
12.0
290
     0
  0
SCALE
  5
66
102
{ACAD_REACTORS
330
47
102
}
330
47
100
AcDbScale
 70
     0
300
3" = 1'-0"
140
3.0
141
12.0
290
     0
  0
SCALE
  5
67
102
{ACAD_REACTORS
330
47
102
}
330
47
100
AcDbScale
 70
     0
300
6" = 1'-0"
140
6.0
141
12.0
290
     0
  0
SCALE
  5
68
102
{ACAD_REACTORS
330
47
102
}
330
47
100
AcDbScale
 70
     0
300
1'-0" = 1'-0"
140
12.0
141
12.0
290
     0
  0
ENDSEC
  0
EOF
