  0
SECTION
  2
HEADER
  9
$ACADVER
  1
AC1015
  9
$ACADMAINTVER
 70
     6
  9
$DWGCODEPAGE
  3
ANSI_1252
  9
$INSBASE
 10
0.0
 20
0.0
 30
0.0
  9
$EXTMIN
 10
-305.0461917755
 20
-238.2384401098
 30
0.0
  9
$EXTMAX
 10
196.9538082245
 20
331.7615598902
 30
0.0
  9
$LIMMIN
 10
0.0
 20
0.0
  9
$LIMMAX
 10
420.0
 20
297.0
  9
$ORTHOMODE
 70
     0
  9
$REGENMODE
 70
     1
  9
$FILLMODE
 70
     1
  9
$QTEXTMODE
 70
     0
  9
$MIRRTEXT
 70
     1
  9
$LTSCALE
 40
1.0
  9
$ATTMODE
 70
     1
  9
$TEXTSIZE
 40
3.5
  9
$TRACEWID
 40
1.0
  9
$TEXTSTYLE
  7
Standard
  9
$CLAYER
  8
0
  9
$CELTYPE
  6
ByLayer
  9
$CECOLOR
 62
   256
  9
$CELTSCALE
 40
1.0
  9
$DISPSILH
 70
     0
  9
$DIMSCALE
 40
1.0
  9
$DIMASZ
 40
3.302
  9
$DIMEXO
 40
1.0
  9
$DIMDLI
 40
3.75
  9
$DIMRND
 40
0.0
  9
$DIMDLE
 40
0.0
  9
$DIMEXE
 40
1.0
  9
$DIMTP
 40
0.0
  9
$DIMTM
 40
0.0
  9
$DIMTXT
 40
3.5
  9
$DIMCEN
 40
2.5
  9
$DIMTSZ
 40
0.0
  9
$DIMTOL
 70
     0
  9
$DIMLIM
 70
     0
  9
$DIMTIH
 70
     1
  9
$DIMTOH
 70
     1
  9
$DIMSE1
 70
     0
  9
$DIMSE2
 70
     0
  9
$DIMTAD
 70
     1
  9
$DIMZIN
 70
     1
  9
$DIMBLK
  1

  9
$DIMASO
 70
     1
  9
$DIMSHO
 70
     1
  9
$DIMPOST
  1

  9
$DIMAPOST
  1

  9
$DIMALT
 70
     0
  9
$DIMALTD
 70
     3
  9
$DIMALTF
 40
0.0393700787
  9
$DIMLFAC
 40
1.0
  9
$DIMTOFL
 70
     1
  9
$DIMTVP
 40
0.0
  9
$DIMTIX
 70
     0
  9
$DIMSOXD
 70
     0
  9
$DIMSAH
 70
     0
  9
$DIMBLK1
  1

  9
$DIMBLK2
  1

  9
$DIMSTYLE
  2
ISO-25
  9
$DIMCLRD
 70
     0
  9
$DIMCLRE
 70
     0
  9
$DIMCLRT
 70
     0
  9
$DIMTFAC
 40
1.0
  9
$DIMGAP
 40
1.524
  9
$DIMJUST
 70
     0
  9
$DIMSD1
 70
     0
  9
$DIMSD2
 70
     0
  9
$DIMTOLJ
 70
     0
  9
$DIMTZIN
 70
     1
  9
$DIMALTZ
 70
     0
  9
$DIMALTTZ
 70
     0
  9
$DIMUPT
 70
     0
  9
$DIMDEC
 70
     2
  9
$DIMTDEC
 70
     2
  9
$DIMALTU
 70
     2
  9
$DIMALTTD
 70
     3
  9
$DIMTXSTY
  7
Standard
  9
$DIMAUNIT
 70
     0
  9
$DIMADEC
 70
     2
  9
$DIMALTRND
 40
0.0
  9
$DIMAZIN
 70
     0
  9
$DIMDSEP
 70
    44
  9
$DIMATFIT
 70
     3
  9
$DIMFRAC
 70
     0
  9
$DIMLDRBLK
  1

  9
$DIMLUNIT
 70
     2
  9
$DIMLWD
 70
    -2
  9
$DIMLWE
 70
    -2
  9
$DIMTMOVE
 70
     0
  9
$LUNITS
 70
     2
  9
$LUPREC
 70
     2
  9
$SKETCHINC
 40
1.0
  9
$FILLETRAD
 40
10.0
  9
$AUNITS
 70
     0
  9
$AUPREC
 70
     2
  9
$MENU
  1
.
  9
$ELEVATION
 40
0.0
  9
$PELEVATION
 40
0.0
  9
$THICKNESS
 40
0.0
  9
$LIMCHECK
 70
     0
  9
$CHAMFERA
 40
0.0
  9
$CHAMFERB
 40
0.0
  9
$CHAMFERC
 40
0.0
  9
$CHAMFERD
 40
0.0
  9
$SKPOLY
 70
     0
  9
$TDCREATE
 40
2459285.717883206
  9
$TDUCREATE
 40
2459285.717883206
  9
$TDUPDATE
 40
2459285.717919317
  9
$TDUUPDATE
 40
2459285.717919317
  9
$TDINDWG
 40
0.0000000116
  9
$TDUSRTIMER
 40
0.0000000116
  9
$USRTIMER
 70
     1
  9
$ANGBASE
 50
0.0
  9
$ANGDIR
 70
     0
  9
$PDMODE
 70
     0
  9
$PDSIZE
 40
-1.0
  9
$PLINEWID
 40
0.0
  9
$SPLFRAME
 70
     0
  9
$SPLINETYPE
 70
     6
  9
$SPLINESEGS
 70
     8
  9
$HANDSEED
  5
4FC
  9
$SURFTAB1
 70
     6
  9
$SURFTAB2
 70
     6
  9
$SURFTYPE
 70
     6
  9
$SURFU
 70
     6
  9
$SURFV
 70
     6
  9
$UCSBASE
  2

  9
$UCSNAME
  2

  9
$UCSORG
 10
0.0
 20
0.0
 30
0.0
  9
$UCSXDIR
 10
1.0
 20
0.0
 30
0.0
  9
$UCSYDIR
 10
0.0
 20
1.0
 30
0.0
  9
$UCSORTHOREF
  2

  9
$UCSORTHOVIEW
 70
     0
  9
$UCSORGTOP
 10
0.0
 20
0.0
 30
0.0
  9
$UCSORGBOTTOM
 10
0.0
 20
0.0
 30
0.0
  9
$UCSORGLEFT
 10
0.0
 20
0.0
 30
0.0
  9
$UCSORGRIGHT
 10
0.0
 20
0.0
 30
0.0
  9
$UCSORGFRONT
 10
0.0
 20
0.0
 30
0.0
  9
$UCSORGBACK
 10
0.0
 20
0.0
 30
0.0
  9
$PUCSBASE
  2

  9
$PUCSNAME
  2

  9
$PUCSORG
 10
0.0
 20
0.0
 30
0.0
  9
$PUCSXDIR
 10
1.0
 20
0.0
 30
0.0
  9
$PUCSYDIR
 10
0.0
 20
1.0
 30
0.0
  9
$PUCSORTHOREF
  2

  9
$PUCSORTHOVIEW
 70
     0
  9
$PUCSORGTOP
 10
0.0
 20
0.0
 30
0.0
  9
$PUCSORGBOTTOM
 10
0.0
 20
0.0
 30
0.0
  9
$PUCSORGLEFT
 10
0.0
 20
0.0
 30
0.0
  9
$PUCSORGRIGHT
 10
0.0
 20
0.0
 30
0.0
  9
$PUCSORGFRONT
 10
0.0
 20
0.0
 30
0.0
  9
$PUCSORGBACK
 10
0.0
 20
0.0
 30
0.0
  9
$USERI1
 70
     0
  9
$USERI2
 70
     0
  9
$USERI3
 70
     0
  9
$USERI4
 70
     0
  9
$USERI5
 70
     0
  9
$USERR1
 40
0.0
  9
$USERR2
 40
0.0
  9
$USERR3
 40
0.0
  9
$USERR4
 40
0.0
  9
$USERR5
 40
0.0
  9
$WORLDVIEW
 70
     1
  9
$SHADEDGE
 70
     3
  9
$SHADEDIF
 70
    70
  9
$TILEMODE
 70
     1
  9
$MAXACTVP
 70
    64
  9
$PINSBASE
 10
0.0
 20
0.0
 30
0.0
  9
$PLIMCHECK
 70
     0
  9
$PEXTMIN
 10
-196.9538082245
 20
-238.2384401098
 30
0.0
  9
$PEXTMAX
 10
305.0461917755
 20
331.7615598902
 30
0.0
  9
$PLIMMIN
 10
-255.4153466861
 20
-260.1615170329
  9
$PLIMMAX
 10
612.7384994678
 20
353.6846368133
  9
$UNITMODE
 70
     0
  9
$VISRETAIN
 70
     1
  9
$PLINEGEN
 70
     0
  9
$PSLTSCALE
 70
     1
  9
$TREEDEPTH
 70
  3020
  9
$CMLSTYLE
  2
Standard
  9
$CMLJUST
 70
     0
  9
$CMLSCALE
 40
20.0
  9
$PROXYGRAPHICS
 70
     1
  9
$MEASUREMENT
 70
     1
  9
$CELWEIGHT
370
    -1
  9
$ENDCAPS
280
     0
  9
$JOINSTYLE
280
     0
  9
$LWDISPLAY
290
     1
  9
$INSUNITS
 70
     4
  9
$HYPERLINKBASE
  1

  9
$STYLESHEET
  1

  9
$XEDIT
290
     1
  9
$CEPSNTYPE
380
     0
  9
$PSTYLEMODE
290
     1
  9
$FINGERPRINTGUID
  2
{35d323c3-3786-4819-86b5-4daf7216e4c8}
  9
$VERSIONGUID
  2
{FAEB1C32-E019-11D5-929B-00C0DF256EC4}
  9
$EXTNAMES
290
     1
  9
$PSVPSCALE
 40
0.0
  9
$OLESTARTUP
290
     0
  0
ENDSEC
  0
SECTION
  2
CLASSES
  0
CLASS
  1
ACDBDICTIONARYWDFLT
  2
AcDbDictionaryWithDefault
  3
ObjectDBX Classes
 90
        0
280
     0
281
     0
  0
CLASS
  1
VISUALSTYLE
  2
AcDbVisualStyle
  3
ObjectDBX Classes
 90
     4095
280
     0
281
     0
  0
CLASS
  1
MATERIAL
  2
AcDbMaterial
  3
ObjectDBX Classes
 90
     1153
280
     0
281
     0
  0
CLASS
  1
SCALE
  2
AcDbScale
  3
ObjectDBX Classes
 90
     1153
280
     0
281
     0
  0
CLASS
  1
TABLESTYLE
  2
AcDbTableStyle
  3
ObjectDBX Classes
 90
     4095
280
     0
281
     0
  0
CLASS
  1
MLEADERSTYLE
  2
AcDbMLeaderStyle
  3
ACDB_MLEADERSTYLE_CLASS
 90
     4095
280
     0
281
     0
  0
CLASS
  1
SUN
  2
AcDbSun
  3
SCENEOE
 90
     1153
280
     0
281
     0
  0
CLASS
  1
ACDBPLACEHOLDER
  2
AcDbPlaceHolder
  3
ObjectDBX Classes
 90
        0
280
     0
281
     0
  0
CLASS
  1
LAYOUT
  2
AcDbLayout
  3
ObjectDBX Classes
 90
        0
280
     0
281
     0
  0
ENDSEC
  0
SECTION
  2
TABLES
  0
TABLE
  2
VPORT
  5
8
330
0
100
AcDbSymbolTable
 70
     1
  0
VPORT
  5
29
330
8
100
AcDbSymbolTableRecord
100
AcDbViewportTableRecord
  2
*Active
 70
     0
 10
0.0
 20
0.0
 11
1.0
 21
1.0
 12
-54.0461917755
 22
46.7615598902
 13
0.0
 23
0.0
 14
10.0
 24
10.0
 15
10.0
 25
10.0
 16
0.0
 26
0.0
 36
1.0
 17
0.0
 27
0.0
 37
0.0
 40
581.4
 41
0.8807017544
 42
50.0
 43
0.0
 44
0.0
 50
0.0
 51
0.0
 71
     0
 72
   100
 73
     1
 74
     3
 75
     0
 76
     0
 77
     0
 78
     0
281
     0
 65
     1
110
0.0
120
0.0
130
0.0
111
1.0
121
0.0
131
0.0
112
0.0
122
1.0
132
0.0
 79
     0
146
0.0
  0
ENDTAB
  0
TABLE
  2
LTYPE
  5
5
330
0
100
AcDbSymbolTable
 70
     6
  0
LTYPE
  5
14
330
5
100
AcDbSymbolTableRecord
100
AcDbLinetypeTableRecord
  2
ByBlock
 70
     0
  3

 72
    65
 73
     0
 40
0.0
  0
LTYPE
  5
15
330
5
100
AcDbSymbolTableRecord
100
AcDbLinetypeTableRecord
  2
ByLayer
 70
     0
  3

 72
    65
 73
     0
 40
0.0
  0
LTYPE
  5
16
330
5
100
AcDbSymbolTableRecord
100
AcDbLinetypeTableRecord
  2
Continuous
 70
     0
  3
Solid line
 72
    65
 73
     0
 40
0.0
  0
LTYPE
  5
6E
330
5
100
AcDbSymbolTableRecord
100
AcDbLinetypeTableRecord
  2
HIDDEN
 70
     0
  3
Hidden __ __ __ __ __ __ __ __ __ __ __ __ __ __
 72
    65
 73
     2
 40
1.905
 49
1.27
 74
     0
 49
-0.635
 74
     0
  0
LTYPE
  5
6F
330
5
100
AcDbSymbolTableRecord
100
AcDbLinetypeTableRecord
  2
PHANTOM
 70
     0
  3
Phantom ______  __  __  ______  __  __  ______
 72
    65
 73
     6
 40
12.7
 49
6.35
 74
     0
 49
-1.27
 74
     0
 49
1.27
 74
     0
 49
-1.27
 74
     0
 49
1.27
 74
     0
 49
-1.27
 74
     0
  0
LTYPE
  5
70
330
5
100
AcDbSymbolTableRecord
100
AcDbLinetypeTableRecord
  2
CENTER
 70
     0
  3
Center ____ _ ____ _ ____ _ ____ _ ____ _ ____
 72
    65
 73
     4
 40
10.16
 49
6.35
 74
     0
 49
-1.27
 74
     0
 49
1.27
 74
     0
 49
-1.27
 74
     0
  0
LTYPE
  5
71
330
5
100
AcDbSymbolTableRecord
100
AcDbLinetypeTableRecord
  2
CENTERX2
 70
     0
  3
Center (2x) ________  __  ________  __  _____
 72
    65
 73
     4
 40
20.32
 49
12.7
 74
     0
 49
-2.54
 74
     0
 49
2.54
 74
     0
 49
-2.54
 74
     0
  0
LTYPE
  5
72
330
5
100
AcDbSymbolTableRecord
100
AcDbLinetypeTableRecord
  2
DOT2
 70
     0
  3
Dot (.5x) ........................................
 72
    65
 73
     2
 40
0.635
 49
0.0
 74
     0
 49
-0.635
 74
     0
  0
ENDTAB
  0
TABLE
  2
LAYER
  5
2
330
0
100
AcDbSymbolTable
 70
     1
  0
LAYER
  5
10
330
2
100
AcDbSymbolTableRecord
100
AcDbLayerTableRecord
  2
0
 70
     0
 62
     7
  6
Continuous
370
    -3
390
F
  0
ENDTAB
  0
TABLE
  2
STYLE
  5
3
330
0
100
AcDbSymbolTable
 70
     1
  0
STYLE
  5
11
330
3
100
AcDbSymbolTableRecord
100
AcDbTextStyleTableRecord
  2
Standard
 70
     0
 40
0.0
 41
1.0
 50
0.0
 71
     0
 42
3.5
  3
txt
  4

  0
ENDTAB
  0
TABLE
  2
VIEW
  5
6
330
0
100
AcDbSymbolTable
 70
     0
  0
ENDTAB
  0
TABLE
  2
UCS
  5
7
330
0
100
AcDbSymbolTable
 70
     0
  0
ENDTAB
  0
TABLE
  2
APPID
  5
9
330
0
100
AcDbSymbolTable
 70
     1
  0
APPID
  5
12
330
9
100
AcDbSymbolTableRecord
100
AcDbRegAppTableRecord
  2
ACAD
 70
     0
  0
ENDTAB
  0
TABLE
  2
DIMSTYLE
  5
A
330
0
100
AcDbSymbolTable
 70
     1
100
AcDbDimStyleTable
  0
DIMSTYLE
105
27
330
A
100
AcDbSymbolTableRecord
100
AcDbDimStyleTableRecord
  2
ISO-25
 70
     0
 41
2.5
 42
0.625
 43
3.75
 44
1.25
 73
     0
 74
     0
 77
     1
 78
     8
140
2.5
141
2.5
143
0.0393700787
147
0.625
171
     3
172
     1
178
     0
271
     2
272
     2
274
     3
278
    44
283
     0
284
     8
340
11
  0
ENDTAB
  0
TABLE
  2
BLOCK_RECORD
  5
1
330
0
100
AcDbSymbolTable
 70
     7
  0
BLOCK_RECORD
  5
1F
330
1
100
AcDbSymbolTableRecord
100
AcDbBlockTableRecord
  2
*Model_Space
340
22
  0
BLOCK_RECORD
  5
1B
330
1
100
AcDbSymbolTableRecord
100
AcDbBlockTableRecord
  2
*Paper_Space
340
1E
  0
BLOCK_RECORD
  5
23
330
1
100
AcDbSymbolTableRecord
100
AcDbBlockTableRecord
  2
*Paper_Space0
340
26
  0
BLOCK_RECORD
  5
1F7
330
1
100
AcDbSymbolTableRecord
100
AcDbBlockTableRecord
  2
*Paper_Space1
340
1F8
  0
BLOCK_RECORD
  5
240
330
1
100
AcDbSymbolTableRecord
100
AcDbBlockTableRecord
  2
*Paper_Space2
340
241
  0
BLOCK_RECORD
  5
264
330
1
100
AcDbSymbolTableRecord
100
AcDbBlockTableRecord
  2
*Paper_Space3
340
265
  0
BLOCK_RECORD
  5
2D4
330
1
100
AcDbSymbolTableRecord
100
AcDbBlockTableRecord
  2
*Paper_Space4
340
2D5
  0
BLOCK_RECORD
  5
38B
330
1
100
AcDbSymbolTableRecord
100
AcDbBlockTableRecord
  2
*Paper_Space5
340
38C
  0
BLOCK_RECORD
  5
43F
330
1
100
AcDbSymbolTableRecord
100
AcDbBlockTableRecord
  2
*Paper_Space6
340
440
  0
ENDTAB
  0
ENDSEC
  0
SECTION
  2
BLOCKS
  0
BLOCK
  5
20
330
1F
100
AcDbEntity
  8
0
100
AcDbBlockBegin
  2
*Model_Space
 70
     0
 10
0.0
 20
0.0
 30
0.0
  3
*Model_Space
  1

  0
ENDBLK
  5
21
330
1F
100
AcDbEntity
  8
0
100
AcDbBlockEnd
  0
BLOCK
  5
1C
330
1B
100
AcDbEntity
 67
     1
  8
0
100
AcDbBlockBegin
  2
*Paper_Space
 70
     0
 10
0.0
 20
0.0
 30
0.0
  3
*Paper_Space
  1

  0
ENDBLK
  5
1D
330
1B
100
AcDbEntity
 67
     1
  8
0
100
AcDbBlockEnd
  0
BLOCK
  5
24
330
23
100
AcDbEntity
  8
0
100
AcDbBlockBegin
  2
*Paper_Space0
 70
     0
 10
0.0
 20
0.0
 30
0.0
  3
*Paper_Space0
  1

  0
SPLINE
  5
1D5
330
23
100
AcDbEntity
  8
0
  6
Continuous
 62
     7
370
    25
100
AcDbSpline
210
0.0
220
0.0
230
1.0
 70
     8
 71
     3
 72
    14
 73
    10
 74
     0
 42
0.000000001
 43
0.00000001
 40
0.0
 40
0.0
 40
0.0
 40
0.0
 40
0.25
 40
0.25
 40
0.5
 40
0.5
 40
0.75
 40
0.75
 40
1.0
 40
1.0
 40
1.0
 40
1.0
 10
247.528808590711
 20
26.761559890203
 30
0.0
 10
247.6466597209087
 20
26.76155989020299
 30
0.0
 10
247.773806349889
 20
26.78303862901648
 30
0.0
 10
248.0200002506567
 20
26.88050454926462
 30
0.0
 10
248.1382842989597
 20
26.95682203607861
 30
0.0
 10
248.3335464448353
 20
27.15208418195424
 30
0.0
 10
248.4098639316494
 20
27.27036823025722
 30
0.0
 10
248.5073298518976
 20
27.51656213102499
 30
0.0
 10
248.528808590711
 20
27.64370876000524
 30
0.0
 10
248.528808590711
 20
27.761559890203
 30
0.0
  0
SPLINE
  5
1D7
330
23
100
AcDbEntity
  8
0
  6
Continuous
 62
     7
370
    25
100
AcDbSpline
210
0.0
220
0.0
230
1.0
 70
     8
 71
     3
 72
    13
 73
     9
 74
     0
 42
0.000000001
 43
0.00000001
 40
0.0
 40
0.0
 40
0.0
 40
0.0
 40
0.3125443614919548
 40
0.4810252253477083
 40
0.6402061474927706
 40
0.7843969854176921
 40
0.9184170957120299
 40
1.0
 40
1.0
 40
1.0
 40
1.0
 10
248.528808590711
 20
245.3473463278296
 30
0.0
 10
248.50424684547
 20
245.5216589911196
 30
0.0
 10
248.4664447908014
 20
245.7899370292828
 30
0.0
 10
248.2107499937813
 20
246.1009171935883
 30
0.0
 10
247.9349230813525
 20
246.2824688917098
 30
0.0
 10
247.6024253440202
 20
246.3616803162973
 30
0.0
 10
247.3084160722785
 20
246.3398084144503
 30
0.0
 10
247.1678024068598
 20
246.2726138814115
 30
0.0
 10
247.1145950283375
 20
246.24718786792
 30
0.0
  0
SPLINE
  5
1D9
330
23
100
AcDbEntity
  8
0
  6
Continuous
 62
     7
370
    25
100
AcDbSpline
210
0.0
220
0.0
230
1.0
 70
     8
 71
     3
 72
    14
 73
    10
 74
     0
 42
0.000000001
 43
0.00000001
 40
0.0
 40
0.0
 40
0.0
 40
0.0
 40
0.25
 40
0.25
 40
0.5
 40
0.5
 40
0.75
 40
0.75
 40
1.0
 40
1.0
 40
1.0
 40
1.0
 10
247.528808590711
 20
-238.238440109797
 30
0.0
 10
247.6466597209087
 20
-238.238440109797
 30
0.0
 10
247.773806349889
 20
-238.2169613709836
 30
0.0
 10
248.0200002506567
 20
-238.1194954507353
 30
0.0
 10
248.1382842989597
 20
-238.0431779639214
 30
0.0
 10
248.3335464448353
 20
-237.8479158180457
 30
0.0
 10
248.4098639316494
 20
-237.7296317697428
 30
0.0
 10
248.5073298518976
 20
-237.483437868975
 30
0.0
 10
248.528808590711
 20
-237.3562912399948
 30
0.0
 10
248.528808590711
 20
-237.238440109797
 30
0.0
  0
SPLINE
  5
1DB
330
23
100
AcDbEntity
  8
0
  6
Continuous
 62
     7
370
    25
100
AcDbSpline
210
0.0
220
0.0
230
1.0
 70
     8
 71
     3
 72
    13
 73
     9
 74
     0
 42
0.000000001
 43
0.00000001
 40
0.0
 40
0.0
 40
0.0
 40
0.0
 40
0.3125443614919559
 40
0.4810252253477104
 40
0.6402061474927628
 40
0.7843969854176891
 40
0.9184170957120287
 40
1.0
 40
1.0
 40
1.0
 40
1.0
 10
248.528808590711
 20
-19.65265367217042
 30
0.0
 10
248.5042468454699
 20
-19.47834100888045
 30
0.0
 10
248.4664447908012
 20
-19.2100629707173
 30
0.0
 10
248.2107499937814
 20
-18.89908280641159
 30
0.0
 10
247.9349230813524
 20
-18.71753110829032
 30
0.0
 10
247.6024253440202
 20
-18.63831968370265
 30
0.0
 10
247.3084160722785
 20
-18.66019158554963
 30
0.0
 10
247.1678024068598
 20
-18.72738611858853
 30
0.0
 10
247.1145950283375
 20
-18.75281213208006
 30
0.0
  0
LINE
  5
1E0
330
23
100
AcDbEntity
  8
0
  6
Continuous
 62
     7
370
    25
100
AcDbLine
 10
247.1145950283
 20
-237.2384401098
 30
0.0
 11
247.1145950283
 21
290.7615598902
 31
0.0
  0
LINE
  5
1E1
330
23
100
AcDbEntity
  8
0
  6
Continuous
 62
     7
370
    25
100
AcDbLine
 10
-208.4711914093
 20
331.7615598902
 30
0.0
 11
249.5288085907
 21
331.7615598902
 31
0.0
  0
LINE
  5
1E2
330
23
100
AcDbEntity
  8
0
  6
Continuous
 62
     7
370
    25
100
AcDbLine
 10
249.5288085907
 20
291.7615598902
 30
0.0
 11
249.5288085907
 21
331.7615598902
 31
0.0
  0
LINE
  5
1E3
330
23
100
AcDbEntity
  8
0
  6
Continuous
 62
     7
370
    25
100
AcDbLine
 10
250.5288085907
 20
330.7615598902
 30
0.0
 11
-209.4711914093
 21
330.7615598902
 31
0.0
  0
LINE
  5
1E4
330
23
100
AcDbEntity
  8
0
  6
Continuous
 62
     7
370
    25
100
AcDbLine
 10
-209.4711914093
 20
291.7615598902
 30
0.0
 11
250.5288085907
 21
291.7615598902
 31
0.0
  0
LINE
  5
1E5
330
23
100
AcDbEntity
  8
0
  6
Continuous
 62
     7
370
    25
100
AcDbLine
 10
-209.4711914093
 20
291.7615598902
 30
0.0
 11
-209.4711914093
 21
330.7615598902
 31
0.0
  0
LINE
  5
1E6
330
23
100
AcDbEntity
  8
0
  6
Continuous
 62
     7
370
    25
100
AcDbLine
 10
250.5288085907
 20
330.7615598902
 30
0.0
 11
250.5288085907
 21
291.7615598902
 31
0.0
  0
LINE
  5
1E7
330
23
100
AcDbEntity
  8
0
  6
Continuous
 62
     7
370
    25
100
AcDbLine
 10
246.1145950283
 20
-238.2384401098
 30
0.0
 11
246.1145950283
 21
291.7615598902
 31
0.0
  0
LINE
  5
1E8
330
23
100
AcDbEntity
  8
0
  6
Continuous
 62
     7
370
    25
100
AcDbLine
 10
-209.4711914093
 20
-237.2384401098
 30
0.0
 11
247.1145950283
 21
-237.2384401098
 31
0.0
  0
LINE
  5
1E9
330
23
100
AcDbEntity
  8
0
  6
Continuous
 62
     7
370
    25
100
AcDbLine
 10
-208.4711914093
 20
331.7615598902
 30
0.0
 11
-208.4711914093
 21
-238.2384401098
 31
0.0
  0
LINE
  5
1EA
330
23
100
AcDbEntity
  8
0
  6
Continuous
 62
     7
370
    25
100
AcDbLine
 10
247.1145950283
 20
290.7615598902
 30
0.0
 11
-209.4711914093
 21
290.7615598902
 31
0.0
  0
LINE
  5
1EB
330
23
100
AcDbEntity
  8
0
  6
Continuous
 62
     7
370
    25
100
AcDbLine
 10
-209.4711914093
 20
-238.2384401098
 30
0.0
 11
-209.4711914093
 21
290.7615598902
 31
0.0
  0
LINE
  5
1EC
330
23
100
AcDbEntity
  8
0
  6
Continuous
 62
     7
370
    25
100
AcDbLine
 10
248.5288085907
 20
245.3473463278
 30
0.0
 11
248.5288085907
 21
27.7615598902
 31
0.0
  0
LINE
  5
1ED
330
23
100
AcDbEntity
  8
0
  6
Continuous
 62
     7
370
    25
100
AcDbLine
 10
247.5288085907
 20
26.7615598902
 30
0.0
 11
247.1145950283
 21
26.7615598902
 31
0.0
  0
LINE
  5
1EE
330
23
100
AcDbEntity
  8
0
  6
Continuous
 62
     7
370
    25
100
AcDbLine
 10
248.5288085907
 20
-19.6526536722
 30
0.0
 11
248.5288085907
 21
-237.2384401098
 31
0.0
  0
LINE
  5
1EF
330
23
100
AcDbEntity
  8
0
  6
Continuous
 62
     7
370
    25
100
AcDbLine
 10
247.5288085907
 20
-238.2384401098
 30
0.0
 11
-209.4711914093
 21
-238.2384401098
 31
0.0
  0
LINE
  5
1F0
330
23
100
AcDbEntity
  8
0
  6
Continuous
 62
     8
370
    25
100
AcDbLine
 10
246.8217018095
 20
-238.2384401098
 30
0.0
 11
246.8217018095
 21
-237.945546891
 31
0.0
  0
ARC
  5
1F1
330
23
100
AcDbEntity
  8
0
  6
Continuous
 62
     7
370
    25
100
AcDbCircle
 10
246.1145950283
 20
-237.2384401098
 30
0.0
 40
1.000000000000171
100
AcDbArc
 50
270.0
 51
360.0
  0
ARC
  5
1F2
330
23
100
AcDbEntity
  8
0
  6
Continuous
 62
     7
370
    25
100
AcDbCircle
 10
246.1145950283
 20
290.7615598902
 30
0.0
 40
1.000000000000057
100
AcDbArc
 50
0.0
 51
90.0
  0
ARC
  5
1F3
330
23
100
AcDbEntity
  8
0
  6
Continuous
 62
     7
370
    25
100
AcDbCircle
 10
249.5288085907
 20
330.7615598902
 30
0.0
 40
1.0
100
AcDbArc
 50
0.0
 51
90.0
  0
ARC
  5
1F4
330
23
100
AcDbEntity
  8
0
  6
Continuous
 62
     7
370
    25
100
AcDbCircle
 10
-208.4711914093
 20
330.7615598902
 30
0.0
 40
0.9999999999999432
100
AcDbArc
 50
90.0
 51
180.0
  0
ARC
  5
1F5
330
23
100
AcDbEntity
  8
0
  6
Continuous
 62
     7
370
    25
100
AcDbCircle
 10
-208.4711914093
 20
290.7615598902
 30
0.0
 40
1.000000000000057
100
AcDbArc
 50
90.0
 51
180.0
  0
ARC
  5
1F6
330
23
100
AcDbEntity
  8
0
  6
Continuous
 62
     7
370
    25
100
AcDbCircle
 10
-208.4711914093
 20
-237.2384401098
 30
0.0
 40
1.000000000000085
100
AcDbArc
 50
180.0
 51
270.0
  0
VIEWPORT
  5
4EE
330
23
100
AcDbEntity
  8
0
100
AcDbViewport
 10
0.0
 20
0.0
 30
0.0
 40
205.6
 41
156.0
 68
     1
 69
     1
 12
-54.0461917755
 22
46.7615598902
 13
0.0
 23
0.0
 14
10.0
 24
10.0
 15
10.0
 25
10.0
 16
0.0
 26
0.0
 36
1.0
 17
0.0
 27
0.0
 37
0.0
 42
50.0
 43
0.0
 44
0.0
 45
581.4
 50
0.0
 51
0.0
 72
   100
 90
   557152
  1

281
     0
 71
     1
 74
     0
110
0.0
120
0.0
130
0.0
111
1.0
121
0.0
131
0.0
112
0.0
122
1.0
132
0.0
 79
     0
146
0.0
  0
ENDBLK
  5
25
330
23
100
AcDbEntity
  8
0
100
AcDbBlockEnd
  0
BLOCK
  5
1F9
330
1F7
100
AcDbEntity
  8
0
100
AcDbBlockBegin
  2
*Paper_Space1
 70
     0
 10
0.0
 20
0.0
 30
0.0
  3
*Paper_Space1
  1

  0
SPLINE
  5
21F
330
1F7
100
AcDbEntity
  8
0
  6
Continuous
 62
     7
370
    25
100
AcDbSpline
210
0.0
220
0.0
230
1.0
 70
     8
 71
     3
 72
    14
 73
    10
 74
     0
 42
0.000000001
 43
0.00000001
 40
0.0
 40
0.0
 40
0.0
 40
0.0
 40
0.25
 40
0.25
 40
0.5
 40
0.5
 40
0.75
 40
0.75
 40
1.0
 40
1.0
 40
1.0
 40
1.0
 10
-247.528808590711
 20
26.761559890203
 30
0.0
 10
-247.6466597209088
 20
26.76155989020299
 30
0.0
 10
-247.7738063498891
 20
26.7830386290165
 30
0.0
 10
-248.0200002506568
 20
26.88050454926462
 30
0.0
 10
-248.1382842989597
 20
26.95682203607861
 30
0.0
 10
-248.3335464448354
 20
27.15208418195425
 30
0.0
 10
-248.4098639316493
 20
27.27036823025723
 30
0.0
 10
-248.5073298518975
 20
27.516562131025
 30
0.0
 10
-248.528808590711
 20
27.64370876000524
 30
0.0
 10
-248.528808590711
 20
27.761559890203
 30
0.0
  0
SPLINE
  5
222
330
1F7
100
AcDbEntity
  8
0
  6
Continuous
 62
     7
370
    25
100
AcDbSpline
210
0.0
220
0.0
230
1.0
 70
     8
 71
     3
 72
    13
 73
     9
 74
     0
 42
0.000000001
 43
0.00000001
 40
0.0
 40
0.0
 40
0.0
 40
0.0
 40
0.3125443614919985
 40
0.4810252253477473
 40
0.640206147492805
 40
0.7843969854176903
 40
0.9184170957120545
 40
1.0
 40
1.0
 40
1.0
 40
1.0
 10
-248.528808590711
 20
245.3473463278296
 30
0.0
 10
-248.50424684547
 20
245.5216589911196
 30
0.0
 10
-248.4664447908013
 20
245.7899370292826
 30
0.0
 10
-248.2107499937814
 20
246.1009171935885
 30
0.0
 10
-247.9349230813525
 20
246.2824688917096
 30
0.0
 10
-247.6024253440201
 20
246.3616803162974
 30
0.0
 10
-247.3084160722786
 20
246.3398084144504
 30
0.0
 10
-247.1678024068598
 20
246.2726138814115
 30
0.0
 10
-247.1145950283375
 20
246.24718786792
 30
0.0
  0
SPLINE
  5
223
330
1F7
100
AcDbEntity
  8
0
  6
Continuous
 62
     7
370
    25
100
AcDbSpline
210
0.0
220
0.0
230
1.0
 70
     8
 71
     3
 72
    14
 73
    10
 74
     0
 42
0.000000001
 43
0.00000001
 40
0.0
 40
0.0
 40
0.0
 40
0.0
 40
0.25
 40
0.25
 40
0.5
 40
0.5
 40
0.75
 40
0.75
 40
1.0
 40
1.0
 40
1.0
 40
1.0
 10
-247.528808590711
 20
-238.238440109797
 30
0.0
 10
-247.6466597209088
 20
-238.238440109797
 30
0.0
 10
-247.7738063498891
 20
-238.2169613709836
 30
0.0
 10
-248.0200002506568
 20
-238.1194954507353
 30
0.0
 10
-248.1382842989597
 20
-238.0431779639214
 30
0.0
 10
-248.3335464448354
 20
-237.8479158180457
 30
0.0
 10
-248.4098639316493
 20
-237.7296317697428
 30
0.0
 10
-248.5073298518975
 20
-237.483437868975
 30
0.0
 10
-248.528808590711
 20
-237.3562912399948
 30
0.0
 10
-248.528808590711
 20
-237.238440109797
 30
0.0
  0
SPLINE
  5
226
330
1F7
100
AcDbEntity
  8
0
  6
Continuous
 62
     7
370
    25
100
AcDbSpline
210
0.0
220
0.0
230
1.0
 70
     8
 71
     3
 72
    13
 73
     9
 74
     0
 42
0.000000001
 43
0.00000001
 40
0.0
 40
0.0
 40
0.0
 40
0.0
 40
0.3125443614920066
 40
0.4810252253477458
 40
0.6402061474928099
 40
0.7843969854176915
 40
0.9184170957120537
 40
1.0
 40
1.0
 40
1.0
 40
1.0
 10
-248.528808590711
 20
-19.65265367217042
 30
0.0
 10
-248.50424684547
 20
-19.47834100888048
 30
0.0
 10
-248.4664447908014
 20
-19.2100629707174
 30
0.0
 10
-248.2107499937813
 20
-18.89908280641156
 30
0.0
 10
-247.9349230813524
 20
-18.71753110829033
 30
0.0
 10
-247.6024253440201
 20
-18.63831968370259
 30
0.0
 10
-247.3084160722786
 20
-18.66019158554962
 30
0.0
 10
-247.1678024068599
 20
-18.72738611858847
 30
0.0
 10
-247.1145950283375
 20
-18.75281213207999
 30
0.0
  0
LINE
  5
229
330
1F7
100
AcDbEntity
  8
0
  6
Continuous
 62
     7
370
    25
100
AcDbLine
 10
-249.5288085907
 20
331.7615598902
 30
0.0
 11
-249.5288085907
 21
291.7615598902
 31
0.0
  0
LINE
  5
22A
330
1F7
100
AcDbEntity
  8
0
  6
Continuous
 62
     7
370
    25
100
AcDbLine
 10
209.4711914093
 20
330.7615598902
 30
0.0
 11
-250.5288085907
 21
330.7615598902
 31
0.0
  0
LINE
  5
22B
330
1F7
100
AcDbEntity
  8
0
  6
Continuous
 62
     7
370
    25
100
AcDbLine
 10
-250.5288085907
 20
291.7615598902
 30
0.0
 11
209.4711914093
 21
291.7615598902
 31
0.0
  0
LINE
  5
22C
330
1F7
100
AcDbEntity
  8
0
  6
Continuous
 62
     7
370
    25
100
AcDbLine
 10
-249.5288085907
 20
331.7615598902
 30
0.0
 11
208.4711914093
 21
331.7615598902
 31
0.0
  0
LINE
  5
22D
330
1F7
100
AcDbEntity
  8
0
  6
Continuous
 62
     7
370
    25
100
AcDbLine
 10
-250.5288085907
 20
291.7615598902
 30
0.0
 11
-250.5288085907
 21
330.7615598902
 31
0.0
  0
LINE
  5
22E
330
1F7
100
AcDbEntity
  8
0
  6
Continuous
 62
     7
370
    25
100
AcDbLine
 10
209.4711914093
 20
330.7615598902
 30
0.0
 11
209.4711914093
 21
291.7615598902
 31
0.0
  0
LINE
  5
22F
330
1F7
100
AcDbEntity
  8
0
  6
Continuous
 62
     7
370
    25
100
AcDbLine
 10
-246.1145950283
 20
291.7615598902
 30
0.0
 11
-246.1145950283
 21
-238.2384401098
 31
0.0
  0
LINE
  5
230
330
1F7
100
AcDbEntity
  8
0
  6
Continuous
 62
     7
370
    25
100
AcDbLine
 10
-247.1145950283
 20
-237.2384401098
 30
0.0
 11
209.4711914093
 21
-237.2384401098
 31
0.0
  0
LINE
  5
231
330
1F7
100
AcDbEntity
  8
0
  6
Continuous
 62
     7
370
    25
100
AcDbLine
 10
208.4711914093
 20
-238.2384401098
 30
0.0
 11
208.4711914093
 21
331.7615598902
 31
0.0
  0
LINE
  5
232
330
1F7
100
AcDbEntity
  8
0
  6
Continuous
 62
     7
370
    25
100
AcDbLine
 10
209.4711914093
 20
290.7615598902
 30
0.0
 11
-247.1145950283
 21
290.7615598902
 31
0.0
  0
LINE
  5
233
330
1F7
100
AcDbEntity
  8
0
  6
Continuous
 62
     7
370
    25
100
AcDbLine
 10
-247.1145950283
 20
-237.2384401098
 30
0.0
 11
-247.1145950283
 21
290.7615598902
 31
0.0
  0
LINE
  5
234
330
1F7
100
AcDbEntity
  8
0
  6
Continuous
 62
     7
370
    25
100
AcDbLine
 10
209.4711914093
 20
290.7615598902
 30
0.0
 11
209.4711914093
 21
-238.2384401098
 31
0.0
  0
LINE
  5
235
330
1F7
100
AcDbEntity
  8
0
  6
Continuous
 62
     7
370
    25
100
AcDbLine
 10
-248.5288085907
 20
27.7615598902
 30
0.0
 11
-248.5288085907
 21
245.3473463278
 31
0.0
  0
LINE
  5
236
330
1F7
100
AcDbEntity
  8
0
  6
Continuous
 62
     7
370
    25
100
AcDbLine
 10
-247.1145950283
 20
26.7615598902
 30
0.0
 11
-247.5288085907
 21
26.7615598902
 31
0.0
  0
LINE
  5
237
330
1F7
100
AcDbEntity
  8
0
  6
Continuous
 62
     7
370
    25
100
AcDbLine
 10
-248.5288085907
 20
-237.2384401098
 30
0.0
 11
-248.5288085907
 21
-19.6526536722
 31
0.0
  0
LINE
  5
238
330
1F7
100
AcDbEntity
  8
0
  6
Continuous
 62
     7
370
    25
100
AcDbLine
 10
209.4711914093
 20
-238.2384401098
 30
0.0
 11
-247.5288085907
 21
-238.2384401098
 31
0.0
  0
LINE
  5
239
330
1F7
100
AcDbEntity
  8
0
  6
Continuous
 62
     8
370
    25
100
AcDbLine
 10
-246.8217018095
 20
-237.945546891
 30
0.0
 11
-246.8217018095
 21
-238.2384401098
 31
0.0
  0
ARC
  5
23A
330
1F7
100
AcDbEntity
  8
0
  6
Continuous
 62
     7
370
    25
100
AcDbCircle
 10
-246.1145950283
 20
-237.2384401098
 30
0.0
 40
1.000000000000085
100
AcDbArc
 50
180.0
 51
270.0
  0
ARC
  5
23B
330
1F7
100
AcDbEntity
  8
0
  6
Continuous
 62
     7
370
    25
100
AcDbCircle
 10
-246.1145950283
 20
290.7615598902
 30
0.0
 40
1.000000000000114
100
AcDbArc
 50
90.0
 51
180.0
  0
ARC
  5
23C
330
1F7
100
AcDbEntity
  8
0
  6
Continuous
 62
     7
370
    25
100
AcDbCircle
 10
-249.5288085907
 20
330.7615598902
 30
0.0
 40
0.9999999999999432
100
AcDbArc
 50
90.0
 51
180.0
  0
ARC
  5
23D
330
1F7
100
AcDbEntity
  8
0
  6
Continuous
 62
     7
370
    25
100
AcDbCircle
 10
208.4711914093
 20
330.7615598902
 30
0.0
 40
0.9999999999999432
100
AcDbArc
 50
360.0
 51
90.0
  0
ARC
  5
23E
330
1F7
100
AcDbEntity
  8
0
  6
Continuous
 62
     7
370
    25
100
AcDbCircle
 10
208.4711914093
 20
-237.2384401098
 30
0.0
 40
1.000000000000085
100
AcDbArc
 50
270.0
 51
360.0
  0
ARC
  5
23F
330
1F7
100
AcDbEntity
  8
0
  6
Continuous
 62
     7
370
    25
100
AcDbCircle
 10
208.4711914093
 20
290.7615598902
 30
0.0
 40
1.000000000000057
100
AcDbArc
 50
0.0
 51
90.0
  0
VIEWPORT
  5
4F0
330
1F7
100
AcDbEntity
  8
0
100
AcDbViewport
 10
0.0
 20
0.0
 30
0.0
 40
205.6
 41
156.0
 68
     1
 69
     1
 12
-54.0461917755
 22
46.7615598902
 13
0.0
 23
0.0
 14
10.0
 24
10.0
 15
10.0
 25
10.0
 16
0.0
 26
0.0
 36
1.0
 17
0.0
 27
0.0
 37
0.0
 42
50.0
 43
0.0
 44
0.0
 45
581.4
 50
0.0
 51
0.0
 72
   100
 90
   557152
  1

281
     0
 71
     1
 74
     0
110
0.0
120
0.0
130
0.0
111
1.0
121
0.0
131
0.0
112
0.0
122
1.0
132
0.0
 79
     0
146
0.0
  0
ENDBLK
  5
1FA
330
1F7
100
AcDbEntity
  8
0
100
AcDbBlockEnd
  0
BLOCK
  5
242
330
240
100
AcDbEntity
  8
0
100
AcDbBlockBegin
  2
*Paper_Space2
 70
     0
 10
0.0
 20
0.0
 30
0.0
  3
*Paper_Space2
  1

  0
LINE
  5
258
330
240
100
AcDbEntity
  8
0
  6
Continuous
 62
     7
370
    25
100
AcDbLine
 10
-304.0461917755
 20
209.4711914093
 30
0.0
 11
-304.0461917755
 21
-250.5288085907
 31
0.0
  0
LINE
  5
259
330
240
100
AcDbEntity
  8
0
  6
Continuous
 62
     7
370
    25
100
AcDbLine
 10
-305.0461917755
 20
-249.5288085907
 30
0.0
 11
-305.0461917755
 21
208.4711914093
 31
0.0
  0
LINE
  5
25A
330
240
100
AcDbEntity
  8
0
  6
Continuous
 62
     7
370
    25
100
AcDbLine
 10
196.9538082245
 20
208.4711914093
 30
0.0
 11
196.9538082245
 21
-249.5288085907
 31
0.0
  0
LINE
  5
25B
330
240
100
AcDbEntity
  8
0
  6
Continuous
 62
     7
370
    25
100
AcDbLine
 10
-305.0461917755
 20
-249.5288085907
 30
0.0
 11
196.9538082245
 21
-249.5288085907
 31
0.0
  0
LINE
  5
25C
330
240
100
AcDbEntity
  8
0
  6
Continuous
 62
     7
370
    25
100
AcDbLine
 10
195.9538082245
 20
-250.5288085907
 30
0.0
 11
195.9538082245
 21
209.4711914093
 31
0.0
  0
LINE
  5
25D
330
240
100
AcDbEntity
  8
0
  6
Continuous
 62
     7
370
    25
100
AcDbLine
 10
196.9538082245
 20
208.4711914093
 30
0.0
 11
-305.0461917755
 21
208.4711914093
 31
0.0
  0
LINE
  5
25E
330
240
100
AcDbEntity
  8
0
  6
Continuous
 62
     7
370
    25
100
AcDbLine
 10
195.9538082245
 20
-250.5288085907
 30
0.0
 11
-304.0461917755
 21
-250.5288085907
 31
0.0
  0
LINE
  5
25F
330
240
100
AcDbEntity
  8
0
  6
Continuous
 62
     7
370
    25
100
AcDbLine
 10
-304.0461917755
 20
209.4711914093
 30
0.0
 11
195.9538082245
 21
209.4711914093
 31
0.0
  0
ARC
  5
260
330
240
100
AcDbEntity
  8
0
  6
Continuous
 62
     7
370
    25
100
AcDbCircle
 10
-304.0461917755
 20
-249.5288085907
 30
0.0
 40
1.000000000000114
100
AcDbArc
 50
180.0
 51
270.0
  0
ARC
  5
261
330
240
100
AcDbEntity
  8
0
  6
Continuous
 62
     7
370
    25
100
AcDbCircle
 10
-304.0461917755
 20
208.4711914093
 30
0.0
 40
1.000000000000057
100
AcDbArc
 50
90.0
 51
180.0
  0
ARC
  5
262
330
240
100
AcDbEntity
  8
0
  6
Continuous
 62
     7
370
    25
100
AcDbCircle
 10
195.9538082245
 20
208.4711914093
 30
0.0
 40
1.000000000000028
100
AcDbArc
 50
0.0
 51
90.0
  0
ARC
  5
263
330
240
100
AcDbEntity
  8
0
  6
Continuous
 62
     7
370
    25
100
AcDbCircle
 10
195.9538082245
 20
-249.5288085907
 30
0.0
 40
1.000000000000028
100
AcDbArc
 50
270.0
 51
0.0
  0
VIEWPORT
  5
4F2
330
240
100
AcDbEntity
  8
0
100
AcDbViewport
 10
0.0
 20
0.0
 30
0.0
 40
205.6
 41
156.0
 68
     1
 69
     1
 12
-54.0461917755
 22
46.7615598902
 13
0.0
 23
0.0
 14
10.0
 24
10.0
 15
10.0
 25
10.0
 16
0.0
 26
0.0
 36
1.0
 17
0.0
 27
0.0
 37
0.0
 42
50.0
 43
0.0
 44
0.0
 45
581.4
 50
0.0
 51
0.0
 72
   100
 90
   557152
  1

281
     0
 71
     1
 74
     0
110
0.0
120
0.0
130
0.0
111
1.0
121
0.0
131
0.0
112
0.0
122
1.0
132
0.0
 79
     0
146
0.0
  0
ENDBLK
  5
243
330
240
100
AcDbEntity
  8
0
100
AcDbBlockEnd
  0
BLOCK
  5
266
330
264
100
AcDbEntity
  8
0
100
AcDbBlockBegin
  2
*Paper_Space3
 70
     0
 10
0.0
 20
0.0
 30
0.0
  3
*Paper_Space3
  1

  0
SPLINE
  5
2A0
330
264
100
AcDbEntity
  8
0
  6
Continuous
 62
     7
370
    25
100
AcDbSpline
210
0.0
220
0.0
230
1.0
 70
     8
 71
     3
 72
    14
 73
    10
 74
     0
 42
0.000000001
 43
0.00000001
 40
0.0
 40
0.0
 40
0.0
 40
0.0
 40
0.25
 40
0.25
 40
0.5
 40
0.5
 40
0.75
 40
0.75
 40
1.0
 40
1.0
 40
1.0
 40
1.0
 10
192.5395946621705
 20
247.528808590711
 30
0.0
 10
192.5395946621705
 20
247.6466597209088
 30
0.0
 10
192.5181159233571
 20
247.7738063498891
 30
0.0
 10
192.4206500031088
 20
248.0200002506568
 30
0.0
 10
192.3443325162948
 20
248.1382842989597
 30
0.0
 10
192.1490703704192
 20
248.3335464448354
 30
0.0
 10
192.0307863221162
 20
248.4098639316493
 30
0.0
 10
191.7845924213484
 20
248.5073298518975
 30
0.0
 10
191.6574457923682
 20
248.528808590711
 30
0.0
 10
191.5395946621705
 20
248.528808590711
 30
0.0
  0
SPLINE
  5
2A1
330
264
100
AcDbEntity
  8
0
  6
Continuous
 62
     7
370
    25
100
AcDbSpline
210
0.0
220
0.0
230
1.0
 70
     8
 71
     3
 72
    14
 73
    10
 74
     0
 42
0.000000001
 43
0.00000001
 40
0.0
 40
0.0
 40
0.0
 40
0.0
 40
0.25
 40
0.25
 40
0.5
 40
0.5
 40
0.75
 40
0.75
 40
1.0
 40
1.0
 40
1.0
 40
1.0
 10
-300.631978213083
 20
247.528808590711
 30
0.0
 10
-300.6319782130828
 20
247.6466597209087
 30
0.0
 10
-300.6104994742693
 20
247.773806349889
 30
0.0
 10
-300.5130335540211
 20
248.0200002506567
 30
0.0
 10
-300.4367160672071
 20
248.1382842989597
 30
0.0
 10
-300.2414539213316
 20
248.3335464448353
 30
0.0
 10
-300.1231698730287
 20
248.4098639316494
 30
0.0
 10
-299.876975972261
 20
248.5073298518976
 30
0.0
 10
-299.7498293432807
 20
248.528808590711
 30
0.0
 10
-299.631978213083
 20
248.528808590711
 30
0.0
  0
LINE
  5
2A7
330
264
100
AcDbEntity
  8
0
  6
Continuous
 62
     7
370
    25
100
AcDbLine
 10
-304.0461917755
 20
250.5288085907
 30
0.0
 11
195.9538082245
 21
250.5288085907
 31
0.0
  0
LINE
  5
2A8
330
264
100
AcDbEntity
  8
0
  6
Continuous
 62
     7
370
    25
100
AcDbLine
 10
196.9538082245
 20
249.5288085907
 30
0.0
 11
196.9538082245
 21
-208.4711914093
 31
0.0
  0
LINE
  5
2A9
330
264
100
AcDbEntity
  8
0
  6
Continuous
 62
     7
370
    25
100
AcDbLine
 10
195.9538082245
 20
-209.4711914093
 30
0.0
 11
-304.0461917755
 21
-209.4711914093
 31
0.0
  0
LINE
  5
2AA
330
264
100
AcDbEntity
  8
0
  6
Continuous
 62
     7
370
    25
100
AcDbLine
 10
-305.0461917755
 20
-208.4711914093
 30
0.0
 11
-305.0461917755
 21
249.5288085907
 31
0.0
  0
LINE
  5
2AB
330
264
100
AcDbEntity
  8
0
  6
Continuous
 62
     7
370
    25
100
AcDbLine
 10
-302.3390849943
 20
246.8217018095
 30
0.0
 11
-286.3390849943
 21
230.8217018095
 31
0.0
  0
LINE
  5
2AC
330
264
100
AcDbEntity
  8
0
  6
Continuous
 62
     7
370
    25
100
AcDbLine
 10
-286.3390849943
 20
230.8217018095
 30
0.0
 11
-287.0461917755
 21
230.1145950283
 31
0.0
  0
LINE
  5
2AD
330
264
100
AcDbEntity
  8
0
  6
Continuous
 62
     7
370
    25
100
AcDbLine
 10
-287.0461917755
 20
230.1145950283
 30
0.0
 11
-303.0461917755
 21
246.1145950283
 31
0.0
  0
LINE
  5
2AE
330
264
100
AcDbEntity
  8
0
  6
Continuous
 62
     7
370
    25
100
AcDbLine
 10
-302.3390849943
 20
246.8217018095
 30
0.0
 11
-303.0461917755
 21
246.1145950283
 31
0.0
  0
LINE
  5
2AF
330
264
100
AcDbEntity
  8
0
  6
Continuous
 62
     7
370
    25
100
AcDbLine
 10
-304.0461917755
 20
-208.4711914093
 30
0.0
 11
-286.0461917755
 21
-208.4711914093
 31
0.0
  0
LINE
  5
2B0
330
264
100
AcDbEntity
  8
0
  6
Continuous
 62
     7
370
    25
100
AcDbLine
 10
-287.0461917755
 20
-209.4711914093
 30
0.0
 11
-287.0461917755
 21
230.1145950283
 31
0.0
  0
LINE
  5
2B1
330
264
100
AcDbEntity
  8
0
  6
Continuous
 62
     7
370
    25
100
AcDbLine
 10
-303.0461917755
 20
246.1145950283
 30
0.0
 11
-303.0461917755
 21
-209.4711914093
 31
0.0
  0
LINE
  5
2B2
330
264
100
AcDbEntity
  8
0
  6
Continuous
 62
     7
370
    25
100
AcDbLine
 10
-304.0461917755
 20
-208.4711914093
 30
0.0
 11
-304.0461917755
 21
246.1145950283
 31
0.0
  0
LINE
  5
2B3
330
264
100
AcDbEntity
  8
0
  6
Continuous
 62
     7
370
    25
100
AcDbLine
 10
-304.0461917755
 20
246.1145950283
 30
0.0
 11
-303.0461917755
 21
246.1145950283
 31
0.0
  0
LINE
  5
2B4
330
264
100
AcDbEntity
  8
0
  6
Continuous
 62
     7
370
    25
100
AcDbLine
 10
-286.0461917755
 20
230.1145950283
 30
0.0
 11
-287.0461917755
 21
230.1145950283
 31
0.0
  0
LINE
  5
2B5
330
264
100
AcDbEntity
  8
0
  6
Continuous
 62
     7
370
    25
100
AcDbLine
 10
194.9538082245
 20
246.1145950283
 30
0.0
 11
178.9538082245
 21
230.1145950283
 31
0.0
  0
LINE
  5
2B6
330
264
100
AcDbEntity
  8
0
  6
Continuous
 62
     7
370
    25
100
AcDbLine
 10
178.9538082245
 20
230.1145950283
 30
0.0
 11
178.2467014434
 21
230.8217018095
 31
0.0
  0
LINE
  5
2B7
330
264
100
AcDbEntity
  8
0
  6
Continuous
 62
     7
370
    25
100
AcDbLine
 10
178.2467014434
 20
230.8217018095
 30
0.0
 11
194.2467014434
 21
246.8217018095
 31
0.0
  0
LINE
  5
2B8
330
264
100
AcDbEntity
  8
0
  6
Continuous
 62
     7
370
    25
100
AcDbLine
 10
194.9538082245
 20
246.1145950283
 30
0.0
 11
194.2467014434
 21
246.8217018095
 31
0.0
  0
LINE
  5
2B9
330
264
100
AcDbEntity
  8
0
  6
Continuous
 62
     7
370
    25
100
AcDbLine
 10
178.9538082245
 20
230.1145950283
 30
0.0
 11
178.9538082245
 21
-209.4711914093
 31
0.0
  0
LINE
  5
2BA
330
264
100
AcDbEntity
  8
0
  6
Continuous
 62
     7
370
    25
100
AcDbLine
 10
194.9538082245
 20
246.1145950283
 30
0.0
 11
195.9538082245
 21
246.1145950283
 31
0.0
  0
LINE
  5
2BB
330
264
100
AcDbEntity
  8
0
  6
Continuous
 62
     7
370
    25
100
AcDbLine
 10
194.9538082245
 20
-209.4711914093
 30
0.0
 11
194.9538082245
 21
246.1145950283
 31
0.0
  0
LINE
  5
2BC
330
264
100
AcDbEntity
  8
0
  6
Continuous
 62
     7
370
    25
100
AcDbLine
 10
195.9538082245
 20
246.1145950283
 30
0.0
 11
195.9538082245
 21
-208.4711914093
 31
0.0
  0
LINE
  5
2BD
330
264
100
AcDbEntity
  8
0
  6
Continuous
 62
     7
370
    25
100
AcDbLine
 10
177.9538082245
 20
-208.4711914093
 30
0.0
 11
195.9538082245
 21
-208.4711914093
 31
0.0
  0
LINE
  5
2BE
330
264
100
AcDbEntity
  8
0
  6
Continuous
 62
     7
370
    25
100
AcDbLine
 10
178.9538082245
 20
230.1145950283
 30
0.0
 11
177.9538082245
 21
230.1145950283
 31
0.0
  0
LINE
  5
2BF
330
264
100
AcDbEntity
  8
0
  6
Continuous
 62
     7
370
    25
100
AcDbLine
 10
-286.0461917755
 20
-209.4711914093
 30
0.0
 11
-286.0461917755
 21
230.5288085907
 31
0.0
  0
LINE
  5
2C0
330
264
100
AcDbEntity
  8
0
  6
Continuous
 62
     7
370
    25
100
AcDbLine
 10
-286.0461917755
 20
230.5288085907
 30
0.0
 11
177.9538082245
 21
230.5288085907
 31
0.0
  0
LINE
  5
2C1
330
264
100
AcDbEntity
  8
0
  6
Continuous
 62
     7
370
    25
100
AcDbLine
 10
177.9538082245
 20
230.5288085907
 30
0.0
 11
177.9538082245
 21
-209.4711914093
 31
0.0
  0
LINE
  5
2C2
330
264
100
AcDbEntity
  8
0
  6
Continuous
 62
     7
370
    25
100
AcDbLine
 10
192.5395946622
 20
247.5288085907
 30
0.0
 11
-300.6319782131
 21
247.5288085907
 31
0.0
  0
LINE
  5
2C3
330
264
100
AcDbEntity
  8
0
  6
Continuous
 62
     7
370
    25
100
AcDbLine
 10
-299.6319782131
 20
248.5288085907
 30
0.0
 11
191.5395946622
 21
248.5288085907
 31
0.0
  0
LINE
  5
2C4
330
264
100
AcDbEntity
  8
0
  6
Continuous
 62
     7
370
    25
100
AcDbLine
 10
175.9538082245
 20
230.5288085907
 30
0.0
 11
192.2467014434
 21
246.8217018095
 31
0.0
  0
LINE
  5
2C5
330
264
100
AcDbEntity
  8
0
  6
Continuous
 62
     7
370
    25
100
AcDbLine
 10
-300.3390849943
 20
246.8217018095
 30
0.0
 11
-284.0461917755
 21
230.5288085907
 31
0.0
  0
ARC
  5
2C6
330
264
100
AcDbEntity
  8
0
  6
Continuous
 62
     7
370
    25
100
AcDbCircle
 10
-304.0461917755
 20
249.5288085907
 30
0.0
 40
1.000000000000057
100
AcDbArc
 50
90.0
 51
180.0
  0
ARC
  5
2C7
330
264
100
AcDbEntity
  8
0
  6
Continuous
 62
     7
370
    25
100
AcDbCircle
 10
195.9538082245
 20
249.5288085907
 30
0.0
 40
1.000000000000085
100
AcDbArc
 50
0.0
 51
90.0
  0
ARC
  5
2C8
330
264
100
AcDbEntity
  8
0
  6
Continuous
 62
     7
370
    25
100
AcDbCircle
 10
195.9538082245
 20
-208.4711914093
 30
0.0
 40
1.0
100
AcDbArc
 50
270.0
 51
0.0
  0
ARC
  5
2C9
330
264
100
AcDbEntity
  8
0
  6
Continuous
 62
     7
370
    25
100
AcDbCircle
 10
-304.0461917755
 20
-208.4711914093
 30
0.0
 40
1.000000000000057
100
AcDbArc
 50
180.0
 51
270.0
  0
ARC
  5
2CA
330
264
100
AcDbEntity
  8
0
  6
Continuous
 62
     7
370
    25
100
AcDbCircle
 10
-303.0461917755
 20
-208.4711914093
 30
0.0
 40
1.000000000000057
100
AcDbArc
 50
180.0
 51
270.0
  0
ARC
  5
2CB
330
264
100
AcDbEntity
  8
0
  6
Continuous
 62
     7
370
    25
100
AcDbCircle
 10
-287.0461917755
 20
-208.4711914093
 30
0.0
 40
0.9999999999999432
100
AcDbArc
 50
270.0
 51
0.0
  0
ARC
  5
2CC
330
264
100
AcDbEntity
  8
0
  6
Continuous
 62
     7
370
    25
100
AcDbCircle
 10
-303.0461917755
 20
246.1145950283
 30
0.0
 40
1.000000000000068
100
AcDbArc
 50
45.0
 51
180.0
  0
ARC
  5
2CD
330
264
100
AcDbEntity
  8
0
  6
Continuous
 62
     7
370
    25
100
AcDbCircle
 10
-287.0461917755
 20
230.1145950283
 30
0.0
 40
0.9999999999990233
100
AcDbArc
 50
360.0
 51
45.0
  0
ARC
  5
2CE
330
264
100
AcDbEntity
  8
0
  6
Continuous
 62
     7
370
    25
100
AcDbCircle
 10
178.9538082245
 20
-208.4711914093
 30
0.0
 40
0.9999999999999716
100
AcDbArc
 50
180.0
 51
270.0
  0
ARC
  5
2CF
330
264
100
AcDbEntity
  8
0
  6
Continuous
 62
     7
370
    25
100
AcDbCircle
 10
194.9538082245
 20
246.1145950283
 30
0.0
 40
1.000000000000085
100
AcDbArc
 50
0.0
 51
135.0
  0
ARC
  5
2D0
330
264
100
AcDbEntity
  8
0
  6
Continuous
 62
     7
370
    25
100
AcDbCircle
 10
178.9538082245
 20
230.1145950283
 30
0.0
 40
1.000000000000369
100
AcDbArc
 50
135.0
 51
180.0
  0
ARC
  5
2D1
330
264
100
AcDbEntity
  8
0
  6
Continuous
 62
     7
370
    25
100
AcDbCircle
 10
194.9538082245
 20
-208.4711914093
 30
0.0
 40
1.0
100
AcDbArc
 50
270.0
 51
0.0
  0
ARC
  5
2D2
330
264
100
AcDbEntity
  8
0
  6
Continuous
 62
     7
370
    25
100
AcDbCircle
 10
191.5395946622
 20
247.5288085907
 30
0.0
 40
1.000000000000189
100
AcDbArc
 50
315.0
 51
360.0
  0
ARC
  5
2D3
330
264
100
AcDbEntity
  8
0
  6
Continuous
 62
     7
370
    25
100
AcDbCircle
 10
-299.6319782131
 20
247.5288085907
 30
0.0
 40
1.000000000000129
100
AcDbArc
 50
180.0
 51
225.0
  0
VIEWPORT
  5
4F4
330
264
100
AcDbEntity
  8
0
100
AcDbViewport
 10
0.0
 20
0.0
 30
0.0
 40
205.6
 41
156.0
 68
     1
 69
     1
 12
-54.0461917755
 22
46.7615598902
 13
0.0
 23
0.0
 14
10.0
 24
10.0
 15
10.0
 25
10.0
 16
0.0
 26
0.0
 36
1.0
 17
0.0
 27
0.0
 37
0.0
 42
50.0
 43
0.0
 44
0.0
 45
581.4
 50
0.0
 51
0.0
 72
   100
 90
   557152
  1

281
     0
 71
     1
 74
     0
110
0.0
120
0.0
130
0.0
111
1.0
121
0.0
131
0.0
112
0.0
122
1.0
132
0.0
 79
     0
146
0.0
  0
ENDBLK
  5
267
330
264
100
AcDbEntity
  8
0
100
AcDbBlockEnd
  0
BLOCK
  5
2D6
330
2D4
100
AcDbEntity
  8
0
100
AcDbBlockBegin
  2
*Paper_Space4
 70
     0
 10
0.0
 20
0.0
 30
0.0
  3
*Paper_Space4
  1

  0
SPLINE
  5
30E
330
2D4
100
AcDbEntity
  8
0
  6
Continuous
 62
     7
370
    25
100
AcDbSpline
210
0.0
220
0.0
230
1.0
 70
     8
 71
     3
 72
    20
 73
    16
 74
     0
 42
0.000000001
 43
0.00000001
 40
0.0
 40
0.0
 40
0.0
 40
0.0
 40
0.124999999999998
 40
0.124999999999998
 40
0.2499999999999959
 40
0.2499999999999959
 40
0.3749999999999939
 40
0.3749999999999939
 40
0.4999999999999919
 40
0.4999999999999919
 40
0.6249999999999899
 40
0.6249999999999899
 40
0.7499999999999878
 40
0.7499999999999878
 40
1.0
 40
1.0
 40
1.0
 40
1.0
 10
-387.608209529516
 20
221.1966424743188
 30
0.0
 10
-387.6626496530527
 20
221.2909355339775
 30
0.0
 10
-387.7151631437781
 20
221.3964309029529
 30
0.0
 10
-387.8061404782767
 20
221.6256427713447
 30
0.0
 10
-387.8444827964677
 20
221.7494303195909
 30
0.0
 10
-387.8944729950563
 20
222.0023297886556
 30
0.0
 10
-387.9058786739122
 20
222.1312854900044
 30
0.0
 10
-387.8925253051594
 20
222.3732936686645
 30
0.0
 10
-387.8675990966058
 20
222.4859570694089
 30
0.0
 10
-387.7823654650753
 20
222.6743435644198
 30
0.0
 10
-387.7221836642786
 20
222.7497890039405
 30
0.0
 10
-387.5787012567383
 20
222.8544250038468
 30
0.0
 10
-387.4956980117302
 20
222.8837168662414
 30
0.0
 10
-387.2368795707394
 20
222.9106824104146
 30
0.0
 10
-387.0550826704146
 20
222.8484209528588
 30
0.0
 10
-386.9011027483294
 20
222.7595157875156
 30
0.0
  0
SPLINE
  5
310
330
2D4
100
AcDbEntity
  8
0
  6
Continuous
 62
     7
370
    25
100
AcDbSpline
210
0.0
220
0.0
230
1.0
 70
     8
 71
     3
 72
    20
 73
    16
 74
     0
 42
0.000000001
 43
0.00000001
 40
0.0
 40
0.0
 40
0.0
 40
0.0
 40
0.125000000000001
 40
0.125000000000001
 40
0.2500000000000021
 40
0.2500000000000021
 40
0.3750000000000031
 40
0.3750000000000031
 40
0.5000000000000041
 40
0.5000000000000041
 40
0.6250000000000051
 40
0.6250000000000051
 40
0.7500000000000062
 40
0.7500000000000062
 40
1.0
 40
1.0
 40
1.0
 40
1.0
 10
-40.29745962336237
 20
20.69841427828055
 30
0.0
 10
-40.24301949982589
 20
20.72985210921527
 30
0.0
 10
-40.17791423432934
 20
20.76744761551276
 30
0.0
 10
-40.02489791965225
 20
20.85580494840843
 30
0.0
 10
-39.93686457098439
 20
20.90663737707051
 30
0.0
 10
-39.74283840327858
 20
21.01866919632572
 30
0.0
 10
-39.63685976732309
 20
21.07986037514232
 30
0.0
 10
-39.42059163186476
 20
21.20472835238255
 30
0.0
 10
-39.31055550441659
 20
21.26825884277267
 30
0.0
 10
-39.10478331520498
 20
21.3870599096017
 30
0.0
 10
-39.00935053221338
 20
21.44215539026235
 30
0.0
 10
-38.84698360947939
 20
21.53588959159872
 30
0.0
 10
-38.78011043019744
 20
21.57449314273195
 30
0.0
 10
-38.62733721445127
 20
21.66267729236425
 30
0.0
 10
-38.59035284217585
 20
21.68401432780749
 30
0.0
 10
-38.59035284217583
 20
21.68399987939181
 30
0.0
  0
SPLINE
  5
311
330
2D4
100
AcDbEntity
  8
0
  6
Continuous
 62
     7
370
    25
100
AcDbSpline
210
0.0
220
0.0
230
1.0
 70
     8
 71
     3
 72
    14
 73
    10
 74
     0
 42
0.000000001
 43
0.00000001
 40
0.0
 40
0.0
 40
0.0
 40
0.0
 40
0.25
 40
0.25
 40
0.5
 40
0.5
 40
0.75
 40
0.75
 40
1.0
 40
1.0
 40
1.0
 40
1.0
 10
-38.88324606098931
 20
-157.7858012461842
 30
0.0
 10
-38.9665793943226
 20
-157.8339085555247
 30
0.0
 10
-39.0716733997459
 20
-157.8595043500414
 30
0.0
 10
-39.31467758960761
 20
-157.8406308132663
 30
0.0
 10
-39.4522816547182
 20
-157.7954453912346
 30
0.0
 10
-39.72842402963362
 20
-157.6360058801107
 30
0.0
 10
-39.8660280947441
 20
-157.5222912066638
 30
0.0
 10
-40.10903228460583
 20
-157.2605524741739
 30
0.0
 10
-40.2141262900291
 20
-157.1135980011722
 30
0.0
 10
-40.29745962336237
 20
-156.9692604342985
 30
0.0
  0
SPLINE
  5
317
330
2D4
100
AcDbEntity
  8
0
  6
Continuous
 62
     7
370
    25
100
AcDbSpline
210
0.0
220
0.0
230
1.0
 70
     8
 71
     3
 72
    10
 73
     6
 74
     0
 42
0.000000001
 43
0.00000001
 40
0.0
 40
0.0
 40
0.0
 40
0.0
 40
0.1130888244763682
 40
0.5613784828690164
 40
1.0
 40
1.0
 40
1.0
 40
1.0
 10
-387.8907520246766
 20
43.36576663500414
 30
0.0
 10
-387.8934443958657
 20
43.36421522504102
 30
0.0
 10
-387.9068094587747
 20
43.35651394973446
 30
0.0
 10
-387.8140530440158
 20
43.41009351828491
 30
0.0
 10
-387.67632357538
 20
43.48963202803752
 30
0.0
 10
-387.6082095295161
 20
43.5289677617398
 30
0.0
  0
SPLINE
  5
31B
330
2D4
100
AcDbEntity
  8
0
  6
Continuous
 62
     7
370
    25
100
AcDbSpline
210
0.0
220
0.0
230
1.0
 70
     8
 71
     3
 72
    14
 73
    10
 74
     0
 42
0.000000001
 43
0.00000001
 40
0.0
 40
0.0
 40
0.0
 40
0.0
 40
0.25
 40
0.25
 40
0.5
 40
0.5
 40
0.75
 40
0.75
 40
1.0
 40
1.0
 40
1.0
 40
1.0
 10
-38.88324606098931
 20
-374.169116395908
 30
0.0
 10
-38.9665793943226
 20
-374.2172237052483
 30
0.0
 10
-39.0716733997459
 20
-374.2428194997651
 30
0.0
 10
-39.31467758960761
 20
-374.22394596299
 30
0.0
 10
-39.4522816547182
 20
-374.1787605409583
 30
0.0
 10
-39.72842402963362
 20
-374.0193210298344
 30
0.0
 10
-39.8660280947441
 20
-373.9056063563876
 30
0.0
 10
-40.10903228460583
 20
-373.6438676238977
 30
0.0
 10
-40.2141262900291
 20
-373.496913150896
 30
0.0
 10
-40.29745962336237
 20
-373.3525755840222
 30
0.0
  0
SPLINE
  5
31D
330
2D4
100
AcDbEntity
  8
0
  6
Continuous
 62
     7
370
    25
100
AcDbSpline
210
0.0
220
0.0
230
1.0
 70
     8
 71
     3
 72
    20
 73
    16
 74
     0
 42
0.000000001
 43
0.00000001
 40
0.0
 40
0.0
 40
0.0
 40
0.0
 40
0.125000000000001
 40
0.125000000000001
 40
0.2500000000000021
 40
0.2500000000000021
 40
0.3750000000000031
 40
0.3750000000000031
 40
0.5000000000000041
 40
0.5000000000000041
 40
0.6250000000000051
 40
0.6250000000000051
 40
0.7500000000000062
 40
0.7500000000000062
 40
1.0
 40
1.0
 40
1.0
 40
1.0
 10
-40.29745962336237
 20
-195.6849008714432
 30
0.0
 10
-40.24301949982589
 20
-195.6534630405085
 30
0.0
 10
-40.17791423432934
 20
-195.6158675342111
 30
0.0
 10
-40.02489791965225
 20
-195.5275102013154
 30
0.0
 10
-39.93686457098439
 20
-195.4766777726532
 30
0.0
 10
-39.74283840327858
 20
-195.364645953398
 30
0.0
 10
-39.63685976732309
 20
-195.3034547745815
 30
0.0
 10
-39.42059163186476
 20
-195.1785867973412
 30
0.0
 10
-39.31055550441659
 20
-195.1150563069511
 30
0.0
 10
-39.10478331520498
 20
-194.996255240122
 30
0.0
 10
-39.00935053221338
 20
-194.9411597594615
 30
0.0
 10
-38.84698360947939
 20
-194.8474255581251
 30
0.0
 10
-38.78011043019744
 20
-194.8088220069918
 30
0.0
 10
-38.62733721445127
 20
-194.7206378573595
 30
0.0
 10
-38.59035284217585
 20
-194.6993008219163
 30
0.0
 10
-38.59035284217583
 20
-194.6993152703319
 30
0.0
  0
SPLINE
  5
321
330
2D4
100
AcDbEntity
  8
0
  6
Continuous
 62
     7
370
    25
100
AcDbSpline
210
0.0
220
0.0
230
1.0
 70
     8
 71
     3
 72
    20
 73
    16
 74
     0
 42
0.000000001
 43
0.00000001
 40
0.0
 40
0.0
 40
0.0
 40
0.0
 40
0.1249999999999978
 40
0.1249999999999978
 40
0.2499999999999957
 40
0.2499999999999957
 40
0.3749999999999935
 40
0.3749999999999935
 40
0.4999999999999913
 40
0.4999999999999913
 40
0.6249999999999891
 40
0.6249999999999891
 40
0.749999999999987
 40
0.749999999999987
 40
1.0
 40
1.0
 40
1.0
 40
1.0
 10
-387.608209529516
 20
4.813327324595037
 30
0.0
 10
-387.6626496530524
 20
4.907620384253838
 30
0.0
 10
-387.7151631437781
 20
5.013115753229186
 30
0.0
 10
-387.8061404782767
 20
5.242327621620927
 30
0.0
 10
-387.8444827964676
 20
5.366115169867208
 30
0.0
 10
-387.8944729950563
 20
5.619014638931927
 30
0.0
 10
-387.9058786739123
 20
5.747970340280712
 30
0.0
 10
-387.8925253051594
 20
5.989978518940759
 30
0.0
 10
-387.8675990966059
 20
6.102641919685222
 30
0.0
 10
-387.7823654650751
 20
6.29102841469606
 30
0.0
 10
-387.7221836642785
 20
6.366473854216737
 30
0.0
 10
-387.5787012567384
 20
6.471109854123192
 30
0.0
 10
-387.4956980117303
 20
6.500401716517598
 30
0.0
 10
-387.2368795707395
 20
6.527367260690808
 30
0.0
 10
-387.0550826704147
 20
6.465105803135113
 30
0.0
 10
-386.9011027483294
 20
6.376200637791818
 30
0.0
  0
SPLINE
  5
325
330
2D4
100
AcDbEntity
  8
0
  6
Continuous
 62
     7
370
    25
100
AcDbSpline
210
0.0
220
0.0
230
1.0
 70
     8
 71
     3
 72
    10
 73
     6
 74
     0
 42
0.000000001
 43
0.00000001
 40
0.0
 40
0.0
 40
0.0
 40
0.0
 40
0.1130888244764153
 40
0.5613784828690044
 40
1.0
 40
1.0
 40
1.0
 40
1.0
 10
-387.8907520246767
 20
-173.0175485147196
 30
0.0
 10
-387.8934443958657
 20
-173.0190999246826
 30
0.0
 10
-387.9068094587748
 20
-173.0268011999893
 30
0.0
 10
-387.8140530440158
 20
-172.9732216314388
 30
0.0
 10
-387.6763235753799
 20
-172.8936831216863
 30
0.0
 10
-387.608209529516
 20
-172.8543473879839
 30
0.0
  0
LWPOLYLINE
  5
331
330
2D4
100
AcDbEntity
  8
0
  6
Continuous
 62
     8
370
    25
100
AcDbPolyline
 90
        7
 70
   128
 43
0.0
 10
-388.3153163107
 20
-171.0524475082
 10
-388.605600988
 20
-171.0275896931
 10
-388.8708865437
 20
-170.9551569862
 10
-389.0883267641
 20
-170.8413872437
 10
-389.2391958432
 20
-170.6960782392
 10
-389.3105010374
 20
-170.5317438868
 10
-389.3153163107
 20
-170.4751597961
  0
LINE
  5
337
330
2D4
100
AcDbEntity
  8
0
  6
Continuous
 62
     7
370
    25
100
AcDbLine
 10
286.9716597225
 20
243.3448675752
 30
0.0
 11
286.9716597225
 21
275.1899592388
 31
0.0
  0
LINE
  5
338
330
2D4
100
AcDbEntity
  8
0
  6
Continuous
 62
     7
370
    25
100
AcDbLine
 10
286.4716190888
 20
276.0560081011
 30
0.0
 11
-67.0817715045
 21
480.1580360568
 31
0.0
  0
LINE
  5
339
330
2D4
100
AcDbEntity
  8
0
  6
Continuous
 62
     7
370
    25
100
AcDbLine
 10
-392.4366366543
 20
292.334529587
 30
0.0
 11
-392.4366366543
 21
260.4894379235
 31
0.0
  0
LINE
  5
33A
330
2D4
100
AcDbEntity
  8
0
  6
Continuous
 62
     7
370
    25
100
AcDbLine
 10
-68.0816902371
 20
480.1580360568
 30
0.0
 11
-391.9365960206
 21
293.2005784494
 31
0.0
  0
LINE
  5
33B
330
2D4
100
AcDbEntity
  8
0
  6
Continuous
 62
     7
370
    25
100
AcDbLine
 10
-389.3153163107
 20
258.4484176439
 30
0.0
 11
-389.3153163107
 21
-170.4751597961
 31
0.0
  0
LINE
  5
33C
330
2D4
100
AcDbEntity
  8
0
  6
Continuous
 62
     7
370
    25
100
AcDbLine
 10
-388.3153163107
 20
-171.4751597961
 30
0.0
 11
-387.9011027483
 21
-171.4751597961
 31
0.0
  0
LINE
  5
33D
330
2D4
100
AcDbEntity
  8
0
  6
Continuous
 62
     7
370
    25
100
AcDbLine
 10
286.2645529413
 20
-188.1970178564
 30
0.0
 11
286.2645529413
 21
242.6975431196
 31
0.0
  0
LINE
  5
33E
330
2D4
100
AcDbEntity
  8
0
  6
Continuous
 62
     7
370
    25
100
AcDbLine
 10
-35.6761799135
 20
-374.6268285023
 30
0.0
 11
285.7645123076
 21
-189.0630667188
 31
0.0
  0
LINE
  5
33F
330
2D4
100
AcDbEntity
  8
0
  6
Continuous
 62
     7
370
    25
100
AcDbLine
 10
-387.8956430407
 20
43.3566384465
 30
0.0
 11
-39.5957312825
 21
-157.712620732
 31
0.0
  0
LINE
  5
340
330
2D4
100
AcDbEntity
  8
0
  6
Continuous
 62
     7
370
    25
100
AcDbLine
 10
-387.9011027483
 20
222.1781975806
 30
0.0
 11
-387.9011027483
 21
43.3660922282
 31
0.0
  0
LINE
  5
341
330
2D4
100
AcDbEntity
  8
0
  6
Continuous
 62
     7
370
    25
100
AcDbLine
 10
-387.8956430407
 20
-173.0266767032
 30
0.0
 11
-39.5957312825
 21
-374.0959358817
 31
0.0
  0
LINE
  5
342
330
2D4
100
AcDbEntity
  8
0
  6
Continuous
 62
     7
370
    25
100
AcDbLine
 10
-387.9011027483
 20
5.7948824309
 30
0.0
 11
-387.9011027483
 21
-173.0172229216
 31
0.0
  0
LINE
  5
343
330
2D4
100
AcDbEntity
  8
0
  6
Continuous
 62
     7
370
    25
100
AcDbLine
 10
-38.5903528422
 20
55.9792059119
 30
0.0
 11
-38.5903528422
 21
87.8242975754
 31
0.0
  0
LINE
  5
344
330
2D4
100
AcDbEntity
  8
0
  6
Continuous
 62
     7
370
    25
100
AcDbLine
 10
-37.1761392798
 20
-373.7607796399
 30
0.0
 11
-37.1761392798
 21
87.8242975754
 31
0.0
  0
LINE
  5
345
330
2D4
100
AcDbEntity
  8
0
  6
Continuous
 62
     7
370
    25
100
AcDbLine
 10
286.6787665036
 20
274.7817551828
 30
0.0
 11
-37.1761392798
 21
87.8242975754
 31
0.0
  0
LINE
  5
346
330
2D4
100
AcDbEntity
  8
0
  6
Continuous
 62
     7
370
    25
100
AcDbLine
 10
-37.883246061
 20
89.0490424432
 30
0.0
 11
285.9716597225
 21
276.0065000506
 31
0.0
  0
LINE
  5
347
330
2D4
100
AcDbEntity
  8
0
  6
Continuous
 62
     7
370
    25
100
AcDbLine
 10
-391.4366366543
 20
293.1510703989
 30
0.0
 11
-37.883246061
 21
89.0490424432
 31
0.0
  0
LINE
  5
348
330
2D4
100
AcDbEntity
  8
0
  6
Continuous
 62
     7
370
    25
100
AcDbLine
 10
-38.5903528422
 20
87.8242975754
 30
0.0
 11
-392.1437434354
 21
291.9263255311
 31
0.0
  0
LINE
  5
349
330
2D4
100
AcDbEntity
  8
0
  6
Continuous
 62
     7
370
    25
100
AcDbLine
 10
286.6787665036
 20
242.9366635193
 30
0.0
 11
286.6787665036
 21
274.7817551828
 31
0.0
  0
LINE
  5
34A
330
2D4
100
AcDbEntity
  8
0
  6
Continuous
 62
     7
370
    25
100
AcDbLine
 10
-37.1761392798
 20
55.9792059119
 30
0.0
 11
286.6787665036
 21
242.9366635193
 31
0.0
  0
LINE
  5
34B
330
2D4
100
AcDbEntity
  8
0
  6
Continuous
 62
     7
370
    25
100
AcDbLine
 10
-392.1437434354
 20
260.0812338676
 30
0.0
 11
-38.5903528422
 21
55.9792059119
 31
0.0
  0
LINE
  5
34C
330
2D4
100
AcDbEntity
  8
0
  6
Continuous
 62
     7
370
    25
100
AcDbLine
 10
-392.1437434354
 20
291.9263255311
 30
0.0
 11
-392.1437434354
 21
260.0812338676
 31
0.0
  0
LINE
  5
34D
330
2D4
100
AcDbEntity
  8
0
  6
Continuous
 62
     7
370
    25
100
AcDbLine
 10
285.9716597225
 20
276.0065000506
 30
0.0
 11
-67.5817308708
 21
480.1085280063
 31
0.0
  0
LINE
  5
34E
330
2D4
100
AcDbEntity
  8
0
  6
Continuous
 62
     7
370
    25
100
AcDbLine
 10
-67.5817308708
 20
480.1085280063
 30
0.0
 11
-391.4366366543
 21
293.1510703989
 31
0.0
  0
LINE
  5
34F
330
2D4
100
AcDbEntity
  8
0
  6
Continuous
 62
     7
370
    25
100
AcDbLine
 10
-35.4690324986
 20
56.9645649798
 30
0.0
 11
-35.4690324986
 21
-374.1689836958
 31
0.0
  0
LINE
  5
350
330
2D4
100
AcDbEntity
  8
0
  6
Continuous
 62
     7
370
    25
100
AcDbLine
 10
285.9716597225
 20
242.5283267633
 30
0.0
 11
-35.4690324986
 21
56.9645649798
 31
0.0
  0
LINE
  5
351
330
2D4
100
AcDbEntity
  8
0
  6
Continuous
 62
     7
370
    25
100
AcDbLine
 10
285.9716597225
 20
-188.6052219124
 30
0.0
 11
285.9716597225
 21
242.5283267633
 31
0.0
  0
LINE
  5
352
330
2D4
100
AcDbEntity
  8
0
  6
Continuous
 62
     7
370
    25
100
AcDbLine
 10
-35.4690324986
 20
-374.1689836958
 30
0.0
 11
285.9716597225
 21
-188.6052219124
 31
0.0
  0
LINE
  5
353
330
2D4
100
AcDbEntity
  8
0
  6
Continuous
 62
     7
370
    25
100
AcDbLine
 10
-38.5903528422
 20
6.9841031975
 30
0.0
 11
-37.1761392798
 21
6.1676950857
 31
0.0
  0
LINE
  5
354
330
2D4
100
AcDbEntity
  8
0
  6
Continuous
 62
     7
370
    25
100
AcDbLine
 10
-365.2736857504
 20
244.5694797429
 30
0.0
 11
-365.2736857504
 21
210.2742737104
 31
0.0
  0
LINE
  5
355
330
2D4
100
AcDbEntity
  8
0
  6
Continuous
 62
     7
370
    25
100
AcDbLine
 10
-38.5903528422
 20
-345.7615275372
 30
0.0
 11
-37.1761392798
 21
-346.577935649
 31
0.0
  0
LINE
  5
356
330
2D4
100
AcDbEntity
  8
0
  6
Continuous
 62
     7
370
    25
100
AcDbLine
 10
-38.5903528422
 20
-360.4592621511
 30
0.0
 11
-37.1761392798
 21
-361.2756702629
 31
0.0
  0
LINE
  5
357
330
2D4
100
AcDbEntity
  8
0
  6
Continuous
 62
     7
370
    25
100
AcDbLine
 10
-37.1761392798
 20
-140.8096510538
 30
0.0
 11
-38.5903528422
 21
-139.9932429419
 31
0.0
  0
LINE
  5
358
330
2D4
100
AcDbEntity
  8
0
  6
Continuous
 62
     7
370
    25
100
AcDbLine
 10
-38.5903528422
 20
-205.3165078928
 30
0.0
 11
-37.1761392798
 21
-206.1329160046
 31
0.0
  0
LINE
  5
359
330
2D4
100
AcDbEntity
  8
0
  6
Continuous
 62
     7
370
    25
100
AcDbLine
 10
-365.2736857504
 20
30.2972604795
 30
0.0
 11
-365.2736857504
 21
-6.1090414393
 31
0.0
  0
LINE
  5
35A
330
2D4
100
AcDbEntity
  8
0
  6
Continuous
 62
     7
370
    25
100
AcDbLine
 10
-37.1761392798
 20
-126.114305041
 30
0.0
 11
-38.5903528422
 21
-125.2978969291
 31
0.0
  0
LINE
  5
35B
330
2D4
100
AcDbEntity
  8
0
  6
Continuous
 62
     7
370
    25
100
AcDbLine
 10
-40.2974596234
 20
20.6984142783
 30
0.0
 11
-387.6082095295
 21
221.1966424743
 31
0.0
  0
LINE
  5
35C
330
2D4
100
AcDbEntity
  8
0
  6
Continuous
 62
     7
370
    25
100
AcDbLine
 10
-386.9011027483
 20
222.7595157875
 30
0.0
 11
-38.5903528422
 21
21.6839998794
 31
0.0
  0
LINE
  5
35D
330
2D4
100
AcDbEntity
  8
0
  6
Continuous
 62
     7
370
    25
100
AcDbLine
 10
-40.2974596234
 20
-156.9692604343
 30
0.0
 11
-40.2974596234
 21
20.6984142783
 31
0.0
  0
LINE
  5
35E
330
2D4
100
AcDbEntity
  8
0
  6
Continuous
 62
     7
370
    25
100
AcDbLine
 10
-38.5903528422
 20
21.6839998794
 30
0.0
 11
-38.5903528422
 21
-157.3775971903
 31
0.0
  0
LINE
  5
35F
330
2D4
100
AcDbEntity
  8
0
  6
Continuous
 62
     7
370
    25
100
AcDbLine
 10
-387.6082095295
 20
43.5289677617
 30
0.0
 11
-40.2974596234
 21
-156.9692604343
 31
0.0
  0
LINE
  5
360
330
2D4
100
AcDbEntity
  8
0
  6
Continuous
 62
     7
370
    25
100
AcDbLine
 10
-387.6082095295
 20
221.1966424743
 30
0.0
 11
-387.6082095295
 21
43.5289677617
 31
0.0
  0
LINE
  5
361
330
2D4
100
AcDbEntity
  8
0
  6
Continuous
 62
     7
370
    25
100
AcDbLine
 10
-38.5903528422
 20
-98.3528463373
 30
0.0
 11
-37.1761392798
 21
-97.5364382255
 31
0.0
  0
LINE
  5
362
330
2D4
100
AcDbEntity
  8
0
  6
Continuous
 62
     7
370
    25
100
AcDbLine
 10
-38.5903528422
 20
-12.6160610893
 30
0.0
 11
-37.1761392798
 21
-11.7996529775
 31
0.0
  0
LINE
  5
363
330
2D4
100
AcDbEntity
  8
0
  6
Continuous
 62
     7
370
    25
100
AcDbLine
 10
-37.1761392798
 20
2.8956930354
 30
0.0
 11
-38.5903528422
 21
2.0792849235
 31
0.0
  0
LINE
  5
364
330
2D4
100
AcDbEntity
  8
0
  6
Continuous
 62
     7
370
    25
100
AcDbLine
 10
-40.2974596234
 20
-373.352575584
 30
0.0
 11
-40.2974596234
 21
-195.6849008714
 31
0.0
  0
LINE
  5
365
330
2D4
100
AcDbEntity
  8
0
  6
Continuous
 62
     7
370
    25
100
AcDbLine
 10
-38.5903528422
 20
-194.6993152703
 30
0.0
 11
-38.5903528422
 21
-373.76091234
 31
0.0
  0
LINE
  5
366
330
2D4
100
AcDbEntity
  8
0
  6
Continuous
 62
     7
370
    25
100
AcDbLine
 10
-40.2974596234
 20
-195.6849008714
 30
0.0
 11
-387.6082095295
 21
4.8133273246
 31
0.0
  0
LINE
  5
367
330
2D4
100
AcDbEntity
  8
0
  6
Continuous
 62
     7
370
    25
100
AcDbLine
 10
-386.9011027483
 20
6.3762006378
 30
0.0
 11
-38.5903528422
 21
-194.6993152703
 31
0.0
  0
LINE
  5
368
330
2D4
100
AcDbEntity
  8
0
  6
Continuous
 62
     7
370
    25
100
AcDbLine
 10
-387.6082095295
 20
-172.854347388
 30
0.0
 11
-40.2974596234
 21
-373.352575584
 31
0.0
  0
LINE
  5
369
330
2D4
100
AcDbEntity
  8
0
  6
Continuous
 62
     7
370
    25
100
AcDbLine
 10
-387.6082095295
 20
4.8133273246
 30
0.0
 11
-387.6082095295
 21
-172.854347388
 31
0.0
  0
LINE
  5
36A
330
2D4
100
AcDbEntity
  8
0
  6
Continuous
 62
     7
370
    25
100
AcDbLine
 10
-38.5903528422
 20
-316.3692431108
 30
0.0
 11
-37.1761392798
 21
-315.552834999
 31
0.0
  0
LINE
  5
36B
330
2D4
100
AcDbEntity
  8
0
  6
Continuous
 62
     8
370
    25
100
AcDbLine
 10
-388.3153163107
 20
257.8711299318
 30
0.0
 11
-388.3153163107
 21
-171.4751597961
 31
0.0
  0
LINE
  5
36C
330
2D4
100
AcDbEntity
  8
0
  6
Continuous
 62
     8
370
    25
100
AcDbLine
 10
-365.6878993127
 20
-5.8699210395
 30
0.0
 11
-365.6878993127
 21
30.5363808792
 31
0.0
  0
LINE
  5
36D
330
2D4
100
AcDbEntity
  8
0
  6
Continuous
 62
     8
370
    25
100
AcDbLine
 10
-365.6878993127
 20
210.5133941102
 30
0.0
 11
-365.6878993127
 21
244.8086001427
 31
0.0
  0
LINE
  5
36E
330
2D4
100
AcDbEntity
  8
0
  6
Continuous
 62
     8
370
    25
100
AcDbLine
 10
-388.3153163107
 20
-171.0524475082
 30
0.0
 11
-387.9011027483
 21
-171.0524475082
 31
0.0
  0
LINE
  5
36F
330
2D4
100
AcDbEntity
  8
0
  6
Continuous
 62
     8
370
    25
100
AcDbLine
 10
-36.883246061
 20
-374.1689836958
 30
0.0
 11
-36.883246061
 21
56.1482895681
 31
0.0
  0
ARC
  5
370
330
2D4
100
AcDbEntity
  8
0
  6
Continuous
 62
     7
370
    25
100
AcDbCircle
 10
285.9716597225
 20
275.1899592388
 30
0.0
 40
0.9999999999996589
100
AcDbArc
 50
360.0
 51
60.0026882664
  0
ARC
  5
371
330
2D4
100
AcDbEntity
  8
0
  6
Continuous
 62
     7
370
    25
100
AcDbCircle
 10
-391.4366366543
 20
292.334529587
 30
0.0
 40
1.000000000000171
100
AcDbArc
 50
119.9973117337
 51
180.0
  0
ARC
  5
372
330
2D4
100
AcDbEntity
  8
0
  6
Continuous
 62
     7
370
    25
100
AcDbCircle
 10
-67.5817308708
 20
479.2919871944
 30
0.0
 40
1.000000000000274
100
AcDbArc
 50
60.0026882664
 51
119.9973117336
  0
ARC
  5
373
330
2D4
100
AcDbEntity
  8
0
  6
Continuous
 62
     7
370
    25
100
AcDbCircle
 10
-388.3153163107
 20
-170.4751597961
 30
0.0
 40
1.000000000000057
100
AcDbArc
 50
180.0
 51
270.0
  0
ARC
  5
374
330
2D4
100
AcDbEntity
  8
0
  6
Continuous
 62
     7
370
    25
100
AcDbCircle
 10
-36.1761392798
 20
-373.7607796399
 30
0.0
 40
0.9999999999999645
100
AcDbArc
 50
180.0
 51
299.9973117337
  0
ARC
  5
375
330
2D4
100
AcDbEntity
  8
0
  6
Continuous
 62
     7
370
    25
100
AcDbCircle
 10
285.2645529413
 20
-188.1970178564
 30
0.0
 40
0.9999999999998195
100
AcDbArc
 50
299.9973117336
 51
0.0
  0
ARC
  5
376
330
2D4
100
AcDbEntity
  8
0
  6
Continuous
 62
     7
370
    25
100
AcDbCircle
 10
-37.0551367408
 20
87.7544367232
 30
0.0
 40
1.536804807571903
100
AcDbArc
 50
122.60547834
 51
177.3945215144
  0
ARC
  5
377
330
2D4
100
AcDbEntity
  8
0
  6
Continuous
 62
     7
370
    25
100
AcDbCircle
 10
-38.7113553812
 20
87.7544367232
 30
0.0
 40
1.536804807572106
100
AcDbArc
 50
2.6054784857
 51
57.39452166
  0
ARC
  5
378
330
2D4
100
AcDbEntity
  8
0
  6
Continuous
 62
     7
370
    25
100
AcDbCircle
 10
-37.883246061
 20
89.1890086604
 30
0.0
 40
1.537021907911746
100
AcDbArc
 50
242.6096722366
 51
297.3903277634
  0
ARC
  5
379
330
2D4
100
AcDbEntity
  8
0
  6
Continuous
 62
     7
370
    25
100
AcDbCircle
 10
-37.883246061
 20
57.3439169969
 30
0.0
 40
1.537021907911936
100
AcDbArc
 50
242.6096722366
 51
297.3903277634
  0
ARC
  5
37A
330
2D4
100
AcDbEntity
  8
0
  6
Continuous
 62
     7
370
    25
100
AcDbCircle
 10
285.1435504023
 20
274.7118943306
 30
0.0
 40
1.536804807571883
100
AcDbArc
 50
2.6054784857
 51
57.39452166
  0
ARC
  5
37B
330
2D4
100
AcDbEntity
  8
0
  6
Continuous
 62
     7
370
    25
100
AcDbCircle
 10
-390.6085273341
 20
291.8564646789
 30
0.0
 40
1.53680480757194
100
AcDbArc
 50
122.60547834
 51
177.3945215143
  0
ARC
  5
37C
330
2D4
100
AcDbEntity
  8
0
  6
Continuous
 62
     7
370
    25
100
AcDbCircle
 10
286.47120266
 20
243.3947739521
 30
0.0
 40
0.5029392784935462
100
AcDbArc
 50
294.3746582936
 51
354.3052007488
  0
ARC
  5
37D
330
2D4
100
AcDbEntity
  8
0
  6
Continuous
 62
     7
370
    25
100
AcDbCircle
 10
-391.9361795918
 20
260.5393443004
 30
0.0
 40
0.5029392784934241
100
AcDbArc
 50
185.6947992512
 51
245.6253417065
  0
ARC
  5
37E
330
2D4
100
AcDbEntity
  8
0
  6
Continuous
 62
     7
370
    25
100
AcDbCircle
 10
-36.1761392798
 20
-372.8042726109
 30
0.0
 40
1.537021907911784
100
AcDbArc
 50
242.6096722366
 51
297.3903277634
  0
ARC
  5
37F
330
2D4
100
AcDbEntity
  8
0
  6
Continuous
 62
     7
370
    25
100
AcDbCircle
 10
-36.6756822173
 20
-373.710873263
 30
0.0
 40
0.5029392784934533
100
AcDbArc
 50
185.6947992512
 51
245.6253417064
  0
ARC
  5
380
330
2D4
100
AcDbEntity
  8
0
  6
Continuous
 62
     7
370
    25
100
AcDbCircle
 10
-39.0908099047
 20
-157.3276908134
 30
0.0
 40
0.5029392784938237
100
AcDbArc
 50
294.3746582936
 51
354.3052007488
  0
ARC
  5
381
330
2D4
100
AcDbEntity
  8
0
  6
Continuous
 62
     7
370
    25
100
AcDbCircle
 10
-39.0908099047
 20
-373.7110059631
 30
0.0
 40
0.5029392784938589
100
AcDbArc
 50
294.3746582936
 51
354.3052007488
  0
ARC
  5
382
330
2D4
100
AcDbEntity
  8
0
  6
Continuous
 62
     8
370
    25
100
AcDbCircle
 10
286.2645797773
 20
275.5976187215
 30
0.0
 40
0.5029772359017585
100
AcDbArc
 50
65.6928809539
 51
125.6175774752
  0
ARC
  5
383
330
2D4
100
AcDbEntity
  8
0
  6
Continuous
 62
     8
370
    25
100
AcDbCircle
 10
286.47120266
 20
275.2398656157
 30
0.0
 40
0.502939278493598
100
AcDbArc
 50
294.3746582936
 51
354.3052007488
  0
ARC
  5
384
330
2D4
100
AcDbEntity
  8
0
  6
Continuous
 62
     8
370
    25
100
AcDbCircle
 10
-67.288810816
 20
479.6996466772
 30
0.0
 40
0.5029772359015674
100
AcDbArc
 50
65.6928809539
 51
125.6175774752
  0
ARC
  5
385
330
2D4
100
AcDbEntity
  8
0
  6
Continuous
 62
     8
370
    25
100
AcDbCircle
 10
-391.9361795918
 20
292.3844359639
 30
0.0
 40
0.5029392784938472
100
AcDbArc
 50
185.6947992512
 51
245.6253417064
  0
ARC
  5
386
330
2D4
100
AcDbEntity
  8
0
  6
Continuous
 62
     8
370
    25
100
AcDbCircle
 10
-391.7295567091
 20
292.7421890698
 30
0.0
 40
0.5029772359015513
100
AcDbArc
 50
54.3824225248
 51
114.3071190461
  0
ARC
  5
387
330
2D4
100
AcDbEntity
  8
0
  6
Continuous
 62
     8
370
    25
100
AcDbCircle
 10
-67.8746509257
 20
479.6996466772
 30
0.0
 40
0.5029772359015622
100
AcDbArc
 50
54.3824225248
 51
114.3071190461
  0
ARC
  5
388
330
2D4
100
AcDbEntity
  8
0
  6
Continuous
 62
     8
370
    25
100
AcDbCircle
 10
285.7640958788
 20
-188.1471114795
 30
0.0
 40
0.502939278493524
100
AcDbArc
 50
294.3746582936
 51
354.3052007488
  0
ARC
  5
389
330
2D4
100
AcDbEntity
  8
0
  6
Continuous
 62
     8
370
    25
100
AcDbCircle
 10
-35.9590344009
 20
-374.2230704332
 30
0.0
 40
0.4929779299696646
100
AcDbArc
 50
305.0133328727
 51
6.2988475207
  0
ARC
  5
38A
330
2D4
100
AcDbEntity
  8
0
  6
Continuous
 62
     8
370
    25
100
AcDbCircle
 10
285.4959741665
 20
-188.6657859409
 30
0.0
 40
0.4795255464817825
100
AcDbArc
 50
304.0563508365
 51
7.2558295569
  0
VIEWPORT
  5
4F6
330
2D4
100
AcDbEntity
  8
0
100
AcDbViewport
 10
0.0
 20
0.0
 30
0.0
 40
205.6
 41
156.0
 68
     1
 69
     1
 12
-54.0461917755
 22
46.7615598902
 13
0.0
 23
0.0
 14
10.0
 24
10.0
 15
10.0
 25
10.0
 16
0.0
 26
0.0
 36
1.0
 17
0.0
 27
0.0
 37
0.0
 42
50.0
 43
0.0
 44
0.0
 45
581.4
 50
0.0
 51
0.0
 72
   100
 90
   557152
  1

281
     0
 71
     1
 74
     0
110
0.0
120
0.0
130
0.0
111
1.0
121
0.0
131
0.0
112
0.0
122
1.0
132
0.0
 79
     0
146
0.0
  0
ENDBLK
  5
2D7
330
2D4
100
AcDbEntity
  8
0
100
AcDbBlockEnd
  0
BLOCK
  5
38D
330
38B
100
AcDbEntity
  8
0
100
AcDbBlockBegin
  2
*Paper_Space5
 70
     0
 10
0.0
 20
0.0
 30
0.0
  3
*Paper_Space5
  1

  0
LWPOLYLINE
  5
3BC
330
38B
100
AcDbEntity
  8
0
  6
Continuous
 62
     7
370
    25
100
AcDbPolyline
 90
        7
 70
   128
 43
0.0
 10
-385.8246015966
 20
209.0526748741
 10
-385.9881755918
 20
209.1083204117
 10
-386.1275286879
 20
209.1793324782
 10
-386.2373056238
 20
209.2629821197
 10
-386.3132877332
 20
209.3560547274
 10
-386.3525550664
 20
209.4549735731
 10
-386.3579062077
 20
209.5081838809
  0
SPLINE
  5
3C6
330
38B
100
AcDbEntity
  8
0
  6
Continuous
 62
     7
370
    25
100
AcDbSpline
210
0.0
220
0.0
230
1.0
 70
     8
 71
     3
 72
    14
 73
    10
 74
     0
 42
0.000000001
 43
0.00000001
 40
0.0
 40
0.0
 40
0.0
 40
0.0
 40
0.2899157761896898
 40
0.4461984241462345
 40
0.5938544572865547
 40
0.7276057062193289
 40
0.8519226003572861
 40
0.972090578731466
 40
1.0
 40
1.0
 40
1.0
 40
1.0
 10
-380.9872003512718
 20
169.1179203419542
 30
0.0
 10
-381.1298846830419
 20
169.3203522391294
 30
0.0
 10
-381.3494847504232
 20
169.6319075284055
 30
0.0
 10
-381.5053237192606
 20
170.0902095061404
 30
0.0
 10
-381.5367724270018
 20
170.4135916325165
 30
0.0
 10
-381.4529453932968
 20
170.6569930078423
 30
0.0
 10
-381.2711651887273
 20
170.7646926705801
 30
0.0
 10
-381.1029458282735
 20
170.7734295425879
 30
0.0
 10
-381.0057729539708
 20
170.7375053433576
 30
0.0
 10
-380.9874579464725
 20
170.7307344005096
 30
0.0
  0
SPLINE
  5
3C7
330
38B
100
AcDbEntity
  8
0
  6
Continuous
 62
     7
370
    25
100
AcDbSpline
210
0.0
220
0.0
230
1.0
 70
     8
 71
     3
 72
    14
 73
    10
 74
     0
 42
0.000000001
 43
0.00000001
 40
0.0
 40
0.0
 40
0.0
 40
0.0
 40
0.2899157761897369
 40
0.4461984241462807
 40
0.5938544572866
 40
0.7276057062193436
 40
0.8519226003573281
 40
0.9720905787315519
 40
1.0
 40
1.0
 40
1.0
 40
1.0
 10
53.4138395524046
 20
51.05702578448501
 30
0.0
 10
53.57940657731085
 20
51.17568156794309
 30
0.0
 10
53.83422453366596
 20
51.35830020391612
 30
0.0
 10
54.22904536828632
 20
51.66694464628378
 30
0.0
 10
54.51701704415633
 20
51.90351515674507
 30
0.0
 10
54.74661208259911
 20
52.10729991181395
 30
0.0
 10
54.86549334137315
 20
52.23209416025735
 30
0.0
 10
54.89347762254483
 20
52.27894392193992
 30
0.0
 10
54.87268200282472
 20
52.27508103162585
 30
0.0
 10
54.86876247349272
 20
52.27435295945991
 30
0.0
  0
SPLINE
  5
3C8
330
38B
100
AcDbEntity
  8
0
  6
Continuous
 62
     7
370
    25
100
AcDbSpline
210
0.0
220
0.0
230
1.0
 70
     8
 71
     3
 72
    14
 73
    10
 74
     0
 42
0.000000001
 43
0.00000001
 40
0.0
 40
0.0
 40
0.0
 40
0.0
 40
0.25
 40
0.25
 40
0.5
 40
0.5
 40
0.75
 40
0.75
 40
1.0
 40
1.0
 40
1.0
 40
1.0
 10
54.76495306301207
 20
-136.0924196359882
 30
0.0
 10
54.70995248396859
 20
-136.1461018872554
 30
0.0
 10
54.63161755266814
 20
-136.1804446930979
 30
0.0
 10
54.43051936828365
 20
-136.1856161494266
 30
0.0
 10
54.30782018001742
 20
-136.1557346236231
 30
0.0
 10
54.04399885661464
 20
-136.0303716028565
 30
0.0
 10
53.90376928159932
 20
-135.9353142359798
 30
0.0
 10
53.64054403875618
 20
-135.7095048619151
 30
0.0
 10
53.51806922761163
 20
-135.5797409749122
 30
0.0
 10
53.4138395524046
 20
-135.4503954474064
 30
0.0
  0
SPLINE
  5
3CD
330
38B
100
AcDbEntity
  8
0
  6
Continuous
 62
     7
370
    25
100
AcDbSpline
210
0.0
220
0.0
230
1.0
 70
     8
 71
     3
 72
    10
 73
     6
 74
     0
 42
0.000000001
 43
0.00000001
 40
0.0
 40
0.0
 40
0.0
 40
0.0
 40
0.2702021513145871
 40
0.6390788069613239
 40
1.0
 40
1.0
 40
1.0
 40
1.0
 10
-381.5114797726085
 20
-17.69792487529788
 30
0.0
 10
-381.4927400618416
 20
-17.69476902936519
 30
0.0
 10
-381.4484171282847
 20
-17.68730486135686
 30
0.0
 10
-381.2619900765234
 20
-17.57693120839073
 30
0.0
 10
-381.0781288412666
 20
-17.45152197104066
 30
0.0
 10
-380.9872003512718
 20
-17.3895008899372
 30
0.0
  0
SPLINE
  5
3CE
330
38B
100
AcDbEntity
  8
0
  6
Continuous
 62
     7
370
    25
100
AcDbSpline
210
0.0
220
0.0
230
1.0
 70
     8
 71
     3
 72
    14
 73
    10
 74
     0
 42
0.000000001
 43
0.00000001
 40
0.0
 40
0.0
 40
0.0
 40
0.0
 40
0.25
 40
0.25
 40
0.5
 40
0.5
 40
0.75
 40
0.75
 40
1.0
 40
1.0
 40
1.0
 40
1.0
 10
54.76495306301207
 20
-363.2417543220537
 30
0.0
 10
54.70995248396859
 20
-363.2954365733208
 30
0.0
 10
54.63161755266814
 20
-363.3297793791634
 30
0.0
 10
54.43051936828365
 20
-363.3349508354921
 30
0.0
 10
54.30782018001742
 20
-363.3050693096886
 30
0.0
 10
54.04399885661464
 20
-363.179706288922
 30
0.0
 10
53.90376928159932
 20
-363.0846489220453
 30
0.0
 10
53.64054403875618
 20
-362.8588395479806
 30
0.0
 10
53.51806922761163
 20
-362.7290756609777
 30
0.0
 10
53.4138395524046
 20
-362.5997301334719
 30
0.0
  0
SPLINE
  5
3D0
330
38B
100
AcDbEntity
  8
0
  6
Continuous
 62
     7
370
    25
100
AcDbSpline
210
0.0
220
0.0
230
1.0
 70
     8
 71
     3
 72
    13
 73
     9
 74
     0
 42
0.000000001
 43
0.00000001
 40
0.0
 40
0.0
 40
0.0
 40
0.0
 40
0.3049607282549586
 40
0.4693535417845184
 40
0.6246720690806703
 40
0.765364234286758
 40
0.8961324562475431
 40
1.0
 40
1.0
 40
1.0
 40
1.0
 10
53.4138395524046
 20
-176.0923089015805
 30
0.0
 10
53.57945297385135
 20
-175.9736158243666
 30
0.0
 10
53.83434233736995
 20
-175.7909397909823
 30
0.0
 10
54.22881940458304
 20
-175.4825716704608
 30
0.0
 10
54.51779566152528
 20
-175.2451936730461
 30
0.0
 10
54.74407734350189
 20
-175.044072209365
 30
0.0
 10
54.86675441437483
 20
-174.9178829538658
 30
0.0
 10
54.87221947813291
 20
-174.8937822320921
 30
0.0
 10
54.87463872886936
 20
-174.8831134290402
 30
0.0
  0
SPLINE
  5
3D3
330
38B
100
AcDbEntity
  8
0
  6
Continuous
 62
     7
370
    25
100
AcDbSpline
210
0.0
220
0.0
230
1.0
 70
     8
 71
     3
 72
    14
 73
    10
 74
     0
 42
0.000000001
 43
0.00000001
 40
0.0
 40
0.0
 40
0.0
 40
0.0
 40
0.289915776189681
 40
0.4461984241462215
 40
0.5938544572865276
 40
0.7276057062193017
 40
0.8519226003572563
 40
0.9720905787314374
 40
1.0
 40
1.0
 40
1.0
 40
1.0
 10
-380.9872003512718
 20
-58.03141434411135
 30
0.0
 10
-381.129884683042
 20
-57.82898244693624
 30
0.0
 10
-381.3494847504232
 20
-57.51742715766015
 30
0.0
 10
-381.5053237192606
 20
-57.05912517992513
 30
0.0
 10
-381.5367724270017
 20
-56.73574305354909
 30
0.0
 10
-381.4529453932968
 20
-56.49234167822313
 30
0.0
 10
-381.2711651887274
 20
-56.38464201548544
 30
0.0
 10
-381.1029458282734
 20
-56.37590514347763
 30
0.0
 10
-381.0057729539708
 20
-56.41182934270797
 30
0.0
 10
-380.9874579464725
 20
-56.41860028555599
 30
0.0
  0
SPLINE
  5
3D6
330
38B
100
AcDbEntity
  8
0
  6
Continuous
 62
     7
370
    25
100
AcDbSpline
210
0.0
220
0.0
230
1.0
 70
     8
 71
     3
 72
    10
 73
     6
 74
     0
 42
0.000000001
 43
0.00000001
 40
0.0
 40
0.0
 40
0.0
 40
0.0
 40
0.2702021513146046
 40
0.6390788069613036
 40
1.0
 40
1.0
 40
1.0
 40
1.0
 10
-381.5114797726085
 20
-244.8472595613633
 30
0.0
 10
-381.4927400618416
 20
-244.8441037154307
 30
0.0
 10
-381.4484171282846
 20
-244.8366395474223
 30
0.0
 10
-381.2619900765235
 20
-244.7262658944563
 30
0.0
 10
-381.0781288412666
 20
-244.6008566571062
 30
0.0
 10
-380.9872003512717
 20
-244.5388355760027
 30
0.0
  0
LWPOLYLINE
  5
3D7
330
38B
100
AcDbEntity
  8
0
  6
Continuous
 62
     8
370
    25
100
AcDbPolyline
 90
        7
 70
   128
 43
0.0
 10
-386.3579062077
 20
242.9377086083
 10
-386.3525550664
 20
242.8844983005
 10
-386.3132877332
 20
242.7855794547
 10
-386.2373056238
 20
242.6925068471
 10
-386.1275286879
 20
242.6088572056
 10
-385.9881755918
 20
242.5378451391
 10
-385.8246015966
 20
242.4821996014
  0
LWPOLYLINE
  5
3E1
330
38B
100
AcDbEntity
  8
0
  6
Continuous
 62
     8
370
    25
100
AcDbPolyline
 90
        8
 70
   128
 43
0.0
 10
-382.5847157827
 20
-243.1105369181
 10
-382.8747671306
 20
-243.133509834
 10
-383.1652769114
 20
-243.1121286452
 10
-383.4312266179
 20
-243.0482346852
 10
-383.6497128399
 20
-242.9473304591
 10
-383.8019196906
 20
-242.818105771
 10
-383.8747392184
 20
-242.6716893642
 10
-383.8800903597
 20
-242.6184790564
  0
LWPOLYLINE
  5
3E2
330
38B
100
AcDbEntity
  8
0
  6
Continuous
 62
     8
370
    25
100
AcDbPolyline
 90
        7
 70
   128
 43
0.0
 10
-382.5847157827
 20
-243.1105369181
 10
-382.5903913224
 20
-243.268307209
 10
-382.6071998336
 20
-243.4011049684
 10
-382.6344953747
 20
-243.5038268529
 10
-382.6712289933
 20
-243.5725253181
 10
-382.7159890371
 20
-243.6045603205
 10
-382.722837559
 20
-243.6060374378
  0
LINE
  5
3EE
330
38B
100
AcDbEntity
  8
0
  6
Continuous
 62
     7
370
    25
100
AcDbLine
 10
-386.3579062077
 20
242.9377086083
 30
0.0
 11
-386.3579062077
 21
209.5081838809
 31
0.0
  0
LINE
  5
3EF
330
38B
100
AcDbEntity
  8
0
  6
Continuous
 62
     7
370
    25
100
AcDbLine
 10
-172.3098962364
 20
452.2764650975
 30
0.0
 11
-386.0563843664
 21
243.6533399812
 31
0.0
  0
LINE
  5
3F0
330
38B
100
AcDbEntity
  8
0
  6
Continuous
 62
     7
370
    25
100
AcDbLine
 10
270.8599079526
 20
332.3428822216
 30
0.0
 11
-171.3491528861
 21
452.5258295636
 31
0.0
  0
LINE
  5
3F1
330
38B
100
AcDbEntity
  8
0
  6
Continuous
 62
     7
370
    25
100
AcDbLine
 10
271.597642761
 20
297.9483616553
 30
0.0
 11
271.597642761
 21
331.3778863826
 31
0.0
  0
LINE
  5
3F2
330
38B
100
AcDbEntity
  8
0
  6
Continuous
 62
     7
370
    25
100
AcDbLine
 10
-383.8800903597
 20
208.5241983857
 30
0.0
 11
-383.8800903597
 21
-242.6184790564
 31
0.0
  0
LINE
  5
3F3
330
38B
100
AcDbEntity
  8
0
  6
Continuous
 62
     7
370
    25
100
AcDbLine
 10
-382.722837559
 20
-243.6060374378
 30
0.0
 11
-381.5205049623
 21
-243.4145852951
 31
0.0
  0
LINE
  5
3F4
330
38B
100
AcDbEntity
  8
0
  6
Continuous
 62
     7
370
    25
100
AcDbLine
 10
49.8765705117
 20
90.6384322418
 30
0.0
 11
49.8765705117
 21
53.6370004271
 31
0.0
  0
LINE
  5
3F5
330
38B
100
AcDbEntity
  8
0
  6
Continuous
 62
     7
370
    25
100
AcDbLine
 10
49.8765705117
 20
-134.9429686016
 30
0.0
 11
49.8765705117
 21
-173.512334259
 31
0.0
  0
LINE
  5
3F6
330
38B
100
AcDbEntity
  8
0
  6
Continuous
 62
     7
370
    25
100
AcDbLine
 10
54.8805349413
 20
-359.7997844058
 30
0.0
 11
56.7027488429
 21
-362.8353695435
 31
0.0
  0
LINE
  5
3F7
330
38B
100
AcDbEntity
  8
0
  6
Continuous
 62
     7
370
    25
100
AcDbLine
 10
58.2586123943
 20
-363.0363259819
 30
0.0
 11
270.4117027979
 21
-155.9684058944
 31
0.0
  0
LINE
  5
3F8
330
38B
100
AcDbEntity
  8
0
  6
Continuous
 62
     7
370
    25
100
AcDbLine
 10
270.7132246393
 20
-155.2527745215
 30
0.0
 11
270.7132246393
 21
296.9575880173
 31
0.0
  0
LINE
  5
3F9
330
38B
100
AcDbEntity
  8
0
  6
Continuous
 62
     7
370
    25
100
AcDbLine
 10
54.8703903912
 20
52.2797871885
 30
0.0
 11
-380.9858300288
 21
170.7361686295
 31
0.0
  0
LINE
  5
3FA
330
38B
100
AcDbEntity
  8
0
  6
Continuous
 62
     7
370
    25
100
AcDbLine
 10
54.8805349413
 20
-135.8520537413
 30
0.0
 11
54.8805349413
 21
52.2659433353
 31
0.0
  0
LINE
  5
3FB
330
38B
100
AcDbEntity
  8
0
  6
Continuous
 62
     7
370
    25
100
AcDbLine
 10
-381.5123940094
 20
-17.7006915922
 30
0.0
 11
54.347893605
 21
-136.1581784095
 31
0.0
  0
LINE
  5
3FC
330
38B
100
AcDbEntity
  8
0
  6
Continuous
 62
     7
370
    25
100
AcDbLine
 10
-381.5205049623
 20
170.3235059689
 30
0.0
 11
-381.5205049623
 21
-17.7911591838
 31
0.0
  0
LINE
  5
3FD
330
38B
100
AcDbEntity
  8
0
  6
Continuous
 62
     7
370
    25
100
AcDbLine
 10
54.8805349413
 20
-363.0013884274
 30
0.0
 11
54.8805349413
 21
-174.8833913508
 31
0.0
  0
LINE
  5
3FE
330
38B
100
AcDbEntity
  8
0
  6
Continuous
 62
     7
370
    25
100
AcDbLine
 10
54.8703903912
 20
-174.8695474976
 30
0.0
 11
-380.9858300288
 21
-56.4131660565
 31
0.0
  0
LINE
  5
3FF
330
38B
100
AcDbEntity
  8
0
  6
Continuous
 62
     7
370
    25
100
AcDbLine
 10
-381.5123940094
 20
-244.8500262782
 30
0.0
 11
54.347893605
 21
-363.3075130956
 31
0.0
  0
LINE
  5
400
330
38B
100
AcDbEntity
  8
0
  6
Continuous
 62
     7
370
    25
100
AcDbLine
 10
-381.5205049623
 20
-56.8258287171
 30
0.0
 11
-381.5205049623
 21
-244.9404938699
 31
0.0
  0
LINE
  5
401
330
38B
100
AcDbEntity
  8
0
  6
Continuous
 62
     7
370
    25
100
AcDbLine
 10
-385.3579062077
 20
243.794875909
 30
0.0
 11
56.851154631
 21
123.611928567
 31
0.0
  0
LINE
  5
402
330
38B
100
AcDbEntity
  8
0
  6
Continuous
 62
     7
370
    25
100
AcDbLine
 10
56.3844592421
 20
122.2992522595
 30
0.0
 11
-385.8246015966
 21
242.4821996014
 31
0.0
  0
LINE
  5
403
330
38B
100
AcDbEntity
  8
0
  6
Continuous
 62
     7
370
    25
100
AcDbLine
 10
56.3844592421
 20
88.8697275321
 30
0.0
 11
56.3844592421
 21
122.2992522595
 31
0.0
  0
LINE
  5
404
330
38B
100
AcDbEntity
  8
0
  6
Continuous
 62
     7
370
    25
100
AcDbLine
 10
57.7355727527
 20
122.5143953716
 30
0.0
 11
57.7355727527
 21
89.0848706442
 31
0.0
  0
LINE
  5
405
330
38B
100
AcDbEntity
  8
0
  6
Continuous
 62
     7
370
    25
100
AcDbLine
 10
271.4820608826
 20
331.137520488
 30
0.0
 11
57.7355727527
 21
122.5143953716
 31
0.0
  0
LINE
  5
406
330
38B
100
AcDbEntity
  8
0
  6
Continuous
 62
     7
370
    25
100
AcDbLine
 10
56.851154631
 20
123.611928567
 30
0.0
 11
270.597642761
 21
332.2350536833
 31
0.0
  0
LINE
  5
407
330
38B
100
AcDbEntity
  8
0
  6
Continuous
 62
     7
370
    25
100
AcDbLine
 10
-385.8246015966
 20
209.0526748741
 30
0.0
 11
56.3844592421
 21
88.8697275321
 31
0.0
  0
LINE
  5
408
330
38B
100
AcDbEntity
  8
0
  6
Continuous
 62
     7
370
    25
100
AcDbLine
 10
-385.8246015966
 20
242.4821996014
 30
0.0
 11
-385.8246015966
 21
209.0526748741
 31
0.0
  0
LINE
  5
409
330
38B
100
AcDbEntity
  8
0
  6
Continuous
 62
     7
370
    25
100
AcDbLine
 10
270.597642761
 20
332.2350536833
 30
0.0
 11
-171.6114180778
 21
452.4180010253
 31
0.0
  0
LINE
  5
40A
330
38B
100
AcDbEntity
  8
0
  6
Continuous
 62
     7
370
    25
100
AcDbLine
 10
-171.6114180778
 20
452.4180010253
 30
0.0
 11
-385.3579062077
 21
243.794875909
 31
0.0
  0
LINE
  5
40B
330
38B
100
AcDbEntity
  8
0
  6
Continuous
 62
     7
370
    25
100
AcDbLine
 10
271.4820608826
 20
297.7079957606
 30
0.0
 11
271.4820608826
 21
331.137520488
 31
0.0
  0
LINE
  5
40C
330
38B
100
AcDbEntity
  8
0
  6
Continuous
 62
     7
370
    25
100
AcDbLine
 10
57.7355727527
 20
89.0848706442
 30
0.0
 11
271.4820608826
 21
297.7079957606
 31
0.0
  0
LINE
  5
40D
330
38B
100
AcDbEntity
  8
0
  6
Continuous
 62
     7
370
    25
100
AcDbLine
 10
58.4445523574
 20
-362.5610605037
 30
0.0
 11
270.597642761
 21
-155.4931404162
 31
0.0
  0
LINE
  5
40E
330
38B
100
AcDbEntity
  8
0
  6
Continuous
 62
     7
370
    25
100
AcDbLine
 10
49.7988408305
 20
53.6581256889
 30
0.0
 11
49.7988408305
 21
90.6595575036
 31
0.0
  0
LINE
  5
40F
330
38B
100
AcDbEntity
  8
0
  6
Continuous
 62
     7
370
    25
100
AcDbLine
 10
-360.5711676279
 20
202.189332637
 30
0.0
 11
-360.5711676279
 21
165.1879008222
 31
0.0
  0
LINE
  5
410
330
38B
100
AcDbEntity
  8
0
  6
Continuous
 62
     7
370
    25
100
AcDbLine
 10
49.7988408305
 20
-173.4912089972
 30
0.0
 11
49.7988408305
 21
-134.9218433398
 31
0.0
  0
LINE
  5
411
330
38B
100
AcDbEntity
  8
0
  6
Continuous
 62
     7
370
    25
100
AcDbLine
 10
-360.5711676279
 20
-23.3920682065
 30
0.0
 11
-360.5711676279
 21
-61.9614338638
 31
0.0
  0
LINE
  5
412
330
38B
100
AcDbEntity
  8
0
  6
Continuous
 62
     7
370
    25
100
AcDbLine
 10
53.4138395524
 20
51.0570257845
 30
0.0
 11
-380.9872003513
 21
169.117920342
 31
0.0
  0
LINE
  5
413
330
38B
100
AcDbEntity
  8
0
  6
Continuous
 62
     7
370
    25
100
AcDbLine
 10
53.4138395524
 20
-135.4503954474
 30
0.0
 11
53.4138395524
 21
51.0570257845
 31
0.0
  0
LINE
  5
414
330
38B
100
AcDbEntity
  8
0
  6
Continuous
 62
     7
370
    25
100
AcDbLine
 10
-380.9872003513
 20
-17.3895008899
 30
0.0
 11
53.4138395524
 21
-135.4503954474
 31
0.0
  0
LINE
  5
415
330
38B
100
AcDbEntity
  8
0
  6
Continuous
 62
     7
370
    25
100
AcDbLine
 10
-380.9872003513
 20
169.117920342
 30
0.0
 11
-380.9872003513
 21
-17.3895008899
 31
0.0
  0
LINE
  5
416
330
38B
100
AcDbEntity
  8
0
  6
Continuous
 62
     7
370
    25
100
AcDbLine
 10
53.4138395524
 20
-362.5997301335
 30
0.0
 11
53.4138395524
 21
-176.0923089016
 31
0.0
  0
LINE
  5
417
330
38B
100
AcDbEntity
  8
0
  6
Continuous
 62
     7
370
    25
100
AcDbLine
 10
53.4138395524
 20
-176.0923089016
 30
0.0
 11
-380.9872003513
 21
-58.0314143441
 31
0.0
  0
LINE
  5
418
330
38B
100
AcDbEntity
  8
0
  6
Continuous
 62
     7
370
    25
100
AcDbLine
 10
-380.9872003513
 20
-244.538835576
 30
0.0
 11
53.4138395524
 21
-362.5997301335
 31
0.0
  0
LINE
  5
419
330
38B
100
AcDbEntity
  8
0
  6
Continuous
 62
     7
370
    25
100
AcDbLine
 10
-380.9872003513
 20
-58.0314143441
 30
0.0
 11
-380.9872003513
 21
-244.538835576
 31
0.0
  0
LINE
  5
41A
330
38B
100
AcDbEntity
  8
0
  6
Continuous
 62
     8
370
    25
100
AcDbLine
 10
-382.5847157827
 20
208.1721433322
 30
0.0
 11
-382.5847157827
 21
-243.1105369181
 31
0.0
  0
LINE
  5
41B
330
38B
100
AcDbEntity
  8
0
  6
Continuous
 62
     8
370
    25
100
AcDbLine
 10
-360.966899613
 20
-61.8538823898
 30
0.0
 11
-360.966899613
 21
-23.2845167324
 31
0.0
  0
LINE
  5
41C
330
38B
100
AcDbEntity
  8
0
  6
Continuous
 62
     8
370
    25
100
AcDbLine
 10
-360.966899613
 20
165.2954522963
 30
0.0
 11
-360.966899613
 21
202.296884111
 31
0.0
  0
LINE
  5
41D
330
38B
100
AcDbEntity
  8
0
  6
Continuous
 62
     8
370
    25
100
AcDbLine
 10
-382.5847157827
 20
-243.1105369181
 30
0.0
 11
-381.5205049623
 21
-242.9410784485
 31
0.0
  0
LINE
  5
41E
330
38B
100
AcDbEntity
  8
0
  6
Continuous
 62
     8
370
    25
100
AcDbLine
 10
58.4445523574
 20
89.7768564732
 30
0.0
 11
58.4445523574
 21
-362.5610605037
 31
0.0
  0
LINE
  5
41F
330
38B
100
AcDbEntity
  8
0
  6
Continuous
 62
     8
370
    25
100
AcDbLine
 10
57.0934388468
 20
-362.7762036158
 30
0.0
 11
57.0934388468
 21
88.8255438597
 31
0.0
  0
LINE
  5
420
330
38B
100
AcDbEntity
  8
0
  6
Continuous
 62
     8
370
    25
100
AcDbLine
 10
56.6047527102
 20
-362.4728237625
 30
0.0
 11
56.6047527102
 21
88.8260782558
 31
0.0
  0
LINE
  5
421
330
38B
100
AcDbEntity
  8
0
  6
Continuous
 62
     8
370
    25
100
AcDbLine
 10
270.597642761
 20
-155.4931404162
 30
0.0
 11
270.597642761
 21
296.8447765607
 31
0.0
  0
LINE
  5
422
330
38B
100
AcDbEntity
  8
0
  6
Continuous
 62
     8
370
    25
100
AcDbLine
 10
54.8805349413
 20
-359.6004881773
 30
0.0
 11
56.6047527102
 21
-362.4728237625
 31
0.0
  0
LINE
  5
423
330
38B
100
AcDbEntity
  8
0
  6
Continuous
 62
     8
370
    25
100
AcDbLine
 10
49.9211889862
 20
90.6263058965
 30
0.0
 11
49.9211889862
 21
53.6248740818
 31
0.0
  0
LINE
  5
424
330
38B
100
AcDbEntity
  8
0
  6
Continuous
 62
     8
370
    25
100
AcDbLine
 10
49.9211889862
 20
-134.9550949469
 30
0.0
 11
49.9211889862
 21
-173.5244606043
 31
0.0
  0
ARC
  5
425
330
38B
100
AcDbEntity
  8
0
  6
Continuous
 62
     7
370
    25
100
AcDbCircle
 10
-385.3579062077
 20
242.9377086083
 30
0.0
 40
1.00000000000109
100
AcDbArc
 50
134.305033619
 51
180.0
  0
ARC
  5
426
330
38B
100
AcDbEntity
  8
0
  6
Continuous
 62
     7
370
    25
100
AcDbCircle
 10
270.597642761
 20
331.3778863826
 30
0.0
 40
1.000000000000057
100
AcDbArc
 50
0.0
 51
74.7954868413
  0
ARC
  5
427
330
38B
100
AcDbEntity
  8
0
  6
Continuous
 62
     7
370
    25
100
AcDbCircle
 10
-171.6114180778
 20
451.5608337246
 30
0.0
 40
0.9999999999994035
100
AcDbArc
 50
74.7954868413
 51
134.305033619
  0
ARC
  5
428
330
38B
100
AcDbEntity
  8
0
  6
Continuous
 62
     7
370
    25
100
AcDbCircle
 10
-382.8800903597
 20
-242.6184790564
 30
0.0
 40
0.9999999999997158
100
AcDbArc
 50
180.0
 51
279.0474747534
  0
ARC
  5
429
330
38B
100
AcDbEntity
  8
0
  6
Continuous
 62
     7
370
    25
100
AcDbCircle
 10
57.5601342357
 20
-362.320694609
 30
0.0
 40
1.00000000000071
100
AcDbArc
 50
210.9757296288
 51
314.305033619
  0
ARC
  5
42A
330
38B
100
AcDbEntity
  8
0
  6
Continuous
 62
     7
370
    25
100
AcDbCircle
 10
269.7132246393
 20
-155.2527745215
 30
0.0
 40
1.000000000000057
100
AcDbArc
 50
314.305033619
 51
360.0
  0
ARC
  5
42B
330
38B
100
AcDbEntity
  8
0
  6
Continuous
 62
     7
370
    25
100
AcDbCircle
 10
58.4294146904
 20
122.3115100863
 30
0.0
 40
2.044992185835163
100
AcDbArc
 50
140.5129436103
 51
180.3434369839
  0
ARC
  5
42C
330
38B
100
AcDbEntity
  8
0
  6
Continuous
 62
     7
370
    25
100
AcDbCircle
 10
56.5232005578
 20
122.4425463604
 30
0.0
 40
1.214499328616583
100
AcDbArc
 50
3.391562315
 51
74.3338098233
  0
ARC
  5
42D
330
38B
100
AcDbEntity
  8
0
  6
Continuous
 62
     7
370
    25
100
AcDbCircle
 10
56.8428525618
 20
123.7706250963
 30
0.0
 40
1.54112376547881
100
AcDbArc
 50
252.6960345908
 51
305.398914916
  0
ARC
  5
42E
330
38B
100
AcDbEntity
  8
0
  6
Continuous
 62
     7
370
    25
100
AcDbCircle
 10
-383.7796461483
 20
242.4944574283
 30
0.0
 40
2.04499218583662
100
AcDbArc
 50
140.5129436103
 51
180.3434369839
  0
ARC
  5
42F
330
38B
100
AcDbEntity
  8
0
  6
Continuous
 62
     7
370
    25
100
AcDbCircle
 10
56.8428525618
 20
90.3411003689
 30
0.0
 40
1.541123765479024
100
AcDbArc
 50
252.6960345908
 51
305.398914916
  0
ARC
  5
430
330
38B
100
AcDbEntity
  8
0
  6
Continuous
 62
     7
370
    25
100
AcDbCircle
 10
270.2696886878
 20
331.0656714767
 30
0.0
 40
1.2144993286168
100
AcDbArc
 50
3.391562315
 51
74.3338098233
  0
ARC
  5
431
330
38B
100
AcDbEntity
  8
0
  6
Continuous
 62
     7
370
    25
100
AcDbCircle
 10
271.2657869322
 20
297.9599650196
 30
0.0
 40
0.3320586230397781
100
AcDbArc
 50
310.6406362013
 51
357.9974645044
  0
ARC
  5
432
330
38B
100
AcDbEntity
  8
0
  6
Continuous
 62
     7
370
    25
100
AcDbCircle
 10
57.5518321665
 20
-361.304830779
 30
0.0
 40
1.541123765478672
100
AcDbArc
 50
252.6960345908
 51
305.398914916
  0
ARC
  5
433
330
38B
100
AcDbEntity
  8
0
  6
Continuous
 62
     7
370
    25
100
AcDbCircle
 10
57.2473868393
 20
-361.9829439949
 30
0.0
 40
0.8080599053666989
100
AcDbArc
 50
217.318260693
 51
259.0171262716
  0
ARC
  5
434
330
38B
100
AcDbEntity
  8
0
  6
Continuous
 62
     7
370
    25
100
AcDbCircle
 10
54.5373790206
 20
-135.8350166366
 30
0.0
 40
0.3435785919395619
100
AcDbArc
 50
311.4804043366
 51
357.1576963691
  0
ARC
  5
435
330
38B
100
AcDbEntity
  8
0
  6
Continuous
 62
     7
370
    25
100
AcDbCircle
 10
54.5373790206
 20
-362.9843513227
 30
0.0
 40
0.343578591939541
100
AcDbArc
 50
311.4804043366
 51
357.1576963691
  0
ARC
  5
436
330
38B
100
AcDbEntity
  8
0
  6
Continuous
 62
     8
370
    25
100
AcDbCircle
 10
-385.5861967222
 20
243.1272281835
 30
0.0
 40
0.7055990676827507
100
AcDbArc
 50
71.12277008
 51
131.7872519911
  0
ARC
  5
437
330
38B
100
AcDbEntity
  8
0
  6
Continuous
 62
     8
370
    25
100
AcDbCircle
 10
-171.8397085923
 20
451.7503532999
 30
0.0
 40
0.7055990676830374
100
AcDbArc
 50
71.12277008
 51
131.7872519911
  0
ARC
  5
438
330
38B
100
AcDbEntity
  8
0
  6
Continuous
 62
     8
370
    25
100
AcDbCircle
 10
270.8163506095
 20
332.0759636699
 30
0.0
 40
0.2704491734402497
100
AcDbArc
 50
80.7318299955
 51
143.9675277133
  0
ARC
  5
439
330
38B
100
AcDbEntity
  8
0
  6
Continuous
 62
     8
370
    25
100
AcDbCircle
 10
271.2657869322
 20
331.389489747
 30
0.0
 40
0.3320586230397142
100
AcDbArc
 50
310.6406362013
 51
357.9974645044
  0
ARC
  5
43A
330
38B
100
AcDbEntity
  8
0
  6
Continuous
 62
     8
370
    25
100
AcDbCircle
 10
-171.3927102292
 20
452.2589110118
 30
0.0
 40
0.2704491734363962
100
AcDbArc
 50
80.731829995
 51
143.9675277138
  0
ARC
  5
43B
330
38B
100
AcDbEntity
  8
0
  6
Continuous
 62
     8
370
    25
100
AcDbCircle
 10
57.3008945449
 20
-362.479173678
 30
0.0
 40
0.6961707947801618
100
AcDbArc
 50
179.4773862917
 51
210.7738055458
  0
ARC
  5
43C
330
38B
100
AcDbEntity
  8
0
  6
Continuous
 62
     8
370
    25
100
AcDbCircle
 10
57.7992324278
 20
-362.5825952226
 30
0.0
 40
0.6456791429340292
100
AcDbArc
 50
315.3544713609
 51
1.9112857848
  0
ARC
  5
43D
330
38B
100
AcDbEntity
  8
0
  6
Continuous
 62
     8
370
    25
100
AcDbCircle
 10
269.9523228314
 20
-155.5146751351
 30
0.0
 40
0.6456791429327774
100
AcDbArc
 50
315.3544713609
 51
1.9112857849
  0
ARC
  5
43E
330
38B
100
AcDbEntity
  8
0
  6
Continuous
 62
     8
370
    25
100
AcDbCircle
 10
270.3813688105
 20
-155.2411711571
 30
0.0
 40
0.3320586230396609
100
AcDbArc
 50
310.6406362013
 51
357.9974645044
  0
VIEWPORT
  5
4F8
330
38B
100
AcDbEntity
  8
0
100
AcDbViewport
 10
0.0
 20
0.0
 30
0.0
 40
205.6
 41
156.0
 68
     1
 69
     1
 12
-54.0461917755
 22
46.7615598902
 13
0.0
 23
0.0
 14
10.0
 24
10.0
 15
10.0
 25
10.0
 16
0.0
 26
0.0
 36
1.0
 17
0.0
 27
0.0
 37
0.0
 42
50.0
 43
0.0
 44
0.0
 45
581.4
 50
0.0
 51
0.0
 72
   100
 90
   557152
  1

281
     0
 71
     1
 74
     0
110
0.0
120
0.0
130
0.0
111
1.0
121
0.0
131
0.0
112
0.0
122
1.0
132
0.0
 79
     0
146
0.0
  0
ENDBLK
  5
38E
330
38B
100
AcDbEntity
  8
0
100
AcDbBlockEnd
  0
BLOCK
  5
441
330
43F
100
AcDbEntity
  8
0
100
AcDbBlockBegin
  2
*Paper_Space6
 70
     0
 10
0.0
 20
0.0
 30
0.0
  3
*Paper_Space6
  1

  0
LWPOLYLINE
  5
46E
330
43F
100
AcDbEntity
  8
0
  6
Continuous
 62
     7
370
    25
100
AcDbPolyline
 90
        8
 70
   128
 43
0.0
 10
-372.9844795518
 20
232.7915433858
 10
-373.1601764087
 20
232.8205262422
 10
-373.3155344753
 20
232.8603777866
 10
-373.4445834284
 20
232.9095665465
 10
-373.542363989
 20
232.9662022254
 10
-373.6051185051
 20
233.028108346
 10
-373.6304353557
 20
233.0929058908
 10
-373.6309261613
 20
233.103348168
  0
LWPOLYLINE
  5
46F
330
43F
100
AcDbEntity
  8
0
  6
Continuous
 62
     7
370
    25
100
AcDbPolyline
 90
        3
 70
   128
 43
0.0
 10
258.0037000553
 20
316.9843733292
 10
257.9901155225
 20
316.9296167709
 10
257.9391144021
 20
316.8665221991
  0
SPLINE
  5
479
330
43F
100
AcDbEntity
  8
0
  6
Continuous
 62
     7
370
    25
100
AcDbSpline
210
0.0
220
0.0
230
1.0
 70
     8
 71
     3
 72
    14
 73
    10
 74
     0
 42
0.000000001
 43
0.00000001
 40
0.0
 40
0.0
 40
0.0
 40
0.0
 40
0.25
 40
0.25
 40
0.5
 40
0.5
 40
0.75
 40
0.75
 40
1.0
 40
1.0
 40
1.0
 40
1.0
 10
92.5896496327623
 20
-74.64063443880805
 30
0.0
 10
92.54798296610518
 20
-74.67738098478753
 30
0.0
 10
92.48293832390144
 20
-74.69424426894108
 30
0.0
 10
92.30472461544468
 20
-74.66763048483038
 30
0.0
 10
92.19151641705189
 20
-74.6235650980735
 30
0.0
 10
91.93982981071466
 20
-74.4773419877525
 30
0.0
 10
91.802202908725
 20
-74.37567896611539
 30
0.0
 10
91.5374501953077
 20
-74.14494124107426
 30
0.0
 10
91.41092153349058
 20
-74.01677904921927
 30
0.0
 10
91.300681895526
 20
-73.89177904922245
 30
0.0
  0
SPLINE
  5
47B
330
43F
100
AcDbEntity
  8
0
  6
Continuous
 62
     7
370
    25
100
AcDbSpline
210
0.0
220
0.0
230
1.0
 70
    24
 71
     3
 72
    13
 73
     9
 74
     0
 42
0.000000001
 43
0.00000001
 40
0.0
 40
0.0
 40
0.0
 40
0.0
 40
0.3228297650129229
 40
0.4968551015382089
 40
0.6612744481081356
 40
0.8102104074775351
 40
0.9486409346090997
 40
1.0
 40
1.0
 40
1.0
 40
1.0
 10
91.300681895526
 20
131.2500677300171
 30
0.0
 10
91.47244512237356
 20
131.4015486575685
 30
0.0
 10
91.73679941917285
 20
131.6346872333646
 30
0.0
 10
92.11791294125983
 20
131.9707977669594
 30
0.0
 10
92.385794919949
 20
132.2070474657474
 30
0.0
 10
92.57567702640746
 20
132.3745077431244
 30
0.0
 10
92.65656568047218
 20
132.4458448306396
 30
0.0
 10
92.64722685160285
 20
132.437608757729
 30
0.0
 10
92.64469966601698
 20
132.435379989536
 30
0.0
  0
SPLINE
  5
47E
330
43F
100
AcDbEntity
  8
0
  6
Continuous
 62
     7
370
    25
100
AcDbSpline
210
0.0
220
0.0
230
1.0
 70
     8
 71
     3
 72
    13
 73
     9
 74
     0
 42
0.000000001
 43
0.00000001
 40
0.0
 40
0.0
 40
0.0
 40
0.0
 40
0.3228297650148041
 40
0.4968551015411332
 40
0.6612744481120458
 40
0.8102104074823714
 40
0.9486409346147345
 40
1.0
 40
1.0
 40
1.0
 40
1.0
 10
-368.1482540750482
 20
189.135192687324
 30
0.0
 10
-368.3026396622713
 20
189.327764503066
 30
0.0
 10
-368.5402486900903
 20
189.6241445133168
 30
0.0
 10
-368.7406317656591
 20
190.0335167319048
 30
0.0
 10
-368.8132611096014
 20
190.3126668248757
 30
0.0
 10
-368.7687361670591
 20
190.4984403835288
 30
0.0
 10
-368.65822999163
 20
190.5660460140942
 30
0.0
 10
-368.5634146918957
 20
190.5446877544144
 30
0.0
 10
-368.537756671801
 20
190.5389079840863
 30
0.0
  0
SPLINE
  5
481
330
43F
100
AcDbEntity
  8
0
  6
Continuous
 62
     7
370
    25
100
AcDbSpline
210
0.0
220
0.0
230
1.0
 70
    24
 71
     3
 72
    11
 73
     7
 74
     0
 42
0.000000001
 43
0.00000001
 40
0.0
 40
0.0
 40
0.0
 40
0.0
 40
0.1513119079175365
 40
0.3922173700470162
 40
0.6994213777062348
 40
1.0
 40
1.0
 40
1.0
 40
1.0
 10
-368.7857230232378
 20
-16.56884886044121
 30
0.0
 10
-368.7843179742205
 20
-16.56760972368036
 30
0.0
 10
-368.7806759301941
 20
-16.56439774275863
 30
0.0
 10
-368.6565751106226
 20
-16.4549511073863
 30
0.0
 10
-368.4459262469959
 20
-16.26917627166657
 30
0.0
 10
-368.2467544141126
 20
-16.0935232256615
 30
0.0
 10
-368.1482540750482
 20
-16.00665409191545
 30
0.0
  0
SPLINE
  5
483
330
43F
100
AcDbEntity
  8
0
  6
Continuous
 62
     7
370
    25
100
AcDbSpline
210
0.0
220
0.0
230
1.0
 70
     8
 71
     3
 72
    13
 73
     9
 74
     0
 42
0.000000001
 43
0.00000001
 40
0.0
 40
0.0
 40
0.0
 40
0.0
 40
0.3228297650148133
 40
0.4968551015411479
 40
0.6612744481120544
 40
0.8102104074823886
 40
0.9486409346147572
 40
1.0
 40
1.0
 40
1.0
 40
1.0
 10
-368.1482540750482
 20
-60.70920333935354
 30
0.0
 10
-368.3026396622713
 20
-60.51663152361163
 30
0.0
 10
-368.5402486900904
 20
-60.22025151336067
 30
0.0
 10
-368.740631765659
 20
-59.8108792947728
 30
0.0
 10
-368.8132611096015
 20
-59.53172920180194
 30
0.0
 10
-368.768736167059
 20
-59.34595564314881
 30
0.0
 10
-368.65822999163
 20
-59.27835001258348
 30
0.0
 10
-368.5634146918956
 20
-59.29970827226326
 30
0.0
 10
-368.5377566718009
 20
-59.30548804259131
 30
0.0
  0
SPLINE
  5
484
330
43F
100
AcDbEntity
  8
0
  6
Continuous
 62
     7
370
    25
100
AcDbSpline
210
0.0
220
0.0
230
1.0
 70
    24
 71
     3
 72
    13
 73
     9
 74
     0
 42
0.000000001
 43
0.00000001
 40
0.0
 40
0.0
 40
0.0
 40
0.0
 40
0.322829765014864
 40
0.4968551015411818
 40
0.6612744481120995
 40
0.8102104074823867
 40
0.9486409346147778
 40
1.0
 40
1.0
 40
1.0
 40
1.0
 10
91.300681895526
 20
-118.5943282966605
 30
0.0
 10
91.47244512237353
 20
-118.4428473691091
 30
0.0
 10
91.7367994191728
 20
-118.209708793313
 30
0.0
 10
92.1179129412598
 20
-117.8735982597182
 30
0.0
 10
92.38579491994915
 20
-117.63734856093
 30
0.0
 10
92.57567702640713
 20
-117.4698882835535
 30
0.0
 10
92.65656568047154
 20
-117.3985511960386
 30
0.0
 10
92.64722685160288
 20
-117.4067872689485
 30
0.0
 10
92.64469966601736
 20
-117.4090160371411
 30
0.0
  0
SPLINE
  5
485
330
43F
100
AcDbEntity
  8
0
  6
Continuous
 62
     7
370
    25
100
AcDbSpline
210
0.0
220
0.0
230
1.0
 70
     8
 71
     3
 72
    14
 73
    10
 74
     0
 42
0.000000001
 43
0.00000001
 40
0.0
 40
0.0
 40
0.0
 40
0.0
 40
0.25
 40
0.25
 40
0.5
 40
0.5
 40
0.75
 40
0.75
 40
1.0
 40
1.0
 40
1.0
 40
1.0
 10
92.5896496327623
 20
-324.4850304654856
 30
0.0
 10
92.54798296610518
 20
-324.5217770114651
 30
0.0
 10
92.48293832390144
 20
-324.5386402956187
 30
0.0
 10
92.30472461544468
 20
-324.5120265115079
 30
0.0
 10
92.19151641705189
 20
-324.4679611247511
 30
0.0
 10
91.93982981071466
 20
-324.3217380144301
 30
0.0
 10
91.802202908725
 20
-324.220074992793
 30
0.0
 10
91.5374501953077
 20
-323.9893372677518
 30
0.0
 10
91.41092153349058
 20
-323.8611750758968
 30
0.0
 10
91.300681895526
 20
-323.7361750759
 30
0.0
  0
SPLINE
  5
48A
330
43F
100
AcDbEntity
  8
0
  6
Continuous
 62
     7
370
    25
100
AcDbSpline
210
0.0
220
0.0
230
1.0
 70
    24
 71
     3
 72
    11
 73
     7
 74
     0
 42
0.000000001
 43
0.00000001
 40
0.0
 40
0.0
 40
0.0
 40
0.0
 40
0.1513119079175531
 40
0.3922173700470392
 40
0.699421377706222
 40
1.0
 40
1.0
 40
1.0
 40
1.0
 10
-368.7857230232378
 20
-266.4132448871188
 30
0.0
 10
-368.7843179742205
 20
-266.412005750358
 30
0.0
 10
-368.7806759301941
 20
-266.4087937694362
 30
0.0
 10
-368.6565751106227
 20
-266.2993471340639
 30
0.0
 10
-368.4459262469959
 20
-266.1135722983442
 30
0.0
 10
-368.2467544141126
 20
-265.9379192523391
 30
0.0
 10
-368.1482540750482
 20
-265.851050118593
 30
0.0
  0
LWPOLYLINE
  5
48B
330
43F
100
AcDbEntity
  8
0
  6
Continuous
 62
     8
370
    25
100
AcDbPolyline
 90
        8
 70
   128
 43
0.0
 10
-373.6309261613
 20
269.8729007908
 10
-373.6304353557
 20
269.8624585136
 10
-373.6051185051
 20
269.7976609688
 10
-373.542363989
 20
269.7357548482
 10
-373.4445834284
 20
269.6791191693
 10
-373.3155344753
 20
269.6299304094
 10
-373.1601764087
 20
269.590078865
 10
-372.9844795518
 20
269.5610960086
  0
LWPOLYLINE
  5
48E
330
43F
100
AcDbEntity
  8
0
  6
Continuous
 62
     8
370
    25
100
AcDbPolyline
 90
        3
 70
   128
 43
0.0
 10
257.1287000553
 20
354.7460826937
 10
257.0726749001
 20
354.7394492776
 10
257.0037000553
 20
354.6967349936
  0
LWPOLYLINE
  5
48F
330
43F
100
AcDbEntity
  8
0
  6
Continuous
 62
     8
370
    25
100
AcDbPolyline
 90
        3
 70
   128
 43
0.0
 10
257.9391144021
 20
353.6360748219
 10
257.9901155225
 20
353.6991693937
 10
258.0037000553
 20
353.753925952
  0
LWPOLYLINE
  5
490
330
43F
100
AcDbEntity
  8
0
  6
Continuous
 62
     8
370
    25
100
AcDbPolyline
 90
        3
 70
   128
 43
0.0
 10
-210.7034733067
 20
413.622300065
 10
-210.6344984619
 20
413.665014349
 10
-210.5784733068
 20
413.671647765
  0
LWPOLYLINE
  5
495
330
43F
100
AcDbEntity
  8
0
  6
Continuous
 62
     8
370
    25
100
AcDbPolyline
 90
        8
 70
   128
 43
0.0
 10
-370.0769672058
 20
-264.999730467
 10
-370.3592600162
 20
-265.0264597637
 10
-370.6526747088
 20
-265.0247230134
 10
-370.9319426073
 20
-264.994669784
 10
-371.1730133477
 20
-264.9388882392
 10
-371.3551260798
 20
-264.8621822483
 10
-371.4625973774
 20
-264.7711576798
 10
-371.4884050337
 20
-264.6959178578
  0
LWPOLYLINE
  5
496
330
43F
100
AcDbEntity
  8
0
  6
Continuous
 62
     8
370
    25
100
AcDbPolyline
 90
        8
 70
   128
 43
0.0
 10
-370.0769672058
 20
-264.999730467
 10
-370.0848728683
 20
-265.1778257124
 10
-370.1082860456
 20
-265.3374015092
 10
-370.1463069825
 20
-265.4723254491
 10
-370.1974745556
 20
-265.5774124806
 10
-370.2598224238
 20
-265.6486241682
 10
-370.3309545935
 20
-265.6832238865
 10
-370.3396080476
 20
-265.6847856229
  0
LWPOLYLINE
  5
49F
330
43F
100
AcDbEntity
  8
0
  6
Continuous
 62
     8
370
    25
100
AcDbPolyline
 90
        3
 70
   128
 43
0.0
 10
257.0682857086
 20
-181.6437585524
 10
257.0547011758
 20
-181.6985151107
 10
257.0037000553
 20
-181.7616096825
  0
LINE
  5
4A0
330
43F
100
AcDbEntity
  8
0
  6
Continuous
 62
     7
370
    25
100
AcDbLine
 10
-373.6309261613
 20
269.8729007908
 30
0.0
 11
-373.6309261613
 21
233.103348168
 31
0.0
  0
LINE
  5
4A1
330
43F
100
AcDbEntity
  8
0
  6
Continuous
 62
     7
370
    25
100
AcDbLine
 10
-211.3649111345
 20
413.4294910234
 30
0.0
 11
-373.2923639891
 21
270.6229007908
 31
0.0
  0
LINE
  5
4A2
330
43F
100
AcDbEntity
  8
0
  6
Continuous
 62
     7
370
    25
100
AcDbLine
 10
258.0037000553
 20
316.9843733292
 30
0.0
 11
258.0037000553
 21
353.753925952
 31
0.0
  0
LINE
  5
4A3
330
43F
100
AcDbEntity
  8
0
  6
Continuous
 62
     7
370
    25
100
AcDbLine
 10
257.1287000553
 20
354.7460826937
 30
0.0
 11
-210.5784733068
 21
413.671647765
 31
0.0
  0
LINE
  5
4A4
330
43F
100
AcDbEntity
  8
0
  6
Continuous
 62
     7
370
    25
100
AcDbLine
 10
-371.4884050337
 20
232.6030557137
 30
0.0
 11
-371.4884050337
 21
-264.6959178578
 31
0.0
  0
LINE
  5
4A5
330
43F
100
AcDbEntity
  8
0
  6
Continuous
 62
     7
370
    25
100
AcDbLine
 10
-370.3396080476
 20
-265.6847856229
 30
0.0
 11
-368.7947006845
 21
-265.4523202039
 31
0.0
  0
LINE
  5
4A6
330
43F
100
AcDbEntity
  8
0
  6
Continuous
 62
     7
370
    25
100
AcDbLine
 10
85.0381643356
 20
175.0861143403
 30
0.0
 11
85.0381643356
 21
133.4033243632
 31
0.0
  0
LINE
  5
4A7
330
43F
100
AcDbEntity
  8
0
  6
Continuous
 62
     7
370
    25
100
AcDbLine
 10
85.0381643356
 20
-73.7543329388
 30
0.0
 11
85.0381643356
 21
-116.4410716635
 31
0.0
  0
LINE
  5
4A8
330
43F
100
AcDbEntity
  8
0
  6
Continuous
 62
     7
370
    25
100
AcDbLine
 10
92.654235286
 20
-322.6397887174
 30
0.0
 11
94.7539198906
 21
-324.1902311293
 31
0.0
  0
LINE
  5
4A9
330
43F
100
AcDbEntity
  8
0
  6
Continuous
 62
     7
370
    25
100
AcDbLine
 10
96.0093774627
 20
-324.1357806688
 30
0.0
 11
256.7297235364
 21
-182.3937585524
 31
0.0
  0
LINE
  5
4AA
330
43F
100
AcDbEntity
  8
0
  6
Continuous
 62
     7
370
    25
100
AcDbLine
 10
257.0682857086
 20
-181.6437585524
 30
0.0
 11
257.0682857086
 21
316.0985234799
 31
0.0
  0
LINE
  5
4AB
330
43F
100
AcDbEntity
  8
0
  6
Continuous
 62
     7
370
    25
100
AcDbLine
 10
92.654235286
 20
-74.5227833087
 30
0.0
 11
92.654235286
 21
132.4354846616
 31
0.0
  0
LINE
  5
4AC
330
43F
100
AcDbEntity
  8
0
  6
Continuous
 62
     7
370
    25
100
AcDbLine
 10
92.6459954696
 20
132.4448277352
 30
0.0
 11
-368.5364608682
 21
190.5483557298
 31
0.0
  0
LINE
  5
4AD
330
43F
100
AcDbEntity
  8
0
  6
Continuous
 62
     7
370
    25
100
AcDbLine
 10
-368.8551150312
 20
-16.5691549213
 30
0.0
 11
92.4646496328
 21
-74.6899821389
 31
0.0
  0
LINE
  5
4AE
330
43F
100
AcDbEntity
  8
0
  6
Continuous
 62
     7
370
    25
100
AcDbLine
 10
-368.7947006845
 20
190.3246180235
 30
0.0
 11
-368.7947006845
 21
-16.6376583514
 31
0.0
  0
LINE
  5
4AF
330
43F
100
AcDbEntity
  8
0
  6
Continuous
 62
     7
370
    25
100
AcDbLine
 10
92.6459954696
 20
-117.3995682915
 30
0.0
 11
-368.5364608682
 21
-59.2960402969
 31
0.0
  0
LINE
  5
4B0
330
43F
100
AcDbEntity
  8
0
  6
Continuous
 62
     7
370
    25
100
AcDbLine
 10
92.654235286
 20
-324.3671793353
 30
0.0
 11
92.654235286
 21
-117.4089113651
 31
0.0
  0
LINE
  5
4B1
330
43F
100
AcDbEntity
  8
0
  6
Continuous
 62
     7
370
    25
100
AcDbLine
 10
-368.8551150312
 20
-266.4135509479
 30
0.0
 11
92.4646496328
 21
-324.5343781655
 31
0.0
  0
LINE
  5
4B2
330
43F
100
AcDbEntity
  8
0
  6
Continuous
 62
     7
370
    25
100
AcDbLine
 10
-368.7947006845
 20
-59.5197780032
 30
0.0
 11
-368.7947006845
 21
-266.482054378
 31
0.0
  0
LINE
  5
4B3
330
43F
100
AcDbEntity
  8
0
  6
Continuous
 62
     7
370
    25
100
AcDbLine
 10
94.7226938103
 20
173.8659783145
 30
0.0
 11
94.7226938103
 21
210.6355309373
 31
0.0
  0
LINE
  5
4B4
330
43F
100
AcDbEntity
  8
0
  6
Continuous
 62
     7
370
    25
100
AcDbLine
 10
96.0116615475
 20
210.8294845893
 30
0.0
 11
96.0116615475
 21
174.0599319665
 31
0.0
  0
LINE
  5
4B5
330
43F
100
AcDbEntity
  8
0
  6
Continuous
 62
     7
370
    25
100
AcDbLine
 10
-372.6309261613
 20
270.8157098324
 30
0.0
 11
95.0762472008
 21
211.8901447611
 31
0.0
  0
LINE
  5
4B6
330
43F
100
AcDbEntity
  8
0
  6
Continuous
 62
     7
370
    25
100
AcDbLine
 10
94.7226938103
 20
210.6355309373
 30
0.0
 11
-372.9844795518
 21
269.5610960086
 31
0.0
  0
LINE
  5
4B7
330
43F
100
AcDbEntity
  8
0
  6
Continuous
 62
     7
370
    25
100
AcDbLine
 10
-372.9844795518
 20
232.7915433858
 30
0.0
 11
94.7226938103
 21
173.8659783145
 31
0.0
  0
LINE
  5
4B8
330
43F
100
AcDbEntity
  8
0
  6
Continuous
 62
     7
370
    25
100
AcDbLine
 10
-372.9844795518
 20
269.5610960086
 30
0.0
 11
-372.9844795518
 21
232.7915433858
 31
0.0
  0
LINE
  5
4B9
330
43F
100
AcDbEntity
  8
0
  6
Continuous
 62
     7
370
    25
100
AcDbLine
 10
257.9391144021
 20
353.6360748219
 30
0.0
 11
96.0116615475
 21
210.8294845893
 31
0.0
  0
LINE
  5
4BA
330
43F
100
AcDbEntity
  8
0
  6
Continuous
 62
     7
370
    25
100
AcDbLine
 10
95.0762472008
 20
211.8901447611
 30
0.0
 11
257.0037000553
 21
354.6967349936
 31
0.0
  0
LINE
  5
4BB
330
43F
100
AcDbEntity
  8
0
  6
Continuous
 62
     7
370
    25
100
AcDbLine
 10
257.9391144021
 20
316.8665221991
 30
0.0
 11
257.9391144021
 21
353.6360748219
 31
0.0
  0
LINE
  5
4BC
330
43F
100
AcDbEntity
  8
0
  6
Continuous
 62
     7
370
    25
100
AcDbLine
 10
96.0116615475
 20
174.0599319665
 30
0.0
 11
257.9391144021
 21
316.8665221991
 31
0.0
  0
LINE
  5
4BD
330
43F
100
AcDbEntity
  8
0
  6
Continuous
 62
     7
370
    25
100
AcDbLine
 10
257.0037000553
 20
354.6967349936
 30
0.0
 11
-210.7034733067
 21
413.622300065
 31
0.0
  0
LINE
  5
4BE
330
43F
100
AcDbEntity
  8
0
  6
Continuous
 62
     7
370
    25
100
AcDbLine
 10
-210.7034733067
 20
413.622300065
 30
0.0
 11
-372.6309261613
 21
270.8157098324
 31
0.0
  0
LINE
  5
4BF
330
43F
100
AcDbEntity
  8
0
  6
Continuous
 62
     7
370
    25
100
AcDbLine
 10
96.2833539817
 20
174.2995421711
 30
0.0
 11
96.2833539817
 21
-323.503631799
 31
0.0
  0
LINE
  5
4C0
330
43F
100
AcDbEntity
  8
0
  6
Continuous
 62
     7
370
    25
100
AcDbLine
 10
257.0037000553
 20
-181.7616096825
 30
0.0
 11
257.0037000553
 21
316.0415642876
 31
0.0
  0
LINE
  5
4C1
330
43F
100
AcDbEntity
  8
0
  6
Continuous
 62
     7
370
    25
100
AcDbLine
 10
96.2833539817
 20
-323.503631799
 30
0.0
 11
257.0037000553
 21
-181.7616096825
 31
0.0
  0
LINE
  5
4C2
330
43F
100
AcDbEntity
  8
0
  6
Continuous
 62
     7
370
    25
100
AcDbLine
 10
84.9563033795
 20
133.4136378742
 30
0.0
 11
84.9563033795
 21
175.0964278513
 31
0.0
  0
LINE
  5
4C3
330
43F
100
AcDbEntity
  8
0
  6
Continuous
 62
     7
370
    25
100
AcDbLine
 10
-349.0759535005
 20
229.7793522375
 30
0.0
 11
-349.0759535005
 21
188.0965622604
 31
0.0
  0
LINE
  5
4C4
330
43F
100
AcDbEntity
  8
0
  6
Continuous
 62
     7
370
    25
100
AcDbLine
 10
84.9563033795
 20
-116.4307581525
 30
0.0
 11
84.9563033795
 21
-73.7440194277
 31
0.0
  0
LINE
  5
4C5
330
43F
100
AcDbEntity
  8
0
  6
Continuous
 62
     7
370
    25
100
AcDbLine
 10
-349.0759535005
 20
-19.0610950415
 30
0.0
 11
-349.0759535005
 21
-61.7478337663
 31
0.0
  0
LINE
  5
4C6
330
43F
100
AcDbEntity
  8
0
  6
Continuous
 62
     7
370
    25
100
AcDbLine
 10
91.3006818955
 20
-73.8917790492
 30
0.0
 11
91.3006818955
 21
131.25006773
 31
0.0
  0
LINE
  5
4C7
330
43F
100
AcDbEntity
  8
0
  6
Continuous
 62
     7
370
    25
100
AcDbLine
 10
91.3006818955
 20
131.25006773
 30
0.0
 11
-368.148254075
 21
189.1351926873
 31
0.0
  0
LINE
  5
4C8
330
43F
100
AcDbEntity
  8
0
  6
Continuous
 62
     7
370
    25
100
AcDbLine
 10
-368.148254075
 20
-16.0066540919
 30
0.0
 11
91.3006818955
 21
-73.8917790492
 31
0.0
  0
LINE
  5
4C9
330
43F
100
AcDbEntity
  8
0
  6
Continuous
 62
     7
370
    25
100
AcDbLine
 10
-368.148254075
 20
189.1351926873
 30
0.0
 11
-368.148254075
 21
-16.0066540919
 31
0.0
  0
LINE
  5
4CA
330
43F
100
AcDbEntity
  8
0
  6
Continuous
 62
     7
370
    25
100
AcDbLine
 10
91.3006818955
 20
-118.5943282967
 30
0.0
 11
-368.148254075
 21
-60.7092033394
 31
0.0
  0
LINE
  5
4CB
330
43F
100
AcDbEntity
  8
0
  6
Continuous
 62
     7
370
    25
100
AcDbLine
 10
91.3006818955
 20
-323.7361750759
 30
0.0
 11
91.3006818955
 21
-118.5943282967
 31
0.0
  0
LINE
  5
4CC
330
43F
100
AcDbEntity
  8
0
  6
Continuous
 62
     7
370
    25
100
AcDbLine
 10
-368.148254075
 20
-265.8510501186
 30
0.0
 11
91.3006818955
 21
-323.7361750759
 31
0.0
  0
LINE
  5
4CD
330
43F
100
AcDbEntity
  8
0
  6
Continuous
 62
     7
370
    25
100
AcDbLine
 10
-368.148254075
 20
-60.7092033394
 30
0.0
 11
-368.148254075
 21
-265.8510501186
 31
0.0
  0
LINE
  5
4CE
330
43F
100
AcDbEntity
  8
0
  6
Continuous
 62
     8
370
    25
100
AcDbLine
 10
-370.0769672058
 20
232.4252312621
 30
0.0
 11
-370.0769672058
 21
-264.999730467
 31
0.0
  0
LINE
  5
4CF
330
43F
100
AcDbEntity
  8
0
  6
Continuous
 62
     8
370
    25
100
AcDbLine
 10
-349.45348341
 20
-61.7002694685
 30
0.0
 11
-349.45348341
 21
-19.0135307438
 31
0.0
  0
LINE
  5
4D0
330
43F
100
AcDbEntity
  8
0
  6
Continuous
 62
     8
370
    25
100
AcDbLine
 10
-349.45348341
 20
188.1441265582
 30
0.0
 11
-349.45348341
 21
229.8269165353
 31
0.0
  0
LINE
  5
4D1
330
43F
100
AcDbEntity
  8
0
  6
Continuous
 62
     8
370
    25
100
AcDbLine
 10
-370.0769672058
 20
-264.999730467
 30
0.0
 11
-368.7947006845
 21
-264.8067851608
 31
0.0
  0
LINE
  5
4D2
330
43F
100
AcDbEntity
  8
0
  6
Continuous
 62
     8
370
    25
100
AcDbLine
 10
94.9943862444
 20
-323.697585451
 30
0.0
 11
94.9943862444
 21
173.8455685102
 31
0.0
  0
LINE
  5
4D3
330
43F
100
AcDbEntity
  8
0
  6
Continuous
 62
     8
370
    25
100
AcDbLine
 10
94.4365018072
 20
-323.5229266114
 30
0.0
 11
94.4365018072
 21
173.9020351177
 31
0.0
  0
LINE
  5
4D4
330
43F
100
AcDbEntity
  8
0
  6
Continuous
 62
     8
370
    25
100
AcDbLine
 10
92.654235286
 20
-322.2068710487
 30
0.0
 11
94.4365018072
 21
-323.5229266114
 31
0.0
  0
LINE
  5
4D5
330
43F
100
AcDbEntity
  8
0
  6
Continuous
 62
     8
370
    25
100
AcDbLine
 10
85.1267265078
 20
175.0749565554
 30
0.0
 11
85.1267265078
 21
133.3921665783
 31
0.0
  0
LINE
  5
4D6
330
43F
100
AcDbEntity
  8
0
  6
Continuous
 62
     8
370
    25
100
AcDbLine
 10
85.1267265078
 20
-73.7654907237
 30
0.0
 11
85.1267265078
 21
-116.4522294484
 31
0.0
  0
ARC
  5
4D7
330
43F
100
AcDbEntity
  8
0
  6
Continuous
 62
     7
370
    25
100
AcDbCircle
 10
-372.6309261613
 20
269.8729007908
 30
0.0
 40
0.9999999999996021
100
AcDbArc
 50
131.40962211
 51
180.0
  0
ARC
  5
4D8
330
43F
100
AcDbEntity
  8
0
  6
Continuous
 62
     7
370
    25
100
AcDbCircle
 10
257.0037000553
 20
353.753925952
 30
0.0
 40
1.000000000000341
100
AcDbArc
 50
0.0
 51
82.8192442221
  0
ARC
  5
4D9
330
43F
100
AcDbEntity
  8
0
  6
Continuous
 62
     7
370
    25
100
AcDbCircle
 10
-210.7034733067
 20
412.6794910234
 30
0.0
 40
1.000000000000247
100
AcDbArc
 50
82.8192442221
 51
131.40962211
  0
ARC
  5
4DA
330
43F
100
AcDbEntity
  8
0
  6
Continuous
 62
     7
370
    25
100
AcDbCircle
 10
-370.4884050337
 20
-264.6959178578
 30
0.0
 40
0.9999999999999829
100
AcDbArc
 50
180.0
 51
278.5572165819
  0
ARC
  5
4DB
330
43F
100
AcDbEntity
  8
0
  6
Continuous
 62
     7
370
    25
100
AcDbCircle
 10
95.3479396349
 20
-323.3857806689
 30
0.0
 40
1.000000000000073
100
AcDbArc
 50
233.5572165948
 51
311.40962211
  0
ARC
  5
4DC
330
43F
100
AcDbEntity
  8
0
  6
Continuous
 62
     7
370
    25
100
AcDbCircle
 10
256.0682857086
 20
-181.6437585524
 30
0.0
 40
0.9999999999996021
100
AcDbArc
 50
311.40962211
 51
0.0
  0
ARC
  5
4DD
330
43F
100
AcDbEntity
  8
0
  6
Continuous
 62
     7
370
    25
100
AcDbCircle
 10
96.6876673189
 20
210.7589194049
 30
0.0
 40
1.968843722547994
100
AcDbArc
 50
144.9309440897
 51
183.5931111895
  0
ARC
  5
4DE
330
43F
100
AcDbEntity
  8
0
  6
Continuous
 62
     7
370
    25
100
AcDbCircle
 10
94.9197359108
 20
210.809305736
 30
0.0
 40
1.092112073957699
100
AcDbArc
 50
1.0587090425
 51
81.7605351794
  0
ARC
  5
4DF
330
43F
100
AcDbEntity
  8
0
  6
Continuous
 62
     7
370
    25
100
AcDbCircle
 10
95.0907361987
 20
212.5696690928
 30
0.0
 40
1.968843722644677
100
AcDbArc
 50
259.2261330329
 51
297.8883001309
  0
ARC
  5
4E0
330
43F
100
AcDbEntity
  8
0
  6
Continuous
 62
     7
370
    25
100
AcDbCircle
 10
95.0907361987
 20
175.80011647
 30
0.0
 40
1.968843722644855
100
AcDbArc
 50
259.2261330329
 51
297.8883001309
  0
ARC
  5
4E1
330
43F
100
AcDbEntity
  8
0
  6
Continuous
 62
     7
370
    25
100
AcDbCircle
 10
-371.0195060431
 20
269.6844844762
 30
0.0
 40
1.968843722548976
100
AcDbArc
 50
144.9309440897
 51
183.5931111894
  0
ARC
  5
4E2
330
43F
100
AcDbEntity
  8
0
  6
Continuous
 62
     7
370
    25
100
AcDbCircle
 10
256.8471887654
 20
353.6158959685
 30
0.0
 40
1.092112073957789
100
AcDbArc
 50
1.0587090425
 51
81.7605351794
  0
ARC
  5
4E3
330
43F
100
AcDbEntity
  8
0
  6
Continuous
 62
     7
370
    25
100
AcDbCircle
 10
95.3624286329
 20
-321.7634472955
 30
0.0
 40
1.968843722643084
100
AcDbArc
 50
259.2261330329
 51
297.8883001309
  0
ARC
  5
4E4
330
43F
100
AcDbEntity
  8
0
  6
Continuous
 62
     7
370
    25
100
AcDbCircle
 10
95.0856406897
 20
-322.4277967984
 30
0.0
 40
1.273063468992656
100
AcDbArc
 50
239.3426311409
 51
265.8894567617
  0
ARC
  5
4E5
330
43F
100
AcDbEntity
  8
0
  6
Continuous
 62
     7
370
    25
100
AcDbCircle
 10
92.4943501089
 20
-74.5117847644
 30
0.0
 40
0.1602630270359704
100
AcDbArc
 50
306.4872917923
 51
356.0648073761
  0
ARC
  5
4E6
330
43F
100
AcDbEntity
  8
0
  6
Continuous
 62
     7
370
    25
100
AcDbCircle
 10
92.4943501089
 20
-324.3561807911
 30
0.0
 40
0.1602630270359714
100
AcDbArc
 50
306.4872917923
 51
356.0648073761
  0
ARC
  5
4E7
330
43F
100
AcDbEntity
  8
0
  6
Continuous
 62
     8
370
    25
100
AcDbCircle
 10
-372.749219173
 20
269.9905711914
 30
0.0
 40
0.8335748397242526
100
AcDbArc
 50
81.8415869733
 51
130.6612067915
  0
ARC
  5
4E8
330
43F
100
AcDbEntity
  8
0
  6
Continuous
 62
     8
370
    25
100
AcDbCircle
 10
-210.8217663184
 20
412.797161424
 30
0.0
 40
0.8335748397243576
100
AcDbArc
 50
81.8415869733
 51
130.6612067915
  0
ARC
  5
4E9
330
43F
100
AcDbEntity
  8
0
  6
Continuous
 62
     8
370
    25
100
AcDbCircle
 10
95.2508864778
 20
-323.544692324
 30
0.0
 40
0.8146754801102277
100
AcDbArc
 50
178.4690445345
 51
232.4092061398
  0
ARC
  5
4EA
330
43F
100
AcDbEntity
  8
0
  6
Continuous
 62
     8
370
    25
100
AcDbCircle
 10
95.4499004898
 20
-323.517854678
 30
0.0
 40
0.8335748397326787
100
AcDbArc
 50
312.158037431
 51
0.9776572489
  0
ARC
  5
4EB
330
43F
100
AcDbEntity
  8
0
  6
Continuous
 62
     8
370
    25
100
AcDbCircle
 10
256.1702465634
 20
-181.7758325615
 30
0.0
 40
0.8335748397327558
100
AcDbArc
 50
312.158037431
 51
0.9776572489
  0
VIEWPORT
  5
4FA
330
43F
100
AcDbEntity
  8
0
100
AcDbViewport
 10
0.0
 20
0.0
 30
0.0
 40
205.6
 41
156.0
 68
     1
 69
     1
 12
-54.0461917755
 22
46.7615598902
 13
0.0
 23
0.0
 14
10.0
 24
10.0
 15
10.0
 25
10.0
 16
0.0
 26
0.0
 36
1.0
 17
0.0
 27
0.0
 37
0.0
 42
50.0
 43
0.0
 44
0.0
 45
581.4
 50
0.0
 51
0.0
 72
   100
 90
   557152
  1

281
     0
 71
     1
 74
     0
110
0.0
120
0.0
130
0.0
111
1.0
121
0.0
131
0.0
112
0.0
122
1.0
132
0.0
 79
     0
146
0.0
  0
ENDBLK
  5
442
330
43F
100
AcDbEntity
  8
0
100
AcDbBlockEnd
  0
ENDSEC
  0
SECTION
  2
ENTITIES
  0
SPLINE
  5
A9
330
1F
100
AcDbEntity
  8
0
  6
Continuous
 62
     7
370
    25
100
AcDbSpline
210
0.0
220
0.0
230
1.0
 70
    24
 71
     3
 72
    14
 73
    10
 74
     0
 42
0.000000001
 43
0.00000001
 40
0.0
 40
0.0
 40
0.0
 40
0.0
 40
0.25
 40
0.25
 40
0.5
 40
0.5
 40
0.75
 40
0.75
 40
1.0
 40
1.0
 40
1.0
 40
1.0
 10
192.5395946621705
 20
26.761559890203
 30
0.0
 10
192.5395946621705
 20
26.76155989020299
 30
0.0
 10
192.5181159233571
 20
26.7830386290165
 30
0.0
 10
192.4206500031088
 20
26.88050454926462
 30
0.0
 10
192.3443325162948
 20
26.95682203607861
 30
0.0
 10
192.1490703704192
 20
27.15208418195425
 30
0.0
 10
192.0307863221162
 20
27.27036823025723
 30
0.0
 10
191.7845924213484
 20
27.516562131025
 30
0.0
 10
191.6574457923682
 20
27.64370876000524
 30
0.0
 10
191.5395946621705
 20
27.761559890203
 30
0.0
  0
SPLINE
  5
AB
330
1F
100
AcDbEntity
  8
0
  6
Continuous
 62
     7
370
    25
100
AcDbSpline
210
0.0
220
0.0
230
1.0
 70
    24
 71
     3
 72
    12
 73
     8
 74
     0
 42
0.000000001
 43
0.00000001
 40
0.0
 40
0.0
 40
0.0
 40
0.0
 40
0.3855593633180958
 40
0.5933998576703458
 40
0.789767805892656
 40
0.9676437637286283
 40
0.9999999999999999
 40
0.9999999999999999
 40
0.9999999999999999
 40
0.9999999999999999
 10
191.5395946621705
 20
245.3473463278296
 30
0.0
 10
191.7134903135725
 20
245.5212419792316
 30
0.0
 10
191.981126544485
 20
245.788878210144
 30
0.0
 10
192.2951964886329
 20
246.1029481542921
 30
0.0
 10
192.4677190167957
 20
246.2754706824547
 30
0.0
 10
192.5498508062999
 20
246.357602471959
 30
0.0
 10
192.5342740381545
 20
246.3420257038136
 30
0.0
 10
192.5318766622788
 20
246.3396283279379
 30
0.0
  0
SPLINE
  5
AD
330
1F
100
AcDbEntity
  8
0
  6
Continuous
 62
     7
370
    25
100
AcDbSpline
210
0.0
220
0.0
230
1.0
 70
    24
 71
     3
 72
    14
 73
    10
 74
     0
 42
0.000000001
 43
0.00000001
 40
0.0
 40
0.0
 40
0.0
 40
0.0
 40
0.25
 40
0.25
 40
0.5
 40
0.5
 40
0.75
 40
0.75
 40
1.0
 40
1.0
 40
1.0
 40
1.0
 10
-300.631978213083
 20
26.761559890203
 30
0.0
 10
-300.6319782130828
 20
26.76155989020299
 30
0.0
 10
-300.6104994742693
 20
26.78303862901648
 30
0.0
 10
-300.5130335540211
 20
26.88050454926462
 30
0.0
 10
-300.4367160672071
 20
26.95682203607861
 30
0.0
 10
-300.2414539213316
 20
27.15208418195424
 30
0.0
 10
-300.1231698730287
 20
27.27036823025722
 30
0.0
 10
-299.876975972261
 20
27.51656213102499
 30
0.0
 10
-299.7498293432807
 20
27.64370876000524
 30
0.0
 10
-299.631978213083
 20
27.761559890203
 30
0.0
  0
SPLINE
  5
AE
330
1F
100
AcDbEntity
  8
0
  6
Continuous
 62
     7
370
    25
100
AcDbSpline
210
0.0
220
0.0
230
1.0
 70
    24
 71
     3
 72
    12
 73
     8
 74
     0
 42
0.000000001
 43
0.00000001
 40
0.0
 40
0.0
 40
0.0
 40
0.0
 40
0.3855593633180541
 40
0.5933998576703163
 40
0.7897678058926387
 40
0.967643763728661
 40
1.0
 40
1.0
 40
1.0
 40
1.0
 10
-299.631978213083
 20
245.3473463278296
 30
0.0
 10
-299.8058738644849
 20
245.5212419792316
 30
0.0
 10
-300.0735100953971
 20
245.788878210144
 30
0.0
 10
-300.3875800395452
 20
246.1029481542919
 30
0.0
 10
-300.5601025677079
 20
246.2754706824549
 30
0.0
 10
-300.642234357212
 20
246.3576024719588
 30
0.0
 10
-300.6266575890668
 20
246.3420257038136
 30
0.0
 10
-300.6242602131911
 20
246.3396283279378
 30
0.0
  0
SPLINE
  5
B3
330
1F
100
AcDbEntity
  8
0
  6
Continuous
 62
     7
370
    25
100
AcDbSpline
210
0.0
220
0.0
230
1.0
 70
    24
 71
     3
 72
    14
 73
    10
 74
     0
 42
0.000000001
 43
0.00000001
 40
0.0
 40
0.0
 40
0.0
 40
0.0
 40
0.25
 40
0.25
 40
0.5
 40
0.5
 40
0.75
 40
0.75
 40
1.0
 40
1.0
 40
1.0
 40
1.0
 10
-300.631978213083
 20
-238.238440109797
 30
0.0
 10
-300.6319782130828
 20
-238.238440109797
 30
0.0
 10
-300.6104994742693
 20
-238.2169613709836
 30
0.0
 10
-300.5130335540211
 20
-238.1194954507353
 30
0.0
 10
-300.4367160672071
 20
-238.0431779639214
 30
0.0
 10
-300.2414539213316
 20
-237.8479158180457
 30
0.0
 10
-300.1231698730287
 20
-237.7296317697428
 30
0.0
 10
-299.876975972261
 20
-237.483437868975
 30
0.0
 10
-299.7498293432807
 20
-237.3562912399948
 30
0.0
 10
-299.631978213083
 20
-237.238440109797
 30
0.0
  0
SPLINE
  5
B5
330
1F
100
AcDbEntity
  8
0
  6
Continuous
 62
     7
370
    25
100
AcDbSpline
210
0.0
220
0.0
230
1.0
 70
    24
 71
     3
 72
    14
 73
    10
 74
     0
 42
0.000000001
 43
0.00000001
 40
0.0
 40
0.0
 40
0.0
 40
0.0
 40
0.25
 40
0.25
 40
0.5
 40
0.5
 40
0.75
 40
0.75
 40
1.0
 40
1.0
 40
1.0
 40
1.0
 10
192.5395946621705
 20
-238.238440109797
 30
0.0
 10
192.5395946621705
 20
-238.238440109797
 30
0.0
 10
192.5181159233571
 20
-238.2169613709836
 30
0.0
 10
192.4206500031088
 20
-238.1194954507353
 30
0.0
 10
192.3443325162948
 20
-238.0431779639214
 30
0.0
 10
192.1490703704192
 20
-237.8479158180457
 30
0.0
 10
192.0307863221162
 20
-237.7296317697428
 30
0.0
 10
191.7845924213484
 20
-237.483437868975
 30
0.0
 10
191.6574457923682
 20
-237.3562912399948
 30
0.0
 10
191.5395946621705
 20
-237.238440109797
 30
0.0
  0
SPLINE
  5
B7
330
1F
100
AcDbEntity
  8
0
  6
Continuous
 62
     7
370
    25
100
AcDbSpline
210
0.0
220
0.0
230
1.0
 70
    24
 71
     3
 72
    12
 73
     8
 74
     0
 42
0.000000001
 43
0.00000001
 40
0.0
 40
0.0
 40
0.0
 40
0.0
 40
0.3855593633180494
 40
0.5933998576703097
 40
0.7897678058926167
 40
0.9676437637286421
 40
0.9999999999999999
 40
0.9999999999999999
 40
0.9999999999999999
 40
0.9999999999999999
 10
-299.631978213083
 20
-19.65265367217042
 30
0.0
 10
-299.8058738644849
 20
-19.47875802076837
 30
0.0
 10
-300.0735100953972
 20
-19.21112178985587
 30
0.0
 10
-300.3875800395451
 20
-18.89705184570806
 30
0.0
 10
-300.5601025677079
 20
-18.72452931754529
 30
0.0
 10
-300.6422343572121
 20
-18.64239752804106
 30
0.0
 10
-300.6266575890668
 20
-18.65797429618643
 30
0.0
 10
-300.6242602131911
 20
-18.66037167206217
 30
0.0
  0
SPLINE
  5
B9
330
1F
100
AcDbEntity
  8
0
  6
Continuous
 62
     7
370
    25
100
AcDbSpline
210
0.0
220
0.0
230
1.0
 70
    24
 71
     3
 72
    12
 73
     8
 74
     0
 42
0.000000001
 43
0.00000001
 40
0.0
 40
0.0
 40
0.0
 40
0.0
 40
0.3855593633181054
 40
0.5933998576703434
 40
0.7897678058926614
 40
0.9676437637286287
 40
0.9999999999999999
 40
0.9999999999999999
 40
0.9999999999999999
 40
0.9999999999999999
 10
191.5395946621705
 20
-19.65265367217042
 30
0.0
 10
191.7134903135725
 20
-19.47875802076839
 30
0.0
 10
191.981126544485
 20
-19.21112178985596
 30
0.0
 10
192.2951964886329
 20
-18.89705184570803
 30
0.0
 10
192.4677190167956
 20
-18.72452931754529
 30
0.0
 10
192.5498508063
 20
-18.64239752804105
 30
0.0
 10
192.5342740381545
 20
-18.6579742961864
 30
0.0
 10
192.5318766622788
 20
-18.66037167206214
 30
0.0
  0
LINE
  5
C1
330
1F
100
AcDbEntity
  8
0
  6
Continuous
 62
     7
370
    25
100
AcDbLine
 10
192.5395946622
 20
26.7615598902
 30
0.0
 11
192.5395946622
 21
246.3396283279
 31
0.0
  0
LINE
  5
C2
330
1F
100
AcDbEntity
  8
0
  6
Continuous
 62
     7
370
    25
100
AcDbLine
 10
-300.6319782131
 20
246.3396283279
 30
0.0
 11
-300.6319782131
 21
26.7615598902
 31
0.0
  0
LINE
  5
C3
330
1F
100
AcDbEntity
  8
0
  6
Continuous
 62
     7
370
    25
100
AcDbLine
 10
192.5318766623
 20
246.3473463278
 30
0.0
 11
-300.6242602132
 21
246.3473463278
 31
0.0
  0
LINE
  5
C4
330
1F
100
AcDbEntity
  8
0
  6
Continuous
 62
     7
370
    25
100
AcDbLine
 10
-300.6319782131
 20
-18.6603716721
 30
0.0
 11
-300.6319782131
 21
-238.2384401098
 31
0.0
  0
LINE
  5
C5
330
1F
100
AcDbEntity
  8
0
  6
Continuous
 62
     7
370
    25
100
AcDbLine
 10
192.5395946622
 20
-238.2384401098
 30
0.0
 11
192.5395946622
 21
-18.6603716721
 31
0.0
  0
LINE
  5
C6
330
1F
100
AcDbEntity
  8
0
  6
Continuous
 62
     7
370
    25
100
AcDbLine
 10
192.5318766623
 20
-18.6526536722
 30
0.0
 11
-300.6242602132
 21
-18.6526536722
 31
0.0
  0
LINE
  5
C7
330
1F
100
AcDbEntity
  8
0
  6
Continuous
 62
     7
370
    25
100
AcDbLine
 10
195.9538082245
 20
291.7615598902
 30
0.0
 11
195.9538082245
 21
331.7615598902
 31
0.0
  0
LINE
  5
C8
330
1F
100
AcDbEntity
  8
0
  6
Continuous
 62
     7
370
    25
100
AcDbLine
 10
-305.0461917755
 20
291.7615598902
 30
0.0
 11
196.9538082245
 21
291.7615598902
 31
0.0
  0
LINE
  5
C9
330
1F
100
AcDbEntity
  8
0
  6
Continuous
 62
     7
370
    25
100
AcDbLine
 10
-304.0461917755
 20
331.7615598902
 30
0.0
 11
-304.0461917755
 21
291.7615598902
 31
0.0
  0
LINE
  5
CA
330
1F
100
AcDbEntity
  8
0
  6
Continuous
 62
     7
370
    25
100
AcDbLine
 10
196.9538082245
 20
330.7615598902
 30
0.0
 11
-305.0461917755
 21
330.7615598902
 31
0.0
  0
LINE
  5
CB
330
1F
100
AcDbEntity
  8
0
  6
Continuous
 62
     7
370
    25
100
AcDbLine
 10
196.9538082245
 20
330.7615598902
 30
0.0
 11
196.9538082245
 21
291.7615598902
 31
0.0
  0
LINE
  5
CC
330
1F
100
AcDbEntity
  8
0
  6
Continuous
 62
     7
370
    25
100
AcDbLine
 10
-305.0461917755
 20
291.7615598902
 30
0.0
 11
-305.0461917755
 21
330.7615598902
 31
0.0
  0
LINE
  5
CD
330
1F
100
AcDbEntity
  8
0
  6
Continuous
 62
     7
370
    25
100
AcDbLine
 10
-304.0461917755
 20
331.7615598902
 30
0.0
 11
195.9538082245
 21
331.7615598902
 31
0.0
  0
LINE
  5
CE
330
1F
100
AcDbEntity
  8
0
  6
Continuous
 62
     7
370
    25
100
AcDbLine
 10
-302.3390849943
 20
290.7615598902
 30
0.0
 11
-302.3390849943
 21
-237.2384401098
 31
0.0
  0
LINE
  5
CF
330
1F
100
AcDbEntity
  8
0
  6
Continuous
 62
     7
370
    25
100
AcDbLine
 10
-300.6319782131
 20
-237.2384401098
 30
0.0
 11
-304.0461917755
 21
-237.2384401098
 31
0.0
  0
LINE
  5
D0
330
1F
100
AcDbEntity
  8
0
  6
Continuous
 62
     7
370
    25
100
AcDbLine
 10
-304.0461917755
 20
-237.2384401098
 30
0.0
 11
-304.0461917755
 21
290.7615598902
 31
0.0
  0
LINE
  5
D1
330
1F
100
AcDbEntity
  8
0
  6
Continuous
 62
     7
370
    25
100
AcDbLine
 10
-286.0461917755
 20
290.7615598902
 30
0.0
 11
-304.0461917755
 21
290.7615598902
 31
0.0
  0
LINE
  5
D2
330
1F
100
AcDbEntity
  8
0
  6
Continuous
 62
     7
370
    25
100
AcDbLine
 10
195.9538082245
 20
290.7615598902
 30
0.0
 11
177.9538082245
 21
290.7615598902
 31
0.0
  0
LINE
  5
D3
330
1F
100
AcDbEntity
  8
0
  6
Continuous
 62
     7
370
    25
100
AcDbLine
 10
194.2467014434
 20
-237.2384401098
 30
0.0
 11
194.2467014434
 21
290.7615598902
 31
0.0
  0
LINE
  5
D4
330
1F
100
AcDbEntity
  8
0
  6
Continuous
 62
     7
370
    25
100
AcDbLine
 10
194.9538082245
 20
-237.2384401098
 30
0.0
 11
194.9538082245
 21
290.7615598902
 31
0.0
  0
LINE
  5
D5
330
1F
100
AcDbEntity
  8
0
  6
Continuous
 62
     7
370
    25
100
AcDbLine
 10
192.5395946622
 20
-237.2384401098
 30
0.0
 11
195.9538082245
 21
-237.2384401098
 31
0.0
  0
LINE
  5
D6
330
1F
100
AcDbEntity
  8
0
  6
Continuous
 62
     7
370
    25
100
AcDbLine
 10
195.9538082245
 20
290.7615598902
 30
0.0
 11
195.9538082245
 21
-237.2384401098
 31
0.0
  0
LINE
  5
D7
330
1F
100
AcDbEntity
  8
0
  6
Continuous
 62
     7
370
    25
100
AcDbLine
 10
194.9538082245
 20
-238.2384401098
 30
0.0
 11
-303.0461917755
 21
-238.2384401098
 31
0.0
  0
LINE
  5
D8
330
1F
100
AcDbEntity
  8
0
  6
Continuous
 62
     7
370
    25
100
AcDbLine
 10
177.9538082245
 20
246.3473463278
 30
0.0
 11
177.9538082245
 21
291.7615598902
 31
0.0
  0
LINE
  5
D9
330
1F
100
AcDbEntity
  8
0
  6
Continuous
 62
     7
370
    25
100
AcDbLine
 10
-286.0461917755
 20
291.7615598902
 30
0.0
 11
-286.0461917755
 21
246.3473463278
 31
0.0
  0
LINE
  5
DA
330
1F
100
AcDbEntity
  8
0
  6
Continuous
 62
     7
370
    25
100
AcDbLine
 10
177.9538082245
 20
-18.6526536722
 30
0.0
 11
177.9538082245
 21
26.7615598902
 31
0.0
  0
LINE
  5
DB
330
1F
100
AcDbEntity
  8
0
  6
Continuous
 62
     7
370
    25
100
AcDbLine
 10
-286.0461917755
 20
26.7615598902
 30
0.0
 11
-286.0461917755
 21
-18.6526536722
 31
0.0
  0
LINE
  5
DC
330
1F
100
AcDbEntity
  8
0
  6
Continuous
 62
     7
370
    25
100
AcDbLine
 10
191.5395946622
 20
27.7615598902
 30
0.0
 11
191.5395946622
 21
245.3473463278
 31
0.0
  0
LINE
  5
DD
330
1F
100
AcDbEntity
  8
0
  6
Continuous
 62
     7
370
    25
100
AcDbLine
 10
-299.6319782131
 20
245.3473463278
 30
0.0
 11
-299.6319782131
 21
27.7615598902
 31
0.0
  0
LINE
  5
DE
330
1F
100
AcDbEntity
  8
0
  6
Continuous
 62
     7
370
    25
100
AcDbLine
 10
192.5395946622
 20
26.7615598902
 30
0.0
 11
-300.6319782131
 21
26.7615598902
 31
0.0
  0
LINE
  5
DF
330
1F
100
AcDbEntity
  8
0
  6
Continuous
 62
     7
370
    25
100
AcDbLine
 10
-299.6319782131
 20
27.7615598902
 30
0.0
 11
191.5395946622
 21
27.7615598902
 31
0.0
  0
LINE
  5
E0
330
1F
100
AcDbEntity
  8
0
  6
Continuous
 62
     7
370
    25
100
AcDbLine
 10
191.5395946622
 20
245.3473463278
 30
0.0
 11
-299.6319782131
 21
245.3473463278
 31
0.0
  0
LINE
  5
E1
330
1F
100
AcDbEntity
  8
0
  6
Continuous
 62
     7
370
    25
100
AcDbLine
 10
-299.6319782131
 20
-237.2384401098
 30
0.0
 11
191.5395946622
 21
-237.2384401098
 31
0.0
  0
LINE
  5
E2
330
1F
100
AcDbEntity
  8
0
  6
Continuous
 62
     7
370
    25
100
AcDbLine
 10
-299.6319782131
 20
-19.6526536722
 30
0.0
 11
-299.6319782131
 21
-237.2384401098
 31
0.0
  0
LINE
  5
E3
330
1F
100
AcDbEntity
  8
0
  6
Continuous
 62
     7
370
    25
100
AcDbLine
 10
191.5395946622
 20
-237.2384401098
 30
0.0
 11
191.5395946622
 21
-19.6526536722
 31
0.0
  0
LINE
  5
E4
330
1F
100
AcDbEntity
  8
0
  6
Continuous
 62
     7
370
    25
100
AcDbLine
 10
191.5395946622
 20
-19.6526536722
 30
0.0
 11
-299.6319782131
 21
-19.6526536722
 31
0.0
  0
LINE
  5
E5
330
1F
100
AcDbEntity
  8
0
  6
Continuous
 62
     8
370
    25
100
AcDbLine
 10
-286.3390849943
 20
-18.6526536722
 30
0.0
 11
-286.3390849943
 21
26.7615598902
 31
0.0
  0
LINE
  5
E6
330
1F
100
AcDbEntity
  8
0
  6
Continuous
 62
     8
370
    25
100
AcDbLine
 10
-286.3390849943
 20
246.3473463278
 30
0.0
 11
-286.3390849943
 21
290.7615598902
 31
0.0
  0
LINE
  5
E7
330
1F
100
AcDbEntity
  8
0
  6
Continuous
 62
     8
370
    25
100
AcDbLine
 10
178.2467014434
 20
290.7615598902
 30
0.0
 11
178.2467014434
 21
246.3473463278
 31
0.0
  0
LINE
  5
E8
330
1F
100
AcDbEntity
  8
0
  6
Continuous
 62
     8
370
    25
100
AcDbLine
 10
178.2467014434
 20
26.7615598902
 30
0.0
 11
178.2467014434
 21
-18.6526536722
 31
0.0
  0
ARC
  5
E9
330
1F
100
AcDbEntity
  8
0
  6
Continuous
 62
     7
370
    25
100
AcDbCircle
 10
195.9538082245
 20
330.7615598902
 30
0.0
 40
0.9999999999999147
100
AcDbArc
 50
360.0
 51
90.0
  0
ARC
  5
EA
330
1F
100
AcDbEntity
  8
0
  6
Continuous
 62
     7
370
    25
100
AcDbCircle
 10
-304.0461917755
 20
330.7615598902
 30
0.0
 40
0.9999999999999432
100
AcDbArc
 50
90.0
 51
180.0
  0
ARC
  5
EB
330
1F
100
AcDbEntity
  8
0
  6
Continuous
 62
     7
370
    25
100
AcDbCircle
 10
-303.0461917755
 20
290.7615598902
 30
0.0
 40
1.000000000000057
100
AcDbArc
 50
90.0
 51
180.0
  0
ARC
  5
EC
330
1F
100
AcDbEntity
  8
0
  6
Continuous
 62
     7
370
    25
100
AcDbCircle
 10
-303.2229684708
 20
290.8865598902
 30
0.0
 40
0.8926785535678509
100
AcDbArc
 50
351.9505330245
 51
78.578246341
  0
ARC
  5
ED
330
1F
100
AcDbEntity
  8
0
  6
Continuous
 62
     7
370
    25
100
AcDbCircle
 10
-303.2229684708
 20
-237.3634401098
 30
0.0
 40
0.8926785535675856
100
AcDbArc
 50
281.4217536589
 51
8.0494669755
  0
ARC
  5
EE
330
1F
100
AcDbEntity
  8
0
  6
Continuous
 62
     7
370
    25
100
AcDbCircle
 10
-303.0461917755
 20
-237.2384401098
 30
0.0
 40
1.000000000000142
100
AcDbArc
 50
180.0
 51
270.0
  0
ARC
  5
EF
330
1F
100
AcDbEntity
  8
0
  6
Continuous
 62
     7
370
    25
100
AcDbCircle
 10
-287.2229684708
 20
290.8865598902
 30
0.0
 40
0.8926785535678396
100
AcDbArc
 50
351.9505330245
 51
78.578246341
  0
ARC
  5
F0
330
1F
100
AcDbEntity
  8
0
  6
Continuous
 62
     7
370
    25
100
AcDbCircle
 10
-287.0461917755
 20
290.7615598902
 30
0.0
 40
1.0
100
AcDbArc
 50
0.0
 51
90.0
  0
ARC
  5
F1
330
1F
100
AcDbEntity
  8
0
  6
Continuous
 62
     7
370
    25
100
AcDbCircle
 10
195.1305849198
 20
290.8865598902
 30
0.0
 40
0.892678553567946
100
AcDbArc
 50
101.421753659
 51
188.0494669755
  0
ARC
  5
F2
330
1F
100
AcDbEntity
  8
0
  6
Continuous
 62
     7
370
    25
100
AcDbCircle
 10
194.9538082245
 20
290.7615598902
 30
0.0
 40
1.000000000000057
100
AcDbArc
 50
0.0
 51
90.0
  0
ARC
  5
F3
330
1F
100
AcDbEntity
  8
0
  6
Continuous
 62
     7
370
    25
100
AcDbCircle
 10
195.1305849198
 20
-237.3634401098
 30
0.0
 40
0.8926785535678957
100
AcDbArc
 50
171.9505330245
 51
258.578246341
  0
ARC
  5
F4
330
1F
100
AcDbEntity
  8
0
  6
Continuous
 62
     7
370
    25
100
AcDbCircle
 10
194.9538082245
 20
-237.2384401098
 30
0.0
 40
1.000000000000085
100
AcDbArc
 50
270.0
 51
360.0
  0
ARC
  5
F5
330
1F
100
AcDbEntity
  8
0
  6
Continuous
 62
     7
370
    25
100
AcDbCircle
 10
179.1305849198
 20
290.8865598902
 30
0.0
 40
0.8926785535679961
100
AcDbArc
 50
101.421753659
 51
188.0494669755
  0
ARC
  5
F6
330
1F
100
AcDbEntity
  8
0
  6
Continuous
 62
     7
370
    25
100
AcDbCircle
 10
178.9538082245
 20
290.7615598902
 30
0.0
 40
1.000000000000057
100
AcDbArc
 50
90.0
 51
180.0
  0
LINE
  5
16F
330
1B
100
AcDbEntity
 67
     1
  8
0
  6
Continuous
 62
     7
370
    25
100
AcDbLine
 10
-195.9538082245
 20
331.7615598902
 30
0.0
 11
-195.9538082245
 21
291.7615598902
 31
0.0
  0
LINE
  5
170
330
1B
100
AcDbEntity
 67
     1
  8
0
  6
Continuous
 62
     7
370
    25
100
AcDbLine
 10
305.0461917755
 20
330.7615598902
 30
0.0
 11
-196.9538082245
 21
330.7615598902
 31
0.0
  0
LINE
  5
171
330
1B
100
AcDbEntity
 67
     1
  8
0
  6
Continuous
 62
     7
370
    25
100
AcDbLine
 10
304.0461917755
 20
291.7615598902
 30
0.0
 11
304.0461917755
 21
331.7615598902
 31
0.0
  0
LINE
  5
172
330
1B
100
AcDbEntity
 67
     1
  8
0
  6
Continuous
 62
     7
370
    25
100
AcDbLine
 10
-196.9538082245
 20
291.7615598902
 30
0.0
 11
305.0461917755
 21
291.7615598902
 31
0.0
  0
LINE
  5
173
330
1B
100
AcDbEntity
 67
     1
  8
0
  6
Continuous
 62
     7
370
    25
100
AcDbLine
 10
305.0461917755
 20
330.7615598902
 30
0.0
 11
305.0461917755
 21
291.7615598902
 31
0.0
  0
LINE
  5
174
330
1B
100
AcDbEntity
 67
     1
  8
0
  6
Continuous
 62
     7
370
    25
100
AcDbLine
 10
-195.9538082245
 20
331.7615598902
 30
0.0
 11
304.0461917755
 21
331.7615598902
 31
0.0
  0
LINE
  5
175
330
1B
100
AcDbEntity
 67
     1
  8
0
  6
Continuous
 62
     7
370
    25
100
AcDbLine
 10
-196.9538082245
 20
291.7615598902
 30
0.0
 11
-196.9538082245
 21
330.7615598902
 31
0.0
  0
LINE
  5
176
330
1B
100
AcDbEntity
 67
     1
  8
0
  6
Continuous
 62
     7
370
    25
100
AcDbLine
 10
304.0461917755
 20
290.7615598902
 30
0.0
 11
286.0461917755
 21
290.7615598902
 31
0.0
  0
LINE
  5
177
330
1B
100
AcDbEntity
 67
     1
  8
0
  6
Continuous
 62
     7
370
    25
100
AcDbLine
 10
287.0461917755
 20
291.7615598902
 30
0.0
 11
287.0461917755
 21
-238.2384401098
 31
0.0
  0
LINE
  5
178
330
1B
100
AcDbEntity
 67
     1
  8
0
  6
Continuous
 62
     7
370
    25
100
AcDbLine
 10
286.0461917755
 20
-237.2384401098
 30
0.0
 11
304.0461917755
 21
-237.2384401098
 31
0.0
  0
LINE
  5
179
330
1B
100
AcDbEntity
 67
     1
  8
0
  6
Continuous
 62
     7
370
    25
100
AcDbLine
 10
303.0461917755
 20
-238.2384401098
 30
0.0
 11
303.0461917755
 21
291.7615598902
 31
0.0
  0
LINE
  5
17A
330
1B
100
AcDbEntity
 67
     1
  8
0
  6
Continuous
 62
     7
370
    25
100
AcDbLine
 10
286.0461917755
 20
-238.2384401098
 30
0.0
 11
286.0461917755
 21
291.7615598902
 31
0.0
  0
LINE
  5
17B
330
1B
100
AcDbEntity
 67
     1
  8
0
  6
Continuous
 62
     7
370
    25
100
AcDbLine
 10
304.0461917755
 20
290.7615598902
 30
0.0
 11
304.0461917755
 21
-237.2384401098
 31
0.0
  0
LINE
  5
17C
330
1B
100
AcDbEntity
 67
     1
  8
0
  6
Continuous
 62
     7
370
    25
100
AcDbLine
 10
-194.9538082245
 20
291.7615598902
 30
0.0
 11
-194.9538082245
 21
-238.2384401098
 31
0.0
  0
LINE
  5
17D
330
1B
100
AcDbEntity
 67
     1
  8
0
  6
Continuous
 62
     7
370
    25
100
AcDbLine
 10
-195.9538082245
 20
-237.2384401098
 30
0.0
 11
-177.9538082245
 21
-237.2384401098
 31
0.0
  0
LINE
  5
17E
330
1B
100
AcDbEntity
 67
     1
  8
0
  6
Continuous
 62
     7
370
    25
100
AcDbLine
 10
-177.9538082245
 20
290.7615598902
 30
0.0
 11
-195.9538082245
 21
290.7615598902
 31
0.0
  0
LINE
  5
17F
330
1B
100
AcDbEntity
 67
     1
  8
0
  6
Continuous
 62
     7
370
    25
100
AcDbLine
 10
-178.9538082245
 20
-238.2384401098
 30
0.0
 11
-178.9538082245
 21
291.7615598902
 31
0.0
  0
LINE
  5
180
330
1B
100
AcDbEntity
 67
     1
  8
0
  6
Continuous
 62
     7
370
    25
100
AcDbLine
 10
-177.9538082245
 20
291.7615598902
 30
0.0
 11
-177.9538082245
 21
-238.2384401098
 31
0.0
  0
LINE
  5
181
330
1B
100
AcDbEntity
 67
     1
  8
0
  6
Continuous
 62
     7
370
    25
100
AcDbLine
 10
-195.9538082245
 20
-237.2384401098
 30
0.0
 11
-195.9538082245
 21
290.7615598902
 31
0.0
  0
LINE
  5
182
330
1B
100
AcDbEntity
 67
     1
  8
0
  6
Continuous
 62
     7
370
    25
100
AcDbLine
 10
286.0461917755
 20
211.7615598902
 30
0.0
 11
-177.9538082245
 21
211.7615598902
 31
0.0
  0
LINE
  5
183
330
1B
100
AcDbEntity
 67
     1
  8
0
  6
Continuous
 62
     7
370
    25
100
AcDbLine
 10
286.0461917755
 20
-120.2384401098
 30
0.0
 11
-177.9538082245
 21
-120.2384401098
 31
0.0
  0
LINE
  5
184
330
1B
100
AcDbEntity
 67
     1
  8
0
  6
Continuous
 62
     7
370
    25
100
AcDbLine
 10
-177.9538082245
 20
-220.2384401098
 30
0.0
 11
286.0461917755
 21
-220.2384401098
 31
0.0
  0
LINE
  5
185
330
1B
100
AcDbEntity
 67
     1
  8
0
  6
Continuous
 62
     7
370
    25
100
AcDbLine
 10
-194.9538082245
 20
-238.2384401098
 30
0.0
 11
303.0461917755
 21
-238.2384401098
 31
0.0
  0
LINE
  5
186
330
1B
100
AcDbEntity
 67
     1
  8
0
  6
Continuous
 62
     7
370
    25
100
AcDbLine
 10
286.0461917755
 20
-48.2384401098
 30
0.0
 11
-177.9538082245
 21
-48.2384401098
 31
0.0
  0
LINE
  5
187
330
1B
100
AcDbEntity
 67
     1
  8
0
  6
Continuous
 62
     7
370
    25
100
AcDbLine
 10
-177.9538082245
 20
31.7615598902
 30
0.0
 11
286.0461917755
 21
31.7615598902
 31
0.0
  0
LINE
  5
188
330
1B
100
AcDbEntity
 67
     1
  8
0
  6
Continuous
 62
     7
370
    25
100
AcDbLine
 10
-175.9538082245
 20
211.7615598902
 30
0.0
 11
-175.9538082245
 21
31.7615598902
 31
0.0
  0
LINE
  5
189
330
1B
100
AcDbEntity
 67
     1
  8
0
  6
Continuous
 62
     7
370
    25
100
AcDbLine
 10
284.0461917755
 20
31.7615598902
 30
0.0
 11
284.0461917755
 21
211.7615598902
 31
0.0
  0
LINE
  5
18A
330
1B
100
AcDbEntity
 67
     1
  8
0
  6
Continuous
 62
     7
370
    25
100
AcDbLine
 10
242.0461917755
 20
58.7615598902
 30
0.0
 11
260.0461917755
 21
58.7615598902
 31
0.0
  0
LINE
  5
18B
330
1B
100
AcDbEntity
 67
     1
  8
0
  6
Continuous
 62
     7
370
    25
100
AcDbLine
 10
260.0461917755
 20
58.7615598902
 30
0.0
 11
260.0461917755
 21
163.7615598902
 31
0.0
  0
LINE
  5
18C
330
1B
100
AcDbEntity
 67
     1
  8
0
  6
Continuous
 62
     7
370
    25
100
AcDbLine
 10
242.0461917755
 20
163.7615598902
 30
0.0
 11
260.0461917755
 21
163.7615598902
 31
0.0
  0
LINE
  5
18D
330
1B
100
AcDbEntity
 67
     1
  8
0
  6
Continuous
 62
     7
370
    25
100
AcDbLine
 10
242.0461917755
 20
56.7615598902
 30
0.0
 11
242.0461917755
 21
163.7615598902
 31
0.0
  0
LINE
  5
18E
330
1B
100
AcDbEntity
 67
     1
  8
0
  6
Continuous
 62
     7
370
    25
100
AcDbLine
 10
-151.9538082245
 20
58.7615598902
 30
0.0
 11
-133.9538082245
 21
58.7615598902
 31
0.0
  0
LINE
  5
18F
330
1B
100
AcDbEntity
 67
     1
  8
0
  6
Continuous
 62
     7
370
    25
100
AcDbLine
 10
-151.9538082245
 20
58.7615598902
 30
0.0
 11
-151.9538082245
 21
163.7615598902
 31
0.0
  0
LINE
  5
190
330
1B
100
AcDbEntity
 67
     1
  8
0
  6
Continuous
 62
     7
370
    25
100
AcDbLine
 10
-133.9538082245
 20
56.7615598902
 30
0.0
 11
-133.9538082245
 21
163.7615598902
 31
0.0
  0
LINE
  5
191
330
1B
100
AcDbEntity
 67
     1
  8
0
  6
Continuous
 62
     7
370
    25
100
AcDbLine
 10
-151.9538082245
 20
163.7615598902
 30
0.0
 11
-133.9538082245
 21
163.7615598902
 31
0.0
  0
LINE
  5
192
330
1B
100
AcDbEntity
 67
     1
  8
0
  6
Continuous
 62
     7
370
    25
100
AcDbLine
 10
242.0461917755
 20
74.7615598902
 30
0.0
 11
152.0461917755
 21
74.7615598902
 31
0.0
  0
LINE
  5
193
330
1B
100
AcDbEntity
 67
     1
  8
0
  6
Continuous
 62
     7
370
    25
100
AcDbLine
 10
242.0461917755
 20
56.7615598902
 30
0.0
 11
-133.9538082245
 21
56.7615598902
 31
0.0
  0
LINE
  5
194
330
1B
100
AcDbEntity
 67
     1
  8
0
  6
Continuous
 62
     7
370
    25
100
AcDbLine
 10
-133.9538082245
 20
74.7615598902
 30
0.0
 11
-43.9538082245
 21
74.7615598902
 31
0.0
  0
LINE
  5
195
330
1B
100
AcDbEntity
 67
     1
  8
0
  6
Continuous
 62
     7
370
    25
100
AcDbLine
 10
-133.9538082245
 20
154.7615598902
 30
0.0
 11
242.0461917755
 21
154.7615598902
 31
0.0
  0
LINE
  5
196
330
1B
100
AcDbEntity
 67
     1
  8
0
  6
Continuous
 62
     7
370
    25
100
AcDbLine
 10
-43.9538082245
 20
154.7615598902
 30
0.0
 11
-43.9538082245
 21
56.7615598902
 31
0.0
  0
LINE
  5
197
330
1B
100
AcDbEntity
 67
     1
  8
0
  6
Continuous
 62
     7
370
    25
100
AcDbLine
 10
-23.9538082245
 20
154.7615598902
 30
0.0
 11
-23.9538082245
 21
56.7615598902
 31
0.0
  0
LINE
  5
198
330
1B
100
AcDbEntity
 67
     1
  8
0
  6
Continuous
 62
     7
370
    25
100
AcDbLine
 10
152.0461917755
 20
154.7615598902
 30
0.0
 11
152.0461917755
 21
56.7615598902
 31
0.0
  0
LINE
  5
199
330
1B
100
AcDbEntity
 67
     1
  8
0
  6
Continuous
 62
     7
370
    25
100
AcDbLine
 10
132.0461917755
 20
154.7615598902
 30
0.0
 11
132.0461917755
 21
56.7615598902
 31
0.0
  0
LINE
  5
19A
330
1B
100
AcDbEntity
 67
     1
  8
0
  6
Continuous
 62
     7
370
    25
100
AcDbLine
 10
44.0461917755
 20
154.7615598902
 30
0.0
 11
44.0461917755
 21
56.7615598902
 31
0.0
  0
LINE
  5
19B
330
1B
100
AcDbEntity
 67
     1
  8
0
  6
Continuous
 62
     7
370
    25
100
AcDbLine
 10
64.0461917755
 20
154.7615598902
 30
0.0
 11
64.0461917755
 21
56.7615598902
 31
0.0
  0
LINE
  5
19C
330
1B
100
AcDbEntity
 67
     1
  8
0
  6
Continuous
 62
     7
370
    25
100
AcDbLine
 10
284.0461917755
 20
-120.2384401098
 30
0.0
 11
284.0461917755
 21
-48.2384401098
 31
0.0
  0
LINE
  5
19D
330
1B
100
AcDbEntity
 67
     1
  8
0
  6
Continuous
 62
     7
370
    25
100
AcDbLine
 10
-175.9538082245
 20
-48.2384401098
 30
0.0
 11
-175.9538082245
 21
-120.2384401098
 31
0.0
  0
LINE
  5
19E
330
1B
100
AcDbEntity
 67
     1
  8
0
  6
Continuous
 62
     7
370
    25
100
AcDbLine
 10
242.0461917755
 20
-70.2384401098
 30
0.0
 11
242.0461917755
 21
-120.2384401098
 31
0.0
  0
LINE
  5
19F
330
1B
100
AcDbEntity
 67
     1
  8
0
  6
Continuous
 62
     7
370
    25
100
AcDbLine
 10
129.0461917755
 20
-70.2384401098
 30
0.0
 11
260.0461917755
 21
-70.2384401098
 31
0.0
  0
LINE
  5
1A0
330
1B
100
AcDbEntity
 67
     1
  8
0
  6
Continuous
 62
     7
370
    25
100
AcDbLine
 10
260.0461917755
 20
-120.2384401098
 30
0.0
 11
260.0461917755
 21
-70.2384401098
 31
0.0
  0
LINE
  5
1A1
330
1B
100
AcDbEntity
 67
     1
  8
0
  6
Continuous
 62
     7
370
    25
100
AcDbLine
 10
-151.9538082245
 20
-120.2384401098
 30
0.0
 11
-151.9538082245
 21
-70.2384401098
 31
0.0
  0
LINE
  5
1A2
330
1B
100
AcDbEntity
 67
     1
  8
0
  6
Continuous
 62
     7
370
    25
100
AcDbLine
 10
-133.9538082245
 20
-70.2384401098
 30
0.0
 11
-133.9538082245
 21
-120.2384401098
 31
0.0
  0
LINE
  5
1A3
330
1B
100
AcDbEntity
 67
     1
  8
0
  6
Continuous
 62
     7
370
    25
100
AcDbLine
 10
-151.9538082245
 20
-70.2384401098
 30
0.0
 11
-20.9538082245
 21
-70.2384401098
 31
0.0
  0
ARC
  5
1A4
330
1B
100
AcDbEntity
 67
     1
  8
0
  6
Continuous
 62
     7
370
    25
100
AcDbCircle
 10
304.0461917755
 20
330.7615598902
 30
0.0
 40
0.9999999999999432
100
AcDbArc
 50
360.0
 51
90.0
  0
ARC
  5
1A5
330
1B
100
AcDbEntity
 67
     1
  8
0
  6
Continuous
 62
     7
370
    25
100
AcDbCircle
 10
-195.9538082245
 20
330.7615598902
 30
0.0
 40
0.9999999999999147
100
AcDbArc
 50
90.0
 51
180.0
  0
ARC
  5
1A6
330
1B
100
AcDbEntity
 67
     1
  8
0
  6
Continuous
 62
     7
370
    25
100
AcDbCircle
 10
303.0461917755
 20
290.7615598902
 30
0.0
 40
1.000000000000057
100
AcDbArc
 50
0.0
 51
90.0
  0
ARC
  5
1A7
330
1B
100
AcDbEntity
 67
     1
  8
0
  6
Continuous
 62
     7
370
    25
100
AcDbCircle
 10
287.0461917755
 20
290.7615598902
 30
0.0
 40
0.9999999999999432
100
AcDbArc
 50
90.0
 51
180.0
  0
ARC
  5
1A8
330
1B
100
AcDbEntity
 67
     1
  8
0
  6
Continuous
 62
     7
370
    25
100
AcDbCircle
 10
287.0461917755
 20
-237.2384401098
 30
0.0
 40
1.0
100
AcDbArc
 50
180.0
 51
270.0
  0
ARC
  5
1A9
330
1B
100
AcDbEntity
 67
     1
  8
0
  6
Continuous
 62
     7
370
    25
100
AcDbCircle
 10
303.0461917755
 20
-237.2384401098
 30
0.0
 40
1.000000000000142
100
AcDbArc
 50
270.0
 51
360.0
  0
ARC
  5
1AA
330
1B
100
AcDbEntity
 67
     1
  8
0
  6
Continuous
 62
     7
370
    25
100
AcDbCircle
 10
-194.9538082245
 20
290.7615598902
 30
0.0
 40
1.000000000000114
100
AcDbArc
 50
90.0
 51
180.0
  0
ARC
  5
1AB
330
1B
100
AcDbEntity
 67
     1
  8
0
  6
Continuous
 62
     7
370
    25
100
AcDbCircle
 10
-194.9538082245
 20
-237.2384401098
 30
0.0
 40
1.000000000000085
100
AcDbArc
 50
180.0
 51
270.0
  0
ARC
  5
1AC
330
1B
100
AcDbEntity
 67
     1
  8
0
  6
Continuous
 62
     7
370
    25
100
AcDbCircle
 10
-178.9538082245
 20
290.7615598902
 30
0.0
 40
1.0
100
AcDbArc
 50
0.0
 51
90.0
  0
ARC
  5
1AD
330
1B
100
AcDbEntity
 67
     1
  8
0
  6
Continuous
 62
     7
370
    25
100
AcDbCircle
 10
-178.9538082245
 20
-237.2384401098
 30
0.0
 40
1.000000000000057
100
AcDbArc
 50
270.0
 51
360.0
  0
ARC
  5
1AE
330
1B
100
AcDbEntity
 67
     1
  8
0
  6
Continuous
 62
     7
370
    25
100
AcDbCircle
 10
54.0461917755
 20
-70.2384401098
 30
0.0
 40
75.00000000000047
100
AcDbArc
 50
180.0
 51
221.8103148958
  0
ARC
  5
1AF
330
1B
100
AcDbEntity
 67
     1
  8
0
  6
Continuous
 62
     7
370
    25
100
AcDbCircle
 10
54.0461917755
 20
-70.2384401098
 30
0.0
 40
75.0000000000022
100
AcDbArc
 50
318.1896851042
 51
0.0
  0
VIEWPORT
  5
4EC
330
1B
100
AcDbEntity
 67
     1
  8
0
100
AcDbViewport
 10
0.0
 20
0.0
 30
0.0
 40
205.6
 41
156.0
 68
     1
 69
     1
 12
-54.0461917755
 22
46.7615598902
 13
0.0
 23
0.0
 14
10.0
 24
10.0
 15
10.0
 25
10.0
 16
0.0
 26
0.0
 36
1.0
 17
0.0
 27
0.0
 37
0.0
 42
50.0
 43
0.0
 44
0.0
 45
581.4
 50
0.0
 51
0.0
 72
   100
 90
   557152
  1

281
     0
 71
     1
 74
     0
110
0.0
120
0.0
130
0.0
111
1.0
121
0.0
131
0.0
112
0.0
122
1.0
132
0.0
 79
     0
146
0.0
  0
ENDSEC
  0
SECTION
  2
OBJECTS
  0
DICTIONARY
  5
C
330
0
100
AcDbDictionary
281
     1
  3
ACAD_GROUP
350
D
  3
ACAD_LAYOUT
350
1A
  3
ACAD_MLINESTYLE
350
17
  3
ACAD_PLOTSETTINGS
350
19
  3
ACAD_PLOTSTYLENAME
350
E
  3
ACAD_SCALELIST
350
47
  0
DICTIONARY
  5
D
102
{ACAD_REACTORS
330
C
102
}
330
C
100
AcDbDictionary
281
     1
  0
DICTIONARY
  5
1A
102
{ACAD_REACTORS
330
C
102
}
330
C
100
AcDbDictionary
281
     1
  3
_Back
350
1E
  3
_Bottom
350
265
  3
_Dimetric
350
440
  3
_Isometric
350
2D5
  3
_Left
350
26
  3
_Right
350
1F8
  3
_Top
350
241
  3
_Trimetric
350
38C
  3
Model
350
22
  0
DICTIONARY
  5
17
102
{ACAD_REACTORS
330
C
102
}
330
C
100
AcDbDictionary
281
     1
  3
Standard
350
18
  0
DICTIONARY
  5
19
102
{ACAD_REACTORS
330
C
102
}
330
C
100
AcDbDictionary
281
     1
  0
ACDBDICTIONARYWDFLT
  5
E
102
{ACAD_REACTORS
330
C
102
}
330
C
100
AcDbDictionary
281
     1
  3
Normal
350
F
100
AcDbDictionaryWithDefault
340
F
  0
DICTIONARY
  5
47
102
{ACAD_REACTORS
330
C
102
}
330
C
100
AcDbDictionary
281
     1
  3
A0
350
48
  3
A1
350
49
  3
A2
350
4A
  3
A3
350
4B
  3
A4
350
4C
  3
A5
350
4D
  3
A6
350
4E
  3
A7
350
4F
  3
A8
350
50
  3
A9
350
51
  3
B0
350
52
  3
B1
350
53
  3
B2
350
54
  3
B3
350
55
  3
B4
350
56
  3
B5
350
57
  3
B6
350
58
  3
B7
350
59
  3
B8
350
5A
  3
B9
350
5B
  3
C0
350
5C
  3
C1
350
5D
  3
C2
350
5E
  3
C3
350
5F
  3
C4
350
60
  3
C5
350
61
  3
C6
350
62
  3
C7
350
63
  3
C8
350
64
  3
C9
350
65
  3
D0
350
66
  3
D1
350
67
  3
D2
350
68
  0
LAYOUT
  5
1E
102
{ACAD_REACTORS
330
1A
102
}
330
1A
100
AcDbPlotSettings
  1

  2
none_device
  4
ISO_A4_(210.00_x_297.00_MM)
  6

 40
7.5
 41
20.0
 42
7.5
 43
20.0
 44
210.0
 45
297.0
 46
0.0
 47
0.0
 48
0.0
 49
0.0
140
0.0
141
0.0
142
1.0
143
2.9230769231
 70
   688
 72
     1
 73
     1
 74
     1
  7

 75
     0
147
0.3421052632
148
196.9538082245
149
238.2384401098
100
AcDbLayout
  1
_Back
 70
     1
 71
     1
 10
-255.4153466861
 20
-260.1615170329
 11
612.7384994678
 21
353.6846368133
 12
0.0
 22
0.0
 32
0.0
 14
-196.9538082245
 24
-238.2384401098
 34
0.0
 15
305.0461917755
 25
331.7615598902
 35
0.0
146
0.0
 13
0.0
 23
0.0
 33
0.0
 16
1.0
 26
0.0
 36
0.0
 17
0.0
 27
1.0
 37
0.0
 76
     0
330
1B
331
4EC
  0
LAYOUT
  5
265
102
{ACAD_REACTORS
330
1A
102
}
330
1A
100
AcDbPlotSettings
  1

  2
none_device
  4
ISO_A4_(210.00_x_297.00_MM)
  6

 40
7.5
 41
20.0
 42
7.5
 43
20.0
 44
210.0
 45
297.0
 46
0.0
 47
0.0
 48
0.0
 49
0.0
140
0.0
141
0.0
142
1.0
143
2.9230769231
 70
   688
 72
     1
 73
     1
 74
     1
  7

 75
     0
147
0.3421052632
148
196.9538082245
149
238.2384401098
100
AcDbLayout
  1
_Bottom
 70
     1
 71
     5
 10
0.0
 20
0.0
 11
0.0
 21
0.0
 12
0.0
 22
0.0
 32
0.0
 14
0.0
 24
0.0
 34
0.0
 15
0.0
 25
0.0
 35
0.0
146
0.0
 13
0.0
 23
0.0
 33
0.0
 16
1.0
 26
0.0
 36
0.0
 17
0.0
 27
1.0
 37
0.0
 76
     0
330
264
331
4F4
  0
LAYOUT
  5
440
102
{ACAD_REACTORS
330
1A
102
}
330
1A
100
AcDbPlotSettings
  1

  2
none_device
  4
ISO_A4_(210.00_x_297.00_MM)
  6

 40
7.5
 41
20.0
 42
7.5
 43
20.0
 44
210.0
 45
297.0
 46
0.0
 47
0.0
 48
0.0
 49
0.0
140
0.0
141
0.0
142
1.0
143
2.9230769231
 70
   688
 72
     1
 73
     1
 74
     1
  7

 75
     0
147
0.3421052632
148
196.9538082245
149
238.2384401098
100
AcDbLayout
  1
_Dimetric
 70
     1
 71
     8
 10
0.0
 20
0.0
 11
0.0
 21
0.0
 12
0.0
 22
0.0
 32
0.0
 14
0.0
 24
0.0
 34
0.0
 15
0.0
 25
0.0
 35
0.0
146
0.0
 13
0.0
 23
0.0
 33
0.0
 16
1.0
 26
0.0
 36
0.0
 17
0.0
 27
1.0
 37
0.0
 76
     0
330
43F
331
4FA
  0
LAYOUT
  5
2D5
102
{ACAD_REACTORS
330
1A
102
}
330
1A
100
AcDbPlotSettings
  1

  2
none_device
  4
ISO_A4_(210.00_x_297.00_MM)
  6

 40
7.5
 41
20.0
 42
7.5
 43
20.0
 44
210.0
 45
297.0
 46
0.0
 47
0.0
 48
0.0
 49
0.0
140
0.0
141
0.0
142
1.0
143
2.9230769231
 70
   688
 72
     1
 73
     1
 74
     1
  7

 75
     0
147
0.3421052632
148
196.9538082245
149
238.2384401098
100
AcDbLayout
  1
_Isometric
 70
     1
 71
     6
 10
0.0
 20
0.0
 11
0.0
 21
0.0
 12
0.0
 22
0.0
 32
0.0
 14
0.0
 24
0.0
 34
0.0
 15
0.0
 25
0.0
 35
0.0
146
0.0
 13
0.0
 23
0.0
 33
0.0
 16
1.0
 26
0.0
 36
0.0
 17
0.0
 27
1.0
 37
0.0
 76
     0
330
2D4
331
4F6
  0
LAYOUT
  5
26
102
{ACAD_REACTORS
330
1A
102
}
330
1A
100
AcDbPlotSettings
  1

  2
none_device
  4
ISO_A4_(210.00_x_297.00_MM)
  6

 40
7.5
 41
20.0
 42
7.5
 43
20.0
 44
210.0
 45
297.0
 46
0.0
 47
0.0
 48
0.0
 49
0.0
140
0.0
141
0.0
142
1.0
143
2.9230769231
 70
   688
 72
     1
 73
     1
 74
     1
  7

 75
     0
147
0.3421052632
148
196.9538082245
149
238.2384401098
100
AcDbLayout
  1
_Left
 70
     1
 71
     2
 10
0.0
 20
0.0
 11
0.0
 21
0.0
 12
0.0
 22
0.0
 32
0.0
 14
0.0
 24
0.0
 34
0.0
 15
0.0
 25
0.0
 35
0.0
146
0.0
 13
0.0
 23
0.0
 33
0.0
 16
1.0
 26
0.0
 36
0.0
 17
0.0
 27
1.0
 37
0.0
 76
     0
330
23
331
4EE
  0
LAYOUT
  5
1F8
102
{ACAD_REACTORS
330
1A
102
}
330
1A
100
AcDbPlotSettings
  1

  2
none_device
  4
ISO_A4_(210.00_x_297.00_MM)
  6

 40
7.5
 41
20.0
 42
7.5
 43
20.0
 44
210.0
 45
297.0
 46
0.0
 47
0.0
 48
0.0
 49
0.0
140
0.0
141
0.0
142
1.0
143
2.9230769231
 70
   688
 72
     1
 73
     1
 74
     1
  7

 75
     0
147
0.3421052632
148
196.9538082245
149
238.2384401098
100
AcDbLayout
  1
_Right
 70
     1
 71
     3
 10
0.0
 20
0.0
 11
0.0
 21
0.0
 12
0.0
 22
0.0
 32
0.0
 14
0.0
 24
0.0
 34
0.0
 15
0.0
 25
0.0
 35
0.0
146
0.0
 13
0.0
 23
0.0
 33
0.0
 16
1.0
 26
0.0
 36
0.0
 17
0.0
 27
1.0
 37
0.0
 76
     0
330
1F7
331
4F0
  0
LAYOUT
  5
241
102
{ACAD_REACTORS
330
1A
102
}
330
1A
100
AcDbPlotSettings
  1

  2
none_device
  4
ISO_A4_(210.00_x_297.00_MM)
  6

 40
7.5
 41
20.0
 42
7.5
 43
20.0
 44
210.0
 45
297.0
 46
0.0
 47
0.0
 48
0.0
 49
0.0
140
0.0
141
0.0
142
1.0
143
2.9230769231
 70
   688
 72
     1
 73
     1
 74
     1
  7

 75
     0
147
0.3421052632
148
196.9538082245
149
238.2384401098
100
AcDbLayout
  1
_Top
 70
     1
 71
     4
 10
0.0
 20
0.0
 11
0.0
 21
0.0
 12
0.0
 22
0.0
 32
0.0
 14
0.0
 24
0.0
 34
0.0
 15
0.0
 25
0.0
 35
0.0
146
0.0
 13
0.0
 23
0.0
 33
0.0
 16
1.0
 26
0.0
 36
0.0
 17
0.0
 27
1.0
 37
0.0
 76
     0
330
240
331
4F2
  0
LAYOUT
  5
38C
102
{ACAD_REACTORS
330
1A
102
}
330
1A
100
AcDbPlotSettings
  1

  2
none_device
  4
ISO_A4_(210.00_x_297.00_MM)
  6

 40
7.5
 41
20.0
 42
7.5
 43
20.0
 44
210.0
 45
297.0
 46
0.0
 47
0.0
 48
0.0
 49
0.0
140
0.0
141
0.0
142
1.0
143
2.9230769231
 70
   688
 72
     1
 73
     1
 74
     1
  7

 75
     0
147
0.3421052632
148
196.9538082245
149
238.2384401098
100
AcDbLayout
  1
_Trimetric
 70
     1
 71
     7
 10
0.0
 20
0.0
 11
0.0
 21
0.0
 12
0.0
 22
0.0
 32
0.0
 14
0.0
 24
0.0
 34
0.0
 15
0.0
 25
0.0
 35
0.0
146
0.0
 13
0.0
 23
0.0
 33
0.0
 16
1.0
 26
0.0
 36
0.0
 17
0.0
 27
1.0
 37
0.0
 76
     0
330
38B
331
4F8
  0
LAYOUT
  5
22
102
{ACAD_REACTORS
330
1A
102
}
330
1A
100
AcDbPlotSettings
  1

  2
none_device
  4
ANSI_A_(11.00_x_8.50_Inches)
  6

 40
6.35
 41
19.05
 42
6.35000508
 43
19.05000254
 44
279.4
 45
215.9
 46
153.6164660149
 47
71.3651521116
 48
0.0
 49
0.0
140
0.0
141
0.0
142
0.0147631579
143
1.0
 70
  1696
 72
     0
 73
     0
 74
     0
  7

 75
     0
147
0.0179189148
148
-1300.4909072572
149
0.0
100
AcDbLayout
  1
Model
 70
     1
 71
     0
 10
0.0
 20
0.0
 11
420.0
 21
297.0
 12
0.0
 22
0.0
 32
0.0
 14
-305.0461917755
 24
-238.2384401098
 34
0.0
 15
196.9538082245
 25
331.7615598902
 35
0.0
146
0.0
 13
0.0
 23
0.0
 33
0.0
 16
1.0
 26
0.0
 36
0.0
 17
0.0
 27
1.0
 37
0.0
 76
     0
330
1F
331
29
  0
MLINESTYLE
  5
18
102
{ACAD_REACTORS
330
17
102
}
330
17
100
AcDbMlineStyle
  2
Standard
 70
     0
  3

 62
   256
 51
90.0
 52
90.0
 71
     2
 49
0.5
 62
   256
  6
BYLAYER
 49
-0.5
 62
   256
  6
BYLAYER
  0
ACDBPLACEHOLDER
  5
F
102
{ACAD_REACTORS
330
E
102
}
330
E
  0
SCALE
  5
48
102
{ACAD_REACTORS
330
47
102
}
330
47
100
AcDbScale
 70
     0
300
1:1
140
1.0
141
1.0
290
     1
  0
SCALE
  5
49
102
{ACAD_REACTORS
330
47
102
}
330
47
100
AcDbScale
 70
     0
300
1:2
140
1.0
141
2.0
290
     0
  0
SCALE
  5
4A
102
{ACAD_REACTORS
330
47
102
}
330
47
100
AcDbScale
 70
     0
300
1:4
140
1.0
141
4.0
290
     0
  0
SCALE
  5
4B
102
{ACAD_REACTORS
330
47
102
}
330
47
100
AcDbScale
 70
     0
300
1:5
140
1.0
141
5.0
290
     0
  0
SCALE
  5
4C
102
{ACAD_REACTORS
330
47
102
}
330
47
100
AcDbScale
 70
     0
300
1:8
140
1.0
141
8.0
290
     0
  0
SCALE
  5
4D
102
{ACAD_REACTORS
330
47
102
}
330
47
100
AcDbScale
 70
     0
300
1:10
140
1.0
141
10.0
290
     0
  0
SCALE
  5
4E
102
{ACAD_REACTORS
330
47
102
}
330
47
100
AcDbScale
 70
     0
300
1:16
140
1.0
141
16.0
290
     0
  0
SCALE
  5
4F
102
{ACAD_REACTORS
330
47
102
}
330
47
100
AcDbScale
 70
     0
300
1:20
140
1.0
141
20.0
290
     0
  0
SCALE
  5
50
102
{ACAD_REACTORS
330
47
102
}
330
47
100
AcDbScale
 70
     0
300
1:30
140
1.0
141
30.0
290
     0
  0
SCALE
  5
51
102
{ACAD_REACTORS
330
47
102
}
330
47
100
AcDbScale
 70
     0
300
1:40
140
1.0
141
40.0
290
     0
  0
SCALE
  5
52
102
{ACAD_REACTORS
330
47
102
}
330
47
100
AcDbScale
 70
     0
300
1:50
140
1.0
141
50.0
290
     0
  0
SCALE
  5
53
102
{ACAD_REACTORS
330
47
102
}
330
47
100
AcDbScale
 70
     0
300
1:100
140
1.0
141
100.0
290
     0
  0
SCALE
  5
54
102
{ACAD_REACTORS
330
47
102
}
330
47
100
AcDbScale
 70
     0
300
2:1
140
2.0
141
1.0
290
     0
  0
SCALE
  5
55
102
{ACAD_REACTORS
330
47
102
}
330
47
100
AcDbScale
 70
     0
300
4:1
140
4.0
141
1.0
290
     0
  0
SCALE
  5
56
102
{ACAD_REACTORS
330
47
102
}
330
47
100
AcDbScale
 70
     0
300
8:1
140
8.0
141
1.0
290
     0
  0
SCALE
  5
57
102
{ACAD_REACTORS
330
47
102
}
330
47
100
AcDbScale
 70
     0
300
10:1
140
10.0
141
1.0
290
     0
  0
SCALE
  5
58
102
{ACAD_REACTORS
330
47
102
}
330
47
100
AcDbScale
 70
     0
300
100:1
140
100.0
141
1.0
290
     0
  0
SCALE
  5
59
102
{ACAD_REACTORS
330
47
102
}
330
47
100
AcDbScale
 70
     0
300
1/128" = 1'-0"
140
0.0078125
141
12.0
290
     0
  0
SCALE
  5
5A
102
{ACAD_REACTORS
330
47
102
}
330
47
100
AcDbScale
 70
     0
300
1/64" = 1'-0"
140
0.015625
141
12.0
290
     0
  0
SCALE
  5
5B
102
{ACAD_REACTORS
330
47
102
}
330
47
100
AcDbScale
 70
     0
300
1/32" = 1'-0"
140
0.03125
141
12.0
290
     0
  0
SCALE
  5
5C
102
{ACAD_REACTORS
330
47
102
}
330
47
100
AcDbScale
 70
     0
300
1/16" = 1'-0"
140
0.0625
141
12.0
290
     0
  0
SCALE
  5
5D
102
{ACAD_REACTORS
330
47
102
}
330
47
100
AcDbScale
 70
     0
300
3/32" = 1'-0"
140
0.09375
141
12.0
290
     0
  0
SCALE
  5
5E
102
{ACAD_REACTORS
330
47
102
}
330
47
100
AcDbScale
 70
     0
300
1/8" = 1'-0"
140
0.125
141
12.0
290
     0
  0
SCALE
  5
5F
102
{ACAD_REACTORS
330
47
102
}
330
47
100
AcDbScale
 70
     0
300
3/16" = 1'-0"
140
0.1875
141
12.0
290
     0
  0
SCALE
  5
60
102
{ACAD_REACTORS
330
47
102
}
330
47
100
AcDbScale
 70
     0
300
1/4" = 1'-0"
140
0.25
141
12.0
290
     0
  0
SCALE
  5
61
102
{ACAD_REACTORS
330
47
102
}
330
47
100
AcDbScale
 70
     0
300
3/8" = 1'-0"
140
0.375
141
12.0
290
     0
  0
SCALE
  5
62
102
{ACAD_REACTORS
330
47
102
}
330
47
100
AcDbScale
 70
     0
300
1/2" = 1'-0"
140
0.5
141
12.0
290
     0
  0
SCALE
  5
63
102
{ACAD_REACTORS
330
47
102
}
330
47
100
AcDbScale
 70
     0
300
3/4" = 1'-0"
140
0.75
141
12.0
290
     0
  0
SCALE
  5
64
102
{ACAD_REACTORS
330
47
102
}
330
47
100
AcDbScale
 70
     0
300
1" = 1'-0"
140
1.0
141
12.0
290
     0
  0
SCALE
  5
65
102
{ACAD_REACTORS
330
47
102
}
330
47
100
AcDbScale
 70
     0
300
1-1/2" = 1'-0"
140
1.5
141
12.0
290
     0
  0
SCALE
  5
66
102
{ACAD_REACTORS
330
47
102
}
330
47
100
AcDbScale
 70
     0
300
3" = 1'-0"
140
3.0
141
12.0
290
     0
  0
SCALE
  5
67
102
{ACAD_REACTORS
330
47
102
}
330
47
100
AcDbScale
 70
     0
300
6" = 1'-0"
140
6.0
141
12.0
290
     0
  0
SCALE
  5
68
102
{ACAD_REACTORS
330
47
102
}
330
47
100
AcDbScale
 70
     0
300
1'-0" = 1'-0"
140
12.0
141
12.0
290
     0
  0
ENDSEC
  0
EOF
