  0
SECTION
  2
HEADER
  9
$ACADVER
  1
AC1015
  9
$ACADMAINTVER
 70
     6
  9
$DWGCODEPAGE
  3
ANSI_1252
  9
$INSBASE
 10
0.0
 20
0.0
 30
0.0
  9
$EXTMIN
 10
-252.1014423846
 20
-159.091300899
 30
0.0
  9
$EXTMAX
 10
252.1014423846
 20
203.4733129225
 30
0.0
  9
$LIMMIN
 10
0.0
 20
0.0
  9
$LIMMAX
 10
420.0
 20
297.0
  9
$ORTHOMODE
 70
     0
  9
$REGENMODE
 70
     1
  9
$FILLMODE
 70
     1
  9
$QTEXTMODE
 70
     0
  9
$MIRRTEXT
 70
     1
  9
$LTSCALE
 40
1.0
  9
$ATTMODE
 70
     1
  9
$TEXTSIZE
 40
3.5
  9
$TRACEWID
 40
1.0
  9
$TEXTSTYLE
  7
Standard
  9
$CLAYER
  8
0
  9
$CELTYPE
  6
ByLayer
  9
$CECOLOR
 62
   256
  9
$CELTSCALE
 40
1.0
  9
$DISPSILH
 70
     0
  9
$DIMSCALE
 40
1.0
  9
$DIMASZ
 40
3.302
  9
$DIMEXO
 40
1.0
  9
$DIMDLI
 40
3.75
  9
$DIMRND
 40
0.0
  9
$DIMDLE
 40
0.0
  9
$DIMEXE
 40
1.0
  9
$DIMTP
 40
0.0
  9
$DIMTM
 40
0.0
  9
$DIMTXT
 40
3.5
  9
$DIMCEN
 40
2.5
  9
$DIMTSZ
 40
0.0
  9
$DIMTOL
 70
     0
  9
$DIMLIM
 70
     0
  9
$DIMTIH
 70
     1
  9
$DIMTOH
 70
     1
  9
$DIMSE1
 70
     0
  9
$DIMSE2
 70
     0
  9
$DIMTAD
 70
     1
  9
$DIMZIN
 70
     1
  9
$DIMBLK
  1

  9
$DIMASO
 70
     1
  9
$DIMSHO
 70
     1
  9
$DIMPOST
  1

  9
$DIMAPOST
  1

  9
$DIMALT
 70
     0
  9
$DIMALTD
 70
     3
  9
$DIMALTF
 40
0.0393700787
  9
$DIMLFAC
 40
1.0
  9
$DIMTOFL
 70
     1
  9
$DIMTVP
 40
0.0
  9
$DIMTIX
 70
     0
  9
$DIMSOXD
 70
     0
  9
$DIMSAH
 70
     0
  9
$DIMBLK1
  1

  9
$DIMBLK2
  1

  9
$DIMSTYLE
  2
ISO-25
  9
$DIMCLRD
 70
     0
  9
$DIMCLRE
 70
     0
  9
$DIMCLRT
 70
     0
  9
$DIMTFAC
 40
1.0
  9
$DIMGAP
 40
1.524
  9
$DIMJUST
 70
     0
  9
$DIMSD1
 70
     0
  9
$DIMSD2
 70
     0
  9
$DIMTOLJ
 70
     0
  9
$DIMTZIN
 70
     1
  9
$DIMALTZ
 70
     0
  9
$DIMALTTZ
 70
     0
  9
$DIMUPT
 70
     0
  9
$DIMDEC
 70
     2
  9
$DIMTDEC
 70
     2
  9
$DIMALTU
 70
     2
  9
$DIMALTTD
 70
     3
  9
$DIMTXSTY
  7
Standard
  9
$DIMAUNIT
 70
     0
  9
$DIMADEC
 70
     2
  9
$DIMALTRND
 40
0.0
  9
$DIMAZIN
 70
     0
  9
$DIMDSEP
 70
    44
  9
$DIMATFIT
 70
     3
  9
$DIMFRAC
 70
     0
  9
$DIMLDRBLK
  1

  9
$DIMLUNIT
 70
     2
  9
$DIMLWD
 70
    -2
  9
$DIMLWE
 70
    -2
  9
$DIMTMOVE
 70
     0
  9
$LUNITS
 70
     2
  9
$LUPREC
 70
     2
  9
$SKETCHINC
 40
1.0
  9
$FILLETRAD
 40
10.0
  9
$AUNITS
 70
     0
  9
$AUPREC
 70
     2
  9
$MENU
  1
.
  9
$ELEVATION
 40
0.0
  9
$PELEVATION
 40
0.0
  9
$THICKNESS
 40
0.0
  9
$LIMCHECK
 70
     0
  9
$CHAMFERA
 40
0.0
  9
$CHAMFERB
 40
0.0
  9
$CHAMFERC
 40
0.0
  9
$CHAMFERD
 40
0.0
  9
$SKPOLY
 70
     0
  9
$TDCREATE
 40
2460411.611536956
  9
$TDUCREATE
 40
2460411.569870289
  9
$TDUPDATE
 40
2460411.6115736
  9
$TDUUPDATE
 40
2460411.569906933
  9
$TDINDWG
 40
0.0000000116
  9
$TDUSRTIMER
 40
0.0000000116
  9
$USRTIMER
 70
     1
  9
$ANGBASE
 50
0.0
  9
$ANGDIR
 70
     0
  9
$PDMODE
 70
     0
  9
$PDSIZE
 40
-1.0
  9
$PLINEWID
 40
0.0
  9
$SPLFRAME
 70
     0
  9
$SPLINETYPE
 70
     6
  9
$SPLINESEGS
 70
     8
  9
$HANDSEED
  5
31A
  9
$SURFTAB1
 70
     6
  9
$SURFTAB2
 70
     6
  9
$SURFTYPE
 70
     6
  9
$SURFU
 70
     6
  9
$SURFV
 70
     6
  9
$UCSBASE
  2

  9
$UCSNAME
  2

  9
$UCSORG
 10
0.0
 20
0.0
 30
0.0
  9
$UCSXDIR
 10
1.0
 20
0.0
 30
0.0
  9
$UCSYDIR
 10
0.0
 20
1.0
 30
0.0
  9
$UCSORTHOREF
  2

  9
$UCSORTHOVIEW
 70
     0
  9
$UCSORGTOP
 10
0.0
 20
0.0
 30
0.0
  9
$UCSORGBOTTOM
 10
0.0
 20
0.0
 30
0.0
  9
$UCSORGLEFT
 10
0.0
 20
0.0
 30
0.0
  9
$UCSORGRIGHT
 10
0.0
 20
0.0
 30
0.0
  9
$UCSORGFRONT
 10
0.0
 20
0.0
 30
0.0
  9
$UCSORGBACK
 10
0.0
 20
0.0
 30
0.0
  9
$PUCSBASE
  2

  9
$PUCSNAME
  2

  9
$PUCSORG
 10
0.0
 20
0.0
 30
0.0
  9
$PUCSXDIR
 10
1.0
 20
0.0
 30
0.0
  9
$PUCSYDIR
 10
0.0
 20
1.0
 30
0.0
  9
$PUCSORTHOREF
  2

  9
$PUCSORTHOVIEW
 70
     0
  9
$PUCSORGTOP
 10
0.0
 20
0.0
 30
0.0
  9
$PUCSORGBOTTOM
 10
0.0
 20
0.0
 30
0.0
  9
$PUCSORGLEFT
 10
0.0
 20
0.0
 30
0.0
  9
$PUCSORGRIGHT
 10
0.0
 20
0.0
 30
0.0
  9
$PUCSORGFRONT
 10
0.0
 20
0.0
 30
0.0
  9
$PUCSORGBACK
 10
0.0
 20
0.0
 30
0.0
  9
$USERI1
 70
     0
  9
$USERI2
 70
     0
  9
$USERI3
 70
     0
  9
$USERI4
 70
     0
  9
$USERI5
 70
     0
  9
$USERR1
 40
0.0
  9
$USERR2
 40
0.0
  9
$USERR3
 40
0.0
  9
$USERR4
 40
0.0
  9
$USERR5
 40
0.0
  9
$WORLDVIEW
 70
     1
  9
$SHADEDGE
 70
     3
  9
$SHADEDIF
 70
    70
  9
$TILEMODE
 70
     1
  9
$MAXACTVP
 70
    64
  9
$PINSBASE
 10
0.0
 20
0.0
 30
0.0
  9
$PLIMCHECK
 70
     0
  9
$PEXTMIN
 10
-252.1014423846
 20
-36.1440228425
 30
0.0
  9
$PEXTMAX
 10
252.1014423846
 20
133.2618708035
 30
0.0
  9
$PLIMMIN
 10
-291.3390209659
 20
-50.8581148105
  9
$PLIMMAX
 10
291.3390209659
 20
361.1364602927
  9
$UNITMODE
 70
     0
  9
$VISRETAIN
 70
     1
  9
$PLINEGEN
 70
     0
  9
$PSLTSCALE
 70
     1
  9
$TREEDEPTH
 70
  3020
  9
$CMLSTYLE
  2
Standard
  9
$CMLJUST
 70
     0
  9
$CMLSCALE
 40
20.0
  9
$PROXYGRAPHICS
 70
     1
  9
$MEASUREMENT
 70
     1
  9
$CELWEIGHT
370
    -1
  9
$ENDCAPS
280
     0
  9
$JOINSTYLE
280
     0
  9
$LWDISPLAY
290
     1
  9
$INSUNITS
 70
     4
  9
$HYPERLINKBASE
  1

  9
$STYLESHEET
  1

  9
$XEDIT
290
     1
  9
$CEPSNTYPE
380
     0
  9
$PSTYLEMODE
290
     1
  9
$FINGERPRINTGUID
  2
{053478a1-7728-46b7-8269-0940eca4f5ac}
  9
$VERSIONGUID
  2
{FAEB1C32-E019-11D5-929B-00C0DF256EC4}
  9
$EXTNAMES
290
     1
  9
$PSVPSCALE
 40
0.0
  9
$OLESTARTUP
290
     0
  0
ENDSEC
  0
SECTION
  2
CLASSES
  0
CLASS
  1
ACDBDICTIONARYWDFLT
  2
AcDbDictionaryWithDefault
  3
ObjectDBX Classes
 90
        0
280
     0
281
     0
  0
CLASS
  1
VISUALSTYLE
  2
AcDbVisualStyle
  3
ObjectDBX Classes
 90
     4095
280
     0
281
     0
  0
CLASS
  1
MATERIAL
  2
AcDbMaterial
  3
ObjectDBX Classes
 90
     1153
280
     0
281
     0
  0
CLASS
  1
SCALE
  2
AcDbScale
  3
ObjectDBX Classes
 90
     1153
280
     0
281
     0
  0
CLASS
  1
TABLESTYLE
  2
AcDbTableStyle
  3
ObjectDBX Classes
 90
     4095
280
     0
281
     0
  0
CLASS
  1
MLEADERSTYLE
  2
AcDbMLeaderStyle
  3
ACDB_MLEADERSTYLE_CLASS
 90
     4095
280
     0
281
     0
  0
CLASS
  1
SUN
  2
AcDbSun
  3
SCENEOE
 90
     1153
280
     0
281
     0
  0
CLASS
  1
ACDBPLACEHOLDER
  2
AcDbPlaceHolder
  3
ObjectDBX Classes
 90
        0
280
     0
281
     0
  0
CLASS
  1
LAYOUT
  2
AcDbLayout
  3
ObjectDBX Classes
 90
        0
280
     0
281
     0
  0
ENDSEC
  0
SECTION
  2
TABLES
  0
TABLE
  2
VPORT
  5
8
330
0
100
AcDbSymbolTable
 70
     1
  0
VPORT
  5
29
330
8
100
AcDbSymbolTableRecord
100
AcDbViewportTableRecord
  2
*Active
 70
     0
 10
0.0
 20
0.0
 11
1.0
 21
1.0
 12
0.0
 22
22.1910060118
 13
0.0
 23
0.0
 14
10.0
 24
10.0
 15
10.0
 25
10.0
 16
0.0
 26
0.0
 36
1.0
 17
0.0
 27
0.0
 37
0.0
 40
369.815906098
 41
1.3906566321
 42
50.0
 43
0.0
 44
0.0
 50
0.0
 51
0.0
 71
     0
 72
   100
 73
     1
 74
     3
 75
     0
 76
     0
 77
     0
 78
     0
281
     0
 65
     1
110
0.0
120
0.0
130
0.0
111
1.0
121
0.0
131
0.0
112
0.0
122
1.0
132
0.0
 79
     0
146
0.0
  0
ENDTAB
  0
TABLE
  2
LTYPE
  5
5
330
0
100
AcDbSymbolTable
 70
     6
  0
LTYPE
  5
14
330
5
100
AcDbSymbolTableRecord
100
AcDbLinetypeTableRecord
  2
ByBlock
 70
     0
  3

 72
    65
 73
     0
 40
0.0
  0
LTYPE
  5
15
330
5
100
AcDbSymbolTableRecord
100
AcDbLinetypeTableRecord
  2
ByLayer
 70
     0
  3

 72
    65
 73
     0
 40
0.0
  0
LTYPE
  5
16
330
5
100
AcDbSymbolTableRecord
100
AcDbLinetypeTableRecord
  2
Continuous
 70
     0
  3
Solid line
 72
    65
 73
     0
 40
0.0
  0
LTYPE
  5
6E
330
5
100
AcDbSymbolTableRecord
100
AcDbLinetypeTableRecord
  2
HIDDEN
 70
     0
  3
Hidden __ __ __ __ __ __ __ __ __ __ __ __ __ __
 72
    65
 73
     2
 40
1.905
 49
1.27
 74
     0
 49
-0.635
 74
     0
  0
LTYPE
  5
6F
330
5
100
AcDbSymbolTableRecord
100
AcDbLinetypeTableRecord
  2
PHANTOM
 70
     0
  3
Phantom ______  __  __  ______  __  __  ______
 72
    65
 73
     6
 40
12.7
 49
6.35
 74
     0
 49
-1.27
 74
     0
 49
1.27
 74
     0
 49
-1.27
 74
     0
 49
1.27
 74
     0
 49
-1.27
 74
     0
  0
LTYPE
  5
70
330
5
100
AcDbSymbolTableRecord
100
AcDbLinetypeTableRecord
  2
CENTER
 70
     0
  3
Center ____ _ ____ _ ____ _ ____ _ ____ _ ____
 72
    65
 73
     4
 40
10.16
 49
6.35
 74
     0
 49
-1.27
 74
     0
 49
1.27
 74
     0
 49
-1.27
 74
     0
  0
LTYPE
  5
71
330
5
100
AcDbSymbolTableRecord
100
AcDbLinetypeTableRecord
  2
CENTERX2
 70
     0
  3
Center (2x) ________  __  ________  __  _____
 72
    65
 73
     4
 40
20.32
 49
12.7
 74
     0
 49
-2.54
 74
     0
 49
2.54
 74
     0
 49
-2.54
 74
     0
  0
LTYPE
  5
72
330
5
100
AcDbSymbolTableRecord
100
AcDbLinetypeTableRecord
  2
DOT2
 70
     0
  3
Dot (.5x) ........................................
 72
    65
 73
     2
 40
0.635
 49
0.0
 74
     0
 49
-0.635
 74
     0
  0
ENDTAB
  0
TABLE
  2
LAYER
  5
2
330
0
100
AcDbSymbolTable
 70
     1
  0
LAYER
  5
10
330
2
100
AcDbSymbolTableRecord
100
AcDbLayerTableRecord
  2
0
 70
     0
 62
     7
  6
Continuous
370
    -3
390
F
  0
ENDTAB
  0
TABLE
  2
STYLE
  5
3
330
0
100
AcDbSymbolTable
 70
     1
  0
STYLE
  5
11
330
3
100
AcDbSymbolTableRecord
100
AcDbTextStyleTableRecord
  2
Standard
 70
     0
 40
0.0
 41
1.0
 50
0.0
 71
     0
 42
3.5
  3
txt
  4

  0
ENDTAB
  0
TABLE
  2
VIEW
  5
6
330
0
100
AcDbSymbolTable
 70
     0
  0
ENDTAB
  0
TABLE
  2
UCS
  5
7
330
0
100
AcDbSymbolTable
 70
     0
  0
ENDTAB
  0
TABLE
  2
APPID
  5
9
330
0
100
AcDbSymbolTable
 70
     1
  0
APPID
  5
12
330
9
100
AcDbSymbolTableRecord
100
AcDbRegAppTableRecord
  2
ACAD
 70
     0
  0
ENDTAB
  0
TABLE
  2
DIMSTYLE
  5
A
330
0
100
AcDbSymbolTable
 70
     1
100
AcDbDimStyleTable
  0
DIMSTYLE
105
27
330
A
100
AcDbSymbolTableRecord
100
AcDbDimStyleTableRecord
  2
ISO-25
 70
     0
 41
2.5
 42
0.625
 43
3.75
 44
1.25
 73
     0
 74
     0
 77
     1
 78
     8
140
2.5
141
2.5
143
0.0393700787
147
0.625
171
     3
172
     1
178
     0
271
     2
272
     2
274
     3
278
    44
283
     0
284
     8
340
11
  0
ENDTAB
  0
TABLE
  2
BLOCK_RECORD
  5
1
330
0
100
AcDbSymbolTable
 70
     3
  0
BLOCK_RECORD
  5
1F
330
1
100
AcDbSymbolTableRecord
100
AcDbBlockTableRecord
  2
*Model_Space
340
22
  0
BLOCK_RECORD
  5
1B
330
1
100
AcDbSymbolTableRecord
100
AcDbBlockTableRecord
  2
*Paper_Space
340
1E
  0
BLOCK_RECORD
  5
23
330
1
100
AcDbSymbolTableRecord
100
AcDbBlockTableRecord
  2
*Paper_Space0
340
26
  0
BLOCK_RECORD
  5
20E
330
1
100
AcDbSymbolTableRecord
100
AcDbBlockTableRecord
  2
*Paper_Space1
340
20F
  0
BLOCK_RECORD
  5
258
330
1
100
AcDbSymbolTableRecord
100
AcDbBlockTableRecord
  2
*Paper_Space2
340
259
  0
ENDTAB
  0
ENDSEC
  0
SECTION
  2
BLOCKS
  0
BLOCK
  5
20
330
1F
100
AcDbEntity
  8
0
100
AcDbBlockBegin
  2
*Model_Space
 70
     0
 10
0.0
 20
0.0
 30
0.0
  3
*Model_Space
  1

  0
ENDBLK
  5
21
330
1F
100
AcDbEntity
  8
0
100
AcDbBlockEnd
  0
BLOCK
  5
1C
330
1B
100
AcDbEntity
 67
     1
  8
0
100
AcDbBlockBegin
  2
*Paper_Space
 70
     0
 10
0.0
 20
0.0
 30
0.0
  3
*Paper_Space
  1

  0
ENDBLK
  5
1D
330
1B
100
AcDbEntity
 67
     1
  8
0
100
AcDbBlockEnd
  0
BLOCK
  5
24
330
23
100
AcDbEntity
  8
0
100
AcDbBlockBegin
  2
*Paper_Space0
 70
     0
 10
0.0
 20
0.0
 30
0.0
  3
*Paper_Space0
  1

  0
SPLINE
  5
1BF
330
23
100
AcDbEntity
  8
0
  6
Continuous
 62
     7
370
    25
100
AcDbSpline
210
0.0
220
0.0
230
1.0
 70
     8
 71
     3
 72
    11
 73
     7
 74
     0
 42
0.000000001
 43
0.00000001
 40
0.0
 40
0.0
 40
0.0
 40
0.0
 40
0.2549303223919034
 40
0.5128341196666572
 40
0.7639315990915386
 40
1.0
 40
1.0
 40
1.0
 40
1.0
 10
-247.8259172835226
 20
133.0200016455534
 30
0.0
 10
-248.1642764510517
 20
132.864664886292
 30
0.0
 10
-248.8449413644401
 20
132.5521795395502
 30
0.0
 10
-249.6323799592186
 20
131.7564275134139
 30
0.0
 10
-250.183420596941
 20
130.8212769541601
 30
0.0
 10
-250.3153530945685
 20
130.1331395263464
 30
0.0
 10
-250.3792842831023
 20
129.7996853401088
 30
0.0
  0
SPLINE
  5
1C0
330
23
100
AcDbEntity
  8
0
  6
Continuous
 62
     7
370
    25
100
AcDbSpline
210
0.0
220
0.0
230
1.0
 70
     8
 71
     3
 72
    11
 73
     7
 74
     0
 42
0.000000001
 43
0.00000001
 40
0.0
 40
0.0
 40
0.0
 40
0.0
 40
0.2360684009075652
 40
0.4871658803293209
 40
0.7450696776026751
 40
1.0
 40
1.0
 40
1.0
 40
1.0
 10
250.3792842831033
 20
129.799685340099
 30
0.0
 10
250.3153530945904
 20
130.1331395262565
 30
0.0
 10
250.1834205970064
 20
130.8212769539022
 30
0.0
 10
249.6323799595187
 20
131.7564275129785
 30
0.0
 10
248.8449413650636
 20
132.5521795390563
 30
0.0
 10
248.1642764519055
 20
132.864664885892
 30
0.0
 10
247.8259172844862
 20
133.020001645202
 30
0.0
  0
SPLINE
  5
1C1
330
23
100
AcDbEntity
  8
0
  6
Continuous
 62
     7
370
    25
100
AcDbSpline
210
0.0
220
0.0
230
1.0
 70
     8
 71
     3
 72
    11
 73
     7
 74
     0
 42
0.000000001
 43
0.00000001
 40
0.0
 40
0.0
 40
0.0
 40
0.0
 40
0.2466831494940564
 40
0.4985391340567514
 40
0.751340183771799
 40
1.0
 40
1.0
 40
1.0
 40
1.0
 10
-181.1039066549178
 20
-1.770114264187383
 30
0.0
 10
-181.0275659575693
 20
-2.342284252088628
 30
0.0
 10
-180.8732837326685
 20
-3.498622376060995
 30
0.0
 10
-179.9488363443143
 20
-5.093244049488847
 30
0.0
 10
-178.5680228371567
 20
-6.444148244869975
 30
0.0
 10
-177.3178857674743
 20
-6.98038108945289
 30
0.0
 10
-176.697979260069
 20
-7.246283315619037
 30
0.0
  0
SPLINE
  5
1C2
330
23
100
AcDbEntity
  8
0
  6
Continuous
 62
     7
370
    25
100
AcDbSpline
210
0.0
220
0.0
230
1.0
 70
     8
 71
     3
 72
    11
 73
     7
 74
     0
 42
0.000000001
 43
0.00000001
 40
0.0
 40
0.0
 40
0.0
 40
0.0
 40
0.2486598162254823
 40
0.5014608659413352
 40
0.753316850506109
 40
0.9999999999999999
 40
0.9999999999999999
 40
0.9999999999999999
 40
0.9999999999999999
 10
176.6979792579164
 20
-7.246283316347177
 30
0.0
 10
177.3178857655639
 20
-6.980381090287604
 30
0.0
 10
178.5680228357437
 20
-6.444148245915805
 30
0.0
 10
179.9488363435941
 20
-5.093244050390577
 30
0.0
 10
180.873283732471
 20
-3.498622376573147
 30
0.0
 10
181.0275659575041
 20
-2.342284252256452
 30
0.0
 10
181.1039066549179
 20
-1.770114264187404
 30
0.0
  0
SPLINE
  5
1C5
330
23
100
AcDbEntity
  8
0
  6
Continuous
 62
     7
370
    25
100
AcDbSpline
210
0.0
220
0.0
230
1.0
 70
    24
 71
     3
 72
    22
 73
    18
 74
     0
 42
0.000000001
 43
0.00000001
 40
0.0
 40
0.0
 40
0.0
 40
0.0
 40
0.1250000000000021
 40
0.1250000000000021
 40
0.2500000000000042
 40
0.2500000000000042
 40
0.3750000000000063
 40
0.3750000000000063
 40
0.5000000000000084
 40
0.5000000000000084
 40
0.6250000000000063
 40
0.6250000000000063
 40
0.7500000000000042
 40
0.7500000000000042
 40
0.8750000000000021
 40
0.8750000000000021
 40
1.0
 40
1.0
 40
1.0
 40
1.0
 10
252.1014423846015
 20
116.2618708034718
 30
0.0
 10
252.1014423846015
 20
116.2618708034718
 30
0.0
 10
252.0572575045701
 20
116.2618708034718
 30
0.0
 10
251.8643343567747
 20
116.2618708034718
 30
0.0
 10
251.7154332220056
 20
116.2618708034718
 30
0.0
 10
251.3056178754225
 20
116.2618708034718
 30
0.0
 10
251.0446110737096
 20
116.2618708034718
 30
0.0
 10
250.4162987633234
 20
116.2618708034718
 30
0.0
 10
250.0490345298907
 20
116.2618708034718
 30
0.0
 10
249.2280713880064
 20
116.2618708034719
 30
0.0
 10
248.7745495759501
 20
116.2618708034718
 30
0.0
 10
247.8117381594473
 20
116.2618708034719
 30
0.0
 10
247.3026891455415
 20
116.2618708034718
 30
0.0
 10
246.263692577689
 20
116.2618708034719
 30
0.0
 10
245.7339499677744
 20
116.2618708034719
 30
0.0
 10
244.6855823163733
 20
116.2618708034719
 30
0.0
 10
244.1670641956105
 20
116.2618708034719
 30
0.0
 10
243.666254693497
 20
116.2618708034718
 30
0.0
  0
SPLINE
  5
1C7
330
23
100
AcDbEntity
  8
0
  6
Continuous
 62
     7
370
    25
100
AcDbSpline
210
0.0
220
0.0
230
1.0
 70
     8
 71
     3
 72
    28
 73
    24
 74
     0
 42
0.000000001
 43
0.00000001
 40
0.0
 40
0.0
 40
0.0
 40
0.0
 40
0.0451510386562783
 40
0.0905457733650768
 40
0.1361847298515703
 40
0.1820684254375556
 40
0.2281973692021962
 40
0.2745720621393384
 40
0.321192997311652
 40
0.3680606600015149
 40
0.4151755278588136
 40
0.4625380710456075
 40
0.5101487523778336
 40
0.5580080274640422
 40
0.606116344841244
 40
0.6544741461079338
 40
0.7030818660543049
 40
0.7519399327898137
 40
0.8010487678680341
 40
0.8504087864089386
 40
0.9000203972186004
 40
0.9498840029064418
 40
1.0
 40
1.0
 40
1.0
 40
1.0
 10
247.9379776195234
 20
129.953870275999
 30
0.0
 10
247.8668489149668
 20
129.9537936603688
 30
0.0
 10
247.7242075991919
 20
129.9536400155866
 30
0.0
 10
247.5004368841819
 20
129.9523768350497
 30
0.0
 10
247.2689835953774
 20
129.950325451595
 30
0.0
 10
247.0293465565981
 20
129.9473888772741
 30
0.0
 10
246.7819116465663
 20
129.9435655781889
 30
0.0
 10
246.5268474250244
 20
129.9388314307697
 30
0.0
 10
246.2644036327625
 20
129.9331717561184
 30
0.0
 10
245.994830724983
 20
129.9265728156959
 30
0.0
 10
245.718401719872
 20
129.9190242543814
 30
0.0
 10
245.4354063670169
 20
129.9105185844442
 30
0.0
 10
245.1461527440443
 20
129.9010514650128
 30
0.0
 10
244.8509667974755
 20
129.8906217661434
 30
0.0
 10
244.5501923860953
 20
129.8792316763612
 30
0.0
 10
244.2441911379391
 20
129.8668868346587
 30
0.0
 10
243.9333422898895
 20
129.8535962982507
 30
0.0
 10
243.6180425192037
 20
129.8393731236532
 30
0.0
 10
243.2987055488855
 20
129.8242326158681
 30
0.0
 10
242.9757623880265
 20
129.8081993253132
 30
0.0
 10
242.6496589494671
 20
129.7912811213164
 30
0.0
 10
242.3208632931852
 20
129.7735670512959
 30
0.0
 10
242.1007349880305
 20
129.7611269009066
 30
0.0
 10
241.9903929863178
 20
129.754891123574
 30
0.0
  0
SPLINE
  5
1CD
330
23
100
AcDbEntity
  8
0
  6
Continuous
 62
     7
370
    25
100
AcDbSpline
210
0.0
220
0.0
230
1.0
 70
    24
 71
     3
 72
    22
 73
    18
 74
     0
 42
0.000000001
 43
0.00000001
 40
0.0
 40
0.0
 40
0.0
 40
0.0
 40
0.125
 40
0.125
 40
0.25
 40
0.25
 40
0.375
 40
0.375
 40
0.5
 40
0.5
 40
0.625
 40
0.625
 40
0.75
 40
0.75
 40
0.875
 40
0.875
 40
1.0
 40
1.0
 40
1.0
 40
1.0
 10
-243.666254693497
 20
116.2618708034718
 30
0.0
 10
-244.1670641956104
 20
116.2618708034718
 30
0.0
 10
-244.6855823163732
 20
116.2618708034718
 30
0.0
 10
-245.7339499677741
 20
116.2618708034718
 30
0.0
 10
-246.2636925776888
 20
116.2618708034718
 30
0.0
 10
-247.3026891455413
 20
116.2618708034718
 30
0.0
 10
-247.811738159447
 20
116.2618708034718
 30
0.0
 10
-248.7745495759499
 20
116.2618708034718
 30
0.0
 10
-249.2280713880062
 20
116.2618708034719
 30
0.0
 10
-250.0490345298905
 20
116.2618708034719
 30
0.0
 10
-250.4162987633232
 20
116.2618708034719
 30
0.0
 10
-251.0446110737093
 20
116.2618708034719
 30
0.0
 10
-251.3056178754225
 20
116.2618708034718
 30
0.0
 10
-251.7154332220056
 20
116.2618708034718
 30
0.0
 10
-251.8643343567746
 20
116.2618708034719
 30
0.0
 10
-252.0572575045699
 20
116.2618708034718
 30
0.0
 10
-252.1014423846016
 20
116.2618708034718
 30
0.0
 10
-252.1014423846015
 20
116.2618708034718
 30
0.0
  0
SPLINE
  5
1CF
330
23
100
AcDbEntity
  8
0
  6
Continuous
 62
     7
370
    25
100
AcDbSpline
210
0.0
220
0.0
230
1.0
 70
     8
 71
     3
 72
    28
 73
    24
 74
     0
 42
0.000000001
 43
0.00000001
 40
0.0
 40
0.0
 40
0.0
 40
0.0
 40
0.0451510386562017
 40
0.0905457733649261
 40
0.136184729851354
 40
0.182068425437282
 40
0.2281973692018792
 40
0.2745720621389801
 40
0.3211929973112576
 40
0.3680606600010969
 40
0.4151755278583815
 40
0.4625380710451659
 40
0.5101487523773861
 40
0.5580080274636102
 40
0.606116344840826
 40
0.6544741461075355
 40
0.703081866053941
 40
0.7519399327894888
 40
0.8010487678677582
 40
0.8504087864087193
 40
0.9000203972184475
 40
0.9498840029063529
 40
0.9999999999999999
 40
0.9999999999999999
 40
0.9999999999999999
 40
0.9999999999999999
 10
-247.9379776195235
 20
129.9538702759991
 30
0.0
 10
-248.0076739735181
 20
129.9537936603688
 30
0.0
 10
-248.1474428572685
 20
129.9536400155867
 30
0.0
 10
-248.3478984561174
 20
129.9523768350499
 30
0.0
 10
-248.5418785322345
 20
129.9503254515951
 30
0.0
 10
-248.72832372914
 20
129.9473888772741
 30
0.0
 10
-248.9070464094042
 20
129.9435655781889
 30
0.0
 10
-249.0776269040419
 20
129.9388314307698
 30
0.0
 10
-249.2397126505406
 20
129.9331717561185
 30
0.0
 10
-249.392938430189
 20
129.9265728156961
 30
0.0
 10
-249.5369489722756
 20
129.9190242543814
 30
0.0
 10
-249.671393939218
 20
129.9105185844444
 30
0.0
 10
-249.7959303806549
 20
129.9010514650129
 30
0.0
 10
-249.9102232472561
 20
129.8906217661437
 30
0.0
 10
-250.013946243325
 20
129.8792316763614
 30
0.0
 10
-250.1067833796183
 20
129.8668868346589
 30
0.0
 10
-250.1884274446483
 20
129.8535962982509
 30
0.0
 10
-250.2585902614767
 20
129.8393731236534
 30
0.0
 10
-250.3169686309703
 20
129.8242326158682
 30
0.0
 10
-250.363376979699
 20
129.8081993253133
 30
0.0
 10
-250.3972531028372
 20
129.7912811213164
 30
0.0
 10
-250.4195214840984
 20
129.7735670512958
 30
0.0
 10
-250.4235575500605
 20
129.7611269009066
 30
0.0
 10
-250.4255806774224
 20
129.7548911235739
 30
0.0
  0
SPLINE
  5
1D0
330
23
100
AcDbEntity
  8
0
  6
Continuous
 62
     7
370
    25
100
AcDbSpline
210
0.0
220
0.0
230
1.0
 70
     8
 71
     3
 72
    30
 73
    26
 74
     0
 42
0.000000001
 43
0.00000001
 40
0.0
 40
0.0
 40
0.0
 40
0.0
 40
0.0457681519969385
 40
0.0913258655042537
 40
0.1366734417921601
 40
0.1818111863435938
 40
0.2267394089267367
 40
0.2714584236689209
 40
0.3159685491319456
 40
0.3602701083889303
 40
0.4043634291025725
 40
0.4482488436049786
 40
0.49192668897903
 40
0.535397307141343
 40
0.578661044926789
 40
0.6217182541747334
 40
0.6645692918168823
 40
0.7072145199668672
 40
0.7496543060115625
 40
0.791889022704143
 40
0.8339190482590044
 40
0.8757447664484556
 40
0.9173665667013137
 40
0.9587848442034124
 40
1.0
 40
1.0
 40
1.0
 40
1.0
 10
-241.9903929863179
 20
129.7548911235741
 30
0.0
 10
-242.0911625047248
 20
129.760591068763
 30
0.0
 10
-242.2922382109403
 20
129.7719647512255
 30
0.0
 10
-242.5927226971949
 20
129.788238993907
 30
0.0
 10
-242.8910313429293
 20
129.8038542451623
 30
0.0
 10
-243.1868049161275
 20
129.8187375813627
 30
0.0
 10
-243.4797003406441
 20
129.83288331093
 30
0.0
 10
-243.7693845804028
 20
129.8462712827102
 30
0.0
 10
-244.05553657151
 20
129.8588885645779
 30
0.0
 10
-244.3378469758739
 20
129.8707236118176
 30
0.0
 10
-244.6160184782305
 20
129.8817677515164
 30
0.0
 10
-244.8897659033848
 20
129.8920147165772
 30
0.0
 10
-245.1588163462432
 20
129.9014606951365
 30
0.0
 10
-245.4229092671594
 20
129.9101042398913
 30
0.0
 10
-245.6817965557563
 20
129.9179462108989
 30
0.0
 10
-245.935242602137
 20
129.9249897100838
 30
0.0
 10
-246.1830242226125
 20
129.931240003473
 30
0.0
 10
-246.4249310136311
 20
129.936704489383
 30
0.0
 10
-246.6607640113833
 20
129.9413924864747
 30
0.0
 10
-246.8903405256452
 20
129.9453156832846
 30
0.0
 10
-247.1134759984282
 20
129.9484861311418
 30
0.0
 10
-247.3300508896768
 20
129.9509233340183
 30
0.0
 10
-247.5397624568038
 20
129.9526276313917
 30
0.0
 10
-247.7430438532666
 20
129.9536784557312
 30
0.0
 10
-247.8731062664868
 20
129.9538064407767
 30
0.0
 10
-247.9379776195235
 20
129.9538702759991
 30
0.0
  0
SPLINE
  5
1D4
330
23
100
AcDbEntity
  8
0
  6
Continuous
 62
     7
370
    25
100
AcDbSpline
210
0.0
220
0.0
230
1.0
 70
    24
 71
     3
 72
    10
 73
     6
 74
     0
 42
0.000000001
 43
0.00000001
 40
0.0
 40
0.0
 40
0.0
 40
0.0
 40
0.5
 40
0.5
 40
1.0
 40
1.0
 40
1.0
 40
1.0
 10
-245.1521979503805
 20
133.2618708034718
 30
0.0
 10
-244.7500256363598
 20
133.2618708034717
 30
0.0
 10
-244.2518391881147
 20
133.2618708034718
 30
0.0
 10
-243.1570273956614
 20
133.2618708034718
 30
0.0
 10
-242.5634544722476
 20
133.2618708034717
 30
0.0
 10
-241.9903929863175
 20
133.2618708034718
 30
0.0
  0
SPLINE
  5
1D6
330
23
100
AcDbEntity
  8
0
  6
Continuous
 62
     7
370
    25
100
AcDbSpline
210
0.0
220
0.0
230
1.0
 70
    24
 71
     3
 72
    10
 73
     6
 74
     0
 42
0.000000001
 43
0.00000001
 40
0.0
 40
0.0
 40
0.0
 40
0.0
 40
0.5
 40
0.5
 40
1.0
 40
1.0
 40
1.0
 40
1.0
 10
241.9903929863175
 20
133.2618708034718
 30
0.0
 10
242.5634544722476
 20
133.2618708034717
 30
0.0
 10
243.1570273956615
 20
133.2618708034718
 30
0.0
 10
244.2518391881146
 20
133.2618708034718
 30
0.0
 10
244.7500256363598
 20
133.2618708034717
 30
0.0
 10
245.1521979503805
 20
133.2618708034718
 30
0.0
  0
LWPOLYLINE
  5
1D9
330
23
100
AcDbEntity
  8
0
  6
Continuous
 62
     7
370
    25
100
AcDbPolyline
 90
        3
 70
   128
 43
0.0
 10
-250.1318697471
 20
130.8393922944
 10
-250.27210126
 20
130.4610314377
 10
-250.4255806774
 20
129.7548911236
  0
SPLINE
  5
1DA
330
23
100
AcDbEntity
  8
0
  6
Continuous
 62
     7
370
    25
100
AcDbSpline
210
0.0
220
0.0
230
1.0
 70
    24
 71
     3
 72
    10
 73
     6
 74
     0
 42
0.000000001
 43
0.00000001
 40
0.0
 40
0.0
 40
0.0
 40
0.0
 40
0.5
 40
0.5
 40
1.0
 40
1.0
 40
1.0
 40
1.0
 10
-246.456080587491
 20
133.2618708034718
 30
0.0
 10
-246.4560805874908
 20
133.2618708034718
 30
0.0
 10
-246.3432094503311
 20
133.2618708034718
 30
0.0
 10
-245.8917249016923
 20
133.2618708034718
 30
0.0
 10
-245.554370264401
 20
133.2618708034718
 30
0.0
 10
-245.1521979503805
 20
133.2618708034718
 30
0.0
  0
SPLINE
  5
1DB
330
23
100
AcDbEntity
  8
0
  6
Continuous
 62
     7
370
    25
100
AcDbSpline
210
0.0
220
0.0
230
1.0
 70
    24
 71
     3
 72
    10
 73
     6
 74
     0
 42
0.000000001
 43
0.00000001
 40
0.0
 40
0.0
 40
0.0
 40
0.0
 40
0.5
 40
0.5
 40
1.0
 40
1.0
 40
1.0
 40
1.0
 10
245.1521979503805
 20
133.2618708034718
 30
0.0
 10
245.5543702644009
 20
133.2618708034718
 30
0.0
 10
245.8917249016923
 20
133.2618708034718
 30
0.0
 10
246.343209450331
 20
133.2618708034718
 30
0.0
 10
246.4560805874908
 20
133.2618708034718
 30
0.0
 10
246.456080587491
 20
133.2618708034718
 30
0.0
  0
LWPOLYLINE
  5
1DD
330
23
100
AcDbEntity
  8
0
  6
Continuous
 62
     7
370
    25
100
AcDbPolyline
 90
        3
 70
   128
 43
0.0
 10
250.1318697468
 20
130.839392295
 10
250.27210126
 20
130.4610314377
 10
250.4255806774
 20
129.7548911236
  0
SPLINE
  5
1DF
330
23
100
AcDbEntity
  8
0
  6
Continuous
 62
     7
370
    25
100
AcDbSpline
210
0.0
220
0.0
230
1.0
 70
     8
 71
     3
 72
    37
 73
    33
 74
     0
 42
0.000000001
 43
0.00000001
 40
0.0
 40
0.0
 40
0.0
 40
0.0
 40
0.0100579278080118
 40
0.02007337634426
 40
0.0300464324303058
 40
0.0399771839996921
 40
0.0498657201146527
 40
0.0597121309830708
 40
0.0695165079756993
 40
0.0792789436436441
 40
0.0889995317361107
 40
0.0986783672184305
 40
0.1083155462903432
 40
0.1179111664045694
 40
0.1803655923599215
 40
0.2416710874844374
 40
0.3060119569097935
 40
0.3696401981872293
 40
0.4348359186210943
 40
0.4998166014698998
 40
0.564766958492409
 40
0.6300237256308189
 40
0.6936484762836108
 40
0.758077817488382
 40
0.8193963222849231
 40
0.881958476211116
 40
0.9011848285529711
 40
0.9205891287418271
 40
0.9401721009286801
 40
0.9599344496144775
 40
0.9798768602809689
 40
1.0
 40
1.0
 40
1.0
 40
1.0
 10
142.0371587647469
 20
-1.527341407753222
 30
0.0
 10
142.246897249166
 20
-1.535898304707302
 30
0.0
 10
142.6654883955714
 20
-1.552975958889868
 30
0.0
 10
143.2918074356021
 20
-1.57802105880709
 30
0.0
 10
143.9151199337472
 20
-1.602572136382895
 30
0.0
 10
144.5352876291907
 20
-1.626589456850742
 30
0.0
 10
145.1521841407501
 20
-1.650080226145135
 30
0.0
 10
145.7656838151516
 20
-1.673040440762268
 30
0.0
 10
146.3756647669792
 20
-1.695470346997574
 30
0.0
 10
146.9820077845687
 20
-1.717370300578024
 30
0.0
 10
147.5845976463487
 20
-1.73874184925147
 30
0.0
 10
148.1833189300731
 20
-1.759587406802071
 30
0.0
 10
148.7780713208625
 20
-1.779910368460327
 30
0.0
 10
150.4541034392667
 20
-1.836108528961142
 30
0.0
 10
153.1634295539307
 20
-1.920373278606127
 30
0.0
 10
156.8786033564423
 20
-2.019120819200977
 30
0.0
 10
160.4745054452823
 20
-2.097452929631344
 30
0.0
 10
163.9574202461125
 20
-2.154029002367351
 30
0.0
 10
167.2270751789037
 20
-2.18703690591824
 30
0.0
 10
170.2546773899578
 20
-2.195155276792677
 30
0.0
 10
172.9870831585449
 20
-2.178614948241696
 30
0.0
 10
175.3777196185625
 20
-2.137339460622688
 30
0.0
 10
177.4192644062528
 20
-2.072679504283463
 30
0.0
 10
179.067745063642
 20
-1.986699486958038
 30
0.0
 10
180.3496759843099
 20
-1.880632292075517
 30
0.0
 10
181.0500299449507
 20
-1.785031198405174
 30
0.0
 10
181.4152633615228
 20
-1.711158755497599
 30
0.0
 10
181.5900579324226
 20
-1.66696458303426
 30
0.0
 10
181.7306491603031
 20
-1.620668517061309
 30
0.0
 10
181.8351476148466
 20
-1.572225280776239
 30
0.0
 10
181.9059666294784
 20
-1.521780879114247
 30
0.0
 10
181.9214370145755
 20
-1.486643337215793
 30
0.0
 10
181.9292070992947
 20
-1.468995316454759
 30
0.0
  0
SPLINE
  5
1E0
330
23
100
AcDbEntity
  8
0
  6
Continuous
 62
     7
370
    25
100
AcDbSpline
210
0.0
220
0.0
230
1.0
 70
     8
 71
     3
 72
     9
 73
     5
 74
     0
 42
0.000000001
 43
0.00000001
 40
0.0
 40
0.0
 40
0.0
 40
0.0
 40
0.6320747293202212
 40
1.0
 40
1.0
 40
1.0
 40
1.0
 10
-181.929207099295
 20
-1.468995316454495
 30
0.0
 10
-181.8769983917361
 20
-1.537897264867964
 30
0.0
 10
-181.7943994439582
 20
-1.646906445614001
 30
0.0
 10
-181.2388770756693
 20
-1.733688468669482
 30
0.0
 10
-181.0344863579479
 20
-1.765617767992313
 30
0.0
  0
SPLINE
  5
1E6
330
23
100
AcDbEntity
  8
0
  6
Continuous
 62
     7
370
    25
100
AcDbSpline
210
0.0
220
0.0
230
1.0
 70
    24
 71
     3
 72
    22
 73
    18
 74
     0
 42
0.000000001
 43
0.00000001
 40
0.0
 40
0.0
 40
0.0
 40
0.0
 40
0.125
 40
0.125
 40
0.25
 40
0.25
 40
0.375
 40
0.375
 40
0.5
 40
0.5
 40
0.625
 40
0.625
 40
0.75
 40
0.75
 40
0.875
 40
0.875
 40
1.0
 40
1.0
 40
1.0
 40
1.0
 10
-142.0371587647474
 20
-7.668104563405532
 30
0.0
 10
-143.9773595188057
 20
-7.668104563405532
 30
0.0
 10
-145.9767156945968
 20
-7.668104563405532
 30
0.0
 10
-150.0018565751427
 20
-7.668104563405532
 30
0.0
 10
-152.0272315736298
 20
-7.66810456340554
 30
0.0
 10
-155.9865177242403
 20
-7.66810456340554
 30
0.0
 10
-157.919700302976
 20
-7.66810456340554
 30
0.0
 10
-161.5681901918783
 20
-7.668104563405553
 30
0.0
 10
-163.2826687785877
 20
-7.668104563405553
 30
0.0
 10
-166.3832041957398
 20
-7.668104563405567
 30
0.0
 10
-167.7686593429201
 20
-7.668104563405574
 30
0.0
 10
-170.1391959406605
 20
-7.668104563405581
 30
0.0
 10
-171.1241365967905
 20
-7.668104563405588
 30
0.0
 10
-172.6721337494075
 20
-7.668104563405602
 30
0.0
 10
-173.2355043371686
 20
-7.668104563405609
 30
0.0
 10
-173.9664278093051
 20
-7.668104563405629
 30
0.0
 10
-174.1345427386195
 20
-7.668104563405636
 30
0.0
 10
-174.1345427386195
 20
-7.668104563405636
 30
0.0
  0
SPLINE
  5
1E9
330
23
100
AcDbEntity
  8
0
  6
Continuous
 62
     7
370
    25
100
AcDbSpline
210
0.0
220
0.0
230
1.0
 70
    24
 71
     3
 72
    22
 73
    18
 74
     0
 42
0.000000001
 43
0.00000001
 40
0.0
 40
0.0
 40
0.0
 40
0.0
 40
0.1249999999999997
 40
0.1249999999999997
 40
0.2499999999999994
 40
0.2499999999999994
 40
0.3749999999999992
 40
0.3749999999999992
 40
0.4999999999999989
 40
0.4999999999999989
 40
0.6249999999999991
 40
0.6249999999999991
 40
0.7499999999999994
 40
0.7499999999999994
 40
0.8749999999999997
 40
0.8749999999999997
 40
1.0
 40
1.0
 40
1.0
 40
1.0
 10
174.1345427386195
 20
-7.668104563405636
 30
0.0
 10
174.1345427386195
 20
-7.668104563405636
 30
0.0
 10
173.9664278093051
 20
-7.668104563405623
 30
0.0
 10
173.2355043371686
 20
-7.668104563405609
 30
0.0
 10
172.6721337494075
 20
-7.668104563405595
 30
0.0
 10
171.1241365967904
 20
-7.668104563405581
 30
0.0
 10
170.1391959406605
 20
-7.668104563405574
 30
0.0
 10
167.76865934292
 20
-7.66810456340556
 30
0.0
 10
166.3832041957397
 20
-7.668104563405553
 30
0.0
 10
163.2826687785877
 20
-7.66810456340554
 30
0.0
 10
161.5681901918784
 20
-7.66810456340554
 30
0.0
 10
157.919700302976
 20
-7.668104563405525
 30
0.0
 10
155.9865177242403
 20
-7.668104563405525
 30
0.0
 10
152.0272315736296
 20
-7.668104563405525
 30
0.0
 10
150.0018565751428
 20
-7.668104563405525
 30
0.0
 10
145.9767156945969
 20
-7.668104563405525
 30
0.0
 10
143.9773595188058
 20
-7.668104563405525
 30
0.0
 10
142.0371587647474
 20
-7.668104563405532
 30
0.0
  0
SPLINE
  5
1EC
330
23
100
AcDbEntity
  8
0
  6
Continuous
 62
     7
370
    25
100
AcDbSpline
210
0.0
220
0.0
230
1.0
 70
    24
 71
     3
 72
    50
 73
    46
 74
     0
 42
0.000000001
 43
0.00000001
 40
0.0
 40
0.0
 40
0.0
 40
0.0
 40
0.0109856421485929
 40
0.0219387124869708
 40
0.0328623095834315
 40
0.0437595571470849
 40
0.0546336015947921
 40
0.0654876095221554
 40
0.0763247650886884
 40
0.0871482673272712
 40
0.0979613273887605
 40
0.108767165733265
 40
0.1195690092801387
 40
0.1303700885291829
 40
0.1411736346658234
 40
0.151982876663222
 40
0.1628010383942892
 40
0.1736313357664822
 40
0.1844769738920211
 40
0.195341144305797
 40
0.2062270222427565
 40
0.2171377639859473
 40
0.2280765042957016
 40
0.2390463539296425
 40
0.2500503972623324
 40
0.3128021522188923
 40
0.3749710433595199
 40
0.4371680499062547
 40
0.5000033309455432
 40
0.5627550882194453
 40
0.6249239801250993
 40
0.6871209859218104
 40
0.7499562647774051
 40
0.7709915051829426
 40
0.7919159278432739
 40
0.8127515825489897
 40
0.8335208018160122
 40
0.854246132923276
 40
0.8749502665358657
 40
0.8956559630078138
 40
0.916385977545366
 40
0.9371629854546873
 40
0.9580095086947651
 40
0.9789478449069003
 40
1.0
 40
1.0
 40
1.0
 40
1.0
 10
35.84938434961916
 20
-36.0940228425297
 30
0.0
 10
35.84842975532802
 20
-36.0940228425297
 30
0.0
 10
35.84652339706405
 20
-36.09402284252972
 30
0.0
 10
35.83057317878899
 20
-36.0940228425297
 30
0.0
 10
35.80502906798407
 20
-36.09402284252969
 30
0.0
 10
35.76895926512632
 20
-36.0940228425297
 30
0.0
 10
35.722612402811
 20
-36.0940228425297
 30
0.0
 10
35.6659220350579
 20
-36.09402284252968
 30
0.0
 10
35.59890586783848
 20
-36.09402284252969
 30
0.0
 10
35.52155913890184
 20
-36.09402284252968
 30
0.0
 10
35.43388310494947
 20
-36.0940228425297
 30
0.0
 10
35.33587742737988
 20
-36.09402284252968
 30
0.0
 10
35.22754220859137
 20
-36.0940228425297
 30
0.0
 10
35.10887744718757
 20
-36.09402284252968
 30
0.0
 10
34.97988318379188
 20
-36.09402284252968
 30
0.0
 10
34.84055946133178
 20
-36.09402284252968
 30
0.0
 10
34.69090633691282
 20
-36.09402284252968
 30
0.0
 10
34.53092387217031
 20
-36.09402284252968
 30
0.0
 10
34.36061215762168
 20
-36.09402284252966
 30
0.0
 10
34.17997122179236
 20
-36.09402284252968
 30
0.0
 10
33.98900136780222
 20
-36.09402284252965
 30
0.0
 10
33.787701910399
 20
-36.09402284252966
 30
0.0
 10
33.57607590264139
 20
-36.09402284252966
 30
0.0
 10
33.3541124222873
 20
-36.09402284252965
 30
0.0
 10
32.75807358231798
 20
-36.09402284252968
 30
0.0
 10
31.66917368129236
 20
-36.0940228425296
 30
0.0
 10
29.86329202557443
 20
-36.09402284252965
 30
0.0
 10
27.76434275668426
 20
-36.09402284252962
 30
0.0
 10
25.39013081574567
 20
-36.09402284252959
 30
0.0
 10
22.77898837492283
 20
-36.09402284252962
 30
0.0
 10
19.9551693194453
 20
-36.09402284252959
 30
0.0
 10
16.93517068928374
 20
-36.09402284252959
 30
0.0
 10
14.45082875484353
 20
-36.09402284252959
 30
0.0
 10
12.62188618438549
 20
-36.09402284252958
 30
0.0
 10
11.51239325274201
 20
-36.09402284252959
 30
0.0
 10
10.39527563910531
 20
-36.09402284252958
 30
0.0
 10
9.270502398566656
 20
-36.09402284252959
 30
0.0
 10
8.138086268663445
 20
-36.09402284252959
 30
0.0
 10
6.998028714507926
 20
-36.09402284252959
 30
0.0
 10
5.850334472584237
 20
-36.09402284252958
 30
0.0
 10
4.695007575073208
 20
-36.09402284252958
 30
0.0
 10
3.532052229555945
 20
-36.09402284252959
 30
0.0
 10
2.361472720279949
 20
-36.09402284252956
 30
0.0
 10
1.183272374692199
 20
-36.09402284252959
 30
0.0
 10
0.3951362287681247
 20
-36.09402284252959
 30
0.0
 10
-0.0000000000000044
 20
-36.09402284252958
 30
0.0
  0
SPLINE
  5
1ED
330
23
100
AcDbEntity
  8
0
  6
Continuous
 62
     7
370
    25
100
AcDbSpline
210
0.0
220
0.0
230
1.0
 70
    24
 71
     3
 72
    50
 73
    46
 74
     0
 42
0.000000001
 43
0.00000001
 40
0.0
 40
0.0
 40
0.0
 40
0.0
 40
0.0109900986281704
 40
0.0219472498305004
 40
0.0328745459495119
 40
0.0437751047362177
 40
0.054652066933464
 40
0.0655085937632677
 40
0.0763478643272955
 40
0.0871730729304669
 40
0.0979874263384234
 40
0.1087941409802661
 40
0.1195964401085201
 40
0.130397550928726
 40
0.1412007017113673
 40
0.1520091188990331
 40
0.1628260242217584
 40
0.1736546318334047
 40
0.1844981454817214
 40
0.1953597557243828
 40
0.2062426372028229
 40
0.2171499459851066
 40
0.2280848169883888
 40
0.2390503614907284
 40
0.2500496647411706
 40
0.3128016031136653
 40
0.3749706759697869
 40
0.4371678643176516
 40
0.5000033290272838
 40
0.5627552674056404
 40
0.6249243402637715
 40
0.6871215286095901
 40
0.7499569933130359
 40
0.770983521507108
 40
0.7919008342999638
 40
0.8127309841940786
 40
0.8334963013914521
 40
0.8542193256775655
 40
0.8749227349711397
 40
0.8956292716383557
 40
0.9163616677536953
 40
0.9371425705294416
 40
0.9579944691294684
 40
0.9789396240306779
 40
1.0
 40
1.0
 40
1.0
 40
1.0
 10
-0.0000000000000044
 20
-36.09402284252958
 30
0.0
 10
-0.2062702602536246
 20
-36.09402284252959
 30
0.0
 10
-0.6181923992219277
 20
-36.09402284252956
 30
0.0
 10
-1.235034082473822
 20
-36.09402284252956
 30
0.0
 10
-1.849848838525047
 20
-36.09402284252959
 30
0.0
 10
-2.46263657144582
 20
-36.09402284252956
 30
0.0
 10
-3.073397121061648
 20
-36.09402284252959
 30
0.0
 10
-3.682130338313958
 20
-36.09402284252956
 30
0.0
 10
-4.28883606615635
 20
-36.09402284252959
 30
0.0
 10
-4.893514145738029
 20
-36.09402284252958
 30
0.0
 10
-5.496164415889991
 20
-36.09402284252958
 30
0.0
 10
-6.096786714446585
 20
-36.09402284252959
 30
0.0
 10
-6.695380879097953
 20
-36.09402284252956
 30
0.0
 10
-7.291946748413437
 20
-36.09402284252959
 30
0.0
 10
-7.886484162704408
 20
-36.09402284252958
 30
0.0
 10
-8.47899296534151
 20
-36.09402284252959
 30
0.0
 10
-9.069473002323429
 20
-36.09402284252959
 30
0.0
 10
-9.657924128231377
 20
-36.09402284252958
 30
0.0
 10
-10.2443461881226
 20
-36.09402284252959
 30
0.0
 10
-10.82873908916449
 20
-36.09402284252959
 30
0.0
 10
-11.41110253622065
 20
-36.09402284252959
 30
0.0
 10
-11.99143702496421
 20
-36.09402284252959
 30
0.0
 10
-12.56974012559065
 20
-36.09402284252959
 30
0.0
 10
-13.14602040880071
 20
-36.09402284252959
 30
0.0
 10
-14.62011308095347
 20
-36.09402284252958
 30
0.0
 10
-16.93219825026445
 20
-36.09402284252959
 30
0.0
 10
-19.95078305973884
 20
-36.09402284252959
 30
0.0
 10
-22.77575187832096
 20
-36.09402284252962
 30
0.0
 10
-25.38789725618047
 20
-36.0940228425296
 30
0.0
 10
-27.76245913232373
 20
-36.09402284252962
 30
0.0
 10
-29.86034665236008
 20
-36.09402284252965
 30
0.0
 10
-31.66696689269118
 20
-36.09402284252965
 30
0.0
 10
-32.83747131068375
 20
-36.09402284252965
 30
0.0
 10
-33.56140975501115
 20
-36.09402284252968
 30
0.0
 10
-33.95951547407481
 20
-36.09402284252965
 30
0.0
 10
-34.319713041279
 20
-36.09402284252968
 30
0.0
 10
-34.64200850407799
 20
-36.09402284252966
 30
0.0
 10
-34.92639869268091
 20
-36.09402284252968
 30
0.0
 10
-35.17287805458346
 20
-36.09402284252968
 30
0.0
 10
-35.38146260539271
 20
-36.09402284252966
 30
0.0
 10
-35.55208753394395
 20
-36.0940228425297
 30
0.0
 10
-35.68499383002673
 20
-36.09402284252968
 30
0.0
 10
-35.77927879561162
 20
-36.09402284252969
 30
0.0
 10
-35.83833566985334
 20
-36.0940228425297
 30
0.0
 10
-35.84569472773798
 20
-36.0940228425297
 30
0.0
 10
-35.84938434961915
 20
-36.0940228425297
 30
0.0
  0
SPLINE
  5
1EE
330
23
100
AcDbEntity
  8
0
  6
Continuous
 62
     8
370
    25
100
AcDbSpline
210
0.0
220
0.0
230
1.0
 70
     8
 71
     3
 72
    10
 73
     6
 74
     0
 42
0.000000001
 43
0.00000001
 40
0.0
 40
0.0
 40
0.0
 40
0.0
 40
0.1550410168708948
 40
0.4453251001380058
 40
1.0
 40
1.0
 40
1.0
 40
1.0
 10
250.3365045387031
 20
129.7971377858884
 30
0.0
 10
250.3126218493431
 20
129.8129277107094
 30
0.0
 10
250.2440234794057
 20
129.8582811919622
 30
0.0
 10
249.6298242379063
 20
129.9303239300423
 30
0.0
 10
248.6084564247578
 20
129.9445388592304
 30
0.0
 10
247.9379776195235
 20
129.953870275999
 30
0.0
  0
SPLINE
  5
1F1
330
23
100
AcDbEntity
  8
0
  6
Continuous
 62
     8
370
    25
100
AcDbSpline
210
0.0
220
0.0
230
1.0
 70
     8
 71
     3
 72
    20
 73
    16
 74
     0
 42
0.000000001
 43
0.00000001
 40
0.0
 40
0.0
 40
0.0
 40
0.0
 40
0.0391733538040252
 40
0.1329819002382689
 40
0.2066787095579993
 40
0.279458522634951
 40
0.3541017708051174
 40
0.4283979237999419
 40
0.5027253692753825
 40
0.577302184416582
 40
0.6500826451004795
 40
0.7236815998059974
 40
0.8174431634277755
 40
0.9093685234169763
 40
0.9999999999999999
 40
0.9999999999999999
 40
0.9999999999999999
 40
0.9999999999999999
 10
-181.0344863579479
 20
-1.765617767992313
 30
0.0
 10
-180.9099657462279
 20
-1.790603671998979
 30
0.0
 10
-180.4872552566383
 20
-1.875423394369434
 30
0.0
 10
-179.2298577207277
 20
-1.976444240330388
 30
0.0
 10
-177.4235429227764
 20
-2.07288251648368
 30
0.0
 10
-175.376584233692
 20
-2.137282853632051
 30
0.0
 10
-172.9874173569609
 20
-2.178629670358201
 30
0.0
 10
-170.2546388383241
 20
-2.195151656397311
 30
0.0
 10
-167.2271148435645
 20
-2.187036369459237
 30
0.0
 10
-163.9574928160741
 20
-2.154035899946269
 30
0.0
 10
-160.4744353452943
 20
-2.097429844099351
 30
0.0
 10
-156.4864762646449
 20
-2.010669488878097
 30
0.0
 10
-151.9789219092198
 20
-1.886947303972639
 30
0.0
 10
-147.0192696598043
 20
-1.724175128268876
 30
0.0
 10
-143.6899969176838
 20
-1.592641897827797
 30
0.0
 10
-142.0371587647472
 20
-1.527341407753333
 30
0.0
  0
LINE
  5
1F2
330
23
100
AcDbEntity
  8
0
  6
Continuous
 62
     7
370
    25
100
AcDbLine
 10
-38.3363253644
 20
-7.6681045634
 30
0.0
 11
-35.8450099245
 21
-36.1440228425
 31
0.0
  0
LINE
  5
1F3
330
23
100
AcDbEntity
  8
0
  6
Continuous
 62
     7
370
    25
100
AcDbLine
 10
35.8450099245
 20
-36.1440228425
 30
0.0
 11
38.3363253644
 21
-7.6681045634
 31
0.0
  0
LINE
  5
1F4
330
23
100
AcDbEntity
  8
0
  6
Continuous
 62
     7
370
    25
100
AcDbLine
 10
243.6662546935
 20
116.2618708035
 30
0.0
 11
241.9903929863
 21
129.7548911236
 31
0.0
  0
LINE
  5
1F5
330
23
100
AcDbEntity
  8
0
  6
Continuous
 62
     7
370
    25
100
AcDbLine
 10
250.4255806774
 20
129.7548911236
 30
0.0
 11
250.3365045387
 21
129.7971377859
 31
0.0
  0
LINE
  5
1F6
330
23
100
AcDbEntity
  8
0
  6
Continuous
 62
     7
370
    25
100
AcDbLine
 10
250.4255806774
 20
129.7548911236
 30
0.0
 11
252.1014423846
 21
116.2618708035
 31
0.0
  0
LINE
  5
1F7
330
23
100
AcDbEntity
  8
0
  6
Continuous
 62
     7
370
    25
100
AcDbLine
 10
243.6662546935
 20
116.2618708035
 30
0.0
 11
-243.6662546935
 21
116.2618708035
 31
0.0
  0
LINE
  5
1F8
330
23
100
AcDbEntity
  8
0
  6
Continuous
 62
     7
370
    25
100
AcDbLine
 10
-241.9903929863
 20
129.7548911236
 30
0.0
 11
-243.6662546935
 21
116.2618708035
 31
0.0
  0
LINE
  5
1F9
330
23
100
AcDbEntity
  8
0
  6
Continuous
 62
     7
370
    25
100
AcDbLine
 10
241.9903929863
 20
129.7548911236
 30
0.0
 11
-241.9903929863
 21
129.7548911236
 31
0.0
  0
LINE
  5
1FA
330
23
100
AcDbEntity
  8
0
  6
Continuous
 62
     7
370
    25
100
AcDbLine
 10
-252.1014423846
 20
116.2618708035
 30
0.0
 11
-250.4255806774
 21
129.7548911236
 31
0.0
  0
LINE
  5
1FB
330
23
100
AcDbEntity
  8
0
  6
Continuous
 62
     7
370
    25
100
AcDbLine
 10
-241.9903929863
 20
133.2618708035
 30
0.0
 11
241.9903929863
 21
133.2618708035
 31
0.0
  0
LINE
  5
1FC
330
23
100
AcDbEntity
  8
0
  6
Continuous
 62
     7
370
    25
100
AcDbLine
 10
241.9903929863
 20
133.2618708035
 30
0.0
 11
241.9903929863
 21
129.7548911236
 31
0.0
  0
LINE
  5
1FD
330
23
100
AcDbEntity
  8
0
  6
Continuous
 62
     7
370
    25
100
AcDbLine
 10
-241.9903929863
 20
133.2618708035
 30
0.0
 11
-241.9903929863
 21
129.7548911236
 31
0.0
  0
LINE
  5
1FE
330
23
100
AcDbEntity
  8
0
  6
Continuous
 62
     7
370
    25
100
AcDbLine
 10
209.1299200913
 20
116.2618708035
 30
0.0
 11
181.9292070993
 21
-1.4689953165
 31
0.0
  0
LINE
  5
1FF
330
23
100
AcDbEntity
  8
0
  6
Continuous
 62
     7
370
    25
100
AcDbLine
 10
-181.9292070993
 20
-1.4689953165
 30
0.0
 11
-209.1299200913
 21
116.2618708035
 31
0.0
  0
LINE
  5
200
330
23
100
AcDbEntity
  8
0
  6
Continuous
 62
     7
370
    25
100
AcDbLine
 10
-142.0371587647
 20
-1.5273414078
 30
0.0
 11
142.0371587647
 21
-1.5273414078
 31
0.0
  0
LINE
  5
201
330
23
100
AcDbEntity
  8
0
  6
Continuous
 62
     7
370
    25
100
AcDbLine
 10
142.0371587647
 20
-7.6681045634
 30
0.0
 11
-142.0371587647
 21
-7.6681045634
 31
0.0
  0
LINE
  5
202
330
23
100
AcDbEntity
  8
0
  6
Continuous
 62
     7
370
    25
100
AcDbLine
 10
-142.0371587647
 20
-7.6681045634
 30
0.0
 11
-142.0371587647
 21
-1.5273414078
 31
0.0
  0
LINE
  5
203
330
23
100
AcDbEntity
  8
0
  6
Continuous
 62
     7
370
    25
100
AcDbLine
 10
142.0371587647
 20
-7.6681045634
 30
0.0
 11
142.0371587647
 21
-1.5273414078
 31
0.0
  0
LINE
  5
204
330
23
100
AcDbEntity
  8
0
  6
Continuous
 62
     8
370
    25
100
AcDbLine
 10
142.0371587647
 20
-1.5273414078
 30
0.0
 11
169.2513521238
 21
116.2618708035
 31
0.0
  0
LINE
  5
205
330
23
100
AcDbEntity
  8
0
  6
Continuous
 62
     8
370
    25
100
AcDbLine
 10
-169.2513521238
 20
116.2618708035
 30
0.0
 11
-142.0371587647
 21
-1.5273414078
 31
0.0
  0
ARC
  5
206
330
23
100
AcDbEntity
  8
0
  6
Continuous
 62
     7
370
    25
100
AcDbCircle
 10
-244.6067471748
 20
129.975528036
 30
0.0
 40
3.331300847132187
100
AcDbArc
 50
99.4237599662
 51
180.3724992242
  0
ARC
  5
207
330
23
100
AcDbEntity
  8
0
  6
Continuous
 62
     7
370
    25
100
AcDbCircle
 10
244.6067471748
 20
129.975528036
 30
0.0
 40
3.331300847132187
100
AcDbArc
 50
359.6275007758
 51
80.5762400338
  0
ARC
  5
208
330
23
100
AcDbEntity
  8
0
  6
Continuous
 62
     7
370
    25
100
AcDbCircle
 10
-246.4560805875
 20
129.2618708035
 30
0.0
 40
4.000000000003037
100
AcDbArc
 50
90.0
 51
111.398173179
  0
ARC
  5
209
330
23
100
AcDbEntity
  8
0
  6
Continuous
 62
     7
370
    25
100
AcDbCircle
 10
246.4560805875
 20
129.2618708035
 30
0.0
 40
4.000000000000654
100
AcDbArc
 50
68.601826813
 51
90.0
  0
ARC
  5
20A
330
23
100
AcDbEntity
  8
0
  6
Continuous
 62
     7
370
    25
100
AcDbCircle
 10
-174.1345427386
 20
0.3318954366
 30
0.0
 40
8.000000000000124
100
AcDbArc
 50
248.6961399771
 51
270.0
  0
ARC
  5
20B
330
23
100
AcDbEntity
  8
0
  6
Continuous
 62
     7
370
    25
100
AcDbCircle
 10
-174.1345427386
 20
0.3318954366
 30
0.0
 40
8.000000000001119
100
AcDbArc
 50
193.0094256824
 51
230.7148128315
  0
ARC
  5
20C
330
23
100
AcDbEntity
  8
0
  6
Continuous
 62
     7
370
    25
100
AcDbCircle
 10
174.1345427386
 20
0.3318954366
 30
0.0
 40
8.000000000000938
100
AcDbArc
 50
270.0
 51
291.3038600172
  0
ARC
  5
20D
330
23
100
AcDbEntity
  8
0
  6
Continuous
 62
     7
370
    25
100
AcDbCircle
 10
174.1345427386
 20
0.3318954366
 30
0.0
 40
8.000000000001208
100
AcDbArc
 50
309.2851871642
 51
346.9905743176
  0
VIEWPORT
  5
314
330
23
100
AcDbEntity
  8
0
100
AcDbViewport
 10
0.0
 20
0.0
 30
0.0
 40
205.6
 41
156.0
 68
     1
 69
     1
 12
0.0
 22
22.1910060118
 13
0.0
 23
0.0
 14
10.0
 24
10.0
 15
10.0
 25
10.0
 16
0.0
 26
0.0
 36
1.0
 17
0.0
 27
0.0
 37
0.0
 42
50.0
 43
0.0
 44
0.0
 45
390.2177189906
 50
0.0
 51
0.0
 72
   100
 90
   557152
  1

281
     0
 71
     1
 74
     0
110
0.0
120
0.0
130
0.0
111
1.0
121
0.0
131
0.0
112
0.0
122
1.0
132
0.0
 79
     0
146
0.0
  0
ENDBLK
  5
25
330
23
100
AcDbEntity
  8
0
100
AcDbBlockEnd
  0
BLOCK
  5
210
330
20E
100
AcDbEntity
  8
0
100
AcDbBlockBegin
  2
*Paper_Space1
 70
     0
 10
0.0
 20
0.0
 30
0.0
  3
*Paper_Space1
  1

  0
SPLINE
  5
212
330
20E
100
AcDbEntity
  8
0
  6
Continuous
 62
     7
370
    25
100
AcDbSpline
210
0.0
220
0.0
230
1.0
 70
     8
 71
     3
 72
    11
 73
     7
 74
     0
 42
0.000000001
 43
0.00000001
 40
0.0
 40
0.0
 40
0.0
 40
0.0
 40
0.2549303223899425
 40
0.5128341196649342
 40
0.7639315990908805
 40
1.0
 40
1.0
 40
1.0
 40
1.0
 10
-199.1977878211812
 20
133.0200016456582
 30
0.0
 10
-199.5361469887437
 20
132.8646648864112
 30
0.0
 10
-200.216811902202
 20
132.5521795396967
 30
0.0
 10
-201.0042504970778
 20
131.7564275135397
 30
0.0
 10
-201.5552911348703
 20
130.8212769542289
 30
0.0
 10
-201.6872236325103
 20
130.133139526362
 30
0.0
 10
-201.75115482105
 20
129.799685340099
 30
0.0
  0
SPLINE
  5
213
330
20E
100
AcDbEntity
  8
0
  6
Continuous
 62
     7
370
    25
100
AcDbSpline
210
0.0
220
0.0
230
1.0
 70
     8
 71
     3
 72
    11
 73
     7
 74
     0
 42
0.000000001
 43
0.00000001
 40
0.0
 40
0.0
 40
0.0
 40
0.0
 40
0.2469398790388495
 40
0.4988508842105293
 40
0.7515410687476349
 40
1.0
 40
1.0
 40
1.0
 40
1.0
 10
-139.0658050660568
 20
-1.81581258633777
 30
0.0
 10
-138.9870271269619
 20
-2.385291313000297
 30
0.0
 10
-138.8278853766432
 20
-3.535712895129578
 30
0.0
 10
-137.901048366697
 20
-5.118249731312106
 30
0.0
 10
-136.5230314419898
 20
-6.456716851962765
 30
0.0
 10
-135.2783963764164
 20
-6.987499425228874
 30
0.0
 10
-134.6613331342625
 20
-7.250649986062112
 30
0.0
  0
SPLINE
  5
216
330
20E
100
AcDbEntity
  8
0
  6
Continuous
 62
     7
370
    25
100
AcDbSpline
210
0.0
220
0.0
230
1.0
 70
    24
 71
     3
 72
    22
 73
    18
 74
     0
 42
0.000000001
 43
0.00000001
 40
0.0
 40
0.0
 40
0.0
 40
0.0
 40
0.1250000000000021
 40
0.1250000000000021
 40
0.2500000000000042
 40
0.2500000000000042
 40
0.3750000000000063
 40
0.3750000000000063
 40
0.5000000000000084
 40
0.5000000000000084
 40
0.6250000000000063
 40
0.6250000000000063
 40
0.7500000000000042
 40
0.7500000000000042
 40
0.8750000000000021
 40
0.8750000000000021
 40
1.0
 40
1.0
 40
1.0
 40
1.0
 10
-195.0381252314435
 20
116.2618708034718
 30
0.0
 10
-195.5389347335569
 20
116.2618708034718
 30
0.0
 10
-196.0574528543198
 20
116.2618708034718
 30
0.0
 10
-197.1058205057208
 20
116.2618708034718
 30
0.0
 10
-197.6355631156353
 20
116.2618708034718
 30
0.0
 10
-198.6745596834878
 20
116.2618708034718
 30
0.0
 10
-199.1836086973936
 20
116.2618708034718
 30
0.0
 10
-200.1464201138965
 20
116.2618708034718
 30
0.0
 10
-200.5999419259528
 20
116.2618708034718
 30
0.0
 10
-201.4209050678372
 20
116.2618708034719
 30
0.0
 10
-201.7881693012699
 20
116.2618708034718
 30
0.0
 10
-202.416481611656
 20
116.2618708034719
 30
0.0
 10
-202.6774884133691
 20
116.2618708034718
 30
0.0
 10
-203.0873037599521
 20
116.2618708034719
 30
0.0
 10
-203.2362048947212
 20
116.2618708034719
 30
0.0
 10
-203.4291280425166
 20
116.2618708034719
 30
0.0
 10
-203.4733129225481
 20
116.2618708034719
 30
0.0
 10
-203.473312922548
 20
116.2618708034718
 30
0.0
  0
SPLINE
  5
218
330
20E
100
AcDbEntity
  8
0
  6
Continuous
 62
     7
370
    25
100
AcDbSpline
210
0.0
220
0.0
230
1.0
 70
     8
 71
     3
 72
    28
 73
    24
 74
     0
 42
0.000000001
 43
0.00000001
 40
0.0
 40
0.0
 40
0.0
 40
0.0
 40
0.0451510386562783
 40
0.0905457733650768
 40
0.1361847298515703
 40
0.1820684254375556
 40
0.2281973692021962
 40
0.2745720621393384
 40
0.321192997311652
 40
0.3680606600015149
 40
0.4151755278588136
 40
0.4625380710456075
 40
0.5101487523778336
 40
0.5580080274640422
 40
0.606116344841244
 40
0.6544741461079338
 40
0.7030818660543049
 40
0.7519399327898137
 40
0.8010487678680341
 40
0.8504087864089386
 40
0.9000203972186004
 40
0.9498840029064418
 40
1.0
 40
1.0
 40
1.0
 40
1.0
 10
-199.30984815747
 20
129.953870275999
 30
0.0
 10
-199.3795445114647
 20
129.9537936603688
 30
0.0
 10
-199.5193133952154
 20
129.9536400155866
 30
0.0
 10
-199.7197689940645
 20
129.9523768350497
 30
0.0
 10
-199.9137490701817
 20
129.950325451595
 30
0.0
 10
-200.1001942670876
 20
129.9473888772741
 30
0.0
 10
-200.2789169473519
 20
129.9435655781889
 30
0.0
 10
-200.4494974419897
 20
129.9388314307697
 30
0.0
 10
-200.6115831884885
 20
129.9331717561184
 30
0.0
 10
-200.7648089681369
 20
129.9265728156959
 30
0.0
 10
-200.9088195102233
 20
129.9190242543814
 30
0.0
 10
-201.0432644771658
 20
129.9105185844442
 30
0.0
 10
-201.1678009186026
 20
129.9010514650128
 30
0.0
 10
-201.2820937852034
 20
129.8906217661434
 30
0.0
 10
-201.3858167812725
 20
129.8792316763612
 30
0.0
 10
-201.4786539175655
 20
129.8668868346587
 30
0.0
 10
-201.5602979825953
 20
129.8535962982507
 30
0.0
 10
-201.6304607994235
 20
129.8393731236532
 30
0.0
 10
-201.688839168917
 20
129.8242326158681
 30
0.0
 10
-201.7352475176457
 20
129.8081993253132
 30
0.0
 10
-201.7691236407837
 20
129.7912811213164
 30
0.0
 10
-201.7913920220448
 20
129.7735670512959
 30
0.0
 10
-201.7954280880069
 20
129.7611269009066
 30
0.0
 10
-201.7974512153689
 20
129.754891123574
 30
0.0
  0
SPLINE
  5
219
330
20E
100
AcDbEntity
  8
0
  6
Continuous
 62
     7
370
    25
100
AcDbSpline
210
0.0
220
0.0
230
1.0
 70
     8
 71
     3
 72
    30
 73
    26
 74
     0
 42
0.000000001
 43
0.00000001
 40
0.0
 40
0.0
 40
0.0
 40
0.0
 40
0.04576815199683
 40
0.0913258655040416
 40
0.1366734417918506
 40
0.1818111863432077
 40
0.2267394089262781
 40
0.2714584236683991
 40
0.3159685491313705
 40
0.3602701083883131
 40
0.4043634291019254
 40
0.4482488436043152
 40
0.4919266889783563
 40
0.5353973071406679
 40
0.5786610449261217
 40
0.6217182541740879
 40
0.6645692918162676
 40
0.7072145199662941
 40
0.7496543060110341
 40
0.7918890227036772
 40
0.8339190482586106
 40
0.8757447664481416
 40
0.9173665667010938
 40
0.9587848442032951
 40
0.9999999999999999
 40
0.9999999999999999
 40
0.9999999999999999
 40
0.9999999999999999
 10
-193.3622635242645
 20
129.7548911235739
 30
0.0
 10
-193.4630330426713
 20
129.7605910687629
 30
0.0
 10
-193.6641087488862
 20
129.7719647512253
 30
0.0
 10
-193.9645932351401
 20
129.7882389939068
 30
0.0
 10
-194.2629018808739
 20
129.8038542451619
 30
0.0
 10
-194.5586754540716
 20
129.8187375813624
 30
0.0
 10
-194.8515708785878
 20
129.8328833109296
 30
0.0
 10
-195.1412551183462
 20
129.8462712827098
 30
0.0
 10
-195.4274071094528
 20
129.8588885645775
 30
0.0
 10
-195.7097175138168
 20
129.8707236118172
 30
0.0
 10
-195.9878890161729
 20
129.881767751516
 30
0.0
 10
-196.2616364413273
 20
129.8920147165769
 30
0.0
 10
-196.5306868841856
 20
129.9014606951361
 30
0.0
 10
-196.7947798051019
 20
129.910104239891
 30
0.0
 10
-197.0536670936989
 20
129.9179462108987
 30
0.0
 10
-197.3071131400797
 20
129.9249897100835
 30
0.0
 10
-197.5548947605555
 20
129.9312400034728
 30
0.0
 10
-197.7968015515744
 20
129.9367044893828
 30
0.0
 10
-198.0326345493269
 20
129.9413924864745
 30
0.0
 10
-198.2622110635893
 20
129.9453156832845
 30
0.0
 10
-198.4853465363726
 20
129.9484861311417
 30
0.0
 10
-198.7019214276216
 20
129.9509233340183
 30
0.0
 10
-198.9116329947492
 20
129.9526276313917
 30
0.0
 10
-199.1149143912125
 20
129.9536784557311
 30
0.0
 10
-199.2449768044331
 20
129.9538064407766
 30
0.0
 10
-199.30984815747
 20
129.953870275999
 30
0.0
  0
LWPOLYLINE
  5
220
330
20E
100
AcDbEntity
  8
0
  6
Continuous
 62
     7
370
    25
100
AcDbPolyline
 90
        9
 70
   128
 43
0.0
 10
159.0913007406
 20
133.2618708035
 10
159.0913007443
 20
133.1965970441
 10
159.0913007553
 20
133.0029060979
 10
159.0913007731
 20
132.687119433
 10
159.0913007973
 20
132.2595433407
 10
159.091300827
 20
131.7341325704
 10
159.0913008613
 20
131.1280348904
 10
159.091300899
 20
130.4610314377
 10
159.0913007406
 20
129.7548911236
  0
SPLINE
  5
221
330
20E
100
AcDbEntity
  8
0
  6
Continuous
 62
     7
370
    25
100
AcDbSpline
210
0.0
220
0.0
230
1.0
 70
    24
 71
     3
 72
    10
 73
     6
 74
     0
 42
0.000000001
 43
0.00000001
 40
0.0
 40
0.0
 40
0.0
 40
0.0
 40
0.5
 40
0.5
 40
1.0
 40
1.0
 40
1.0
 40
1.0
 10
-196.5240684883265
 20
133.2618708034718
 30
0.0
 10
-196.121896174306
 20
133.2618708034718
 30
0.0
 10
-195.623709726061
 20
133.2618708034718
 30
0.0
 10
-194.5288979336078
 20
133.2618708034718
 30
0.0
 10
-193.935325010194
 20
133.2618708034718
 30
0.0
 10
-193.362263524264
 20
133.2618708034718
 30
0.0
  0
LWPOLYLINE
  5
224
330
20E
100
AcDbEntity
  8
0
  6
Continuous
 62
     7
370
    25
100
AcDbPolyline
 90
        3
 70
   128
 43
0.0
 10
-201.5037402851
 20
130.8393922943
 10
-201.643971798
 20
130.4610314377
 10
-201.7974512154
 20
129.7548911236
  0
SPLINE
  5
225
330
20E
100
AcDbEntity
  8
0
  6
Continuous
 62
     7
370
    25
100
AcDbSpline
210
0.0
220
0.0
230
1.0
 70
    24
 71
     3
 72
    10
 73
     6
 74
     0
 42
0.000000001
 43
0.00000001
 40
0.0
 40
0.0
 40
0.0
 40
0.0
 40
0.5
 40
0.5
 40
1.0
 40
1.0
 40
1.0
 40
1.0
 10
-197.827951125437
 20
133.2618708034718
 30
0.0
 10
-197.827951125437
 20
133.2618708034717
 30
0.0
 10
-197.7150799882774
 20
133.2618708034718
 30
0.0
 10
-197.2635954396386
 20
133.2618708034718
 30
0.0
 10
-196.9262408023471
 20
133.2618708034717
 30
0.0
 10
-196.5240684883265
 20
133.2618708034718
 30
0.0
  0
SPLINE
  5
226
330
20E
100
AcDbEntity
  8
0
  6
Continuous
 62
     7
370
    25
100
AcDbSpline
210
0.0
220
0.0
230
1.0
 70
     8
 71
     3
 72
     9
 73
     5
 74
     0
 42
0.000000001
 43
0.00000001
 40
0.0
 40
0.0
 40
0.0
 40
0.0
 40
0.6317649978563824
 40
1.0
 40
1.0
 40
1.0
 40
1.0
 10
-139.891795585528
 20
-1.527341407753381
 30
0.0
 10
-139.8396044273053
 20
-1.593707880146636
 30
0.0
 10
-139.7569927625252
 20
-1.698757182685459
 30
0.0
 10
-139.2011183770083
 20
-1.780976354610199
 30
0.0
 10
-138.9964259714659
 20
-1.811252331560147
 30
0.0
  0
SPLINE
  5
22D
330
20E
100
AcDbEntity
  8
0
  6
Continuous
 62
     7
370
    25
100
AcDbSpline
210
0.0
220
0.0
230
1.0
 70
    24
 71
     3
 72
    22
 73
    18
 74
     0
 42
0.000000001
 43
0.00000001
 40
0.0
 40
0.0
 40
0.0
 40
0.0
 40
0.1249999999999997
 40
0.1249999999999997
 40
0.2499999999999994
 40
0.2499999999999994
 40
0.3749999999999992
 40
0.3749999999999992
 40
0.4999999999999989
 40
0.4999999999999989
 40
0.6249999999999991
 40
0.6249999999999991
 40
0.7499999999999994
 40
0.7499999999999994
 40
0.8749999999999997
 40
0.8749999999999997
 40
1.0
 40
1.0
 40
1.0
 40
1.0
 10
-99.95689933474509
 20
-7.668104563405636
 30
0.0
 10
-101.9005189113028
 20
-7.668104563405636
 30
0.0
 10
-103.9033981472017
 20
-7.668104563405623
 30
0.0
 10
-107.9356317176027
 20
-7.668104563405609
 30
0.0
 10
-109.9645756238947
 20
-7.668104563405595
 30
0.0
 10
-113.930838421919
 20
-7.668104563405581
 30
0.0
 10
-115.8674274564463
 20
-7.668104563405574
 30
0.0
 10
-119.5223463395104
 20
-7.66810456340556
 30
0.0
 10
-121.2398460042988
 20
-7.668104563405553
 30
0.0
 10
-124.3458448665204
 20
-7.66810456340554
 30
0.0
 10
-125.7337413204672
 20
-7.66810456340554
 30
0.0
 10
-128.1084550343328
 20
-7.668104563405525
 30
0.0
 10
-129.095131251728
 20
-7.668104563405525
 30
0.0
 10
-130.6458561259395
 20
-7.668104563405525
 30
0.0
 10
-131.210219427489
 20
-7.668104563405525
 30
0.0
 10
-131.9424308578982
 20
-7.668104563405525
 30
0.0
 10
-132.1108420220746
 20
-7.668104563405525
 30
0.0
 10
-132.1108420220746
 20
-7.668104563405532
 30
0.0
  0
SPLINE
  5
230
330
20E
100
AcDbEntity
  8
0
  6
Continuous
 62
     7
370
    25
100
AcDbSpline
210
0.0
220
0.0
230
1.0
 70
    24
 71
     3
 72
    62
 73
    58
 74
     0
 42
0.000000001
 43
0.00000001
 40
0.0
 40
0.0
 40
0.0
 40
0.0
 40
0.005496415181412
 40
0.0109763525551263
 40
0.016441358676725
 40
0.0218929928091938
 40
0.0273328257142922
 40
0.0327624383959105
 40
0.0381834207999858
 40
0.0435973704759714
 40
0.0490058912052301
 40
0.0544105916020553
 40
0.0598130836933009
 40
0.0652149814828195
 40
0.0706178995070676
 40
0.0760234513883273
 40
0.0814332483920182
 40
0.0868488979945313
 40
0.0922720024679084
 40
0.0977041574875147
 40
0.1031469507686166
 40
0.1086019607374883
 40
0.11407075524232
 40
0.1195548903088158
 40
0.1250559089449385
 40
0.1564396770435919
 40
0.1875319399441842
 40
0.2186382640844395
 40
0.2500638057311212
 40
0.29181609298212
 40
0.3332306427017622
 40
0.3750325528398727
 40
0.4167848400914153
 40
0.4581993898110572
 40
0.5000012999486625
 40
0.5417535872004409
 40
0.583168136920083
 40
0.6249700470574
 40
0.6667223343086689
 40
0.7081368840283109
 40
0.7499387941661485
 40
0.7813225634256113
 40
0.8124148267094474
 40
0.8435211504739496
 40
0.8749466910265508
 40
0.8854669562730394
 40
0.8959317987123192
 40
0.9063522460123022
 40
0.9167394672391174
 40
0.9271047388674045
 40
0.9374594090829085
 40
0.9478148609246109
 40
0.9581824748569528
 40
0.9685735913842882
 40
0.9789994743180993
 40
0.9894712752828191
 40
1.0
 40
1.0
 40
1.0
 40
1.0
 10
-0.615311672772248
 20
-36.09402284252982
 30
0.0
 10
-0.6163011331786518
 20
-36.09402284252982
 30
0.0
 10
-0.618277087669268
 20
-36.09402284252981
 30
0.0
 10
-0.6343200452987897
 20
-36.09402284252984
 30
0.0
 10
-0.6599482471875417
 20
-36.09402284252984
 30
0.0
 10
-0.696092588119545
 20
-36.09402284252982
 30
0.0
 10
-0.742504690708589
 20
-36.09402284252984
 30
0.0
 10
-0.799250930380923
 20
-36.09402284252981
 30
0.0
 10
-0.866313622128384
 20
-36.09402284252984
 30
0.0
 10
-0.9436975235852414
 20
-36.09402284252981
 30
0.0
 10
-1.031401380668297
 20
-36.09402284252982
 30
0.0
 10
-1.129425532629218
 20
-36.09402284252981
 30
0.0
 10
-1.237769878314424
 20
-36.09402284252984
 30
0.0
 10
-1.356434420227197
 20
-36.09402284252981
 30
0.0
 10
-1.485419118910134
 20
-36.09402284252982
 30
0.0
 10
-1.624723932567143
 20
-36.09402284252984
 30
0.0
 10
-1.774348805291048
 20
-36.09402284252981
 30
0.0
 10
-1.934293676332861
 20
-36.09402284252981
 30
0.0
 10
-2.104558457100815
 20
-36.09402284252981
 30
0.0
 10
-2.285143116929528
 20
-36.09402284252981
 30
0.0
 10
-2.476047365567547
 20
-36.09402284252981
 30
0.0
 10
-2.677271844625108
 20
-36.09402284252981
 30
0.0
 10
-2.888813668971167
 20
-36.09402284252982
 30
0.0
 10
-3.110683134887649
 20
-36.09402284252981
 30
0.0
 10
-3.706655877002949
 20
-36.09402284252982
 30
0.0
 10
-4.795530164831304
 20
-36.09402284252981
 30
0.0
 10
-6.601382426656997
 20
-36.0940228425298
 30
0.0
 10
-8.700432193184485
 20
-36.09402284252981
 30
0.0
 10
-11.3363453180125
 20
-36.09402284252979
 30
0.0
 10
-14.57271005644169
 20
-36.09402284252979
 30
0.0
 10
-18.4839782710729
 20
-36.09402284252977
 30
0.0
 10
-22.7058890171265
 20
-36.09402284252975
 30
0.0
 10
-27.15585703612814
 20
-36.09402284252973
 30
0.0
 10
-31.7694723134742
 20
-36.0940228425297
 30
0.0
 10
-36.46281104040555
 20
-36.0940228425297
 30
0.0
 10
-41.15627728507025
 20
-36.0940228425297
 30
0.0
 10
-45.76974948616133
 20
-36.09402284252966
 30
0.0
 10
-50.22002093442316
 20
-36.09402284252966
 30
0.0
 10
-54.44246530305358
 20
-36.09402284252965
 30
0.0
 10
-58.35334219126084
 20
-36.09402284252963
 30
0.0
 10
-61.59050539006996
 20
-36.09402284252962
 30
0.0
 10
-64.22708395565357
 20
-36.09402284252959
 30
0.0
 10
-66.32506108032516
 20
-36.09402284252959
 30
0.0
 10
-68.131660776214
 20
-36.09402284252959
 30
0.0
 10
-69.302229606263
 20
-36.09402284252958
 30
0.0
 10
-70.02628354401418
 20
-36.09402284252959
 30
0.0
 10
-70.4245467747253
 20
-36.09402284252959
 30
0.0
 10
-70.78486575962872
 20
-36.09402284252956
 30
0.0
 10
-71.10724879673353
 20
-36.09402284252959
 30
0.0
 10
-71.39169208516911
 20
-36.09402284252958
 30
0.0
 10
-71.63819019749715
 20
-36.09402284252958
 30
0.0
 10
-71.84675910219747
 20
-36.09402284252956
 30
0.0
 10
-72.0173338805953
 20
-36.09402284252958
 30
0.0
 10
-72.15015579983245
 20
-36.09402284252959
 30
0.0
 10
-72.24432107628307
 20
-36.09402284252958
 30
0.0
 10
-72.30322655934688
 20
-36.09402284252959
 30
0.0
 10
-72.31045590253474
 20
-36.09402284252959
 30
0.0
 10
-72.3140803720106
 20
-36.09402284252958
 30
0.0
  0
SPLINE
  5
231
330
20E
100
AcDbEntity
  8
0
  6
Continuous
 62
     7
370
    25
100
AcDbSpline
210
0.0
220
0.0
230
1.0
 70
     8
 71
     3
 72
    29
 73
    25
 74
     0
 42
0.000000001
 43
0.00000001
 40
0.0
 40
0.0
 40
0.0
 40
0.0
 40
0.0177098646421981
 40
0.0354672920657129
 40
0.053282468136602
 40
0.0711654891469218
 40
0.0891263461378263
 40
0.1071749101035249
 40
0.125320918170097
 40
0.1871030114226159
 40
0.2495126275618765
 40
0.3120965347852933
 40
0.374699914699969
 40
0.498880156213059
 40
0.6240407229228091
 40
0.6882972280689819
 40
0.7491453717997447
 40
0.8133204333825013
 40
0.8746601053115419
 40
0.8996377036035508
 40
0.9245227939646967
 40
0.9494531712046187
 40
0.9745668816222253
 40
1.0
 40
1.0
 40
1.0
 40
1.0
 10
-6.124501110682305
 20
-34.68968593976025
 30
0.0
 10
-6.194667281167909
 20
-34.69850746242846
 30
0.0
 10
-6.33518806503747
 20
-34.71617419942834
 30
0.0
 10
-6.550225857307828
 20
-34.73115956564062
 30
0.0
 10
-6.768709770087321
 20
-34.73776358667089
 30
0.0
 10
-6.990960976398814
 20
-34.73515133393931
 30
0.0
 10
-7.216929131951878
 20
-34.72354823683675
 30
0.0
 10
-7.446668969668935
 20
-34.70289250503942
 30
0.0
 10
-7.866875597209397
 20
-34.64947244462105
 30
0.0
 10
-8.491582229018748
 20
-34.5211908642618
 30
0.0
 10
-9.333420384930339
 20
-34.25281764364289
 30
0.0
 10
-10.19528395462878
 20
-33.88751264830218
 30
0.0
 10
-11.35220797265529
 20
-33.27658924600662
 30
0.0
 10
-12.80375079072279
 20
-32.28467005110721
 30
0.0
 10
-14.19928182071036
 20
-30.97419150621981
 30
0.0
 10
-15.20115410684697
 20
-29.72200546831431
 30
0.0
 10
-15.87302586424404
 20
-28.66314354649459
 30
0.0
 10
-16.41618626742722
 20
-27.50969584153708
 30
0.0
 10
-16.7213209970229
 20
-26.49372990490176
 30
0.0
 10
-16.86360708034234
 20
-25.71377063785337
 30
0.0
 10
-16.92590285441977
 20
-25.17993724139443
 30
0.0
 10
-16.95328071299109
 20
-24.63903883148662
 30
0.0
 10
-16.94847131433252
 20
-24.09084691282186
 30
0.0
 10
-16.91649997738343
 20
-23.72412710890694
 30
0.0
 10
-16.90041329466366
 20
-23.53960854648239
 30
0.0
  0
SPLINE
  5
232
330
20E
100
AcDbEntity
  8
0
  6
Continuous
 62
     7
370
    25
100
AcDbSpline
210
0.0
220
0.0
230
1.0
 70
     8
 71
     3
 72
    33
 73
    29
 74
     0
 42
0.000000001
 43
0.00000001
 40
0.0
 40
0.0
 40
0.0
 40
0.0
 40
0.0291886892335375
 40
0.0584024147385475
 40
0.0876412378984578
 40
0.1169052194321536
 40
0.1461944193960637
 40
0.1755088971862068
 40
0.2048487115403045
 40
0.2342139205398618
 40
0.2636045816122988
 40
0.2930207515330597
 40
0.322462486427762
 40
0.3519298417743456
 40
0.3814228724052292
 40
0.4109416325094779
 40
0.4404861756350134
 40
0.4700565546907765
 40
0.4996528219489537
 40
0.5541010297205462
 40
0.6088352904240014
 40
0.6638558231032796
 40
0.7191628226946158
 40
0.7747564603516117
 40
0.8306368837640765
 40
0.8868042174707286
 40
0.943258563165853
 40
1.0
 40
1.0
 40
1.0
 40
1.0
 10
-0.4232073552142765
 20
-33.89825639707644
 30
0.0
 10
-0.4241702856096763
 20
-33.89839101763484
 30
0.0
 10
-0.4260969723432415
 20
-33.89866037422092
 30
0.0
 10
-0.4416892261216825
 20
-33.90083687485013
 30
0.0
 10
-0.4666047670435422
 20
-33.90431051916616
 30
0.0
 10
-0.5017741845769648
 20
-33.90920887962497
 30
0.0
 10
-0.5469677750444373
 20
-33.91549772914139
 30
0.0
 10
-0.6022633681936201
 20
-33.92318625060996
 30
0.0
 10
-0.6676524907562043
 20
-33.93227198022812
 30
0.0
 10
-0.7431460060869157
 20
-33.94275557896164
 30
0.0
 10
-0.8287457475690472
 20
-33.95463686938645
 30
0.0
 10
-0.9244521069324101
 20
-33.96791589911503
 30
0.0
 10
-1.030261975482335
 20
-33.98259265501499
 30
0.0
 10
-1.146169280931742
 20
-33.99866714162969
 30
0.0
 10
-1.272164805991075
 20
-34.01613935361374
 30
0.0
 10
-1.408236286881741
 20
-34.03500930750858
 30
0.0
 10
-1.554368116460678
 20
-34.05527694211104
 30
0.0
 10
-1.7105423560437
 20
-34.07694248566261
 30
0.0
 10
-1.923203538066864
 20
-34.1064535533742
 30
0.0
 10
-2.204811442577219
 20
-34.14555946647703
 30
0.0
 10
-2.571213280257872
 20
-34.1964574129075
 30
0.0
 10
-2.972703899863101
 20
-34.25222545262578
 30
0.0
 10
-3.409358258579128
 20
-34.31286161989501
 30
0.0
 10
-3.881276364683259
 20
-34.37837337139793
 30
0.0
 10
-4.388258540055079
 20
-34.44873263865157
 30
0.0
 10
-4.93101047171842
 20
-34.52404498441346
 30
0.0
 10
-5.506607565122713
 20
-34.60391340780004
 30
0.0
 10
-5.918188640012659
 20
-34.66104679453619
 30
0.0
 10
-6.124501110682305
 20
-34.68968593976025
 30
0.0
  0
SPLINE
  5
234
330
20E
100
AcDbEntity
  8
0
  6
Continuous
 62
     7
370
    25
100
AcDbSpline
210
0.0
220
0.0
230
1.0
 70
     8
 71
     3
 72
    15
 73
    11
 74
     0
 42
0.000000001
 43
0.00000001
 40
0.0
 40
0.0
 40
0.0
 40
0.0
 40
0.0261444440914718
 40
0.1245765139799047
 40
0.2187472827738826
 40
0.3565189952748484
 40
0.4905525345005984
 40
0.6208484556822107
 40
0.8119687156120364
 40
0.9999999999999999
 40
0.9999999999999999
 40
0.9999999999999999
 40
0.9999999999999999
 10
48.67845959282815
 20
-7.668104563406157
 30
0.0
 10
48.48161694118149
 20
-7.986791868792364
 30
0.0
 10
47.54367497313245
 20
-9.505315399671858
 30
0.0
 10
45.59618266620616
 20
-11.97211061269292
 30
0.0
 10
42.45535773679177
 20
-15.51353490299022
 30
0.0
 10
38.5682262266822
 20
-19.05364560256767
 30
0.0
 10
33.88398378990383
 20
-22.42937872954405
 30
0.0
 10
28.17597191725757
 20
-25.60729915734144
 30
0.0
 10
21.35219142071709
 20
-28.34159039575094
 30
0.0
 10
15.99071283136585
 20
-29.28572250937601
 30
0.0
 10
13.33181371705996
 20
-29.75394260927371
 30
0.0
  0
SPLINE
  5
237
330
20E
100
AcDbEntity
  8
0
  6
Continuous
 62
     7
370
    25
100
AcDbSpline
210
0.0
220
0.0
230
1.0
 70
     8
 71
     3
 72
    34
 73
    30
 74
     0
 42
0.000000001
 43
0.00000001
 40
0.0
 40
0.0
 40
0.0
 40
0.0
 40
0.0116917858804064
 40
0.0232740923809343
 40
0.0347692661899542
 40
0.0462001650240052
 40
0.057590033576146
 40
0.0689623681359716
 40
0.0803407736160796
 40
0.0917488172442053
 40
0.1032098834159776
 40
0.1147470341208149
 40
0.1263828789632437
 40
0.1852664045110655
 40
0.2514838724084668
 40
0.3096879176727027
 40
0.3762227005824309
 40
0.4341430576600551
 40
0.5011995766636125
 40
0.5558766722199951
 40
0.6255721058528309
 40
0.7149173366538636
 40
0.7505784501198453
 40
0.7978702905963495
 40
0.8428682422558634
 40
0.8855757563753754
 40
0.9259968791049892
 40
0.9641363925651568
 40
1.0
 40
1.0
 40
1.0
 40
1.0
 10
-15.3179217217706
 20
-23.696376806231
 30
0.0
 10
-15.33006324708949
 20
-23.76984497753072
 30
0.0
 10
-15.35423260708358
 20
-23.91609337990297
 30
0.0
 10
-15.37829918913643
 20
-24.13599521408986
 30
0.0
 10
-15.39315672074767
 20
-24.35464561004054
 30
0.0
 10
-15.39798119294295
 20
-24.57207479716631
 30
0.0
 10
-15.39300648925816
 20
-24.7881412599696
 30
0.0
 10
-15.37818653171189
 20
-25.00274755115922
 30
0.0
 10
-15.35355066074173
 20
-25.2157829797328
 30
0.0
 10
-15.31910851991427
 20
-25.4271399284997
 30
0.0
 10
-15.27487718775242
 20
-25.63670658808059
 30
0.0
 10
-15.22086718458977
 20
-25.84438085321451
 30
0.0
 10
-15.07109166642615
 20
-26.32747385783697
 30
0.0
 10
-14.71482279834155
 20
-27.08391009276097
 30
0.0
 10
-14.07409048554737
 20
-27.95969137977092
 30
0.0
 10
-13.3038494008686
 20
-28.74401694455879
 30
0.0
 10
-12.50864466543849
 20
-29.39263053062245
 30
0.0
 10
-11.63820750452741
 20
-29.98058116198246
 30
0.0
 10
-10.80315327419472
 20
-30.45747491610619
 30
0.0
 10
-9.903596477767872
 20
-30.89354288092161
 30
0.0
 10
-8.897861269230756
 20
-31.30431428223037
 30
0.0
 10
-7.989885525846166
 20
-31.59295332943053
 30
0.0
 10
-7.194490015919396
 20
-31.78591913575375
 30
0.0
 10
-6.612871327866161
 20
-31.90025940374215
 30
0.0
 10
-6.008654909783681
 20
-31.98418125301987
 30
0.0
 10
-5.445120754911537
 20
-32.03008733433001
 30
0.0
 10
-4.921916445521007
 20
-32.04142348861631
 30
0.0
 10
-4.437357574414477
 20
-32.02525303279001
 30
0.0
 10
-4.133041092787476
 20
-31.99176670854019
 30
0.0
 10
-3.985562355390618
 20
-31.97553846880102
 30
0.0
  0
SPLINE
  5
23C
330
20E
100
AcDbEntity
  8
0
  6
Continuous
 62
     8
370
    25
100
AcDbSpline
210
0.0
220
0.0
230
1.0
 70
     8
 71
     3
 72
    20
 73
    16
 74
     0
 42
0.000000001
 43
0.00000001
 40
0.0
 40
0.0
 40
0.0
 40
0.0
 40
0.0390922892571222
 40
0.1328392189883696
 40
0.2064238847073077
 40
0.279193539617176
 40
0.3537558720394465
 40
0.428072272615366
 40
0.502353990480116
 40
0.5769861401334452
 40
0.6497518029236876
 40
0.7234376510850138
 40
0.8172286729472543
 40
0.909231271600316
 40
1.0
 40
1.0
 40
1.0
 40
1.0
 10
-138.9964259714659
 20
-1.811252331560147
 30
0.0
 10
-138.8719222938595
 20
-1.835010216932373
 30
0.0
 10
-138.4488472678455
 20
-1.91574171149652
 30
0.0
 10
-137.1902882320506
 20
-2.009685731239968
 30
0.0
 10
-135.3818849402903
 20
-2.097662129077547
 30
0.0
 10
-133.3331831016454
 20
-2.15397170265056
 30
0.0
 10
-130.9410440320586
 20
-2.187052244981939
 30
0.0
 10
-128.2058869639489
 20
-2.195151602207922
 30
0.0
 10
-125.1745958546353
 20
-2.1786143419604
 30
0.0
 10
-121.9021460224678
 20
-2.13734555734274
 30
0.0
 10
-118.4147444278566
 20
-2.072656286706345
 30
0.0
 10
-114.423143548884
 20
-1.977403922926564
 30
0.0
 10
-109.9108393904884
 20
-1.844957470903866
 30
0.0
 10
-104.9459747986969
 20
-1.673498272778698
 30
0.0
 10
-101.6124230020339
 20
-1.536855481463331
 30
0.0
 10
-99.95689933474509
 20
-1.468995316454523
 30
0.0
  0
SPLINE
  5
23D
330
20E
100
AcDbEntity
  8
0
  6
Continuous
 62
     8
370
    25
100
AcDbSpline
210
0.0
220
0.0
230
1.0
 70
     8
 71
     3
 72
     9
 73
     5
 74
     0
 42
0.000000001
 43
0.00000001
 40
0.0
 40
0.0
 40
0.0
 40
0.0
 40
0.5836512599744984
 40
1.0
 40
1.0
 40
1.0
 40
1.0
 10
-16.9004132946637
 20
-23.53960854648241
 30
0.0
 10
-16.57911787024443
 20
-20.45216524294555
 30
0.0
 10
-16.02862574172012
 20
-15.16228836737478
 30
0.0
 10
-15.4907251134747
 20
-9.871088825774663
 30
0.0
 10
-15.2667708646458
 20
-7.668104563405942
 30
0.0
  0
SPLINE
  5
23E
330
20E
100
AcDbEntity
  8
0
  6
Continuous
 62
     8
370
    25
100
AcDbSpline
210
0.0
220
0.0
230
1.0
 70
     8
 71
     3
 72
    12
 73
     8
 74
     0
 42
0.000000001
 43
0.00000001
 40
0.0
 40
0.0
 40
0.0
 40
0.0
 40
0.2056025065622426
 40
0.4194583419531556
 40
0.6396063814458738
 40
0.8636808171911813
 40
1.0
 40
1.0
 40
1.0
 40
1.0
 10
12.05937070859314
 20
-20.18422350691425
 30
0.0
 10
13.93631982165906
 20
-19.86363505989237
 30
0.0
 10
17.76556284043876
 20
-19.20958905293661
 30
0.0
 10
23.35253075054333
 20
-17.16201482724085
 30
0.0
 10
28.70531332343161
 20
-14.25082568562835
 30
0.0
 10
33.07571409107538
 20
-11.06308300721209
 30
0.0
 10
35.3258099337359
 20
-8.59983148053669
 30
0.0
 10
36.17691053796852
 20
-7.668104563406122
 30
0.0
  0
SPLINE
  5
23F
330
20E
100
AcDbEntity
  8
0
  6
Continuous
 62
     8
370
    25
100
AcDbSpline
210
0.0
220
0.0
230
1.0
 70
     8
 71
     3
 72
     9
 73
     5
 74
     0
 42
0.000000001
 43
0.00000001
 40
0.0
 40
0.0
 40
0.0
 40
0.0
 40
0.5459013213520526
 40
1.0
 40
1.0
 40
1.0
 40
1.0
 10
-13.59774676498756
 20
-7.668104563405942
 30
0.0
 10
-13.90674092729469
 20
-10.58515427299415
 30
0.0
 10
-14.47276659937373
 20
-15.92870189871424
 30
0.0
 10
-15.05398927346536
 20
-21.27061921256485
 30
0.0
 10
-15.3179217217706
 20
-23.696376806231
 30
0.0
  0
LINE
  5
240
330
20E
100
AcDbEntity
  8
0
  6
Continuous
 62
     7
370
    25
100
AcDbLine
 10
-74.8010213867
 20
-7.6681045634
 30
0.0
 11
-72.3097059469
 21
-36.1440228425
 31
0.0
  0
LINE
  5
241
330
20E
100
AcDbEntity
  8
0
  6
Continuous
 62
     7
370
    25
100
AcDbLine
 10
-0.6196860979
 20
-36.1440228425
 30
0.0
 11
-0.4232073552
 21
-33.8982563971
 31
0.0
  0
LINE
  5
242
330
20E
100
AcDbEntity
  8
0
  6
Continuous
 62
     7
370
    25
100
AcDbLine
 10
-203.4733129225
 20
116.2618708035
 30
0.0
 11
-201.7974512154
 21
129.7548911236
 31
0.0
  0
LINE
  5
243
330
20E
100
AcDbEntity
  8
0
  6
Continuous
 62
     7
370
    25
100
AcDbLine
 10
-193.3622635243
 20
129.7548911236
 30
0.0
 11
-195.0381252314
 21
116.2618708035
 31
0.0
  0
LINE
  5
244
330
20E
100
AcDbEntity
  8
0
  6
Continuous
 62
     7
370
    25
100
AcDbLine
 10
159.0913007406
 20
116.2618708035
 30
0.0
 11
-195.0381252314
 21
116.2618708035
 31
0.0
  0
LINE
  5
245
330
20E
100
AcDbEntity
  8
0
  6
Continuous
 62
     7
370
    25
100
AcDbLine
 10
159.0913007406
 20
129.7548911236
 30
0.0
 11
-193.3622635243
 21
129.7548911236
 31
0.0
  0
LINE
  5
246
330
20E
100
AcDbEntity
  8
0
  6
Continuous
 62
     7
370
    25
100
AcDbLine
 10
159.0913009668
 20
-7.6681045634
 30
0.0
 11
159.0913007406
 21
129.7548911236
 31
0.0
  0
LINE
  5
247
330
20E
100
AcDbEntity
  8
0
  6
Continuous
 62
     7
370
    25
100
AcDbLine
 10
-193.3622635243
 20
133.2618708035
 30
0.0
 11
-193.3622635243
 21
129.7548911236
 31
0.0
  0
LINE
  5
248
330
20E
100
AcDbEntity
  8
0
  6
Continuous
 62
     7
370
    25
100
AcDbLine
 10
-193.3622635243
 20
133.2618708035
 30
0.0
 11
159.0913007406
 21
133.2618708035
 31
0.0
  0
LINE
  5
249
330
20E
100
AcDbEntity
  8
0
  6
Continuous
 62
     7
370
    25
100
AcDbLine
 10
-139.8917955855
 20
-1.5273414078
 30
0.0
 11
-168.0371946583
 21
116.2618708035
 31
0.0
  0
LINE
  5
24A
330
20E
100
AcDbEntity
  8
0
  6
Continuous
 62
     7
370
    25
100
AcDbLine
 10
-99.9568993347
 20
-1.4689953165
 30
0.0
 11
159.0913009668
 21
-1.4689953165
 31
0.0
  0
LINE
  5
24B
330
20E
100
AcDbEntity
  8
0
  6
Continuous
 62
     7
370
    25
100
AcDbLine
 10
159.0913009668
 20
-7.6681045634
 30
0.0
 11
-99.9568993347
 21
-7.6681045634
 31
0.0
  0
LINE
  5
24C
330
20E
100
AcDbEntity
  8
0
  6
Continuous
 62
     7
370
    25
100
AcDbLine
 10
-99.9568993347
 20
-7.6681045634
 30
0.0
 11
-99.9568993347
 21
-1.4689953165
 31
0.0
  0
LINE
  5
24D
330
20E
100
AcDbEntity
  8
0
  6
Continuous
 62
     7
370
    25
100
AcDbLine
 10
-15.3179217218
 20
-23.6963768062
 30
0.0
 11
12.0593707086
 21
-20.1842235069
 31
0.0
  0
LINE
  5
24E
330
20E
100
AcDbEntity
  8
0
  6
Continuous
 62
     7
370
    25
100
AcDbLine
 10
13.3318137171
 20
-29.7539426093
 30
0.0
 11
-3.9855623554
 21
-31.9755384688
 31
0.0
  0
LINE
  5
24F
330
20E
100
AcDbEntity
  8
0
  6
Continuous
 62
     8
370
    25
100
AcDbLine
 10
-128.088356774
 20
116.2618708035
 30
0.0
 11
-99.9568993347
 21
-1.4689953165
 31
0.0
  0
ARC
  5
250
330
20E
100
AcDbEntity
  8
0
  6
Continuous
 62
     7
370
    25
100
AcDbCircle
 10
-195.9786177128
 20
129.975528036
 30
0.0
 40
3.331300847132131
100
AcDbArc
 50
99.4237599662
 51
180.3724992242
  0
ARC
  5
251
330
20E
100
AcDbEntity
  8
0
  6
Continuous
 62
     7
370
    25
100
AcDbCircle
 10
-197.8279511254
 20
129.2618708035
 30
0.0
 40
4.000000000002277
100
AcDbArc
 50
90.0
 51
111.3981731766
  0
ARC
  5
252
330
20E
100
AcDbEntity
  8
0
  6
Continuous
 62
     7
370
    25
100
AcDbCircle
 10
-132.1108420221
 20
0.3318954366
 30
0.0
 40
7.999999999999525
100
AcDbArc
 50
248.7229464754
 51
270.0
  0
ARC
  5
253
330
20E
100
AcDbEntity
  8
0
  6
Continuous
 62
     7
370
    25
100
AcDbCircle
 10
-132.1108420221
 20
0.3318954366
 30
0.0
 40
8.000000000001247
100
AcDbArc
 50
193.4386823786
 51
230.767573062
  0
ARC
  5
254
330
20E
100
AcDbEntity
  8
0
  6
Continuous
 62
     7
370
    25
100
AcDbCircle
 10
544.5756322093
 20
45.7526414771
 30
0.0
 40
536.5829282847102
100
AcDbArc
 50
187.0585121647
 51
188.089364394
  0
ARC
  5
255
330
20E
100
AcDbEntity
  8
0
  6
Continuous
 62
     7
370
    25
100
AcDbCircle
 10
-23.4728560693
 20
-97.9504826332
 30
0.0
 40
74.70057018778431
100
AcDbArc
 50
83.732625989
 51
84.9523707324
  0
ARC
  5
256
330
20E
100
AcDbEntity
  8
0
  6
Continuous
 62
     7
370
    25
100
AcDbCircle
 10
-3.4490776766
 20
-34.5982167476
 30
0.0
 40
2.676986582819267
100
AcDbArc
 50
101.5607128517
 51
181.9581043138
  0
ARC
  5
257
330
20E
100
AcDbEntity
  8
0
  6
Continuous
 62
     7
370
    25
100
AcDbCircle
 10
2.5653767809
 20
-34.1597231469
 30
0.0
 40
2.999999999999936
100
AcDbArc
 50
97.3103798614
 51
175.0000091714
  0
VIEWPORT
  5
316
330
20E
100
AcDbEntity
  8
0
100
AcDbViewport
 10
0.0
 20
0.0
 30
0.0
 40
205.6
 41
156.0
 68
     1
 69
     1
 12
0.0
 22
22.1910060118
 13
0.0
 23
0.0
 14
10.0
 24
10.0
 15
10.0
 25
10.0
 16
0.0
 26
0.0
 36
1.0
 17
0.0
 27
0.0
 37
0.0
 42
50.0
 43
0.0
 44
0.0
 45
390.2177189906
 50
0.0
 51
0.0
 72
   100
 90
   557152
  1

281
     0
 71
     1
 74
     0
110
0.0
120
0.0
130
0.0
111
1.0
121
0.0
131
0.0
112
0.0
122
1.0
132
0.0
 79
     0
146
0.0
  0
ENDBLK
  5
211
330
20E
100
AcDbEntity
  8
0
100
AcDbBlockEnd
  0
BLOCK
  5
25A
330
258
100
AcDbEntity
  8
0
100
AcDbBlockBegin
  2
*Paper_Space2
 70
     0
 10
0.0
 20
0.0
 30
0.0
  3
*Paper_Space2
  1

  0
SPLINE
  5
25C
330
258
100
AcDbEntity
  8
0
  6
Continuous
 62
     7
370
    25
100
AcDbSpline
210
0.0
220
0.0
230
1.0
 70
     8
 71
     3
 72
    17
 73
    13
 74
     0
 42
0.000000001
 43
0.00000001
 40
0.0
 40
0.0
 40
0.0
 40
0.0
 40
0.1034683338968836
 40
0.1972333860655889
 40
0.2812323709339036
 40
0.3886843884509496
 40
0.4746632301831783
 40
0.5699226440398231
 40
0.6892739955884924
 40
0.7822489900279334
 40
0.8858557942857119
 40
1.0
 40
1.0
 40
1.0
 40
1.0
 10
128.476102774532
 20
17.98087690633389
 30
0.0
 10
127.3215282757449
 20
17.74256213223269
 30
0.0
 10
125.1206555131882
 20
17.28828179277853
 30
0.0
 10
121.8250233600952
 20
16.91812481867155
 30
0.0
 10
118.4361883143893
 20
16.73333947704996
 30
0.0
 10
115.1146700331285
 20
16.77521336372448
 30
0.0
 10
111.7002159335175
 20
17.04108789523405
 30
0.0
 10
108.2378805810284
 20
17.53098955206262
 30
0.0
 10
104.8519648888163
 20
18.27335662623115
 30
0.0
 10
101.6051869551701
 20
19.26325172247332
 30
0.0
 10
98.62673393636658
 20
20.41454795662002
 30
0.0
 10
96.82073752704974
 20
21.38131608994002
 30
0.0
 10
95.87404145573983
 20
21.88809206632626
 30
0.0
  0
SPLINE
  5
25D
330
258
100
AcDbEntity
  8
0
  6
Continuous
 62
     7
370
    25
100
AcDbSpline
210
0.0
220
0.0
230
1.0
 70
     8
 71
     3
 72
     9
 73
     5
 74
     0
 42
0.000000001
 43
0.00000001
 40
0.0
 40
0.0
 40
0.0
 40
0.0
 40
0.4979878859113377
 40
0.9999999999999999
 40
0.9999999999999999
 40
0.9999999999999999
 40
0.9999999999999999
 10
138.0198258896201
 20
21.58785238500128
 30
0.0
 10
136.6195856276229
 20
20.85901690383638
 30
0.0
 10
133.8077897956122
 20
19.39545623944165
 30
0.0
 10
130.2580929668119
 20
18.45366658171504
 30
0.0
 10
128.476102157412
 20
17.98087676461287
 30
0.0
  0
SPLINE
  5
262
330
258
100
AcDbEntity
  8
0
  6
Continuous
 62
     7
370
    25
100
AcDbSpline
210
0.0
220
0.0
230
1.0
 70
     8
 71
     3
 72
    11
 73
     7
 74
     0
 42
0.000000001
 43
0.00000001
 40
0.0
 40
0.0
 40
0.0
 40
0.0
 40
0.2336904168544407
 40
0.4774014649264051
 40
0.7324954957740194
 40
1.0
 40
1.0
 40
1.0
 40
1.0
 10
242.8803741572219
 20
84.6089509131157
 30
0.0
 10
242.6582304276322
 20
84.14893474812773
 30
0.0
 10
242.2044174585005
 20
83.20917695227483
 30
0.0
 10
240.9158353994206
 20
81.67898302247137
 30
0.0
 10
239.1172046366734
 20
80.06613407461943
 30
0.0
 10
237.4463798150977
 20
79.02485668179881
 30
0.0
 10
236.5911283447103
 20
78.4918540535213
 30
0.0
  0
SPLINE
  5
264
330
258
100
AcDbEntity
  8
0
  6
Continuous
 62
     7
370
    25
100
AcDbSpline
210
0.0
220
0.0
230
1.0
 70
     8
 71
     3
 72
    10
 73
     6
 74
     0
 42
0.000000001
 43
0.00000001
 40
0.0
 40
0.0
 40
0.0
 40
0.0
 40
0.2804464370659294
 40
0.5420578756060411
 40
1.0
 40
1.0
 40
1.0
 40
1.0
 10
316.153387128987
 20
86.99899387123412
 30
0.0
 10
316.0066891221028
 20
87.44683441150488
 30
0.0
 10
315.7231454593656
 20
88.31243817673425
 30
0.0
 10
314.7373294856467
 20
89.75550879856819
 30
0.0
 10
313.6759337004062
 20
90.50580152554126
 30
0.0
 10
313.0004345218128
 20
90.98330683300765
 30
0.0
  0
SPLINE
  5
267
330
258
100
AcDbEntity
  8
0
  6
Continuous
 62
     7
370
    25
100
AcDbSpline
210
0.0
220
0.0
230
1.0
 70
     8
 71
     3
 72
    13
 73
     9
 74
     0
 42
0.000000001
 43
0.00000001
 40
0.0
 40
0.0
 40
0.0
 40
0.0
 40
0.2362488317572833
 40
0.4306275865605801
 40
0.5822717472873633
 40
0.7043655455140079
 40
0.8420191355808617
 40
0.9999999999999999
 40
0.9999999999999999
 40
0.9999999999999999
 40
0.9999999999999999
 10
197.816947697272
 20
-36.93389972311082
 30
0.0
 10
199.1155479325996
 20
-36.12371962911879
 30
0.0
 10
201.4825991518016
 20
-34.64694661839068
 30
0.0
 10
204.1497019053561
 20
-32.35119066592573
 30
0.0
 10
206.0043404486719
 20
-30.4129571307725
 30
0.0
 10
207.4097000868607
 20
-28.63584109480492
 30
0.0
 10
208.8120457407094
 20
-26.54988051488375
 30
0.0
 10
209.5655220125779
 20
-24.89626177222888
 30
0.0
 10
209.9681639609125
 20
-24.0126025287942
 30
0.0
  0
SPLINE
  5
26A
330
258
100
AcDbEntity
  8
0
  6
Continuous
 62
     7
370
    25
100
AcDbSpline
210
0.0
220
0.0
230
1.0
 70
     8
 71
     3
 72
    11
 73
     7
 74
     0
 42
0.000000001
 43
0.00000001
 40
0.0
 40
0.0
 40
0.0
 40
0.0
 40
0.2836664744796141
 40
0.543709801542528
 40
0.7818769897931257
 40
1.0
 40
1.0
 40
1.0
 40
1.0
 10
-147.6704365333943
 20
162.4833265449612
 30
0.0
 10
-148.7128891310047
 20
163.1424822049217
 30
0.0
 10
-150.7109810662751
 20
164.4059004277491
 30
0.0
 10
-152.6934323399169
 20
166.3395683523625
 30
0.0
 10
-153.9691224077188
 20
168.0938788280839
 30
0.0
 10
-154.33581386956
 20
169.1426501584534
 30
0.0
 10
-154.5111054838537
 20
169.6440003088012
 30
0.0
  0
SPLINE
  5
26B
330
258
100
AcDbEntity
  8
0
  6
Continuous
 62
     7
370
    25
100
AcDbSpline
210
0.0
220
0.0
230
1.0
 70
     8
 71
     3
 72
    11
 73
     7
 74
     0
 42
0.000000001
 43
0.00000001
 40
0.0
 40
0.0
 40
0.0
 40
0.0
 40
0.2574641324374319
 40
0.5097893745245794
 40
0.7572284817795333
 40
1.0
 40
1.0
 40
1.0
 40
1.0
 10
-29.2256550942899
 20
288.5462231088726
 30
0.0
 10
-29.61020488407554
 20
288.7456642821327
 30
0.0
 10
-30.37162898984303
 20
289.1405658554438
 30
0.0
 10
-31.67707397270683
 20
289.5405293844386
 30
0.0
 10
-33.0272054827489
 20
289.7951356099269
 30
0.0
 10
-33.93547127451163
 20
289.8262327888089
 30
0.0
 10
-34.38528009903505
 20
289.8416333308151
 30
0.0
  0
SPLINE
  5
26C
330
258
100
AcDbEntity
  8
0
  6
Continuous
 62
     7
370
    25
100
AcDbSpline
210
0.0
220
0.0
230
1.0
 70
     8
 71
     3
 72
    11
 73
     7
 74
     0
 42
0.000000001
 43
0.00000001
 40
0.0
 40
0.0
 40
0.0
 40
0.0
 40
0.2427715182214099
 40
0.4902106254767311
 40
0.7425358675625829
 40
1.0
 40
1.0
 40
1.0
 40
1.0
 10
-34.38528009903505
 20
289.8416333308151
 30
0.0
 10
-34.83508892355672
 20
289.8262327888072
 30
0.0
 10
-35.74335471531495
 20
289.7951356099218
 30
0.0
 10
-37.09348622534936
 20
289.540529384449
 30
0.0
 10
-38.39893120818225
 20
289.1405658554428
 30
0.0
 10
-39.16035531394662
 20
288.7456642821512
 30
0.0
 10
-39.54490510373165
 20
288.5462231089004
 30
0.0
  0
LWPOLYLINE
  5
271
330
258
100
AcDbEntity
  8
0
  6
Continuous
 62
     7
370
    25
100
AcDbPolyline
 90
        9
 70
   128
 43
0.0
 10
-286.7653034296
 20
144.4764136566
 10
-287.2741891812
 20
144.7168884564
 10
-287.766466495
 20
144.8429175292
 10
-288.2260689755
 20
144.8503876792
 10
-288.6379966319
 20
144.7390551042
 10
-288.9888054308
 20
144.512553352
 10
-289.2670460676
 20
144.178274733
 10
-289.4636376362
 20
143.7471290582
 10
-289.5721638611
 20
143.2331876581
  0
LWPOLYLINE
  5
277
330
258
100
AcDbEntity
  8
0
  6
Continuous
 62
     7
370
    25
100
AcDbPolyline
 90
        9
 70
   128
 43
0.0
 10
10.6371782679
 20
-142.2854612609
 10
11.582883686
 20
-142.7394734299
 10
12.5019705506
 20
-142.9968427263
 10
13.3685695343
 20
-143.0503250354
 10
14.1582886743
 20
-142.898415003
 10
14.8488999269
 20
-142.5453884059
 10
15.4209648155
 20
-142.0011818029
 10
15.858381561
 20
-141.2811128523
 10
16.1488382944
 20
-140.4054491699
  0
LWPOLYLINE
  5
27A
330
258
100
AcDbEntity
  8
0
  6
Continuous
 62
     7
370
    25
100
AcDbPolyline
 90
       34
 70
   128
 43
0.0
 10
-42.6384356457
 20
-102.9564254699
 10
-45.8584852006
 20
-96.9736778952
 10
-49.260872738
 20
-91.0857532665
 10
-52.8362882154
 20
-85.3087628669
 10
-56.5749481296
 20
-79.6585144272
 10
-60.466622287
 20
-74.1504688705
 10
-64.5006617974
 20
-68.7996980069
 10
-68.6660282123
 20
-63.6208432913
 10
-72.9513237303
 20
-58.62807576
 10
-77.3448223843
 20
-53.8350572541
 10
-81.8345021287
 20
-49.2549030362
 10
-86.4080777346
 20
-44.9001459026
 10
-91.0530344069
 20
-40.7827018898
 10
-95.7566620285
 20
-36.9138376681
 10
-100.5060899394
 20
-33.3041397125
 10
-105.2883221553
 20
-29.9634853342
 10
-110.0902729284
 20
-26.9010156537
 10
-114.8988025544
 20
-24.1251105874
 10
-119.7007533275
 20
-21.6433659172
 10
-124.4829855434
 20
-19.4625725063
 10
-129.2324134543
 20
-17.5886977171
 10
-133.9360410759
 20
-16.0268690825
 10
-138.5809977482
 20
-14.7813602751
 10
-143.1545733541
 20
-13.8555794135
 10
-147.6442530985
 20
-13.2520597362
 10
-152.0377517526
 20
-12.97245267
 10
-156.3230472705
 20
-13.017523311
 10
-160.4884136854
 20
-13.3871483312
 10
-164.5224531958
 20
-14.080316316
 10
-168.4141273532
 20
-15.0951305316
 10
-172.1527872674
 20
-16.4288141152
 10
-175.7282027448
 20
-18.0777176733
 10
-179.1305902822
 20
-20.0373292678
 10
-182.3506398371
 20
-22.3022867619
  0
LWPOLYLINE
  5
27B
330
258
100
AcDbEntity
  8
0
  6
Continuous
 62
     7
370
    25
100
AcDbPolyline
 90
        9
 70
   128
 43
0.0
 10
-198.4712787822
 20
-21.5697185127
 10
-196.1867815963
 20
-22.7460674965
 10
-193.9288564
 20
-23.623807509
 10
-191.7237661127
 20
-24.1927291707
 10
-189.5971591076
 20
-24.446215104
 10
-187.5737708843
 20
-24.3813169028
 10
-185.6771363596
 20
-23.9987894265
 10
-183.9293161224
 20
-23.3030820201
 10
-182.3506398371
 20
-22.3022867619
  0
SPLINE
  5
282
330
258
100
AcDbEntity
  8
0
  6
Continuous
 62
     7
370
    25
100
AcDbSpline
210
0.0
220
0.0
230
1.0
 70
     8
 71
     3
 72
    10
 73
     6
 74
     0
 42
0.000000001
 43
0.00000001
 40
0.0
 40
0.0
 40
0.0
 40
0.0
 40
0.5000000000000002
 40
0.5000000000000002
 40
1.0
 40
1.0
 40
1.0
 40
1.0
 10
-159.2597584303058
 20
183.887913628622
 30
0.0
 10
-158.4119305400694
 20
185.1150983497044
 30
0.0
 10
-157.3386813943318
 20
186.3043355462146
 30
0.0
 10
-154.7912438067803
 20
188.5346827028797
 30
0.0
 10
-153.317536196957
 20
189.5753716822544
 30
0.0
 10
-151.6916885305275
 20
190.5139535618074
 30
0.0
  0
SPLINE
  5
283
330
258
100
AcDbEntity
  8
0
  6
Continuous
 62
     7
370
    25
100
AcDbSpline
210
0.0
220
0.0
230
1.0
 70
     8
 71
     3
 72
    22
 73
    18
 74
     0
 42
0.000000001
 43
0.00000001
 40
0.0
 40
0.0
 40
0.0
 40
0.0
 40
0.125
 40
0.125
 40
0.25
 40
0.25
 40
0.375
 40
0.375
 40
0.5
 40
0.5
 40
0.625
 40
0.625
 40
0.75
 40
0.75
 40
0.875
 40
0.875
 40
1.0
 40
1.0
 40
1.0
 40
1.0
 10
-151.1732261149891
 20
162.1385479036537
 30
0.0
 10
-152.3273357762571
 20
162.8048012295029
 30
0.0
 10
-153.4259474426838
 20
163.528344030863
 30
0.0
 10
-155.4638846894254
 20
165.0795355993389
 30
0.0
 10
-156.4030261685583
 20
165.9071765803316
 30
0.0
 10
-158.0774801085297
 20
167.6478193301877
 30
0.0
 10
-158.8126158483398
 20
168.5607667408425
 30
0.0
 10
-160.0441391823327
 20
170.4458561986786
 30
0.0
 10
-160.5404000024308
 20
171.4179026768746
 30
0.0
 10
-161.2735944846696
 20
173.3898869984529
 30
0.0
 10
-161.5104842495988
 20
174.3897067768267
 30
0.0
 10
-161.7213683272408
 20
176.3840856864928
 30
0.0
 10
-161.6954113609679
 20
177.3785304568875
 30
0.0
 10
-161.3939834837044
 20
179.3307494706808
 30
0.0
 10
-161.1186368873436
 20
180.2884371211495
 30
0.0
 10
-160.3460760785908
 20
182.1405751699249
 30
0.0
 10
-159.8490263013598
 20
183.0349804610416
 30
0.0
 10
-159.2597584303058
 20
183.887913628622
 30
0.0
  0
SPLINE
  5
285
330
258
100
AcDbEntity
  8
0
  6
Continuous
 62
     7
370
    25
100
AcDbSpline
210
0.0
220
0.0
230
1.0
 70
     8
 71
     3
 72
    22
 73
    18
 74
     0
 42
0.000000001
 43
0.00000001
 40
0.0
 40
0.0
 40
0.0
 40
0.0
 40
0.125
 40
0.125
 40
0.25
 40
0.25
 40
0.375
 40
0.375
 40
0.5
 40
0.5
 40
0.625
 40
0.625
 40
0.75
 40
0.75
 40
0.875
 40
0.875
 40
1.0
 40
1.0
 40
1.0
 40
1.0
 10
130.0463458300963
 20
16.87505460775244
 30
0.0
 10
128.5688621599537
 20
16.53487750666615
 30
0.0
 10
127.0195388807771
 20
16.24793677797583
 30
0.0
 10
123.811194046822
 20
15.80194691624388
 30
0.0
 10
122.1522506284548
 20
15.64299270960012
 30
0.0
 10
118.7705416938566
 20
15.46898209997594
 30
0.0
 10
117.047926177233
 20
15.45399746230353
 30
0.0
 10
113.5931862478812
 20
15.57573824900079
 30
0.0
 10
111.8612599355025
 20
15.71249179941325
 30
0.0
 10
108.4453127738106
 20
16.13575596457865
 30
0.0
 10
106.7614964412503
 20
16.4222412380108
 30
0.0
 10
103.4960719079168
 20
17.13318452587163
 30
0.0
 10
101.9146292554194
 20
17.55756935517876
 30
0.0
 10
98.89942087073396
 20
18.52421103917753
 30
0.0
 10
97.465749299928
 20
19.06636587499084
 30
0.0
 10
94.77871554535167
 20
20.24284200553627
 30
0.0
 10
93.52536684900392
 20
20.87705702091822
 30
0.0
 10
92.37125718773586
 20
21.54331034676747
 30
0.0
  0
SPLINE
  5
286
330
258
100
AcDbEntity
  8
0
  6
Continuous
 62
     7
370
    25
100
AcDbSpline
210
0.0
220
0.0
230
1.0
 70
     8
 71
     3
 72
    10
 73
     6
 74
     0
 42
0.000000001
 43
0.00000001
 40
0.0
 40
0.0
 40
0.0
 40
0.0
 40
0.4999999999999998
 40
0.4999999999999998
 40
1.0
 40
1.0
 40
1.0
 40
1.0
 10
141.5242272997153
 20
21.24400836509889
 30
0.0
 10
139.8983796332854
 20
20.3054264855461
 30
0.0
 10
138.0956581175008
 20
19.45467319118813
 30
0.0
 10
134.2321649061041
 20
17.98406877458981
 30
0.0
 10
132.1721224496072
 20
17.36449523074923
 30
0.0
 10
130.0463458300963
 20
16.87505460775244
 30
0.0
  0
SPLINE
  5
288
330
258
100
AcDbEntity
  8
0
  6
Continuous
 62
     7
370
    25
100
AcDbSpline
210
0.0
220
0.0
230
1.0
 70
     8
 71
     3
 72
    22
 73
    18
 74
     0
 42
0.000000001
 43
0.00000001
 40
0.0
 40
0.0
 40
0.0
 40
0.0
 40
0.125
 40
0.125
 40
0.25
 40
0.25
 40
0.375
 40
0.375
 40
0.5
 40
0.5
 40
0.625
 40
0.625
 40
0.75
 40
0.75
 40
0.875
 40
0.875
 40
1.0
 40
1.0
 40
1.0
 40
1.0
 10
240.13794761719
 20
105.9652174249789
 30
0.0
 10
241.5930239460393
 20
105.1252197401877
 30
0.0
 10
242.9661626484404
 20
104.1866985366834
 30
0.0
 10
245.4357337407317
 20
102.1270328456048
 30
0.0
 10
246.5314366116532
 20
101.0058219751856
 30
0.0
 10
248.3377654116707
 20
98.62029743895224
 30
0.0
 10
249.047608967092
 20
97.35616298093942
 30
0.0
 10
250.0028923606641
 20
94.74845495342304
 30
0.0
 10
250.2478164644272
 20
93.40530123798693
 30
0.0
 10
250.2437190896693
 20
90.71822134981232
 30
0.0
 10
249.9946984062762
 20
89.37481662604155
 30
0.0
 10
249.0314608358037
 20
86.76613366212577
 30
0.0
 10
248.3177609643357
 20
85.5012758008618
 30
0.0
 10
246.5041542588743
 20
83.11391171898154
 30
0.0
 10
245.4050303462962
 20
81.99158550160396
 30
0.0
 10
242.9291740885724
 20
79.92940668858184
 30
0.0
 10
241.5531710610793
 20
78.98948845143039
 30
0.0
 10
240.0955307461678
 20
78.14801060899146
 30
0.0
  0
SPLINE
  5
28A
330
258
100
AcDbEntity
  8
0
  6
Continuous
 62
     7
370
    25
100
AcDbSpline
210
0.0
220
0.0
230
1.0
 70
     8
 71
     3
 72
    22
 73
    18
 74
     0
 42
0.000000001
 43
0.00000001
 40
0.0
 40
0.0
 40
0.0
 40
0.0
 40
0.125
 40
0.125
 40
0.25
 40
0.25
 40
0.375
 40
0.375
 40
0.5
 40
0.5
 40
0.625
 40
0.625
 40
0.75
 40
0.75
 40
0.875
 40
0.875
 40
1.0
 40
1.0
 40
1.0
 40
1.0
 10
-53.12038508407492
 20
247.4179558057
 30
0.0
 10
-51.66274476916335
 20
248.259433648139
 30
0.0
 10
-50.03458221265261
 20
249.0537832877032
 30
0.0
 10
-46.46239668046417
 20
250.4830646821772
 30
0.0
 10
-44.51825999804125
 20
251.1175754109679
 30
0.0
 10
-40.38277602375825
 20
252.1645482765867
 30
0.0
 10
-38.19174054043836
 20
252.5765584425023
 30
0.0
 10
-33.67287947808954
 20
253.1326236557551
 30
0.0
 10
-31.34578209554266
 20
253.2763802363332
 30
0.0
 10
-26.69111886277247
 20
253.2787456004326
 30
0.0
 10
-24.36445628652651
 20
253.1373539249367
 30
0.0
 10
-19.84728404654302
 20
252.5858805602681
 30
0.0
 10
-17.65750167018539
 20
252.1760965982203
 30
0.0
 10
-13.52520422769292
 20
251.1333251779839
 30
0.0
 10
-11.58299959221104
 20
250.5007893745041
 30
0.0
 10
-8.015167386606652
 20
249.0751363288026
 30
0.0
 10
-6.389424825564149
 20
248.2824402289174
 30
0.0
 10
-4.934348496714827
 20
247.4424425441262
 30
0.0
  0
LWPOLYLINE
  5
28C
330
258
100
AcDbEntity
  8
0
  6
Continuous
 62
     7
370
    25
100
AcDbPolyline
 90
       45
 70
   128
 43
0.0
 10
-84.5638193132
 20
59.9961017431
 10
-82.6768098064
 20
59.052176847
 10
-80.5763079101
 20
58.2728900445
 10
-78.3050737854
 20
57.6741053676
 10
-75.9093432096
 20
57.2680123456
 10
-73.4378863485
 20
57.0628778613
 10
-70.9410149365
 20
57.0628778613
 10
-68.4695580753
 20
57.2680123456
 10
-66.0738274995
 20
57.6741053676
 10
-63.8025933749
 20
58.2728900445
 10
-61.7020914785
 20
59.052176847
 10
-59.8150819717
 20
59.9961017431
 10
-58.1799789263
 20
61.085449144
 10
-56.830068325
 20
62.298043078
 10
-55.792830455
 20
63.6091986294
 10
-55.089380488
 20
64.9922244523
 10
-54.7340386368
 20
66.4189661292
 10
-54.7340386368
 20
67.860379314
 10
-55.089380488
 20
69.2871209909
 10
-55.792830455
 20
70.6701468138
 10
-56.830068325
 20
71.9813023652
 10
-58.1799789263
 20
73.1938962991
 10
-59.8150819717
 20
74.2832437
 10
-61.7020914785
 20
75.2271685961
 10
-63.8025933749
 20
76.0064553986
 10
-66.0738274995
 20
76.6052400755
 10
-68.4695580753
 20
77.0113330976
 10
-70.9410149365
 20
77.2164675818
 10
-73.4378863485
 20
77.2164675818
 10
-75.9093432096
 20
77.0113330976
 10
-78.3050737854
 20
76.6052400755
 10
-80.5763079101
 20
76.0064553986
 10
-82.6768098064
 20
75.2271685961
 10
-84.5638193132
 20
74.2832437
 10
-86.1989223586
 20
73.1938962991
 10
-87.5488329599
 20
71.9813023652
 10
-88.58607083
 20
70.6701468138
 10
-89.289520797
 20
69.2871209909
 10
-89.6448626481
 20
67.860379314
 10
-89.6448626481
 20
66.4189661292
 10
-89.289520797
 20
64.9922244523
 10
-88.58607083
 20
63.6091986294
 10
-87.5488329599
 20
62.298043078
 10
-86.1989223586
 20
61.085449144
 10
-84.5638193132
 20
59.9961017431
  0
SPLINE
  5
28E
330
258
100
AcDbEntity
  8
0
  6
Continuous
 62
     7
370
    25
100
AcDbSpline
210
0.0
220
0.0
230
1.0
 70
     8
 71
     3
 72
    10
 73
     6
 74
     0
 42
0.000000001
 43
0.00000001
 40
0.0
 40
0.0
 40
0.0
 40
0.0
 40
0.5
 40
0.5
 40
1.0
 40
1.0
 40
1.0
 40
1.0
 10
312.3122830879664
 20
88.96355650148782
 30
0.0
 10
312.3122830879661
 20
89.2918932410046
 30
0.0
 10
312.1985578238102
 20
89.6329645010012
 30
0.0
 10
311.7436567671868
 20
90.26416893907582
 30
0.0
 10
311.4037492743981
 20
90.55254226987637
 30
0.0
 10
310.9985336116601
 20
90.78646829271966
 30
0.0
  0
SPLINE
  5
28F
330
258
100
AcDbEntity
  8
0
  6
Continuous
 62
     7
370
    25
100
AcDbSpline
210
0.0
220
0.0
230
1.0
 70
     8
 71
     3
 72
    10
 73
     6
 74
     0
 42
0.000000001
 43
0.00000001
 40
0.0
 40
0.0
 40
0.0
 40
0.0
 40
0.5
 40
0.5
 40
1.0
 40
1.0
 40
1.0
 40
1.0
 10
310.9985336116607
 20
87.14064471025594
 30
0.0
 10
311.4037492743984
 20
87.37457073309918
 30
0.0
 10
311.7436567671871
 20
87.6629440638997
 30
0.0
 10
312.1985578238101
 20
88.29414850197428
 30
0.0
 10
312.3122830879662
 20
88.63521976197087
 30
0.0
 10
312.3122830879664
 20
88.96355650148782
 30
0.0
  0
SPLINE
  5
291
330
258
100
AcDbEntity
  8
0
  6
Continuous
 62
     7
370
    25
100
AcDbSpline
210
0.0
220
0.0
230
1.0
 70
     8
 71
     3
 72
    10
 73
     6
 74
     0
 42
0.000000001
 43
0.00000001
 40
0.0
 40
0.0
 40
0.0
 40
0.0
 40
0.5
 40
0.5
 40
1.0
 40
1.0
 40
1.0
 40
1.0
 10
-34.38528009903516
 20
289.1077995393451
 30
0.0
 10
-34.95403763993388
 20
289.107799539345
 30
0.0
 10
-35.54485440747665
 20
289.0421473417942
 30
0.0
 10
-36.6382510359867
 20
288.7795385515908
 30
0.0
 10
-37.13778242174718
 20
288.5833141327582
 30
0.0
 10
-37.5429980844853
 20
288.349388109915
 30
0.0
  0
SPLINE
  5
292
330
258
100
AcDbEntity
  8
0
  6
Continuous
 62
     7
370
    25
100
AcDbSpline
210
0.0
220
0.0
230
1.0
 70
     8
 71
     3
 72
    10
 73
     6
 74
     0
 42
0.000000001
 43
0.00000001
 40
0.0
 40
0.0
 40
0.0
 40
0.0
 40
0.5
 40
0.5
 40
1.0
 40
1.0
 40
1.0
 40
1.0
 10
-31.22756211358471
 20
288.3493881099148
 30
0.0
 10
-31.63277777632276
 20
288.583314132758
 30
0.0
 10
-32.1323091620832
 20
288.7795385515908
 30
0.0
 10
-33.22570579059328
 20
289.0421473417941
 30
0.0
 10
-33.81652255813619
 20
289.107799539345
 30
0.0
 10
-34.38528009903516
 20
289.1077995393451
 30
0.0
  0
LWPOLYLINE
  5
293
330
258
100
AcDbEntity
  8
0
  6
Continuous
 62
     7
370
    25
100
AcDbPolyline
 90
       45
 70
   128
 43
0.0
 10
-13.8531411946
 20
19.175696152
 10
-11.9661316878
 20
18.2317712559
 10
-9.8656297914
 20
17.4524844534
 10
-7.5943956668
 20
16.8536997765
 10
-5.198665091
 20
16.4476067544
 10
-2.7272082298
 20
16.2424722702
 10
-0.2303368178
 20
16.2424722702
 10
2.2411200434
 20
16.4476067544
 10
4.6368506192
 20
16.8536997765
 10
6.9080847438
 20
17.4524844534
 10
9.0085866401
 20
18.2317712559
 10
10.895596147
 20
19.175696152
 10
12.5306991924
 20
20.2650435529
 10
13.8806097936
 20
21.4776374868
 10
14.9178476637
 20
22.7887930382
 10
15.6212976307
 20
24.1718188611
 10
15.9766394819
 20
25.598560538
 10
15.9766394819
 20
27.0399737228
 10
15.6212976307
 20
28.4667153997
 10
14.9178476637
 20
29.8497412226
 10
13.8806097936
 20
31.160896774
 10
12.5306991924
 20
32.373490708
 10
10.895596147
 20
33.4628381089
 10
9.0085866401
 20
34.406763005
 10
6.9080847438
 20
35.1860498075
 10
4.6368506192
 20
35.7848344844
 10
2.2411200434
 20
36.1909275064
 10
-0.2303368178
 20
36.3960619907
 10
-2.7272082298
 20
36.3960619907
 10
-5.198665091
 20
36.1909275064
 10
-7.5943956668
 20
35.7848344844
 10
-9.8656297914
 20
35.1860498075
 10
-11.9661316878
 20
34.406763005
 10
-13.8531411946
 20
33.4628381089
 10
-15.48824424
 20
32.373490708
 10
-16.8381548412
 20
31.160896774
 10
-17.8753927113
 20
29.8497412226
 10
-18.5788426783
 20
28.4667153997
 10
-18.9341845295
 20
27.0399737228
 10
-18.9341845295
 20
25.598560538
 10
-18.5788426783
 20
24.1718188611
 10
-17.8753927113
 20
22.7887930382
 10
-16.8381548412
 20
21.4776374868
 10
-15.48824424
 20
20.2650435529
 10
-13.8531411946
 20
19.175696152
  0
LWPOLYLINE
  5
294
330
258
100
AcDbEntity
  8
0
  6
Continuous
 62
     7
370
    25
100
AcDbPolyline
 90
       45
 70
   128
 43
0.0
 10
-155.2744985745
 20
100.8165079939
 10
-156.9096016199
 20
101.9058553947
 10
-158.2595122212
 20
103.1184493287
 10
-159.2967500912
 20
104.4296048801
 10
-160.0002000582
 20
105.812630703
 10
-160.3555419094
 20
107.2393723799
 10
-160.3555419094
 20
108.6807855647
 10
-160.0002000582
 20
110.1075272416
 10
-159.2967500912
 20
111.4905530645
 10
-158.2595122212
 20
112.8017086159
 10
-156.9096016199
 20
114.0143025499
 10
-155.2744985745
 20
115.1036499508
 10
-153.3874890677
 20
116.0475748469
 10
-151.2869871713
 20
116.8268616494
 10
-149.0157530467
 20
117.4256463263
 10
-146.6200224709
 20
117.8317393483
 10
-144.1485656097
 20
118.0368738326
 10
-141.6516941977
 20
118.0368738326
 10
-139.1802373365
 20
117.8317393483
 10
-136.7845067607
 20
117.4256463263
 10
-134.5132726361
 20
116.8268616494
 10
-132.4127707398
 20
116.0475748469
 10
-130.525761233
 20
115.1036499508
 10
-128.8906581875
 20
114.0143025499
 10
-127.5407475863
 20
112.8017086159
 10
-126.5035097162
 20
111.4905530645
 10
-125.8000597492
 20
110.1075272416
 10
-125.444717898
 20
108.6807855647
 10
-125.444717898
 20
107.2393723799
 10
-125.8000597492
 20
105.812630703
 10
-126.5035097162
 20
104.4296048801
 10
-127.5407475863
 20
103.1184493287
 10
-128.8906581875
 20
101.9058553947
 10
-130.525761233
 20
100.8165079939
 10
-132.4127707398
 20
99.8725830978
 10
-134.5132726361
 20
99.0932962952
 10
-136.7845067607
 20
98.4945116183
 10
-139.1802373365
 20
98.0884185963
 10
-141.6516941977
 20
97.883284112
 10
-144.1485656097
 20
97.883284112
 10
-146.6200224709
 20
98.0884185963
 10
-149.0157530467
 20
98.4945116183
 10
-151.2869871713
 20
99.0932962952
 10
-153.3874890677
 20
99.8725830978
 10
-155.2744985745
 20
100.8165079939
  0
LWPOLYLINE
  5
296
330
258
100
AcDbEntity
  8
0
  6
Continuous
 62
     7
370
    25
100
AcDbPolyline
 90
       16
 70
   128
 43
0.0
 10
13.3099088781
 20
20.9178496598
 10
12.5306991924
 20
21.5706557668
 10
10.895596147
 20
22.6600031676
 10
9.0085866401
 20
23.6039280637
 10
6.9080847438
 20
24.3832148663
 10
4.6368506192
 20
24.9819995432
 10
2.2411200434
 20
25.3880925652
 10
-0.2303368178
 20
25.5932270495
 10
-2.7272082298
 20
25.5932270495
 10
-5.198665091
 20
25.3880925652
 10
-7.5943956668
 20
24.9819995432
 10
-9.8656297914
 20
24.3832148663
 10
-11.9661316878
 20
23.6039280637
 10
-13.8531411946
 20
22.6600031676
 10
-15.48824424
 20
21.5706557668
 10
-16.2674539257
 20
20.9178496598
  0
LWPOLYLINE
  5
297
330
258
100
AcDbEntity
  8
0
  6
Continuous
 62
     7
370
    25
100
AcDbPolyline
 90
       16
 70
   128
 43
0.0
 10
-57.4007692406
 20
61.7382552509
 10
-58.1799789263
 20
62.3910613579
 10
-59.8150819717
 20
63.4804087588
 10
-61.7020914785
 20
64.4243336549
 10
-63.8025933749
 20
65.2036204574
 10
-66.0738274995
 20
65.8024051343
 10
-68.4695580753
 20
66.2084981563
 10
-70.9410149365
 20
66.4136326406
 10
-73.4378863485
 20
66.4136326406
 10
-75.9093432096
 20
66.2084981563
 10
-78.3050737854
 20
65.8024051343
 10
-80.5763079101
 20
65.2036204574
 10
-82.6768098064
 20
64.4243336549
 10
-84.5638193132
 20
63.4804087588
 10
-86.1989223586
 20
62.3910613579
 10
-86.9781320444
 20
61.7382552509
  0
SPLINE
  5
29A
330
258
100
AcDbEntity
  8
0
  6
Continuous
 62
     7
370
    25
100
AcDbSpline
210
0.0
220
0.0
230
1.0
 70
     8
 71
     3
 72
     8
 73
     4
 74
     0
 42
0.000000001
 43
0.00000001
 40
0.0
 40
0.0
 40
0.0
 40
0.0
 40
1.0
 40
1.0
 40
1.0
 40
1.0
 10
84.30345027827049
 20
60.30835753856059
 30
0.0
 10
84.78285805448357
 20
60.61140365684187
 30
0.0
 10
85.2622606428326
 20
60.91464979381556
 30
0.0
 10
85.74165625898576
 20
61.21809063794075
 30
0.0
  0
SPLINE
  5
29C
330
258
100
AcDbEntity
  8
0
  6
Continuous
 62
     7
370
    25
100
AcDbSpline
210
0.0
220
0.0
230
1.0
 70
     8
 71
     3
 72
    28
 73
    24
 74
     0
 42
0.000000001
 43
0.00000001
 40
0.0
 40
0.0
 40
0.0
 40
0.0
 40
0.0451510386562017
 40
0.0905457733649261
 40
0.136184729851354
 40
0.182068425437282
 40
0.2281973692018792
 40
0.2745720621389801
 40
0.3211929973112576
 40
0.3680606600010969
 40
0.4151755278583815
 40
0.4625380710451659
 40
0.5101487523773861
 40
0.5580080274636102
 40
0.606116344840826
 40
0.6544741461075355
 40
0.703081866053941
 40
0.7519399327894888
 40
0.8010487678677582
 40
0.8504087864087193
 40
0.9000203972184475
 40
0.9498840029063529
 40
0.9999999999999999
 40
0.9999999999999999
 40
0.9999999999999999
 40
0.9999999999999999
 10
316.2519704778517
 20
86.26243906506672
 30
0.0
 10
316.2509576530563
 20
86.20489114520328
 30
0.0
 10
316.2489265368934
 20
86.08948469909122
 30
0.0
 10
316.2324402601522
 20
85.91528235868887
 30
0.0
 10
316.2059426973482
 20
85.73994369529635
 30
0.0
 10
316.1683303852556
 20
85.5636173657579
 30
0.0
 10
316.1197435016367
 20
85.38653622920268
 30
0.0
 10
316.0600044854431
 20
85.20892070510385
 30
0.0
 10
315.9890406307375
 20
85.0310046701929
 30
0.0
 10
315.9067707874646
 20
84.8530282269808
 30
0.0
 10
315.8131367943056
 20
84.67523939016488
 30
0.0
 10
315.708095809079
 20
84.49789333188659
 30
0.0
 10
315.5916231730374
 20
84.32125225991207
 30
0.0
 10
315.4637124495224
 20
84.14558507278394
 30
0.0
 10
315.3243760575133
 20
83.97116711729917
 30
0.0
 10
315.1736462685095
 20
83.79827960404742
 30
0.0
 10
315.0115740121557
 20
83.62721013962278
 30
0.0
 10
314.8382360097636
 20
83.45824894546391
 30
0.0
 10
314.6537104135114
 20
83.29170116925339
 30
0.0
 10
314.4581707726196
 20
83.12783854889564
 30
0.0
 10
314.2515348562371
 20
82.96707902773805
 30
0.0
 10
314.0347873414511
 20
82.80930900261176
 30
0.0
 10
313.8819870537559
 20
82.70764630663213
 30
0.0
 10
313.8053940431718
 20
82.65668663851483
 30
0.0
  0
SPLINE
  5
29E
330
258
100
AcDbEntity
  8
0
  6
Continuous
 62
     7
370
    25
100
AcDbSpline
210
0.0
220
0.0
230
1.0
 70
     8
 71
     3
 72
    10
 73
     6
 74
     0
 42
0.000000001
 43
0.00000001
 40
0.0
 40
0.0
 40
0.0
 40
0.0
 40
0.2443454302709455
 40
0.6358504788471773
 40
0.9999999999999999
 40
0.9999999999999999
 40
0.9999999999999999
 40
0.9999999999999999
 10
318.5125735432812
 20
75.67560017578398
 30
0.0
 10
318.5793378381917
 20
75.31748960404242
 30
0.0
 10
318.7530759303741
 20
74.38559258321573
 30
0.0
 10
317.9873840023018
 20
72.91664383575596
 30
0.0
 10
316.7646535364756
 20
72.05453476037115
 30
0.0
 10
316.1754203981262
 20
71.63908487154764
 30
0.0
  0
LWPOLYLINE
  5
29F
330
258
100
AcDbEntity
  8
0
  6
Continuous
 62
     7
370
    25
100
AcDbPolyline
 90
       16
 70
   128
 43
0.0
 10
-157.6888113056
 20
102.5586615017
 10
-156.9096016199
 20
103.2114676086
 10
-155.2744985745
 20
104.3008150095
 10
-153.3874890677
 20
105.2447399056
 10
-151.2869871713
 20
106.0240267081
 10
-149.0157530467
 20
106.622811385
 10
-146.6200224709
 20
107.0289044071
 10
-144.1485656097
 20
107.2340388913
 10
-141.6516941977
 20
107.2340388913
 10
-139.1802373365
 20
107.0289044071
 10
-136.7845067607
 20
106.622811385
 10
-134.5132726361
 20
106.0240267081
 10
-132.4127707398
 20
105.2447399056
 10
-130.525761233
 20
104.3008150095
 10
-128.8906581875
 20
103.2114676086
 10
-128.1114485018
 20
102.5586615017
  0
SPLINE
  5
2A2
330
258
100
AcDbEntity
  8
0
  6
Continuous
 62
     7
370
    25
100
AcDbSpline
210
0.0
220
0.0
230
1.0
 70
     8
 71
     3
 72
    14
 73
    10
 74
     0
 42
0.000000001
 43
0.00000001
 40
0.0
 40
0.0
 40
0.0
 40
0.0
 40
0.2500000000000002
 40
0.2500000000000002
 40
0.5000000000000001
 40
0.5000000000000001
 40
0.7500000000000001
 40
0.7500000000000001
 40
1.0
 40
1.0
 40
1.0
 40
1.0
 10
-10.30068729322402
 20
140.6808927453291
 30
0.0
 10
-1.508403620779364
 20
135.174512211223
 30
0.0
 10
7.286738619522282
 20
129.6820944716776
 30
0.0
 10
24.88670525618061
 20
118.7445518898199
 30
0.0
 10
33.69170855568687
 20
113.3003009074439
 30
0.0
 10
51.32069291415761
 20
102.5044966045243
 30
0.0
 10
60.14475757041697
 20
97.15335161847283
 30
0.0
 10
77.8221226309214
 20
86.59386488329542
 30
0.0
 10
86.67581561251843
 20
81.38744069470523
 30
0.0
 10
95.54692619803492
 20
76.26609352279917
 30
0.0
  0
SPLINE
  5
2A4
330
258
100
AcDbEntity
  8
0
  6
Continuous
 62
     7
370
    25
100
AcDbSpline
210
0.0
220
0.0
230
1.0
 70
     8
 71
     3
 72
    22
 73
    18
 74
     0
 42
0.000000001
 43
0.00000001
 40
0.0
 40
0.0
 40
0.0
 40
0.0
 40
0.1249999999999999
 40
0.1249999999999999
 40
0.2499999999999998
 40
0.2499999999999998
 40
0.3749999999999998
 40
0.3749999999999998
 40
0.4999999999999999
 40
0.4999999999999999
 40
0.6249999999999999
 40
0.6249999999999999
 40
0.7499999999999999
 40
0.7499999999999999
 40
0.875
 40
0.875
 40
1.0
 40
1.0
 40
1.0
 40
1.0
 10
85.74165625898576
 20
61.21809063794075
 30
0.0
 10
86.27174272648826
 20
61.55362268496142
 30
0.0
 10
86.81337454874344
 20
61.94273073648814
 30
0.0
 10
87.90088732026693
 20
62.82752331418045
 30
0.0
 10
88.44670092027384
 20
63.32324479556234
 30
0.0
 10
89.52008913641588
 20
64.4117754854114
 30
0.0
 10
90.04756442709115
 20
65.00456222906902
 30
0.0
 10
91.06074333260563
 20
66.26838025665731
 30
0.0
 10
91.54633872695952
 20
66.9393243565244
 30
0.0
 10
92.45439588844849
 20
68.33290626407437
 30
0.0
 10
92.87677097076487
 20
69.05541103784687
 30
0.0
 10
93.64223847908052
 20
70.52125537884554
 30
0.0
 10
93.98528982646987
 20
71.26445300301987
 30
0.0
 10
94.58317051242197
 20
72.74079400119342
 30
0.0
 10
94.83801112494508
 20
73.47382470866711
 30
0.0
 10
95.25819487480871
 20
74.90287170340417
 30
0.0
 10
95.4235900669863
 20
75.59882756332432
 30
0.0
 10
95.54692619803492
 20
76.26609352279917
 30
0.0
  0
SPLINE
  5
2A5
330
258
100
AcDbEntity
  8
0
  6
Continuous
 62
     7
370
    25
100
AcDbSpline
210
0.0
220
0.0
230
1.0
 70
     8
 71
     3
 72
    30
 73
    26
 74
     0
 42
0.000000001
 43
0.00000001
 40
0.0
 40
0.0
 40
0.0
 40
0.0
 40
0.1250000000000001
 40
0.1250000000000001
 40
0.1875000000000004
 40
0.1875000000000004
 40
0.2500000000000006
 40
0.2500000000000006
 40
0.3125000000000008
 40
0.3125000000000008
 40
0.3750000000000011
 40
0.3750000000000011
 40
0.5000000000000027
 40
0.5000000000000027
 40
0.562500000000002
 40
0.562500000000002
 40
0.6250000000000012
 40
0.6250000000000012
 40
0.7499999999999999
 40
0.7499999999999999
 40
0.8124999999999992
 40
0.8124999999999992
 40
0.8749999999999986
 40
0.8749999999999986
 40
1.0
 40
1.0
 40
1.0
 40
1.0
 10
-20.81497365078809
 20
125.6320641526221
 30
0.0
 10
-21.40810219469961
 20
126.0003146528031
 30
0.0
 10
-22.05051449013202
 20
126.3318115879916
 30
0.0
 10
-23.08940212415401
 20
126.7731298772411
 30
0.0
 10
-23.44930944297731
 20
126.9110725456363
 30
0.0
 10
-24.18210844714955
 20
127.1631016722965
 30
0.0
 10
-24.55637832260936
 20
127.2778494476891
 30
0.0
 10
-25.32058087768242
 20
127.484951549543
 30
0.0
 10
-25.71051292578852
 20
127.577306745526
 30
0.0
 10
-26.50638822208561
 20
127.7391503408063
 30
0.0
 10
-26.91453818282551
 20
127.8089209071438
 30
0.0
 10
-28.14695819813958
 20
127.9799750229462
 30
0.0
 10
-28.97387913670587
 20
128.0432755211376
 30
0.0
 10
-30.22207974785596
 20
128.063532678102
 30
0.0
 10
-30.63945866827756
 20
128.05775088109
 30
0.0
 10
-31.47692778235706
 20
128.020286423868
 30
0.0
 10
-31.89233700249672
 20
127.9887331006114
 30
0.0
 10
-33.11744974894497
 20
127.8577386406504
 30
0.0
 10
-33.91119474737535
 20
127.7220739069962
 30
0.0
 10
-35.06748462936862
 20
127.4463317047661
 30
0.0
 10
-35.44897046680852
 20
127.3416352301224
 30
0.0
 10
-36.18527335686983
 20
127.1119830110509
 30
0.0
 10
-36.54141453490328
 20
126.9868515957224
 30
0.0
 10
-37.57504427381976
 20
126.581565177218
 30
0.0
 10
-38.21803447670341
 20
126.2717729355997
 30
0.0
 10
-38.8144657852817
 20
125.9218693566589
 30
0.0
  0
SPLINE
  5
2A6
330
258
100
AcDbEntity
  8
0
  6
Continuous
 62
     7
370
    25
100
AcDbSpline
210
0.0
220
0.0
230
1.0
 70
     8
 71
     3
 72
    27
 73
    23
 74
     0
 42
0.000000001
 43
0.00000001
 40
0.0
 40
0.0
 40
0.0
 40
0.0
 40
0.0338389434645548
 40
0.0673331122493494
 40
0.1004821565836332
 40
0.1332857438261114
 40
0.1657435646629928
 40
0.1978556157666793
 40
0.229622286107242
 40
0.2610439403950345
 40
0.2921207767357655
 40
0.3228529194357092
 40
0.3532404761537482
 40
0.3832835224633973
 40
0.4129820969481093
 40
0.4423362268035931
 40
0.4713459310029868
 40
0.5000112209055173
 40
0.6195546477981193
 40
0.742734264606575
 40
0.8695494814471766
 40
1.0
 40
1.0
 40
1.0
 40
1.0
 10
85.74165625898445
 20
61.21809063797033
 30
0.0
 10
84.5371384576796
 20
61.91429419299386
 30
0.0
 10
82.14037531977158
 20
63.29960789724404
 30
0.0
 10
78.56410420140908
 20
65.37739539860706
 30
0.0
 10
75.02504405562134
 20
67.4411501888666
 30
0.0
 10
71.52327717446074
 20
69.49126794608881
 30
0.0
 10
68.05883445764448
 20
71.52722316226082
 30
0.0
 10
64.63172811778894
 20
73.54870256734196
 30
0.0
 10
61.24193903323873
 20
75.55524479983818
 30
0.0
 10
57.88944064678418
 20
77.54645106483528
 30
0.0
 10
54.57421401087691
 20
79.52188643674343
 30
0.0
 10
51.29624800932054
 20
81.48112576519794
 30
0.0
 10
48.05553466185636
 20
83.4237618491088
 30
0.0
 10
44.85206790426332
 20
85.34939924136876
 30
0.0
 10
41.68584256806901
 20
87.25765037526892
 30
0.0
 10
38.55685695592755
 20
89.14814728980144
 30
0.0
 10
35.46510157982286
 20
91.02053262912465
 30
0.0
 10
29.17044454619948
 20
94.84112016146689
 30
0.0
 10
19.53479196162824
 20
100.7206935255365
 30
0.0
 10
6.421845803665477
 20
108.7766248702649
 30
0.0
 10
-7.071312187922521
 20
117.1067701892408
 30
0.0
 10
-16.19079876413558
 20
122.7636545695343
 30
0.0
 10
-20.81497365078823
 20
125.6320641526221
 30
0.0
  0
SPLINE
  5
2A8
330
258
100
AcDbEntity
  8
0
  6
Continuous
 62
     7
370
    25
100
AcDbSpline
210
0.0
220
0.0
230
1.0
 70
     8
 71
     3
 72
    24
 73
    20
 74
     0
 42
0.000000001
 43
0.00000001
 40
0.0
 40
0.0
 40
0.0
 40
0.0
 40
0.0460752301140621
 40
0.0920393874165581
 40
0.1378937352633224
 40
0.1836395461080585
 40
0.2292781014829543
 40
0.2748106919765268
 40
0.3202386172086382
 40
0.3655631858026379
 40
0.4107857153545878
 40
0.4559075323995249
 40
0.5009299723747149
 40
0.5844136696456076
 40
0.6677635715789377
 40
0.7509883881462263
 40
0.834096868646868
 40
0.91709779917006
 40
0.9999999999999999
 40
0.9999999999999999
 40
0.9999999999999999
 40
0.9999999999999999
 10
-146.868986007334
 20
183.3007691708343
 30
0.0
 10
-146.9893303001072
 20
183.2344902074371
 30
0.0
 10
-147.2297287736145
 20
183.1020920582673
 30
0.0
 10
-147.5812864701478
 20
182.8983077939838
 30
0.0
 10
-147.925564528005
 20
182.6911447212815
 30
0.0
 10
-148.2618833062766
 20
182.4803011403889
 30
0.0
 10
-148.590335780872
 20
182.2659737546733
 30
0.0
 10
-148.9108127521208
 20
182.0482257005428
 30
0.0
 10
-149.2232630557285
 20
181.8271552639059
 30
0.0
 10
-149.52762422001
 20
181.6028507049348
 30
0.0
 10
-149.8238404036443
 20
181.3754026066013
 30
0.0
 10
-150.1118596711868
 20
181.1448993303274
 30
0.0
 10
-150.4714946772606
 20
180.8447828260392
 30
0.0
 10
-150.8930853010077
 20
180.4709651049841
 30
0.0
 10
-151.3635604991723
 20
180.0186126353607
 30
0.0
 10
-151.8058893325295
 20
179.5564235682084
 30
0.0
 10
-152.218961772806
 20
179.0847365436502
 30
0.0
 10
-152.6050989726416
 20
178.6048431132125
 30
0.0
 10
-152.8378337223752
 20
178.2777409040317
 30
0.0
 10
-152.9541318464982
 20
178.1142871294328
 30
0.0
  0
SPLINE
  5
2AF
330
258
100
AcDbEntity
  8
0
  6
Continuous
 62
     7
370
    25
100
AcDbSpline
210
0.0
220
0.0
230
1.0
 70
     8
 71
     3
 72
    32
 73
    28
 74
     0
 42
0.000000001
 43
0.00000001
 40
0.0
 40
0.0
 40
0.0
 40
0.0
 40
0.0122275889501643
 40
0.024383247739075
 40
0.0364673150771789
 40
0.0484801357309774
 40
0.0604220606380393
 40
0.0722934470236492
 40
0.0840946585190739
 40
0.0958260652814242
 40
0.1074880441150596
 40
0.1190809785945053
 40
0.1817841033187075
 40
0.2431108735094978
 40
0.3072686841556709
 40
0.370554599142509
 40
0.4995645574200258
 40
0.6286482750276818
 40
0.6919803052004709
 40
0.756294405606775
 40
0.8177103797567692
 40
0.8806100306368612
 40
0.9038920695082939
 40
0.9274693215167327
 40
0.9513446026908063
 40
0.975520624890265
 40
1.0
 40
1.0
 40
1.0
 40
1.0
 10
-9.748567896928574
 20
240.2758420749737
 30
0.0
 10
-9.87177072732015
 20
240.3552959687304
 30
0.0
 10
-10.11745163365721
 20
240.5137363598165
 30
0.0
 10
-10.49343991451644
 20
240.7452418805451
 30
0.0
 10
-10.87327195454676
 20
240.9713277692063
 30
0.0
 10
-11.25736347322548
 20
241.1916049864018
 30
0.0
 10
-11.64534944733665
 20
241.4061716463381
 30
0.0
 10
-12.0370743562227
 20
241.6149980830646
 30
0.0
 10
-12.4323302801651
 20
241.8180905005318
 30
0.0
 10
-12.83092290703965
 20
242.0154461056615
 30
0.0
 10
-13.23266759289889
 20
242.2070700514651
 30
0.0
 10
-14.23283154062586
 20
242.6664844461653
 30
0.0
 10
-15.8771779830524
 20
243.3334571029184
 30
0.0
 10
-18.2901029360011
 20
244.1122476154387
 30
0.0
 10
-20.82378447531766
 20
244.7341308634201
 30
0.0
 10
-24.38439936551036
 20
245.3470503212087
 30
0.0
 10
-29.0139791577343
 20
245.6577904387961
 30
0.0
 10
-33.64266008185059
 20
245.3297685882951
 30
0.0
 10
-37.20467843111633
 20
244.7039205560611
 30
0.0
 10
-39.74015786947837
 20
244.0728892066713
 30
0.0
 10
-42.15663784229633
 20
243.2850781471649
 30
0.0
 10
-43.94464332759851
 20
242.5544849978376
 30
0.0
 10
-45.21259159962727
 20
241.9572877724051
 30
0.0
 10
-46.00779092116491
 20
241.5541699110233
 30
0.0
 10
-46.78895882890446
 20
241.1275943624789
 30
0.0
 10
-47.55692126061095
 20
240.6790340771466
 30
0.0
 10
-48.0497379356869
 20
240.3635146941535
 30
0.0
 10
-48.29768256088138
 20
240.2047714147265
 30
0.0
  0
SPLINE
  5
2B0
330
258
100
AcDbEntity
  8
0
  6
Continuous
 62
     7
370
    25
100
AcDbSpline
210
0.0
220
0.0
230
1.0
 70
     8
 71
     3
 72
    46
 73
    42
 74
     0
 42
0.000000001
 43
0.00000001
 40
0.0
 40
0.0
 40
0.0
 40
0.0
 40
0.0129541691590166
 40
0.0258601740633608
 40
0.0387181001731053
 40
0.0515280339107804
 40
0.0642900626741081
 40
0.0770042748489123
 40
0.0896707598221969
 40
0.1022896079954107
 40
0.1148609107978849
 40
0.1273847607004558
 40
0.139861251229267
 40
0.1522904769797568
 40
0.1646725336308346
 40
0.1770075179592404
 40
0.1892955278541011
 40
0.2015366623316683
 40
0.2137310215502607
 40
0.2258787068253892
 40
0.2379798206450865
 40
0.2500344666854339
 40
0.3129411932045533
 40
0.3755120062416448
 40
0.4377623633231181
 40
0.4997079619293706
 40
0.5614603878211302
 40
0.623649290533528
 40
0.6862900322351709
 40
0.749397644960281
 40
0.7712883454606752
 40
0.7933556587711947
 40
0.8156001624244613
 40
0.8380224202505715
 40
0.860622982765214
 40
0.8834023875458871
 40
0.9063611595965907
 40
0.9294998117012985
 40
0.9528188447665661
 40
0.9763187481535845
 40
1.0
 40
1.0
 40
1.0
 40
1.0
 10
-48.84720929655587
 20
141.0775033600059
 30
0.0
 10
-48.71385372117254
 20
141.132823518047
 30
0.0
 10
-48.44763839316507
 20
141.2432581509899
 30
0.0
 10
-48.03973287045887
 20
141.4040011122635
 30
0.0
 10
-47.62676505484273
 20
141.5607319554845
 30
0.0
 10
-47.2082844889333
 20
141.7131115747234
 30
0.0
 10
-46.78469917164308
 20
141.8612145244747
 30
0.0
 10
-46.35618706534747
 20
142.0050071343891
 30
0.0
 10
-45.92298597895042
 20
142.1444865350615
 30
0.0
 10
-45.48531618699558
 20
142.2796435834097
 30
0.0
 10
-45.04340090948244
 20
142.4104727089062
 30
0.0
 10
-44.59746072170148
 20
142.5369692574266
 30
0.0
 10
-44.14771491398815
 20
142.6591301658162
 30
0.0
 10
-43.69438100592045
 20
142.7769537482071
 30
0.0
 10
-43.237674749536
 20
142.8904397197703
 30
0.0
 10
-42.77781003242051
 20
142.9995891522703
 30
0.0
 10
-42.31499871558822
 20
143.1044044642049
 30
0.0
 10
-41.8494508496496
 20
143.2048893390975
 30
0.0
 10
-41.38137347077043
 20
143.3010488937851
 30
0.0
 10
-40.91097469068119
 20
143.3928889220891
 30
0.0
 10
-40.43844815545575
 20
143.4804185673809
 30
0.0
 10
-39.29631942580038
 20
143.6807691881377
 30
0.0
 10
-37.44870039136451
 20
143.9502258070236
 30
0.0
 10
-34.85435038103959
 20
144.2068918626768
 30
0.0
 10
-32.22457039268257
 20
144.3500851129325
 30
0.0
 10
-29.58234544052675
 20
144.3799442227285
 30
0.0
 10
-26.94120691654517
 20
144.2967738551218
 30
0.0
 10
-24.31449200003587
 20
144.1009499560012
 30
0.0
 10
-21.71789835852142
 20
143.7918792151712
 30
0.0
 10
-19.73536583891451
 20
143.4627272227698
 30
0.0
 10
-18.33581927527932
 20
143.1832730653136
 30
0.0
 10
-17.48323543156323
 20
142.9976131146051
 30
0.0
 10
-16.63788247955843
 20
142.7976708213397
 30
0.0
 10
-15.80101990755266
 20
142.5833986915569
 30
0.0
 10
-14.97397292103716
 20
142.3547694271106
 30
0.0
 10
-14.15807143946149
 20
142.1117757287853
 30
0.0
 10
-13.35472637530459
 20
141.8544026761718
 30
0.0
 10
-12.56517254117256
 20
141.5827436914121
 30
0.0
 10
-11.79141930085224
 20
141.2965634150732
 30
0.0
 10
-11.03265395667004
 20
140.9969518149923
 30
0.0
 10
-10.54530058840479
 20
140.7865153841225
 30
0.0
 10
-10.30068729322396
 20
140.6808927453289
 30
0.0
  0
SPLINE
  5
2BB
330
258
100
AcDbEntity
  8
0
  6
Continuous
 62
     8
370
    25
100
AcDbSpline
210
0.0
220
0.0
230
1.0
 70
     8
 71
     3
 72
    12
 73
     8
 74
     0
 42
0.000000001
 43
0.00000001
 40
0.0
 40
0.0
 40
0.0
 40
0.0
 40
0.2220422374776124
 40
0.4471029620233395
 40
0.6765438720195519
 40
0.8567946448634621
 40
1.0
 40
1.0
 40
1.0
 40
1.0
 10
199.3235773817825
 20
-34.66092313025739
 30
0.0
 10
200.4421149416168
 20
-34.01056630511271
 30
0.0
 10
202.6943956870165
 20
-32.7010115726551
 30
0.0
 10
205.5058793022475
 20
-30.4093641871519
 30
0.0
 10
207.6482563374964
 20
-28.07519159223266
 30
0.0
 10
209.1202830714909
 20
-25.91891970370797
 30
0.0
 10
209.6870230959456
 20
-24.59342283223179
 30
0.0
 10
209.9379387517375
 20
-24.00657894895997
 30
0.0
  0
SPLINE
  5
2BC
330
258
100
AcDbEntity
  8
0
  6
Continuous
 62
     8
370
    25
100
AcDbSpline
210
0.0
220
0.0
230
1.0
 70
     8
 71
     3
 72
    16
 73
    12
 74
     0
 42
0.000000001
 43
0.00000001
 40
0.0
 40
0.0
 40
0.0
 40
0.0
 40
0.0193141857097169
 40
0.2206588026838684
 40
0.3212084503835578
 40
0.4221793855024674
 40
0.5208894118233952
 40
0.6209659451666151
 40
0.7489382253488318
 40
0.8750259992209729
 40
0.9999999999999999
 40
0.9999999999999999
 40
0.9999999999999999
 40
0.9999999999999999
 10
242.8589711774464
 20
84.61118667513739
 30
0.0
 10
242.9069590374506
 20
84.71311734641239
 30
0.0
 10
243.4552060042668
 20
85.87764481955274
 30
0.0
 10
243.6855420658685
 20
87.62303752459381
 30
0.0
 10
243.5099095066394
 20
89.75570202208269
 30
0.0
 10
243.0657595046066
 20
91.3122173363282
 30
0.0
 10
242.3413049159942
 20
92.81214927664284
 30
0.0
 10
241.2539238580585
 20
94.3737075045597
 30
0.0
 10
239.7195942534997
 20
95.95095173713271
 30
0.0
 10
237.718218192589
 20
97.49373142947064
 30
0.0
 10
236.119527477659
 20
98.36494341877878
 30
0.0
 10
235.3237282169762
 20
98.79861695582663
 30
0.0
  0
SPLINE
  5
2C1
330
258
100
AcDbEntity
  8
0
  6
Continuous
 62
     8
370
    25
100
AcDbSpline
210
0.0
220
0.0
230
1.0
 70
     8
 71
     3
 72
     9
 73
     5
 74
     0
 42
0.000000001
 43
0.00000001
 40
0.0
 40
0.0
 40
0.0
 40
0.0
 40
0.4193066632611442
 40
1.0
 40
1.0
 40
1.0
 40
1.0
 10
147.2222379170114
 20
26.90029902228376
 30
0.0
 10
138.6211565336775
 20
31.5756127786536
 30
0.0
 10
118.1085290537344
 20
42.72571881323878
 30
0.0
 10
97.63215066422171
 20
54.42461865622973
 30
0.0
 10
85.74165417288822
 20
61.21809184222982
 30
0.0
  0
SPLINE
  5
2C2
330
258
100
AcDbEntity
  8
0
  6
Continuous
 62
     8
370
    25
100
AcDbSpline
210
0.0
220
0.0
230
1.0
 70
     8
 71
     3
 72
     9
 73
     5
 74
     0
 42
0.000000001
 43
0.00000001
 40
0.0
 40
0.0
 40
0.0
 40
0.0
 40
0.429790992774355
 40
1.0
 40
1.0
 40
1.0
 40
1.0
 10
57.82960602715945
 20
43.85068026140053
 30
0.0
 10
61.62358140468869
 20
46.17127239069252
 30
0.0
 10
70.45107067578449
 20
51.57062269887901
 30
0.0
 10
79.27306796324201
 20
57.13531809896467
 30
0.0
 10
84.30345027827049
 20
60.30835753856062
 30
0.0
  0
SPLINE
  5
2C5
330
258
100
AcDbEntity
  8
0
  6
Continuous
 62
     8
370
    25
100
AcDbSpline
210
0.0
220
0.0
230
1.0
 70
     8
 71
     3
 72
    10
 73
     6
 74
     0
 42
0.000000001
 43
0.00000001
 40
0.0
 40
0.0
 40
0.0
 40
0.0
 40
0.4270101441813146
 40
0.8539775428150367
 40
0.9999999999999999
 40
0.9999999999999999
 40
0.9999999999999999
 40
0.9999999999999999
 10
95.54692619803494
 20
76.26609352279918
 30
0.0
 10
105.4936260376083
 20
70.59894510955574
 30
0.0
 10
125.3860300094231
 20
59.26521558894098
 30
0.0
 10
148.7656879194885
 20
46.4829530115191
 30
0.0
 10
162.1897955881253
 20
39.33692558130814
 30
0.0
 10
165.6108355374087
 20
37.51581047102464
 30
0.0
  0
SPLINE
  5
2C9
330
258
100
AcDbEntity
  8
0
  6
Continuous
 62
     8
370
    25
100
AcDbSpline
210
0.0
220
0.0
230
1.0
 70
     8
 71
     3
 72
    11
 73
     7
 74
     0
 42
0.000000001
 43
0.00000001
 40
0.0
 40
0.0
 40
0.0
 40
0.0
 40
0.269476435473662
 40
0.5412870827375781
 40
0.8217988108077298
 40
0.9999999999999999
 40
0.9999999999999999
 40
0.9999999999999999
 40
0.9999999999999999
 10
-152.9541318464981
 20
178.1142871294327
 30
0.0
 10
-153.3899012235009
 20
177.3952764147989
 30
0.0
 10
-154.2652146230178
 20
175.9510268962942
 30
0.0
 10
-154.8477857244071
 20
173.6122741279189
 30
0.0
 10
-154.954322288133
 20
171.4886323613245
 30
0.0
 10
-154.5807492326228
 20
170.1606012273604
 30
0.0
 10
-154.4356232502559
 20
169.6446865485911
 30
0.0
  0
LINE
  5
2CD
330
258
100
AcDbEntity
  8
0
  6
Continuous
 62
     7
370
    25
100
AcDbLine
 10
236.5958151819
 20
78.4945669625
 30
0.0
 11
138.0245117355
 21
21.5905647186
 31
0.0
  0
LINE
  5
2CE
330
258
100
AcDbEntity
  8
0
  6
Continuous
 62
     7
370
    25
100
AcDbLine
 10
95.870972752
 20
21.8898667002
 30
0.0
 11
-147.6735105508
 21
162.4851042571
 31
0.0
  0
LINE
  5
2CF
330
258
100
AcDbEntity
  8
0
  6
Continuous
 62
     7
370
    25
100
AcDbLine
 10
14.6368531984
 20
-142.6815256648
 30
0.0
 11
197.8115922858
 21
-36.9369996252
 31
0.0
  0
LINE
  5
2D0
330
258
100
AcDbEntity
  8
0
  6
Continuous
 62
     7
370
    25
100
AcDbLine
 10
209.9658446273
 20
-24.0184167937
 30
0.0
 11
228.1428134639
 21
20.8189426255
 31
0.0
  0
LINE
  5
2D1
330
258
100
AcDbEntity
  8
0
  6
Continuous
 62
     7
370
    25
100
AcDbLine
 10
318.5931152387
 20
75.6780689615
 30
0.0
 11
316.1868928561
 21
86.8639361223
 31
0.0
  0
LINE
  5
2D2
330
258
100
AcDbEntity
  8
0
  6
Continuous
 62
     7
370
    25
100
AcDbLine
 10
312.9983710769
 20
90.9845004947
 30
0.0
 11
-29.2277246483
 21
288.5474203119
 31
0.0
  0
LINE
  5
2D3
330
258
100
AcDbEntity
  8
0
  6
Continuous
 62
     7
370
    25
100
AcDbLine
 10
-66.4388250502
 20
65.8783455088
 30
0.0
 11
-65.4700701514
 21
57.8115191451
 31
0.0
  0
LINE
  5
2D4
330
258
100
AcDbEntity
  8
0
  6
Continuous
 62
     7
370
    25
100
AcDbLine
 10
-183.4724977927
 20
-23.0549600275
 30
0.0
 11
-173.2320653621
 21
-17.1432842189
 31
0.0
  0
LINE
  5
2D5
330
258
100
AcDbEntity
  8
0
  6
Continuous
 62
     7
370
    25
100
AcDbLine
 10
-39.5428355498
 20
288.5474203119
 30
0.0
 11
-288.7651408948
 21
144.6744458585
 31
0.0
  0
LINE
  5
2D6
330
258
100
AcDbEntity
  8
0
  6
Continuous
 62
     7
370
    25
100
AcDbLine
 10
-241.1379137772
 20
8.1230312835
 30
0.0
 11
-260.371722307
 21
115.3585297022
 31
0.0
  0
LINE
  5
2D7
330
258
100
AcDbEntity
  8
0
  6
Continuous
 62
     7
370
    25
100
AcDbLine
 10
-290.7571770385
 20
132.8996794372
 30
0.0
 11
-260.371722307
 21
115.3585297022
 31
0.0
  0
LINE
  5
2D8
330
258
100
AcDbEntity
  8
0
  6
Continuous
 62
     7
370
    25
100
AcDbLine
 10
-289.5721638611
 20
143.2331876581
 30
0.0
 11
-290.7571770385
 21
132.8996794372
 31
0.0
  0
LINE
  5
2D9
330
258
100
AcDbEntity
  8
0
  6
Continuous
 62
     7
370
    25
100
AcDbLine
 10
61.7762282666
 20
-56.7323297431
 30
0.0
 11
-286.7653034296
 21
144.4764136566
 31
0.0
  0
LINE
  5
2DA
330
258
100
AcDbEntity
  8
0
  6
Continuous
 62
     7
370
    25
100
AcDbLine
 10
64.5830886981
 20
-61.2162878148
 30
0.0
 11
65.7681018756
 21
-72.9179831278
 31
0.0
  0
LINE
  5
2DB
330
258
100
AcDbEntity
  8
0
  6
Continuous
 62
     7
370
    25
100
AcDbLine
 10
65.7681018756
 20
-72.9179831278
 30
0.0
 11
35.3826469841
 21
-55.3768334852
 31
0.0
  0
LINE
  5
2DC
330
258
100
AcDbEntity
  8
0
  6
Continuous
 62
     7
370
    25
100
AcDbLine
 10
16.1488382944
 20
-140.4054491699
 30
0.0
 11
35.3826469841
 21
-55.3768334852
 31
0.0
  0
LINE
  5
2DD
330
258
100
AcDbEntity
  8
0
  6
Continuous
 62
     7
370
    25
100
AcDbLine
 10
-26.5177967006
 20
-120.8363507687
 30
0.0
 11
10.6371782679
 21
-142.2854612609
 31
0.0
  0
LINE
  5
2DE
330
258
100
AcDbEntity
  8
0
  6
Continuous
 62
     7
370
    25
100
AcDbLine
 10
-235.6262537507
 20
-0.1206080205
 30
0.0
 11
-198.4712787822
 21
-21.5697185127
 31
0.0
  0
LINE
  5
2DF
330
258
100
AcDbEntity
  8
0
  6
Continuous
 62
     7
370
    25
100
AcDbLine
 10
61.7762282666
 20
-56.7323297431
 30
0.0
 11
310.9985336117
 21
87.1406447103
 31
0.0
  0
LINE
  5
2E0
330
258
100
AcDbEntity
  8
0
  6
Continuous
 62
     7
370
    25
100
AcDbLine
 10
313.8053940432
 20
82.6566866385
 30
0.0
 11
64.5830886981
 21
-61.2162878148
 31
0.0
  0
LINE
  5
2E1
330
258
100
AcDbEntity
  8
0
  6
Continuous
 62
     7
370
    25
100
AcDbLine
 10
65.7681018756
 20
-72.9179831278
 30
0.0
 11
316.1754203981
 21
71.6390848715
 31
0.0
  0
LINE
  5
2E2
330
258
100
AcDbEntity
  8
0
  6
Continuous
 62
     7
370
    25
100
AcDbLine
 10
316.1754203981
 20
71.6390848715
 30
0.0
 11
313.8053940432
 21
82.6566866385
 31
0.0
  0
LINE
  5
2E3
330
258
100
AcDbEntity
  8
0
  6
Continuous
 62
     7
370
    25
100
AcDbLine
 10
92.3712571877
 20
21.5433103468
 30
0.0
 11
-151.173226115
 21
162.1385479037
 31
0.0
  0
LINE
  5
2E4
330
258
100
AcDbEntity
  8
0
  6
Continuous
 62
     7
370
    25
100
AcDbLine
 10
240.0955307462
 20
78.148010609
 30
0.0
 11
141.5242272997
 21
21.2440083651
 31
0.0
  0
LINE
  5
2E5
330
258
100
AcDbEntity
  8
0
  6
Continuous
 62
     7
370
    25
100
AcDbLine
 10
-4.9343484967
 20
247.4424425441
 30
0.0
 11
240.1379476172
 21
105.965217425
 31
0.0
  0
LINE
  5
2E6
330
258
100
AcDbEntity
  8
0
  6
Continuous
 62
     7
370
    25
100
AcDbLine
 10
-151.6916885305
 20
190.5139535618
 30
0.0
 11
-53.1203850841
 21
247.4179558057
 31
0.0
  0
LINE
  5
2E7
330
258
100
AcDbEntity
  8
0
  6
Continuous
 62
     7
370
    25
100
AcDbLine
 10
310.9985336117
 20
90.7864682927
 30
0.0
 11
-31.2275621136
 21
288.3493881099
 31
0.0
  0
LINE
  5
2E8
330
258
100
AcDbEntity
  8
0
  6
Continuous
 62
     7
370
    25
100
AcDbLine
 10
-37.5429980845
 20
288.3493881099
 30
0.0
 11
-286.7653034296
 21
144.4764136566
 31
0.0
  0
LINE
  5
2E9
330
258
100
AcDbEntity
  8
0
  6
Continuous
 62
     7
370
    25
100
AcDbLine
 10
16.1488382944
 20
-140.4054491699
 30
0.0
 11
199.3235773818
 21
-34.6609231303
 31
0.0
  0
LINE
  5
2EA
330
258
100
AcDbEntity
  8
0
  6
Continuous
 62
     7
370
    25
100
AcDbLine
 10
242.7347359778
 20
84.3414734086
 30
0.0
 11
242.8589711774
 21
84.6111866751
 31
0.0
  0
LINE
  5
2EB
330
258
100
AcDbEntity
  8
0
  6
Continuous
 62
     7
370
    25
100
AcDbLine
 10
315.9978129326
 20
87.0109723022
 30
0.0
 11
316.0588533655
 21
86.8311987969
 31
0.0
  0
LINE
  5
2EC
330
258
100
AcDbEntity
  8
0
  6
Continuous
 62
     7
370
    25
100
AcDbLine
 10
-9.7485678969
 20
240.275842075
 30
0.0
 11
-10.3006872932
 21
140.6808927453
 31
0.0
  0
LINE
  5
2ED
330
258
100
AcDbEntity
  8
0
  6
Continuous
 62
     7
370
    25
100
AcDbLine
 10
235.323728217
 20
98.7986169558
 30
0.0
 11
-9.7485678969
 21
240.275842075
 31
0.0
  0
LINE
  5
2EE
330
258
100
AcDbEntity
  8
0
  6
Continuous
 62
     7
370
    25
100
AcDbLine
 10
-154.4356232503
 20
169.6446865486
 30
0.0
 11
-154.3472589619
 21
169.2737546731
 31
0.0
  0
LINE
  5
2EF
330
258
100
AcDbEntity
  8
0
  6
Continuous
 62
     7
370
    25
100
AcDbLine
 10
-48.2976825609
 20
240.2047714147
 30
0.0
 11
-146.8689860073
 21
183.3007691708
 31
0.0
  0
LINE
  5
2F0
330
258
100
AcDbEntity
  8
0
  6
Continuous
 62
     7
370
    25
100
AcDbLine
 10
-48.8472092966
 20
141.07750336
 30
0.0
 11
-48.2976825609
 21
240.2047714147
 31
0.0
  0
LINE
  5
2F1
330
258
100
AcDbEntity
  8
0
  6
Continuous
 62
     8
370
    25
100
AcDbLine
 10
199.3235773818
 20
-34.6609231303
 30
0.0
 11
219.8816178755
 21
16.0498559252
 31
0.0
  0
LINE
  5
2F2
330
258
100
AcDbEntity
  8
0
  6
Continuous
 62
     8
370
    25
100
AcDbLine
 10
-182.3506398371
 20
-22.3022867619
 30
0.0
 11
-172.2337063813
 21
-16.4619053939
 31
0.0
  0
LINE
  5
2F3
330
258
100
AcDbEntity
  8
0
  6
Continuous
 62
     8
370
    25
100
AcDbLine
 10
0.4366985321
 20
25.558268071
 30
0.0
 11
0.9888664161
 21
16.3176719993
 31
0.0
  0
LINE
  5
2F4
330
258
100
AcDbEntity
  8
0
  6
Continuous
 62
     8
370
    25
100
AcDbLine
 10
224.1889064687
 20
71.3322110173
 30
0.0
 11
235.323728217
 21
98.7986169558
 31
0.0
  0
LINE
  5
2F5
330
258
100
AcDbEntity
  8
0
  6
Continuous
 62
     8
370
    25
100
AcDbLine
 10
-12.8260591559
 20
23.2073494632
 30
0.0
 11
-12.5443399181
 21
18.4927440736
 31
0.0
  0
LINE
  5
2F6
330
258
100
AcDbEntity
  8
0
  6
Continuous
 62
     8
370
    25
100
AcDbLine
 10
-10.3960435399
 20
17.626681277
 30
0.0
 11
-10.781265542
 21
24.0734179
 31
0.0
  0
LINE
  5
2F7
330
258
100
AcDbEntity
  8
0
  6
Continuous
 62
     8
370
    25
100
AcDbLine
 10
-63.911196282
 20
65.2375679472
 30
0.0
 11
-63.1027646115
 21
58.5057538209
 31
0.0
  0
LINE
  5
2F8
330
258
100
AcDbEntity
  8
0
  6
Continuous
 62
     8
370
    25
100
AcDbLine
 10
-133.698885037
 20
99.3666885537
 30
0.0
 11
-133.7711561843
 21
105.7762837209
 31
0.0
  0
LINE
  5
2F9
330
258
100
AcDbEntity
  8
0
  6
Continuous
 62
     8
370
    25
100
AcDbLine
 10
-38.8144657853
 20
125.9218693567
 30
0.0
 11
-61.4366098843
 21
112.701601174
 31
0.0
  0
LINE
  5
2FA
330
258
100
AcDbEntity
  8
0
  6
Continuous
 62
     8
370
    25
100
AcDbLine
 10
-146.8689860073
 20
183.3007691708
 30
0.0
 11
-140.1105823142
 21
158.1191187188
 31
0.0
  0
LINE
  5
2FB
330
258
100
AcDbEntity
  8
0
  6
Continuous
 62
     8
370
    25
100
AcDbLine
 10
-79.4823988747
 20
123.1192134131
 30
0.0
 11
-48.8472092966
 21
141.07750336
 31
0.0
  0
LINE
  5
2FC
330
258
100
AcDbEntity
  8
0
  6
Continuous
 62
     8
370
    25
100
AcDbLine
 10
-34.385280099
 20
289.8416322305
 30
0.0
 11
-34.385280099
 21
289.1077995393
 31
0.0
  0
ARC
  5
2FD
330
258
100
AcDbEntity
  8
0
  6
Continuous
 62
     7
370
    25
100
AcDbCircle
 10
-228.8120600033
 20
10.3996863184
 30
0.0
 40
12.53434599029023
100
AcDbArc
 50
190.4649112843
 51
237.0681058612
  0
ARC
  5
2FE
330
258
100
AcDbEntity
  8
0
  6
Continuous
 62
     7
370
    25
100
AcDbCircle
 10
58.3933659008
 20
-61.9704240516
 30
0.0
 40
6.235494348577441
100
AcDbArc
 50
6.9464996845
 51
57.1448457062
  0
ARC
  5
2FF
330
258
100
AcDbEntity
  8
0
  6
Continuous
 62
     7
370
    25
100
AcDbCircle
 10
-2.9360126432
 20
-83.3676936227
 30
0.0
 40
44.27189636390721
100
AcDbArc
 50
206.2612166104
 51
237.8147717322
  0
ARC
  5
300
330
258
100
AcDbEntity
  8
0
  6
Continuous
 62
     7
370
    25
100
AcDbCircle
 10
307.6156718172
 20
81.9025507593
 30
0.0
 40
6.23549373823271
100
AcDbArc
 50
6.9464970575
 51
57.1448483332
  0
ARC
  5
301
330
258
100
AcDbEntity
  8
0
  6
Continuous
 62
     7
370
    25
100
AcDbCircle
 10
246.1013163712
 20
96.7589834247
 30
0.0
 40
10.96888833765707
100
AcDbArc
 50
122.9332828538
 51
169.2836416595
  0
ARC
  5
302
330
258
100
AcDbEntity
  8
0
  6
Continuous
 62
     7
370
    25
100
AcDbCircle
 10
312.5693553317
 20
85.1148523872
 30
0.0
 40
3.857280064692285
100
AcDbArc
 50
17.3082225232
 51
93.8213663308
  0
ARC
  5
303
330
258
100
AcDbEntity
  8
0
  6
Continuous
 62
     7
370
    25
100
AcDbCircle
 10
1.0290202573
 20
238.2362085439
 30
0.0
 40
10.96888833765715
100
AcDbArc
 50
122.9332828538
 51
169.2836416595
  0
ARC
  5
304
330
258
100
AcDbEntity
  8
0
  6
Continuous
 62
     7
370
    25
100
AcDbCircle
 10
-161.138297295
 20
175.5061436277
 30
0.0
 40
8.589701776822016
100
AcDbArc
 50
17.6761269023
 51
77.367508432
  0
ARC
  5
305
330
258
100
AcDbEntity
  8
0
  6
Continuous
 62
     7
370
    25
100
AcDbCircle
 10
-157.6541080595
 20
181.3086960153
 30
0.0
 40
10.96755274150401
100
AcDbArc
 50
10.4649112843
 51
57.0681058612
  0
ARC
  5
306
330
258
100
AcDbEntity
  8
0
  6
Continuous
 62
     7
370
    25
100
AcDbCircle
 10
-59.0828046131
 20
238.2126982592
 30
0.0
 40
10.9675527415035
100
AcDbArc
 50
10.4649112843
 51
57.0681058612
  0
ARC
  5
307
330
258
100
AcDbEntity
  8
0
  6
Continuous
 62
     7
370
    25
100
AcDbCircle
 10
-33.9693990817
 20
146.0202374759
 30
0.0
 40
24.26348119866225
100
AcDbArc
 50
302.830060204
 51
347.2876291504
  0
ARC
  5
308
330
258
100
AcDbEntity
  8
0
  6
Continuous
 62
     7
370
    25
100
AcDbCircle
 10
-25.4030176444
 20
145.6985551389
 30
0.0
 40
23.89527655760431
100
AcDbArc
 50
191.1505509401
 51
235.8570628211
  0
ARC
  5
309
330
258
100
AcDbEntity
  8
0
  6
Continuous
 62
     8
370
    25
100
AcDbCircle
 10
94.4070314464
 20
18.8273553642
 30
0.0
 40
3.394228675198246
100
AcDbArc
 50
64.4094467175
 51
126.8538008349
  0
ARC
  5
30A
330
258
100
AcDbEntity
  8
0
  6
Continuous
 62
     8
370
    25
100
AcDbCircle
 10
128.3622539222
 20
16.150611697
 30
0.0
 40
1.833298416872632
100
AcDbArc
 50
23.2758412349
 51
86.4936313025
  0
ARC
  5
30B
330
258
100
AcDbEntity
  8
0
  6
Continuous
 62
     8
370
    25
100
AcDbCircle
 10
139.4726945685
 20
18.3647406142
 30
0.0
 40
3.535388143993177
100
AcDbArc
 50
54.5294090432
 51
114.2710839377
  0
ARC
  5
30C
330
258
100
AcDbEntity
  8
0
  6
Continuous
 62
     8
370
    25
100
AcDbCircle
 10
238.043176151
 20
75.2665105537
 30
0.0
 40
3.537683133435717
100
AcDbArc
 50
54.5395482221
 51
114.1499933488
  0
ARC
  5
30D
330
258
100
AcDbEntity
  8
0
  6
Continuous
 62
     8
370
    25
100
AcDbCircle
 10
-149.1371784639
 20
159.4217242868
 30
0.0
 40
3.395087716435579
100
AcDbArc
 50
64.4617579739
 51
126.8487004552
  0
ARC
  5
30E
330
258
100
AcDbEntity
  8
0
  6
Continuous
 62
     8
370
    25
100
AcDbCircle
 10
196.0546493653
 20
-34.1296321685
 30
0.0
 40
3.311821321096195
100
AcDbArc
 50
302.0396871126
 51
350.7685741643
  0
ARC
  5
30F
330
258
100
AcDbEntity
  8
0
  6
Continuous
 62
     8
370
    25
100
AcDbCircle
 10
312.1622926594
 20
89.2284191219
 30
0.0
 40
1.944698521626041
100
AcDbArc
 50
64.4460231861
 51
126.7572839171
  0
ARC
  5
310
330
258
100
AcDbEntity
  8
0
  6
Continuous
 62
     8
370
    25
100
AcDbCircle
 10
-30.0634415486
 20
286.7902043172
 30
0.0
 40
1.945823935890798
100
AcDbArc
 50
64.5646390689
 51
126.7458193602
  0
ARC
  5
311
330
258
100
AcDbEntity
  8
0
  6
Continuous
 62
     8
370
    25
100
AcDbCircle
 10
-38.7071186495
 20
286.7902043172
 30
0.0
 40
1.945823935890384
100
AcDbArc
 50
53.2541806398
 51
115.4353609311
  0
VIEWPORT
  5
318
330
258
100
AcDbEntity
  8
0
100
AcDbViewport
 10
0.0
 20
0.0
 30
0.0
 40
205.6
 41
156.0
 68
     1
 69
     1
 12
0.0
 22
22.1910060118
 13
0.0
 23
0.0
 14
10.0
 24
10.0
 15
10.0
 25
10.0
 16
0.0
 26
0.0
 36
1.0
 17
0.0
 27
0.0
 37
0.0
 42
50.0
 43
0.0
 44
0.0
 45
390.2177189906
 50
0.0
 51
0.0
 72
   100
 90
   557152
  1

281
     0
 71
     1
 74
     0
110
0.0
120
0.0
130
0.0
111
1.0
121
0.0
131
0.0
112
0.0
122
1.0
132
0.0
 79
     0
146
0.0
  0
ENDBLK
  5
25B
330
258
100
AcDbEntity
  8
0
100
AcDbBlockEnd
  0
ENDSEC
  0
SECTION
  2
ENTITIES
  0
SPLINE
  5
73
330
1F
100
AcDbEntity
  8
0
  6
Continuous
 62
     7
370
    25
100
AcDbSpline
210
0.0
220
0.0
230
1.0
 70
     8
 71
     3
 72
    32
 73
    28
 74
     0
 42
0.000000001
 43
0.00000001
 40
0.0
 40
0.0
 40
0.0
 40
0.0
 40
0.0122275889501643
 40
0.024383247739075
 40
0.0364673150771789
 40
0.0484801357309774
 40
0.0604220606380393
 40
0.0722934470236492
 40
0.0840946585190739
 40
0.0958260652814242
 40
0.1074880441150596
 40
0.1190809785945053
 40
0.1817841033187075
 40
0.2431108735094978
 40
0.3072686841556709
 40
0.370554599142509
 40
0.4995645574200258
 40
0.6286482750276818
 40
0.6919803052004709
 40
0.756294405606775
 40
0.8177103797567692
 40
0.8806100306368612
 40
0.9038920695082939
 40
0.9274693215167327
 40
0.9513446026908063
 40
0.975520624890265
 40
1.0
 40
1.0
 40
1.0
 40
1.0
 10
-173.2922824630998
 20
159.5057255295478
 30
0.0
 10
-173.4677511277672
 20
159.5069590805527
 30
0.0
 10
-173.817656243033
 20
159.5094189260606
 30
0.0
 10
-174.3409778400003
 20
159.5010127969434
 30
0.0
 10
-174.8610039814473
 20
159.4838753159556
 30
0.0
 10
-175.3775944523497
 20
159.4572783519502
 30
0.0
 10
-175.8905970827721
 20
159.421585955774
 30
0.0
 10
-176.3998681720855
 20
159.3768743662214
 30
0.0
 10
-176.9052681325757
 20
159.3232980384639
 30
0.0
 10
-177.4066586455228
 20
159.2609934526232
 30
0.0
 10
-177.9039181477923
 20
159.1901001715392
 30
0.0
 10
-179.1222989976072
 20
158.994035601882
 30
0.0
 10
-181.0274471436928
 20
158.573726707848
 30
0.0
 10
-183.6008520433057
 20
157.7347404140124
 30
0.0
 10
-186.0858068939698
 20
156.6365284690407
 30
0.0
 10
-189.287872916053
 20
154.8031246230257
 30
0.0
 10
-192.9117049025631
 20
151.8797420792844
 30
0.0
 10
-195.8255706301617
 20
148.2476644681001
 30
0.0
 10
-197.6535445642569
 20
145.0381837432419
 30
0.0
 10
-198.7485116924881
 20
142.5474414626233
 30
0.0
 10
-199.5853766896683
 20
139.9668877090414
 30
0.0
 10
-200.0404436944608
 20
137.8933331069221
 30
0.0
 10
-200.2754335340365
 20
136.3351733038071
 30
0.0
 10
-200.3910790208707
 20
135.326237125333
 30
0.0
 10
-200.4707185855816
 20
134.301138440428
 30
0.0
 10
-200.5165682873724
 20
133.2609252559064
 30
0.0
 10
-200.5152795206902
 20
132.5626884635682
 30
0.0
 10
-200.5146311197977
 20
132.2113934110081
 30
0.0
  0
SPLINE
  5
75
330
1F
100
AcDbEntity
  8
0
  6
Continuous
 62
     7
370
    25
100
AcDbSpline
210
0.0
220
0.0
230
1.0
 70
     8
 71
     3
 72
    46
 73
    42
 74
     0
 42
0.000000001
 43
0.00000001
 40
0.0
 40
0.0
 40
0.0
 40
0.0
 40
0.0129541691590166
 40
0.0258601740633608
 40
0.0387181001731053
 40
0.0515280339107804
 40
0.0642900626741081
 40
0.0770042748489123
 40
0.0896707598221969
 40
0.1022896079954107
 40
0.1148609107978849
 40
0.1273847607004558
 40
0.139861251229267
 40
0.1522904769797568
 40
0.1646725336308346
 40
0.1770075179592404
 40
0.1892955278541011
 40
0.2015366623316683
 40
0.2137310215502607
 40
0.2258787068253892
 40
0.2379798206450865
 40
0.2500344666854339
 40
0.3129411932045533
 40
0.3755120062416448
 40
0.4377623633231181
 40
0.4997079619293706
 40
0.5614603878211302
 40
0.623649290533528
 40
0.6862900322351709
 40
0.749397644960281
 40
0.7712883454606752
 40
0.7933556587711947
 40
0.8156001624244613
 40
0.8380224202505715
 40
0.860622982765214
 40
0.8834023875458871
 40
0.9063611595965907
 40
0.9294998117012985
 40
0.9528188447665661
 40
0.9763187481535845
 40
1.0
 40
1.0
 40
1.0
 40
1.0
 10
-177.80272111877
 20
108.7223352475031
 30
0.0
 10
-177.7968795516203
 20
108.9050869436785
 30
0.0
 10
-177.7852181365624
 20
109.2699108560004
 30
0.0
 10
-177.7541558588696
 20
109.8157141006855
 30
0.0
 10
-177.7133367452815
 20
110.3589196727654
 30
0.0
 10
-177.6619135966489
 20
110.8993174160315
 30
0.0
 10
-177.6002762190071
 20
111.4367201389237
 30
0.0
 10
-177.5284885237777
 20
111.9709400760586
 30
0.0
 10
-177.4467047899836
 20
112.5017951938819
 30
0.0
 10
-177.3550585802338
 20
113.0291075397556
 30
0.0
 10
-177.2536921681896
 20
113.5527037065905
 30
0.0
 10
-177.1427485293129
 20
114.0724147292807
 30
0.0
 10
-177.0223733078359
 20
114.5880761286924
 30
0.0
 10
-176.8927141284868
 20
115.0995279104163
 30
0.0
 10
-176.7539206141109
 20
115.6066145778398
 30
0.0
 10
-176.6061442302253
 20
116.1091851137558
 30
0.0
 10
-176.4495381295615
 20
116.6070930541761
 30
0.0
 10
-176.2842571776766
 20
117.1001962082353
 30
0.0
 10
-176.1104572686496
 20
117.5883576766593
 30
0.0
 10
-175.9282972956929
 20
118.0714420382286
 30
0.0
 10
-175.7379312755978
 20
118.5493294528305
 30
0.0
 10
-175.2603105257419
 20
119.6869226424293
 30
0.0
 10
-174.4023872001486
 20
121.4419272134337
 30
0.0
 10
-173.0069759941796
 20
123.715480977609
 30
0.0
 10
-171.4088684572416
 20
125.8364439662629
 30
0.0
 10
-169.6244104928868
 20
127.7886563640875
 30
0.0
 10
-167.6641703818925
 20
129.563550173814
 30
0.0
 10
-165.537308220743
 20
131.1514238720796
 30
0.0
 10
-163.2535970139796
 20
132.5398506091177
 30
0.0
 10
-161.3639876445767
 20
133.4539656167886
 30
0.0
 10
-159.956633956545
 20
134.0258696602224
 30
0.0
 10
-159.0752463993273
 20
134.3502177378483
 30
0.0
 10
-158.1765556838265
 20
134.6470366320647
 30
0.0
 10
-157.2613361434233
 20
134.9153194908346
 30
0.0
 10
-156.3304468643463
 20
135.1540512768076
 30
0.0
 10
-155.3847940013068
 20
135.3622573545727
 30
0.0
 10
-154.4253402768854
 20
135.5389051151475
 30
0.0
 10
-153.4531067627485
 20
135.6832693414637
 30
0.0
 10
-152.4691568201576
 20
135.793571725264
 30
0.0
 10
-151.4746593349633
 20
135.8721304804708
 30
0.0
 10
-150.8078860223357
 20
135.8945789109122
 30
0.0
 10
-150.4732179400753
 20
135.9058462682333
 30
0.0
  0
SPLINE
  5
77
330
1F
100
AcDbEntity
  8
0
  6
Continuous
 62
     7
370
    25
100
AcDbSpline
210
0.0
220
0.0
230
1.0
 70
     8
 71
     3
 72
    32
 73
    28
 74
     0
 42
0.000000001
 43
0.00000001
 40
0.0
 40
0.0
 40
0.0
 40
0.0
 40
0.0122778868429319
 40
0.024479697128971
 40
0.0366057483152761
 40
0.0486563638467285
 40
0.0606318732809128
 40
0.0725326124153797
 40
0.0843589234172013
 40
0.0961111549547998
 40
0.1077896623320621
 40
0.1193948076247217
 40
0.1822924124660567
 40
0.2437104373477094
 40
0.308022444399675
 40
0.3713565727405396
 40
0.5004402952561408
 40
0.6294502584387978
 40
0.6927340841432322
 40
0.7568939889598477
 40
0.818218718949398
 40
0.8809238886301219
 40
0.9041771833976999
 40
0.9277085057638546
 40
0.9515208437824048
 40
0.9756170809444786
 40
1.0
 40
1.0
 40
1.0
 40
1.0
 10
200.5146311197978
 20
132.2113934110082
 30
0.0
 10
200.5158713245788
 20
132.3875680565268
 30
0.0
 10
200.5183440495521
 20
132.7388257297135
 30
0.0
 10
200.5099585769031
 20
133.2640873221316
 30
0.0
 10
200.4928517264663
 20
133.7858758206234
 30
0.0
 10
200.4663045200298
 20
134.3040512809778
 30
0.0
 10
200.430689547306
 20
134.8184621193165
 30
0.0
 10
200.3860917521216
 20
135.3289655050564
 30
0.0
 10
200.332674069652
 20
135.8354230010697
 30
0.0
 10
200.2705813563483
 20
136.3376977297554
 30
0.0
 10
200.1999614727807
 20
136.8356697666174
 30
0.0
 10
200.0044430771287
 20
138.0572742213872
 30
0.0
 10
199.5853857749692
 20
139.9668888624138
 30
0.0
 10
198.7485324619919
 20
142.5473775542291
 30
0.0
 10
197.6535582569504
 20
145.0381587075249
 30
0.0
 10
195.8255895958447
 20
148.2476396132979
 30
0.0
 10
192.9117045160916
 20
151.8797424620406
 30
0.0
 10
189.2878976862479
 20
154.8031056274207
 30
0.0
 10
186.0858318309149
 20
156.6365147460811
 30
0.0
 10
183.6009158459247
 20
157.7347195732807
 30
0.0
 10
181.0274456738471
 20
158.5737176918207
 30
0.0
 10
178.9586147544414
 20
159.0301715591075
 30
0.0
 10
177.4043234260225
 20
159.2658428370222
 30
0.0
 10
176.3973253848986
 20
159.381860320467
 30
0.0
 10
175.3748640715143
 20
159.4616906261471
 30
0.0
 10
174.33799538812
 20
159.507623095428
 30
0.0
 10
173.6422249195906
 20
159.5063605402183
 30
0.0
 10
173.2922824631
 20
159.505725529548
 30
0.0
  0
SPLINE
  5
79
330
1F
100
AcDbEntity
  8
0
  6
Continuous
 62
     7
370
    25
100
AcDbSpline
210
0.0
220
0.0
230
1.0
 70
     8
 71
     3
 72
    46
 73
    42
 74
     0
 42
0.000000001
 43
0.00000001
 40
0.0
 40
0.0
 40
0.0
 40
0.0
 40
0.0130161172059864
 40
0.0259775426226229
 40
0.0388843540272098
 40
0.0517366301888583
 40
0.064534450883954
 40
0.0772778969118883
 40
0.0899670501110572
 40
0.1026019933751463
 40
0.115182810669691
 40
0.1277095870489269
 40
0.1401824086729316
 40
0.1526013628250629
 40
0.1649665379296986
 40
0.1772780235702823
 40
0.1895359105076852
 40
0.2017402906988759
 40
0.2138912573159207
 40
0.2259889047653075
 40
0.2380333287076035
 40
0.2500246260774473
 40
0.3131270513149542
 40
0.3757620042618974
 40
0.4379445060158935
 40
0.4996899080537631
 40
0.561640980710544
 40
0.6238961678712839
 40
0.6864711748507156
 40
0.7493814673801777
 40
0.7713833962761864
 40
0.7935398573379361
 40
0.8158514696141662
 40
0.8383188393216228
 40
0.86094256014896
 40
0.8837232135535537
 40
0.9066613690513349
 40
0.9297575844997508
 40
0.9530124063739703
 40
0.9764263700364534
 40
1.0
 40
1.0
 40
1.0
 40
1.0
 10
150.4732179400756
 20
135.9058462682335
 30
0.0
 10
150.6571678900488
 20
135.9005077413152
 30
0.0
 10
151.024294859654
 20
135.8898531191751
 30
0.0
 10
151.5734466993328
 20
135.8602387502093
 30
0.0
 10
152.1197431405029
 20
135.820840458903
 30
0.0
 10
152.6629753686855
 20
135.7708224298136
 30
0.0
 10
153.2029548489628
 20
135.7105908239248
 30
0.0
 10
153.7394939686764
 20
135.6402246214498
 30
0.0
 10
154.2724112099959
 20
135.559893218801
 30
0.0
 10
154.8015297861741
 20
135.4697450501554
 30
0.0
 10
155.3266780130745
 20
135.3699370499062
 30
0.0
 10
155.8476892136617
 20
135.2606266198812
 30
0.0
 10
156.3644017425268
 20
135.1419735816451
 30
0.0
 10
156.8766589720898
 20
135.0141394741169
 30
0.0
 10
157.3843092908939
 20
134.8772875573272
 30
0.0
 10
157.8872060705883
 20
134.731582643848
 30
0.0
 10
158.3852077249592
 20
134.5771909317449
 30
0.0
 10
158.8781774142448
 20
134.4142800156068
 30
0.0
 10
159.3659840489964
 20
134.2430182027425
 30
0.0
 10
159.848498461353
 20
134.0635764293217
 30
0.0
 10
160.3256074791279
 20
133.8761205456642
 30
0.0
 10
161.4678314244307
 20
133.4030997916756
 30
0.0
 10
163.2314320260713
 20
132.5518916619999
 30
0.0
 10
165.5161493440996
 20
131.1656795194351
 30
0.0
 10
167.6442482490987
 20
129.5799156640133
 30
0.0
 10
169.6060461555869
 20
127.8069165022564
 30
0.0
 10
171.3923539338336
 20
125.8563194246173
 30
0.0
 10
172.9925406717735
 20
123.7366613165894
 30
0.0
 10
174.3901448255544
 20
121.4641867992766
 30
0.0
 10
175.3118410281527
 20
119.5830550640108
 30
0.0
 10
175.8898695377221
 20
118.1800836575335
 30
0.0
 10
176.219120461218
 20
117.2977218102322
 30
0.0
 10
176.520267132843
 20
116.3987827348897
 30
0.0
 10
176.7923779855436
 20
115.4840759851356
 30
0.0
 10
177.034516468804
 20
114.5544906365751
 30
0.0
 10
177.2457898694814
 20
113.6109574987559
 30
0.0
 10
177.4252504172323
 20
112.654458003281
 30
0.0
 10
177.5722605062692
 20
111.68602670441
 30
0.0
 10
177.6851333752231
 20
110.7067312403958
 30
0.0
 10
177.7662697310835
 20
109.7177491723842
 30
0.0
 10
177.7905431620785
 20
109.0548906983863
 30
0.0
 10
177.8027211187701
 20
108.7223352475029
 30
0.0
  0
SPLINE
  5
7B
330
1F
100
AcDbEntity
  8
0
  6
Continuous
 62
     7
370
    25
100
AcDbSpline
210
0.0
220
0.0
230
1.0
 70
     8
 71
     3
 72
    36
 73
    32
 74
     0
 42
0.000000001
 43
0.00000001
 40
0.0
 40
0.0
 40
0.0
 40
0.0
 40
0.015951486369824
 40
0.0319178928327767
 40
0.0478997751578504
 40
0.0638976875011321
 40
0.0799121823546277
 40
0.0959438104959061
 40
0.1119931209386024
 40
0.1280606608837811
 40
0.1441469756721871
 40
0.1602526087374001
 40
0.1763781015599011
 40
0.1925239936220731
 40
0.2086908223641455
 40
0.2248791231410947
 40
0.2410894291805112
 40
0.3031198531127649
 40
0.3660068765561342
 40
0.4297779610770344
 40
0.4944594417506724
 40
0.6194327130542155
 40
0.7508536512598828
 40
0.779787273799418
 40
0.8093502375349578
 40
0.8395436168916295
 40
0.8703684201373002
 40
0.9018255945884686
 40
0.9339160313226224
 40
0.9666405694511162
 40
0.9999999999999999
 40
0.9999999999999999
 40
0.9999999999999999
 40
0.9999999999999999
 10
-198.3332638252536
 20
-17.97654385306697
 30
0.0
 10
-198.2634379105458
 20
-18.13651979641233
 30
0.0
 10
-198.1237207700283
 20
-18.45662131530142
 30
0.0
 10
-197.9021680211462
 20
-18.93167993382483
 30
0.0
 10
-197.6717986657647
 20
-19.40306242514773
 30
0.0
 10
-197.4318106741952
 20
-19.87022254458322
 30
0.0
 10
-197.1824952434276
 20
-20.33308300694406
 30
0.0
 10
-196.9238545420631
 20
-20.79144151322576
 30
0.0
 10
-196.6559726345601
 20
-21.24513023060865
 30
0.0
 10
-196.3789159310903
 20
-21.69397308581593
 30
0.0
 10
-196.0927599088828
 20
-22.13779730519591
 30
0.0
 10
-195.7975818901222
 20
-22.57643044670926
 30
0.0
 10
-195.4934631268559
 20
-23.00970113791956
 30
0.0
 10
-195.1804876434854
 20
-23.43743952271086
 30
0.0
 10
-194.858744724477
 20
-23.85947515682608
 30
0.0
 10
-194.5283200389288
 20
-24.27564542097571
 30
0.0
 10
-193.8700910587299
 20
-25.07198467920774
 30
0.0
 10
-192.8299123289577
 20
-26.21522205224376
 30
0.0
 10
-191.328456857178
 20
-27.63438130819749
 30
0.0
 10
-189.7012948620241
 20
-28.95403641706786
 30
0.0
 10
-187.4199218038974
 20
-30.53229206981453
 30
0.0
 10
-184.3166577102075
 20
-32.20196550127778
 30
0.0
 10
-181.3692522786554
 20
-33.2628562920487
 30
0.0
 10
-179.3602673122164
 20
-33.78626846860184
 30
0.0
 10
-178.4144662103838
 20
-33.99973221619243
 30
0.0
 10
-177.4418266284666
 20
-34.18530145663862
 30
0.0
 10
-176.4430129005232
 20
-34.34082641659317
 30
0.0
 10
-175.4188752181963
 20
-34.46440590309102
 30
0.0
 10
-174.3703904072422
 20
-34.55298425171091
 30
0.0
 10
-173.2986509325803
 20
-34.60789316440715
 30
0.0
 10
-172.5765000743631
 20
-34.61163572927043
 30
0.0
 10
-172.211955663931
 20
-34.61352498978443
 30
0.0
  0
SPLINE
  5
7C
330
1F
100
AcDbEntity
  8
0
  6
Continuous
 62
     7
370
    25
100
AcDbSpline
210
0.0
220
0.0
230
1.0
 70
     8
 71
     3
 72
    24
 73
    20
 74
     0
 42
0.000000001
 43
0.00000001
 40
0.0
 40
0.0
 40
0.0
 40
0.0
 40
0.0460752301140621
 40
0.0920393874165581
 40
0.1378937352633224
 40
0.1836395461080585
 40
0.2292781014829543
 40
0.2748106919765268
 40
0.3202386172086382
 40
0.3655631858026379
 40
0.4107857153545878
 40
0.4559075323995249
 40
0.5009299723747149
 40
0.5844136696456076
 40
0.6677635715789377
 40
0.7509883881462263
 40
0.834096868646868
 40
0.91709779917006
 40
0.9999999999999999
 40
0.9999999999999999
 40
0.9999999999999999
 40
0.9999999999999999
 10
-200.5146311197978
 20
-7.189480783758602
 30
0.0
 10
-200.5146288964834
 20
-7.359675538067011
 30
0.0
 10
-200.5146244552143
 20
-7.69965476094401
 30
0.0
 10
-200.5025423972867
 20
-8.20891448126563
 30
0.0
 10
-200.4816794417762
 20
-8.716660135425151
 30
0.0
 10
-200.4512301249858
 20
-9.222736029728035
 30
0.0
 10
-200.4114869907777
 20
-9.726981108104
 30
0.0
 10
-200.3624527301779
 20
-10.22923824787206
 30
0.0
 10
-200.3042106660687
 20
-10.72935176891091
 30
0.0
 10
-200.2368257509516
 20
-11.22716837041446
 30
0.0
 10
-200.1603709654743
 20
-11.72253610018192
 30
0.0
 10
-200.0749200655256
 20
-12.21530775451407
 30
0.0
 10
-199.9536092301091
 20
-12.84521929302419
 30
0.0
 10
-199.7852708768934
 20
-13.60977682411234
 30
0.0
 10
-199.5555922894447
 20
-14.50480781756546
 30
0.0
 10
-199.2957875385454
 20
-15.39016000362727
 30
0.0
 10
-199.0055281891355
 20
-16.26459200031868
 30
0.0
 10
-198.6878709784969
 20
-17.12832967590154
 30
0.0
 10
-198.4514193051864
 20
-17.69391798872083
 30
0.0
 10
-198.3332638252537
 20
-17.97654385306697
 30
0.0
  0
SPLINE
  5
7E
330
1F
100
AcDbEntity
  8
0
  6
Continuous
 62
     7
370
    25
100
AcDbSpline
210
0.0
220
0.0
230
1.0
 70
     8
 71
     3
 72
    47
 73
    43
 74
     0
 42
0.000000001
 43
0.00000001
 40
0.0
 40
0.0
 40
0.0
 40
0.0
 40
0.0126589206180595
 40
0.0252423388878604
 40
0.0377502790480905
 40
0.0501827657798356
 40
0.0625398242172301
 40
0.0748214799584329
 40
0.0870277590769267
 40
0.0991586881331608
 40
0.1112142941865448
 40
0.1231946048078124
 40
0.1350996480917609
 40
0.146929452670387
 40
0.1586840477264256
 40
0.1703634630073146
 40
0.1819677288395997
 40
0.1934968761437896
 40
0.2049509364496803
 40
0.2163299419121802
 40
0.2276339253276293
 40
0.2388629201506543
 40
0.2500169605115662
 40
0.3139218567325962
 40
0.3768324555121148
 40
0.4387558717115845
 40
0.4996995679901468
 40
0.5625868447451761
 40
0.625154192262642
 40
0.6874109008329211
 40
0.7493664005513123
 40
0.7719113331686475
 40
0.7945028823716328
 40
0.8171415110761286
 40
0.8398276793157681
 40
0.8625618442380196
 40
0.8853444601008742
 40
0.9081759782701426
 40
0.9310568472173533
 40
0.9539875125182409
 40
0.9769684168518158
 40
0.9999999999999999
 40
0.9999999999999999
 40
0.9999999999999999
 40
0.9999999999999999
 10
-150.1406614042519
 20
-25.12807312147175
 30
0.0
 10
-150.3229367542165
 20
-25.12512470997123
 30
0.0
 10
-150.6864002985053
 20
-25.11924547235512
 30
0.0
 10
-151.2296622218236
 20
-25.09703690387298
 30
0.0
 10
-151.7691929975845
 20
-25.06527217518219
 30
0.0
 10
-152.3047989169755
 20
-25.0231877156098
 30
0.0
 10
-152.836302301304
 20
-24.97123649649084
 30
0.0
 10
-153.3635300125895
 20
-24.90955097556224
 30
0.0
 10
-153.886316442796
 20
-24.83835096075103
 30
0.0
 10
-154.4045026522166
 20
-24.75783505089052
 30
0.0
 10
-154.9179365242229
 20
-24.66820920030262
 30
0.0
 10
-155.4264726444152
 20
-24.56967888360486
 30
0.0
 10
-155.9299722473198
 20
-24.46245093080848
 30
0.0
 10
-156.4283031403849
 20
-24.34673280164596
 30
0.0
 10
-156.9213396274037
 20
-24.22273254724176
 30
0.0
 10
-157.4089624335698
 20
-24.09065859274266
 30
0.0
 10
-157.8910586029855
 20
-23.95071958632989
 30
0.0
 10
-158.3675214833252
 20
-23.80312419240287
 30
0.0
 10
-158.8382503731332
 20
-23.64808107228628
 30
0.0
 10
-159.3031514020363
 20
-23.48579820835026
 30
0.0
 10
-159.7621338417313
 20
-23.31648467620662
 30
0.0
 10
-160.2151232891527
 20
-23.14034339621918
 30
0.0
 10
-161.3675040658385
 20
-22.66910096416966
 30
0.0
 10
-163.1672489673607
 20
-21.80789166324919
 30
0.0
 10
-165.5023514281663
 20
-20.39330219368821
 30
0.0
 10
-167.656874595781
 20
-18.78413163423172
 30
0.0
 10
-169.6490597180636
 20
-16.97641000480111
 30
0.0
 10
-171.4657899033944
 20
-14.97753780260977
 30
0.0
 10
-173.091377431966
 20
-12.79520938899929
 30
0.0
 10
-174.4913750805779
 20
-10.4767753293749
 30
0.0
 10
-175.4110131524938
 20
-8.55683203981349
 30
0.0
 10
-175.9878087724356
 20
-7.117041791938148
 30
0.0
 10
-176.3207140836153
 20
-6.193534873245192
 30
0.0
 10
-176.6215887880082
 20
-5.256994720153014
 30
0.0
 10
-176.8898791583536
 20
-4.30848829489024
 30
0.0
 10
-177.1250436186632
 20
-3.349139637976954
 30
0.0
 10
-177.3266023853745
 20
-2.380089170427369
 30
0.0
 10
-177.4940337145762
 20
-1.402502642081398
 30
0.0
 10
-177.6271473569399
 20
-0.4175688986721576
 30
0.0
 10
-177.7246971713443
 20
0.5735077730772454
 30
0.0
 10
-177.7895795831844
 20
1.569482611261431
 30
0.0
 10
-177.8027613796936
 20
2.235204348118372
 30
0.0
 10
-177.8093595372583
 20
2.56843183428835
 30
0.0
  0
SPLINE
  5
80
330
1F
100
AcDbEntity
  8
0
  6
Continuous
 62
     7
370
    25
100
AcDbSpline
210
0.0
220
0.0
230
1.0
 70
     8
 71
     3
 72
    24
 73
    20
 74
     0
 42
0.000000001
 43
0.00000001
 40
0.0
 40
0.0
 40
0.0
 40
0.0
 40
0.0452077760394406
 40
0.0904440241615857
 40
0.135710179287044
 40
0.1810076734942766
 40
0.226337935891531
 40
0.2717023924901872
 40
0.3171024660795095
 40
0.3625395761028951
 40
0.408015138535648
 40
0.4535305657643313
 40
0.4990872664677411
 40
0.5816989154452855
 40
0.6646493068516559
 40
0.7479466021850018
 40
0.8315988614035575
 40
0.9156140423023514
 40
0.9999999999999999
 40
0.9999999999999999
 40
0.9999999999999999
 40
0.9999999999999999
 10
198.3332638252538
 20
-17.97654385306689
 30
0.0
 10
198.3983857407284
 20
-17.82272665627539
 30
0.0
 10
198.5286705857846
 20
-17.51499538785509
 30
0.0
 10
198.7131496842881
 20
-17.04870801967758
 30
0.0
 10
198.8895970461689
 20
-16.57899300787547
 30
0.0
 10
199.0571547941322
 20
-16.10565759642128
 30
0.0
 10
199.2159644733065
 20
-15.6289390082929
 30
0.0
 10
199.3659026726368
 20
-15.14896098650918
 30
0.0
 10
199.506920183623
 20
-14.66587956204958
 30
0.0
 10
199.6389511390807
 20
-14.17984369830663
 30
0.0
 10
199.7619371524489
 20
-13.69100653865492
 30
0.0
 10
199.87582190343
 20
-13.19951954157528
 30
0.0
 10
200.0089100977509
 20
-12.57177008569473
 30
0.0
 10
200.1505081658007
 20
-11.80460522537923
 30
0.0
 10
200.2864942252535
 20
-10.89518410443929
 30
0.0
 10
200.391993888611
 20
-9.977855255294529
 30
0.0
 10
200.4658092612999
 20
-9.053576760091685
 30
0.0
 10
200.51043090569
 20
-8.123297535514158
 30
0.0
 10
200.5132289948666
 20
-7.501209594549283
 30
0.0
 10
200.5146311197979
 20
-7.189480783758522
 30
0.0
  0
SPLINE
  5
81
330
1F
100
AcDbEntity
  8
0
  6
Continuous
 62
     7
370
    25
100
AcDbSpline
210
0.0
220
0.0
230
1.0
 70
     8
 71
     3
 72
    37
 73
    33
 74
     0
 42
0.000000001
 43
0.00000001
 40
0.0
 40
0.0
 40
0.0
 40
0.0
 40
0.0167592276124886
 40
0.0333597003383487
 40
0.0498015131154562
 40
0.066084763660675
 40
0.0822095525773835
 40
0.0981759834681647
 40
0.1139841630529527
 40
0.1296342012929411
 40
0.1451262115206002
 40
0.1604603105761479
 40
0.1756366189508667
 40
0.1906552609376542
 40
0.2055163647892624
 40
0.220220062884681
 40
0.2347664919041555
 40
0.2491557930133789
 40
0.3805723218461456
 40
0.5055501171585737
 40
0.5702283162238875
 40
0.6339983251898419
 40
0.696886480499165
 40
0.7589202422675438
 40
0.7892943372441399
 40
0.819592981961522
 40
0.8498197102441618
 40
0.8799780811972643
 40
0.9100716781796426
 40
0.9401041077360697
 40
0.9700789984902848
 40
1.0
 40
1.0
 40
1.0
 40
1.0
 10
172.2119556639311
 20
-34.6135249897844
 30
0.0
 10
172.3950824544944
 20
-34.61353300046197
 30
0.0
 10
172.7596013331903
 20
-34.61354894593449
 30
0.0
 10
173.303681754382
 20
-34.6009650151584
 30
0.0
 10
173.8422661874951
 20
-34.57944390505945
 30
0.0
 10
174.375198373342
 20
-34.54835689118097
 30
0.0
 10
174.9023236507829
 20
-34.50821118890858
 30
0.0
 10
175.4234985625296
 20
-34.45921398191403
 30
0.0
 10
175.9385881004844
 20
-34.40165130948732
 30
0.0
 10
176.4474662067052
 20
-34.33578770011781
 30
0.0
 10
176.9500154193584
 20
-34.26189235941504
 30
0.0
 10
177.4461267032925
 20
-34.18023197544969
 30
0.0
 10
177.9356993613591
 20
-34.09107229324
 30
0.0
 10
178.4186404294748
 20
-33.99467759537384
 30
0.0
 10
178.8948660095999
 20
-33.89130998644659
 30
0.0
 10
179.3642954583501
 20
-33.78123154075379
 30
0.0
 10
179.826871810925
 20
-33.66469542806065
 30
0.0
 10
181.5192980805688
 20
-33.20884755055062
 30
0.0
 10
184.3166742294973
 20
-32.20196196031343
 30
0.0
 10
187.4198411986348
 20
-30.53234021003077
 30
0.0
 10
189.7012286477017
 20
-28.95408487690294
 30
0.0
 10
191.3283622782355
 20
-27.6344646124767
 30
0.0
 10
192.8298655064056
 20
-26.2152704298774
 30
0.0
 10
193.9744282808797
 20
-24.95731250386095
 30
0.0
 10
194.8209771293503
 20
-23.91502026708002
 30
0.0
 10
195.4192246097578
 20
-23.12022373061312
 30
0.0
 10
195.9864162549935
 20
-22.30583252436377
 30
0.0
 10
196.5219532086069
 20
-21.47293185479546
 30
0.0
 10
197.0255392041454
 20
-20.62275514343796
 30
0.0
 10
197.4958916287598
 20
-19.75609905155193
 30
0.0
 10
197.9356120905689
 20
-18.87542281510766
 30
0.0
 10
198.2007927760563
 20
-18.27599040092964
 30
0.0
 10
198.3332638252538
 20
-17.97654385306689
 30
0.0
  0
SPLINE
  5
83
330
1F
100
AcDbEntity
  8
0
  6
Continuous
 62
     7
370
    25
100
AcDbSpline
210
0.0
220
0.0
230
1.0
 70
     8
 71
     3
 72
    46
 73
    42
 74
     0
 42
0.000000001
 43
0.00000001
 40
0.0
 40
0.0
 40
0.0
 40
0.0
 40
0.012644881779386
 40
0.025274435159675
 40
0.0378887324784519
 40
0.0504878463360809
 40
0.0630718495957264
 40
0.0756408153833504
 40
0.0881948170876973
 40
0.1007339283602607
 40
0.1132582231152412
 40
0.1257677755294796
 40
0.1382626600423805
 40
0.1507429513558168
 40
0.1632087244340204
 40
0.1756600545034532
 40
0.1880970170526644
 40
0.2005196878321302
 40
0.212928142854075
 40
0.2253224583922796
 40
0.2377027109818656
 40
0.2500689774190706
 40
0.3120372913674918
 40
0.37430674113069
 40
0.4368867649876908
 40
0.499786661348572
 40
0.5607236171498305
 40
0.6226395851808699
 40
0.6855420314449191
 40
0.7494380741954783
 40
0.7708414788850134
 40
0.7925192258254059
 40
0.8144715472867131
 40
0.8366986668865315
 40
0.8592008000052688
 40
0.8819781541771613
 40
0.9050309294586962
 40
0.928359318775941
 40
0.9519635082522143
 40
0.9758436775173835
 40
1.0
 40
1.0
 40
1.0
 40
1.0
 10
177.8093595372583
 20
2.568431834288444
 30
0.0
 10
177.8065879985816
 20
2.385484643655601
 30
0.0
 10
177.8010482809474
 20
2.01981203493003
 30
0.0
 10
177.7791188050122
 20
1.471917077712475
 30
0.0
 10
177.7472741938636
 20
0.9251588511953145
 30
0.0
 10
177.7045853901926
 20
0.3797486303663139
 30
0.0
 10
177.6513662137781
 20
-0.1641102493387739
 30
0.0
 10
177.5876028492841
 20
-0.7062144222543463
 30
0.0
 10
177.5133738390897
 20
-1.246362714283009
 30
0.0
 10
177.4287376833936
 20
-1.784355637012309
 30
0.0
 10
177.3337628364868
 20
-2.31999560963354
 30
0.0
 10
177.2285196151963
 20
-2.853086984251497
 30
0.0
 10
177.1130822931463
 20
-3.383436122421562
 30
0.0
 10
176.9875284703179
 20
-3.910851454361306
 30
0.0
 10
176.8519391665322
 20
-4.435143547525225
 30
0.0
 10
176.706398733763
 20
-4.956125146211223
 30
0.0
 10
176.550994765024
 20
-5.473611308592061
 30
0.0
 10
176.3858181922478
 20
-5.98741917460812
 30
0.0
 10
176.2109626278926
 20
-6.497369101740813
 30
0.0
 10
176.0265265333038
 20
-7.003280697424147
 30
0.0
 10
175.8326048484744
 20
-7.50498785768482
 30
0.0
 10
175.3574470121155
 20
-8.66736441181043
 30
0.0
 10
174.5029672109359
 20
-10.45532095148823
 30
0.0
 10
173.1046928527852
 20
-12.77541052626932
 30
0.0
 10
171.4806041790004
 20
-14.9595655145522
 30
0.0
 10
169.6653310128986
 20
-16.9601365007148
 30
0.0
 10
167.6746305277707
 20
-18.76947958546561
 30
0.0
 10
165.5216974061588
 20
-20.38024295743807
 30
0.0
 10
163.1880420303419
 20
-21.79663077658348
 30
0.0
 10
161.255694278099
 20
-22.72331773511018
 30
0.0
 10
159.8228092439335
 20
-23.29744739070169
 30
0.0
 10
158.9406813837718
 20
-23.61719686805148
 30
0.0
 10
158.037163597316
 20
-23.91058629280289
 30
0.0
 10
157.112903507092
 20
-24.17617063492824
 30
0.0
 10
156.1686624418619
 20
-24.41248037582348
 30
0.0
 10
155.2052776894697
 20
-24.6180735716752
 30
0.0
 10
154.2236748540361
 20
-24.79143381642514
 30
0.0
 10
153.2248696641336
 20
-24.93135870259389
 30
0.0
 10
152.2099597103966
 20
-25.03551230864089
 30
0.0
 10
151.1801669354017
 20
-25.10594563997354
 30
0.0
 10
150.4884886928901
 20
-25.12066908016239
 30
0.0
 10
150.140661404252
 20
-25.12807312147171
 30
0.0
  0
SPLINE
  5
86
330
1F
100
AcDbEntity
  8
0
  6
Continuous
 62
     7
370
    25
100
AcDbSpline
210
0.0
220
0.0
230
1.0
 70
     8
 71
     3
 72
    22
 73
    18
 74
     0
 42
0.000000001
 43
0.00000001
 40
0.0
 40
0.0
 40
0.0
 40
0.0
 40
0.125
 40
0.125
 40
0.25
 40
0.25
 40
0.375
 40
0.375
 40
0.5
 40
0.5
 40
0.625
 40
0.625
 40
0.75
 40
0.75
 40
0.875
 40
0.875
 40
1.0
 40
1.0
 40
1.0
 40
1.0
 10
-172.211955663931
 20
-41.57927097558134
 30
0.0
 10
-173.8441131993621
 20
-41.57927097558134
 30
0.0
 10
-175.5072003209619
 20
-41.46985537242342
 30
0.0
 10
-178.8482593569036
 20
-41.01087483008903
 30
0.0
 10
-180.5260915550033
 20
-40.66118924876618
 30
0.0
 10
-183.8421835862432
 20
-39.71313268900294
 30
0.0
 10
-185.4802518765941
 20
-39.11470333207657
 30
0.0
 10
-188.6600742082229
 20
-37.67651800175948
 30
0.0
 10
-190.2016215463776
 20
-36.83678944586205
 30
0.0
 10
-193.1355077389045
 20
-34.93979683397432
 30
0.0
 10
-194.527670938078
 20
-33.88264635315107
 30
0.0
 10
-197.1196585307035
 20
-31.58889388321543
 30
0.0
 10
-198.3193772970147
 20
-30.35246642316304
 30
0.0
 10
-200.4974649206165
 20
-27.74809540745791
 30
0.0
 10
-201.4758156158854
 20
-26.38034582126225
 30
0.0
 10
-203.1981750176117
 20
-23.56542044603976
 30
0.0
 10
-203.9422447465004
 20
-22.11841618101651
 30
0.0
 10
-204.570308161193
 20
-20.65700215120859
 30
0.0
  0
SPLINE
  5
89
330
1F
100
AcDbEntity
  8
0
  6
Continuous
 62
     7
370
    25
100
AcDbSpline
210
0.0
220
0.0
230
1.0
 70
     8
 71
     3
 72
    10
 73
     6
 74
     0
 42
0.000000001
 43
0.00000001
 40
0.0
 40
0.0
 40
0.0
 40
0.0
 40
0.5000000000000002
 40
0.5000000000000002
 40
1.0
 40
1.0
 40
1.0
 40
1.0
 10
-204.570308161193
 20
-20.65700215120859
 30
0.0
 10
-205.4739543736718
 20
-18.5543462377994
 30
0.0
 10
-206.1717226153393
 20
-16.3387744984245
 30
0.0
 10
-207.1023144713787
 20
-11.80556185677065
 30
0.0
 10
-207.3349624353887
 20
-9.488776603976158
 30
0.0
 10
-207.334962435389
 20
-7.18948078375858
 30
0.0
  0
SPLINE
  5
8C
330
1F
100
AcDbEntity
  8
0
  6
Continuous
 62
     7
370
    25
100
AcDbSpline
210
0.0
220
0.0
230
1.0
 70
     8
 71
     3
 72
    22
 73
    18
 74
     0
 42
0.000000001
 43
0.00000001
 40
0.0
 40
0.0
 40
0.0
 40
0.0
 40
0.125
 40
0.125
 40
0.25
 40
0.25
 40
0.375
 40
0.375
 40
0.5
 40
0.5
 40
0.625
 40
0.625
 40
0.75
 40
0.75
 40
0.875
 40
0.875
 40
1.0
 40
1.0
 40
1.0
 40
1.0
 10
204.570308161193
 20
-20.65700215120859
 30
0.0
 10
203.9422447465004
 20
-22.1184161810165
 30
0.0
 10
203.1981750176118
 20
-23.56542044603978
 30
0.0
 10
201.4758156158854
 20
-26.38034582126227
 30
0.0
 10
200.4974649206166
 20
-27.74809540745791
 30
0.0
 10
198.3193772970147
 20
-30.35246642316304
 30
0.0
 10
197.1196585307036
 20
-31.58889388321542
 30
0.0
 10
194.527670938078
 20
-33.88264635315105
 30
0.0
 10
193.1355077389045
 20
-34.93979683397432
 30
0.0
 10
190.2016215463775
 20
-36.83678944586204
 30
0.0
 10
188.6600742082229
 20
-37.67651800175946
 30
0.0
 10
185.4802518765939
 20
-39.11470333207655
 30
0.0
 10
183.8421835862432
 20
-39.71313268900295
 30
0.0
 10
180.5260915550032
 20
-40.66118924876618
 30
0.0
 10
178.8482593569036
 20
-41.01087483008903
 30
0.0
 10
175.5072003209618
 20
-41.46985537242342
 30
0.0
 10
173.8441131993621
 20
-41.57927097558134
 30
0.0
 10
172.211955663931
 20
-41.57927097558134
 30
0.0
  0
SPLINE
  5
8E
330
1F
100
AcDbEntity
  8
0
  6
Continuous
 62
     7
370
    25
100
AcDbSpline
210
0.0
220
0.0
230
1.0
 70
     8
 71
     3
 72
    10
 73
     6
 74
     0
 42
0.000000001
 43
0.00000001
 40
0.0
 40
0.0
 40
0.0
 40
0.0
 40
0.4999999999999998
 40
0.4999999999999998
 40
1.0
 40
1.0
 40
1.0
 40
1.0
 10
207.334962435389
 20
-7.18948078375856
 30
0.0
 10
207.3349624353887
 20
-9.488776603976131
 30
0.0
 10
207.1023144713788
 20
-11.80556185677063
 30
0.0
 10
206.1717226153391
 20
-16.33877449842448
 30
0.0
 10
205.4739543736718
 20
-18.5543462377994
 30
0.0
 10
204.570308161193
 20
-20.65700215120859
 30
0.0
  0
SPLINE
  5
8F
330
1F
100
AcDbEntity
  8
0
  6
Continuous
 62
     7
370
    25
100
AcDbSpline
210
0.0
220
0.0
230
1.0
 70
     8
 71
     3
 72
    10
 73
     6
 74
     0
 42
0.000000001
 43
0.00000001
 40
0.0
 40
0.0
 40
0.0
 40
0.0
 40
0.5
 40
0.5
 40
1.0
 40
1.0
 40
1.0
 40
1.0
 10
245.1521979503805
 20
196.524068488327
 30
0.0
 10
244.7500256363598
 20
196.9262408023473
 30
0.0
 10
244.2518391881147
 20
197.2635954396387
 30
0.0
 10
243.1570273956614
 20
197.7150799882773
 30
0.0
 10
242.5634544722476
 20
197.827951125437
 30
0.0
 10
241.9903929863175
 20
197.827951125437
 30
0.0
  0
SPLINE
  5
91
330
1F
100
AcDbEntity
  8
0
  6
Continuous
 62
     7
370
    25
100
AcDbSpline
210
0.0
220
0.0
230
1.0
 70
     8
 71
     3
 72
    30
 73
    26
 74
     0
 42
0.000000001
 43
0.00000001
 40
0.0
 40
0.0
 40
0.0
 40
0.0
 40
0.0457681519969385
 40
0.0913258655042537
 40
0.1366734417921601
 40
0.1818111863435938
 40
0.2267394089267367
 40
0.2714584236689209
 40
0.3159685491319456
 40
0.3602701083889303
 40
0.4043634291025725
 40
0.4482488436049786
 40
0.49192668897903
 40
0.535397307141343
 40
0.578661044926789
 40
0.6217182541747334
 40
0.6645692918168823
 40
0.7072145199668672
 40
0.7496543060115625
 40
0.791889022704143
 40
0.8339190482590044
 40
0.8757447664484556
 40
0.9173665667013137
 40
0.9587848442034124
 40
1.0
 40
1.0
 40
1.0
 40
1.0
 10
241.9903929863179
 20
201.797451215369
 30
0.0
 10
242.0911625047248
 20
201.7957018818536
 30
0.0
 10
242.2922382109403
 20
201.7922112581255
 30
0.0
 10
242.5927226971949
 20
201.7734424181255
 30
0.0
 10
242.8910313429293
 20
201.744964869762
 30
0.0
 10
243.1868049161275
 20
201.7059867534917
 30
0.0
 10
243.4797003406441
 20
201.6569553860498
 30
0.0
 10
243.7693845804028
 20
201.5980016281407
 30
0.0
 10
244.05553657151
 20
201.5293530471274
 30
0.0
 10
244.3378469758739
 20
201.4512232031982
 30
0.0
 10
244.6160184782305
 20
201.3638403348978
 30
0.0
 10
244.8897659033848
 20
201.2674389586294
 30
0.0
 10
245.1588163462432
 20
201.1622613416348
 30
0.0
 10
245.4229092671594
 20
201.048556357956
 30
0.0
 10
245.6817965557563
 20
200.9265790414604
 30
0.0
 10
245.935242602137
 20
200.7965899940894
 30
0.0
 10
246.1830242226125
 20
200.6588547308403
 30
0.0
 10
246.4249310136311
 20
200.5136434727557
 30
0.0
 10
246.6607640113833
 20
200.3612292819138
 30
0.0
 10
246.8903405256452
 20
200.2018924021972
 30
0.0
 10
247.1134759984282
 20
200.0359016580194
 30
0.0
 10
247.3300508896768
 20
199.8635809100962
 30
0.0
 10
247.5397624568038
 20
199.6850604441515
 30
0.0
 10
247.7430438532666
 20
199.5011956825608
 30
0.0
 10
247.8731062664868
 20
199.3735260573599
 30
0.0
 10
247.9379776195235
 20
199.3098481574701
 30
0.0
  0
SPLINE
  5
94
330
1F
100
AcDbEntity
  8
0
  6
Continuous
 62
     7
370
    25
100
AcDbSpline
210
0.0
220
0.0
230
1.0
 70
     8
 71
     3
 72
    10
 73
     6
 74
     0
 42
0.000000001
 43
0.00000001
 40
0.0
 40
0.0
 40
0.0
 40
0.0
 40
0.5
 40
0.5
 40
1.0
 40
1.0
 40
1.0
 40
1.0
 10
-241.9903929863175
 20
197.827951125437
 30
0.0
 10
-242.5634544722476
 20
197.827951125437
 30
0.0
 10
-243.1570273956615
 20
197.7150799882774
 30
0.0
 10
-244.2518391881146
 20
197.2635954396386
 30
0.0
 10
-244.7500256363598
 20
196.9262408023471
 30
0.0
 10
-245.1521979503805
 20
196.5240684883265
 30
0.0
  0
SPLINE
  5
96
330
1F
100
AcDbEntity
  8
0
  6
Continuous
 62
     7
370
    25
100
AcDbSpline
210
0.0
220
0.0
230
1.0
 70
     8
 71
     3
 72
    28
 73
    24
 74
     0
 42
0.000000001
 43
0.00000001
 40
0.0
 40
0.0
 40
0.0
 40
0.0
 40
0.0451510386562783
 40
0.0905457733650768
 40
0.1361847298515703
 40
0.1820684254375556
 40
0.2281973692021962
 40
0.2745720621393384
 40
0.321192997311652
 40
0.3680606600015149
 40
0.4151755278588136
 40
0.4625380710456075
 40
0.5101487523778336
 40
0.5580080274640422
 40
0.606116344841244
 40
0.6544741461079338
 40
0.7030818660543049
 40
0.7519399327898137
 40
0.8010487678680341
 40
0.8504087864089386
 40
0.9000203972186004
 40
0.9498840029064418
 40
1.0
 40
1.0
 40
1.0
 40
1.0
 10
-247.9379776195234
 20
199.30984815747
 30
0.0
 10
-247.8668489149668
 20
199.3795445114647
 30
0.0
 10
-247.7242075991919
 20
199.5193133952154
 30
0.0
 10
-247.5004368841819
 20
199.7197689940645
 30
0.0
 10
-247.2689835953774
 20
199.9137490701817
 30
0.0
 10
-247.0293465565981
 20
200.1001942670876
 30
0.0
 10
-246.7819116465663
 20
200.2789169473519
 30
0.0
 10
-246.5268474250244
 20
200.4494974419897
 30
0.0
 10
-246.2644036327625
 20
200.6115831884885
 30
0.0
 10
-245.994830724983
 20
200.7648089681369
 30
0.0
 10
-245.718401719872
 20
200.9088195102233
 30
0.0
 10
-245.4354063670169
 20
201.0432644771658
 30
0.0
 10
-245.1461527440443
 20
201.1678009186026
 30
0.0
 10
-244.8509667974755
 20
201.2820937852034
 30
0.0
 10
-244.5501923860953
 20
201.3858167812725
 30
0.0
 10
-244.2441911379391
 20
201.4786539175655
 30
0.0
 10
-243.9333422898895
 20
201.5602979825953
 30
0.0
 10
-243.6180425192037
 20
201.6304607994235
 30
0.0
 10
-243.2987055488855
 20
201.688839168917
 30
0.0
 10
-242.9757623880265
 20
201.7352475176457
 30
0.0
 10
-242.6496589494671
 20
201.7691236407837
 30
0.0
 10
-242.3208632931852
 20
201.7913920220448
 30
0.0
 10
-242.1007349880305
 20
201.7954280880069
 30
0.0
 10
-241.9903929863178
 20
201.7974512153689
 30
0.0
  0
SPLINE
  5
98
330
1F
100
AcDbEntity
  8
0
  6
Continuous
 62
     7
370
    25
100
AcDbSpline
210
0.0
220
0.0
230
1.0
 70
     8
 71
     3
 72
    10
 73
     6
 74
     0
 42
0.000000001
 43
0.00000001
 40
0.0
 40
0.0
 40
0.0
 40
0.0
 40
0.5
 40
0.5
 40
1.0
 40
1.0
 40
1.0
 40
1.0
 10
246.456080587491
 20
193.3622635242645
 30
0.0
 10
246.4560805874908
 20
193.9353250101943
 30
0.0
 10
246.3432094503311
 20
194.528897933608
 30
0.0
 10
245.8917249016923
 20
195.623709726061
 30
0.0
 10
245.554370264401
 20
196.1218961743063
 30
0.0
 10
245.1521979503805
 20
196.524068488327
 30
0.0
  0
SPLINE
  5
99
330
1F
100
AcDbEntity
  8
0
  6
Continuous
 62
     7
370
    25
100
AcDbSpline
210
0.0
220
0.0
230
1.0
 70
     8
 71
     3
 72
    28
 73
    24
 74
     0
 42
0.000000001
 43
0.00000001
 40
0.0
 40
0.0
 40
0.0
 40
0.0
 40
0.0451510386562017
 40
0.0905457733649261
 40
0.136184729851354
 40
0.182068425437282
 40
0.2281973692018792
 40
0.2745720621389801
 40
0.3211929973112576
 40
0.3680606600010969
 40
0.4151755278583815
 40
0.4625380710451659
 40
0.5101487523773861
 40
0.5580080274636102
 40
0.606116344840826
 40
0.6544741461075355
 40
0.703081866053941
 40
0.7519399327894888
 40
0.8010487678677582
 40
0.8504087864087193
 40
0.9000203972184475
 40
0.9498840029063529
 40
0.9999999999999999
 40
0.9999999999999999
 40
0.9999999999999999
 40
0.9999999999999999
 10
247.9379776195235
 20
199.3098481574701
 30
0.0
 10
248.0076739735181
 20
199.2387194529136
 30
0.0
 10
248.1474428572685
 20
199.0960781371387
 30
0.0
 10
248.3478984561174
 20
198.8723074221294
 30
0.0
 10
248.5418785322345
 20
198.6408541333252
 30
0.0
 10
248.72832372914
 20
198.4012170945461
 30
0.0
 10
248.9070464094042
 20
198.1537821845146
 30
0.0
 10
249.0776269040419
 20
197.8987179629731
 30
0.0
 10
249.2397126505406
 20
197.6362741707113
 30
0.0
 10
249.392938430189
 20
197.3667012629321
 30
0.0
 10
249.5369489722756
 20
197.0902722578212
 30
0.0
 10
249.671393939218
 20
196.8072769049661
 30
0.0
 10
249.7959303806549
 20
196.5180232819937
 30
0.0
 10
249.9102232472561
 20
196.2228373354249
 30
0.0
 10
250.013946243325
 20
195.9220629240445
 30
0.0
 10
250.1067833796183
 20
195.6160616758883
 30
0.0
 10
250.1884274446483
 20
195.3052128278384
 30
0.0
 10
250.2585902614767
 20
194.9899130571524
 30
0.0
 10
250.3169686309703
 20
194.670576086834
 30
0.0
 10
250.363376979699
 20
194.3476329259746
 30
0.0
 10
250.3972531028372
 20
194.0215294874149
 30
0.0
 10
250.4195214840984
 20
193.6927338311325
 30
0.0
 10
250.4235575500605
 20
193.4726055259774
 30
0.0
 10
250.4255806774224
 20
193.3622635242645
 30
0.0
  0
SPLINE
  5
9A
330
1F
100
AcDbEntity
  8
0
  6
Continuous
 62
     7
370
    25
100
AcDbSpline
210
0.0
220
0.0
230
1.0
 70
     8
 71
     3
 72
    10
 73
     6
 74
     0
 42
0.000000001
 43
0.00000001
 40
0.0
 40
0.0
 40
0.0
 40
0.0
 40
0.5
 40
0.5
 40
1.0
 40
1.0
 40
1.0
 40
1.0
 10
-245.1521979503805
 20
196.5240684883265
 30
0.0
 10
-245.5543702644009
 20
196.121896174306
 30
0.0
 10
-245.8917249016923
 20
195.623709726061
 30
0.0
 10
-246.343209450331
 20
194.5288979336078
 30
0.0
 10
-246.4560805874908
 20
193.935325010194
 30
0.0
 10
-246.456080587491
 20
193.362263524264
 30
0.0
  0
SPLINE
  5
9C
330
1F
100
AcDbEntity
  8
0
  6
Continuous
 62
     7
370
    25
100
AcDbSpline
210
0.0
220
0.0
230
1.0
 70
     8
 71
     3
 72
    30
 73
    26
 74
     0
 42
0.000000001
 43
0.00000001
 40
0.0
 40
0.0
 40
0.0
 40
0.0
 40
0.04576815199683
 40
0.0913258655040416
 40
0.1366734417918506
 40
0.1818111863432077
 40
0.2267394089262781
 40
0.2714584236683991
 40
0.3159685491313705
 40
0.3602701083883131
 40
0.4043634291019254
 40
0.4482488436043152
 40
0.4919266889783563
 40
0.5353973071406679
 40
0.5786610449261217
 40
0.6217182541740879
 40
0.6645692918162676
 40
0.7072145199662941
 40
0.7496543060110341
 40
0.7918890227036772
 40
0.8339190482586106
 40
0.8757447664481416
 40
0.9173665667010938
 40
0.9587848442032951
 40
0.9999999999999999
 40
0.9999999999999999
 40
0.9999999999999999
 40
0.9999999999999999
 10
-250.4255806774223
 20
193.3622635242645
 30
0.0
 10
-250.423831343907
 20
193.4630330426713
 30
0.0
 10
-250.420340720179
 20
193.6641087488862
 30
0.0
 10
-250.4015718801789
 20
193.9645932351401
 30
0.0
 10
-250.3730943318155
 20
194.2629018808739
 30
0.0
 10
-250.3341162155455
 20
194.5586754540716
 30
0.0
 10
-250.2850848481035
 20
194.8515708785878
 30
0.0
 10
-250.2261310901949
 20
195.1412551183462
 30
0.0
 10
-250.1574825091814
 20
195.4274071094528
 30
0.0
 10
-250.0793526652529
 20
195.7097175138168
 30
0.0
 10
-249.9919697969523
 20
195.9878890161729
 30
0.0
 10
-249.8955684206844
 20
196.2616364413273
 30
0.0
 10
-249.7903908036898
 20
196.5306868841856
 30
0.0
 10
-249.6766858200112
 20
196.7947798051019
 30
0.0
 10
-249.5547085035157
 20
197.0536670936989
 30
0.0
 10
-249.4247194561447
 20
197.3071131400797
 30
0.0
 10
-249.2869841928956
 20
197.5548947605555
 30
0.0
 10
-249.1417729348111
 20
197.7968015515744
 30
0.0
 10
-248.989358743969
 20
198.0326345493269
 30
0.0
 10
-248.8300218642524
 20
198.2622110635893
 30
0.0
 10
-248.6640311200743
 20
198.4853465363726
 30
0.0
 10
-248.4917103721508
 20
198.7019214276216
 30
0.0
 10
-248.3131899062059
 20
198.9116329947492
 30
0.0
 10
-248.1293251446145
 20
199.1149143912125
 30
0.0
 10
-248.0016555194134
 20
199.2449768044331
 30
0.0
 10
-247.9379776195234
 20
199.30984815747
 30
0.0
  0
SPLINE
  5
9D
330
1F
100
AcDbEntity
  8
0
  6
Continuous
 62
     7
370
    25
100
AcDbSpline
210
0.0
220
0.0
230
1.0
 70
     8
 71
     3
 72
    22
 73
    18
 74
     0
 42
0.000000001
 43
0.00000001
 40
0.0
 40
0.0
 40
0.0
 40
0.0
 40
0.125
 40
0.125
 40
0.25
 40
0.25
 40
0.375
 40
0.375
 40
0.5
 40
0.5
 40
0.625
 40
0.625
 40
0.75
 40
0.75
 40
0.875
 40
0.875
 40
1.0
 40
1.0
 40
1.0
 40
1.0
 10
-207.334962435389
 20
132.2113934110082
 30
0.0
 10
-207.3349624353889
 20
134.2728081134178
 30
0.0
 10
-207.1566587224798
 20
136.3970739696743
 30
0.0
 10
-206.3814368580925
 20
140.6736853322208
 30
0.0
 10
-205.7839225983459
 20
142.8255955358638
 30
0.0
 10
-204.1421074364792
 20
147.0322378974046
 30
0.0
 10
-203.0974734072505
 20
149.0861959643276
 30
0.0
 10
-200.5832679247984
 20
152.9626250827289
 30
0.0
 10
-199.1138457990011
 20
154.7842156362923
 30
0.0
 10
-195.8253991444459
 20
158.0784568538001
 30
0.0
 10
-194.0070127646026
 20
159.5504682443498
 30
0.0
 10
-190.1374022763729
 20
162.06910400148
 30
0.0
 10
-188.0870571171076
 20
163.1155787775053
 30
0.0
 10
-183.8878142300964
 20
164.7602869774265
 30
0.0
 10
-181.7396892317011
 20
165.3588541154336
 30
0.0
 10
-177.470600419001
 20
166.1354419961707
 30
0.0
 10
-175.3500711416467
 20
166.31405989757
 30
0.0
 10
-173.2922824631
 20
166.31405989757
 30
0.0
  0
SPLINE
  5
A1
330
1F
100
AcDbEntity
  8
0
  6
Continuous
 62
     7
370
    25
100
AcDbSpline
210
0.0
220
0.0
230
1.0
 70
     8
 71
     3
 72
    22
 73
    18
 74
     0
 42
0.000000001
 43
0.00000001
 40
0.0
 40
0.0
 40
0.0
 40
0.0
 40
0.125
 40
0.125
 40
0.25
 40
0.25
 40
0.375
 40
0.375
 40
0.5
 40
0.5
 40
0.625
 40
0.625
 40
0.75
 40
0.75
 40
0.875
 40
0.875
 40
1.0
 40
1.0
 40
1.0
 40
1.0
 10
173.2922824631
 20
166.31405989757
 30
0.0
 10
175.3500711416467
 20
166.31405989757
 30
0.0
 10
177.470600419001
 20
166.1354419961708
 30
0.0
 10
181.7396892317011
 20
165.3588541154336
 30
0.0
 10
183.8878142300964
 20
164.7602869774266
 30
0.0
 10
188.0870571171076
 20
163.1155787775053
 30
0.0
 10
190.1374022763729
 20
162.0691040014799
 30
0.0
 10
194.0070127646026
 20
159.5504682443497
 30
0.0
 10
195.825399144446
 20
158.0784568538001
 30
0.0
 10
199.1138457990011
 20
154.7842156362923
 30
0.0
 10
200.5832679247985
 20
152.9626250827289
 30
0.0
 10
203.0974734072505
 20
149.0861959643275
 30
0.0
 10
204.1421074364793
 20
147.0322378974046
 30
0.0
 10
205.783922598346
 20
142.8255955358637
 30
0.0
 10
206.3814368580925
 20
140.6736853322207
 30
0.0
 10
207.1566587224798
 20
136.3970739696741
 30
0.0
 10
207.3349624353889
 20
134.2728081134177
 30
0.0
 10
207.334962435389
 20
132.211393411008
 30
0.0
  0
LWPOLYLINE
  5
A7
330
1F
100
AcDbEntity
  8
0
  6
Continuous
 62
     7
370
    25
100
AcDbPolyline
 90
        9
 70
   128
 43
0.0
 10
250.4255806774
 20
-159.0913007406
 10
250.27210126
 20
-159.0913007443
 10
249.9940788352
 20
-159.0913007553
 10
249.6005871872
 20
-159.0913007731
 10
249.1044686557
 20
-159.0913007973
 10
248.5219150015
 20
-159.091300827
 10
247.8719389581
 20
-159.0913008613
 10
247.1757537154
 20
-159.091300899
 10
246.4560805875
 20
-159.0913007406
  0
LWPOLYLINE
  5
AA
330
1F
100
AcDbEntity
  8
0
  6
Continuous
 62
     7
370
    25
100
AcDbPolyline
 90
        9
 70
   128
 43
0.0
 10
-246.4560805875
 20
-159.0913007406
 10
-247.1757537154
 20
-159.0913007443
 10
-247.8719389581
 20
-159.0913007553
 10
-248.5219150015
 20
-159.0913007731
 10
-249.1044686557
 20
-159.0913007973
 10
-249.6005871872
 20
-159.091300827
 10
-249.9940788352
 20
-159.0913008613
 10
-250.27210126
 20
-159.091300899
 10
-250.4255806774
 20
-159.0913007406
  0
CIRCLE
  5
B3
330
1F
100
AcDbEntity
  8
0
  6
Continuous
 62
     7
370
    25
100
AcDbCircle
 10
0.0000008079
 20
-102.0913009668
 30
0.0
 40
17.49999999999996
  0
CIRCLE
  5
B5
330
1F
100
AcDbEntity
  8
0
  6
Continuous
 62
     7
370
    25
100
AcDbCircle
 10
100.0000008079
 20
-102.0913009668
 30
0.0
 40
17.49999999999997
  0
CIRCLE
  5
B6
330
1F
100
AcDbEntity
  8
0
  6
Continuous
 62
     7
370
    25
100
AcDbCircle
 10
-100.0000008079
 20
-102.0913009668
 30
0.0
 40
17.49999999999997
  0
SPLINE
  5
B7
330
1F
100
AcDbEntity
  8
0
  6
Continuous
 62
     7
370
    25
100
AcDbSpline
210
0.0
220
0.0
230
1.0
 70
     8
 71
     3
 72
    22
 73
    18
 74
     0
 42
0.000000001
 43
0.00000001
 40
0.0
 40
0.0
 40
0.0
 40
0.0
 40
0.1250000000000021
 40
0.1250000000000021
 40
0.2500000000000042
 40
0.2500000000000042
 40
0.3750000000000063
 40
0.3750000000000063
 40
0.5000000000000084
 40
0.5000000000000084
 40
0.6250000000000063
 40
0.6250000000000063
 40
0.7500000000000042
 40
0.7500000000000042
 40
0.8750000000000021
 40
0.8750000000000021
 40
1.0
 40
1.0
 40
1.0
 40
1.0
 10
-252.1014423846015
 20
195.0381252314435
 30
0.0
 10
-252.1014423846015
 20
195.5389347335569
 30
0.0
 10
-252.0572575045701
 20
196.0574528543198
 30
0.0
 10
-251.8643343567747
 20
197.1058205057208
 30
0.0
 10
-251.7154332220056
 20
197.6355631156353
 30
0.0
 10
-251.3056178754225
 20
198.6745596834878
 30
0.0
 10
-251.0446110737096
 20
199.1836086973936
 30
0.0
 10
-250.4162987633234
 20
200.1464201138965
 30
0.0
 10
-250.0490345298907
 20
200.5999419259528
 30
0.0
 10
-249.2280713880064
 20
201.4209050678372
 30
0.0
 10
-248.7745495759501
 20
201.7881693012699
 30
0.0
 10
-247.8117381594473
 20
202.416481611656
 30
0.0
 10
-247.3026891455415
 20
202.6774884133691
 30
0.0
 10
-246.263692577689
 20
203.0873037599521
 30
0.0
 10
-245.7339499677744
 20
203.2362048947212
 30
0.0
 10
-244.6855823163733
 20
203.4291280425166
 30
0.0
 10
-244.1670641956105
 20
203.4733129225481
 30
0.0
 10
-243.666254693497
 20
203.473312922548
 30
0.0
  0
SPLINE
  5
BA
330
1F
100
AcDbEntity
  8
0
  6
Continuous
 62
     7
370
    25
100
AcDbSpline
210
0.0
220
0.0
230
1.0
 70
     8
 71
     3
 72
    22
 73
    18
 74
     0
 42
0.000000001
 43
0.00000001
 40
0.0
 40
0.0
 40
0.0
 40
0.0
 40
0.125
 40
0.125
 40
0.25
 40
0.25
 40
0.375
 40
0.375
 40
0.5
 40
0.5
 40
0.625
 40
0.625
 40
0.75
 40
0.75
 40
0.875
 40
0.875
 40
1.0
 40
1.0
 40
1.0
 40
1.0
 10
243.666254693497
 20
203.473312922548
 30
0.0
 10
244.1670641956104
 20
203.4733129225479
 30
0.0
 10
244.6855823163732
 20
203.4291280425166
 30
0.0
 10
245.7339499677741
 20
203.236204894721
 30
0.0
 10
246.2636925776888
 20
203.0873037599519
 30
0.0
 10
247.3026891455413
 20
202.6774884133689
 30
0.0
 10
247.811738159447
 20
202.4164816116558
 30
0.0
 10
248.7745495759499
 20
201.7881693012697
 30
0.0
 10
249.2280713880062
 20
201.420905067837
 30
0.0
 10
250.0490345298905
 20
200.5999419259526
 30
0.0
 10
250.4162987633232
 20
200.1464201138964
 30
0.0
 10
251.0446110737093
 20
199.1836086973935
 30
0.0
 10
251.3056178754225
 20
198.6745596834877
 30
0.0
 10
251.7154332220056
 20
197.6355631156353
 30
0.0
 10
251.8643343567746
 20
197.1058205057207
 30
0.0
 10
252.0572575045699
 20
196.0574528543197
 30
0.0
 10
252.1014423846016
 20
195.5389347335569
 30
0.0
 10
252.1014423846015
 20
195.0381252314435
 30
0.0
  0
SPLINE
  5
C2
330
1F
100
AcDbEntity
  8
0
  6
Continuous
 62
     7
370
    25
100
AcDbSpline
210
0.0
220
0.0
230
1.0
 70
     8
 71
     3
 72
    14
 73
    10
 74
     0
 42
0.000000001
 43
0.00000001
 40
0.0
 40
0.0
 40
0.0
 40
0.0
 40
0.25
 40
0.25
 40
0.5
 40
0.5
 40
0.75
 40
0.75
 40
1.0
 40
1.0
 40
1.0
 40
1.0
 10
-0.0001921353846829
 20
135.1239510077066
 30
0.0
 10
12.54552356436572
 20
135.1239893004262
 30
0.0
 10
25.08907747581376
 20
135.1464981496156
 30
0.0
 10
50.1724592430237
 20
135.2302460697322
 30
0.0
 10
62.71233582335142
 20
135.290978676614
 30
0.0
 10
87.78971280005939
 20
135.4371429660034
 30
0.0
 10
100.3272235722301
 20
135.5224667980921
 30
0.0
 10
125.4009990035234
 20
135.7060670960292
 30
0.0
 10
137.937285867396
 20
135.8041127561776
 30
0.0
 10
150.4732179400755
 20
135.9058462682334
 30
0.0
  0
SPLINE
  5
C3
330
1F
100
AcDbEntity
  8
0
  6
Continuous
 62
     7
370
    25
100
AcDbSpline
210
0.0
220
0.0
230
1.0
 70
     8
 71
     3
 72
    14
 73
    10
 74
     0
 42
0.000000001
 43
0.00000001
 40
0.0
 40
0.0
 40
0.0
 40
0.0
 40
0.2500000000000002
 40
0.2500000000000002
 40
0.5000000000000001
 40
0.5000000000000001
 40
0.7500000000000001
 40
0.7500000000000001
 40
1.0
 40
1.0
 40
1.0
 40
1.0
 10
-150.4732179400755
 20
135.9058462682334
 30
0.0
 10
-137.9373178739614
 20
135.8041130159221
 30
0.0
 10
-125.401063017379
 20
135.7060675985748
 30
0.0
 10
-100.3273516057226
 20
135.5224677017946
 30
0.0
 10
-87.7898728461272
 20
135.4371440251008
 30
0.0
 10
-62.71255990684386
 20
135.29097985643
 30
0.0
 10
-50.17271535149776
 20
135.230247213223
 30
0.0
 10
-25.0893976529121
 20
135.146498930223
 30
0.0
 10
-12.54587578502801
 20
135.123989754001
 30
0.0
 10
-0.0001921353846829
 20
135.1239510077066
 30
0.0
  0
SPLINE
  5
C4
330
1F
100
AcDbEntity
  8
0
  6
Continuous
 62
     7
370
    25
100
AcDbSpline
210
0.0
220
0.0
230
1.0
 70
     8
 71
     3
 72
    12
 73
     8
 74
     0
 42
0.000000001
 43
0.00000001
 40
0.0
 40
0.0
 40
0.0
 40
0.0
 40
0.2499999999999999
 40
0.2499999999999999
 40
0.4999999999999999
 40
0.4999999999999999
 40
1.0
 40
1.0
 40
1.0
 40
1.0
 10
-177.809359537258
 20
2.568431834288398
 30
0.0
 10
-177.76924085307
 20
11.41434943920316
 30
0.0
 10
-177.7509111198675
 20
20.26040453905059
 30
0.0
 10
-177.7307144682965
 20
37.95261862413289
 30
0.0
 10
-177.729212614485
 20
46.7987799130366
 30
0.0
 10
-177.7382025845595
 20
73.3373489406715
 30
0.0
 10
-177.763075971579
 20
91.03006172150297
 30
0.0
 10
-177.80272111877
 20
108.722335247503
 30
0.0
  0
SPLINE
  5
C5
330
1F
100
AcDbEntity
  8
0
  6
Continuous
 62
     7
370
    25
100
AcDbSpline
210
0.0
220
0.0
230
1.0
 70
     8
 71
     3
 72
    12
 73
     8
 74
     0
 42
0.000000001
 43
0.00000001
 40
0.0
 40
0.0
 40
0.0
 40
0.0
 40
0.5
 40
0.5
 40
0.75
 40
0.75
 40
1.0
 40
1.0
 40
1.0
 40
1.0
 10
177.80272111877
 20
108.722335247503
 30
0.0
 10
177.763075971579
 20
91.03006172150299
 30
0.0
 10
177.7382025845595
 20
73.33734894067153
 30
0.0
 10
177.729212614485
 20
46.7987799130367
 30
0.0
 10
177.7307144682966
 20
37.952618624133
 30
0.0
 10
177.7509111198676
 20
20.26040453905065
 30
0.0
 10
177.7692408530695
 20
11.41434943920322
 30
0.0
 10
177.8093595372585
 20
2.568431834288419
 30
0.0
  0
LWPOLYLINE
  5
C6
330
1F
100
AcDbEntity
  8
0
  6
Continuous
 62
     7
370
    25
100
AcDbPolyline
 90
       36
 70
   128
 43
0.0
 10
0.0
 20
-32.9304134982
 10
1.9641258428
 20
-32.9129468551
 10
3.8651230649
 20
-32.8611083181
 10
5.6418920515
 20
-32.7765640204
 10
7.2373259853
 20
-32.6620312854
 10
8.6001463071
 20
-32.5211912893
 10
9.6865508504
 20
-32.3585707456
 10
10.4616216792
 20
-32.1793964123
 10
10.9004473794
 20
-31.9894270998
 10
10.988923732
 20
-31.7947685783
 10
10.724207034
 20
-31.6016773327
 10
10.1148054981
 20
-31.4163594746
 10
9.1803057909
 20
-31.2447712724
 10
7.9507435021
 20
-31.0924277122
 10
6.4656377752
 20
-30.9642252412
 10
4.7727211303
 20
-30.8642843923
 10
2.9264053012
 20
-30.7958173468
 10
0.9860323979
 20
-30.7610246918
 10
-0.9860323979
 20
-30.7610246918
 10
-2.9264053012
 20
-30.7958173468
 10
-4.7727211303
 20
-30.8642843923
 10
-6.4656377752
 20
-30.9642252412
 10
-7.9507435021
 20
-31.0924277122
 10
-9.1803057909
 20
-31.2447712724
 10
-10.1148054981
 20
-31.4163594746
 10
-10.724207034
 20
-31.6016773327
 10
-10.988923732
 20
-31.7947685783
 10
-10.9004473794
 20
-31.9894270998
 10
-10.4616216792
 20
-32.1793964123
 10
-9.6865508504
 20
-32.3585707456
 10
-8.6001463071
 20
-32.5211912893
 10
-7.2373259853
 20
-32.6620312854
 10
-5.6418920515
 20
-32.7765640204
 10
-3.8651230649
 20
-32.8611083181
 10
-1.9641258428
 20
-32.9129468551
 10
0.0
 20
-32.9304134982
  0
SPLINE
  5
C7
330
1F
100
AcDbEntity
  8
0
  6
Continuous
 62
     7
370
    25
100
AcDbSpline
210
0.0
220
0.0
230
1.0
 70
     8
 71
     3
 72
    18
 73
    14
 74
     0
 42
0.000000001
 43
0.00000001
 40
0.0
 40
0.0
 40
0.0
 40
0.0
 40
0.2500000000000001
 40
0.2500000000000001
 40
0.4999999999999999
 40
0.4999999999999999
 40
0.6249999999999998
 40
0.6249999999999998
 40
0.7499999999999999
 40
0.7499999999999999
 40
0.8749999999999999
 40
0.8749999999999999
 40
1.0
 40
1.0
 40
1.0
 40
1.0
 10
150.140661404252
 20
-25.12807312147175
 30
0.0
 10
137.6299301144653
 20
-25.09417001492231
 30
0.0
 10
125.1189652517144
 20
-25.06140665376415
 30
0.0
 10
100.0968443830493
 20
-24.99681263588739
 30
0.0
 10
87.58570352863299
 20
-24.9649080457405
 30
0.0
 10
68.81943750312777
 20
-24.91487848350095
 30
0.0
 10
62.56409826140367
 20
-24.8977980930086
 30
0.0
 10
50.05358247905026
 20
-24.8628433938408
 30
0.0
 10
43.79843725534916
 20
-24.84481627071244
 30
0.0
 10
31.28795503836511
 20
-24.80969778557206
 30
0.0
 10
25.03267202643144
 20
-24.7923430155309
 30
0.0
 10
12.52019090923067
 20
-24.76697838749394
 30
0.0
 10
6.262957210388732
 20
-24.7591422123267
 30
0.0
 10
0.0041302052022193
 20
-24.7590806766921
 30
0.0
  0
SPLINE
  5
C8
330
1F
100
AcDbEntity
  8
0
  6
Continuous
 62
     7
370
    25
100
AcDbSpline
210
0.0
220
0.0
230
1.0
 70
     8
 71
     3
 72
    18
 73
    14
 74
     0
 42
0.000000001
 43
0.00000001
 40
0.0
 40
0.0
 40
0.0
 40
0.0
 40
0.125
 40
0.125
 40
0.2500000000000001
 40
0.2500000000000001
 40
0.3750000000000001
 40
0.3750000000000001
 40
0.5000000000000001
 40
0.5000000000000001
 40
0.7500000000000002
 40
0.7500000000000002
 40
1.0
 40
1.0
 40
1.0
 40
1.0
 10
-0.0054210641561435
 20
-24.75908066554145
 30
0.0
 10
-6.262087558793326
 20
-24.75914327514755
 30
0.0
 10
-12.51821883697484
 20
-24.76697559939715
 30
0.0
 10
-25.02981350355785
 20
-24.79233601177226
 30
0.0
 10
-31.28528885427038
 20
-24.8096904428865
 30
0.0
 10
-43.79621127333103
 20
-24.84480988053246
 30
0.0
 10
-50.05164022436634
 20
-24.86283789631001
 30
0.0
 10
-62.56257390120147
 20
-24.89779390470965
 30
0.0
 10
-68.81806809554215
 20
-24.91487478265096
 30
0.0
 10
-87.58463417517967
 20
-24.96490529511207
 30
0.0
 10
-100.0960149965944
 20
-24.99681050519482
 30
0.0
 10
-125.1186159174483
 20
-25.06140574161736
 30
0.0
 10
-137.6297913926435
 20
-25.09416963899701
 30
0.0
 10
-150.140661404252
 20
-25.12807312147175
 30
0.0
  0
SPLINE
  5
CA
330
1F
100
AcDbEntity
  8
0
  6
Continuous
 62
     7
370
    25
100
AcDbSpline
210
0.0
220
0.0
230
1.0
 70
     8
 71
     3
 72
    18
 73
    14
 74
     0
 42
0.000000001
 43
0.00000001
 40
0.0
 40
0.0
 40
0.0
 40
0.0
 40
0.2500000000000003
 40
0.2500000000000003
 40
0.3750000000000003
 40
0.3750000000000003
 40
0.5000000000000003
 40
0.5000000000000003
 40
0.6250000000000003
 40
0.6250000000000003
 40
0.7500000000000003
 40
0.7500000000000003
 40
1.0
 40
1.0
 40
1.0
 40
1.0
 10
0.0041302052022193
 20
-24.75908067669211
 30
0.0
 10
0.0042201450877001
 20
-24.6189458384889
 30
0.0
 10
0.0043055649630196
 20
-24.26812519117737
 30
0.0
 10
0.0044396044289663
 20
-23.39448363182861
 30
0.0
 10
0.0044853140452935
 20
-23.04622151813335
 30
0.0
 10
0.0045811200501754
 20
-22.24206840262282
 30
0.0
 10
0.0046312258237808
 20
-21.78620348348263
 30
0.0
 10
0.0047379642794632
 20
-20.78149035812996
 30
0.0
 10
0.0047946046234947
 20
-20.23271480074366
 30
0.0
 10
0.004916083017641
 20
-19.06354332704583
 30
0.0
 10
0.0049809251444503
 20
-18.44324896910628
 30
0.0
 10
0.0051892766442939
 20
-16.51301472017386
 30
0.0
 10
0.0053469350940905
 20
-15.13508243322629
 30
0.0
 10
0.0055232762106103
 20
-13.76646636506244
 30
0.0
  0
SPLINE
  5
CB
330
1F
100
AcDbEntity
  8
0
  6
Continuous
 62
     7
370
    25
100
AcDbSpline
210
0.0
220
0.0
230
1.0
 70
     8
 71
     3
 72
    24
 73
    20
 74
     0
 42
0.000000001
 43
0.00000001
 40
0.0
 40
0.0
 40
0.0
 40
0.0
 40
0.0094747018270212
 40
0.0193267243312902
 40
0.0295563279037285
 40
0.040163740059075
 40
0.0511491612051657
 40
0.0625127696159611
 40
0.0889057871065037
 40
0.1250172709562266
 40
0.1609120700985128
 40
0.1875237915391743
 40
0.2500289604900335
 40
0.3637632250048627
 40
0.5000207548250897
 40
0.6035869437838856
 40
0.7214378112226171
 40
0.8535750172326607
 40
1.0
 40
1.0
 40
1.0
 40
1.0
 10
0.0055232762023399
 20
-13.76646605808651
 30
0.0
 10
0.4812008685682775
 20
-13.76525735652739
 30
0.0
 10
1.451499445354061
 20
-13.76279181805891
 30
0.0
 10
2.935320762477746
 20
-13.74875311965123
 30
0.0
 10
4.475918722010942
 20
-13.72722456074608
 30
0.0
 10
6.073291618805484
 20
-13.69737357492997
 30
0.0
 10
7.727435352493815
 20
-13.65935702296225
 30
0.0
 10
10.17364126691873
 20
-13.59343845509182
 30
0.0
 10
13.88008545325722
 20
-13.46838525775182
 30
0.0
 10
18.81648232368035
 20
-13.27997765499385
 30
0.0
 10
23.76341688731319
 20
-13.08638835298426
 30
0.0
 10
30.03441415948478
 20
-12.85256895019014
 30
0.0
 10
40.21095926145237
 20
-12.51918711631518
 30
0.0
 10
55.89049543819389
 20
-12.12713144340882
 30
0.0
 10
73.63238139354549
 20
-11.79245585676553
 30
0.0
 10
91.58201637991266
 20
-11.51739610352648
 30
0.0
 10
109.3253628031367
 20
-11.28274403533935
 30
0.0
 10
129.2197681664767
 20
-11.051567470132
 30
0.0
 10
143.1994401461646
 20
-10.91243551106608
 30
0.0
 10
150.5477929061105
 20
-10.83930141200537
 30
0.0
  0
SPLINE
  5
CE
330
1F
100
AcDbEntity
  8
0
  6
Continuous
 62
     7
370
    25
100
AcDbSpline
210
0.0
220
0.0
230
1.0
 70
     8
 71
     3
 72
    25
 73
    21
 74
     0
 42
0.000000001
 43
0.00000001
 40
0.0
 40
0.0
 40
0.0
 40
0.0
 40
0.075001511010049
 40
0.1464308919951547
 40
0.2142881186867546
 40
0.2785733027138508
 40
0.339286748349698
 40
0.3964286729869404
 40
0.4499992685831385
 40
0.4999986680099692
 40
0.6362545138419031
 40
0.749990542920703
 40
0.8124879944207545
 40
0.8390936858655992
 40
0.8749885555803588
 40
0.9110959169513612
 40
0.937491057884774
 40
0.9598385233814568
 40
0.9806742648467524
 40
1.0
 40
1.0
 40
1.0
 40
1.0
 10
-150.5477929061105
 20
-10.83930141200537
 30
0.0
 10
-146.7838473778484
 20
-10.87618952611254
 30
0.0
 10
-139.4352234141159
 20
-10.9482088678563
 30
0.0
 10
-128.6810562625819
 20
-11.06205727986972
 30
0.0
 10
-118.4646434018505
 20
-11.17688753442143
 30
0.0
 10
-108.7859963735267
 20
-11.29316787795936
 30
0.0
 10
-99.6451434735127
 20
-11.41069769638637
 30
0.0
 10
-91.04208541670523
 20
-11.52945782700195
 30
0.0
 10
-82.97683140375122
 20
-11.64943856513752
 30
0.0
 10
-70.94152597261319
 20
-11.84307169355928
 30
0.0
 10
-55.88767188533071
 20
-12.12723556337395
 30
0.0
 10
-40.20852101451742
 20
-12.5192504324768
 30
0.0
 10
-30.03257851365694
 20
-12.85263529848334
 30
0.0
 10
-23.76226812400047
 20
-13.08643132377511
 30
0.0
 10
-18.81583980520572
 20
-13.28001000797777
 30
0.0
 10
-13.87954035124326
 20
-13.46838355072001
 30
0.0
 10
-9.622064341318737
 20
-13.61209143520838
 30
0.0
 10
-6.129946689374266
 20
-13.69909458827567
 30
0.0
 10
-2.992081417881749
 20
-13.75361480786467
 30
0.0
 10
-0.9757726784989468
 20
-13.76229104549508
 30
0.0
 10
-0.0055232762023399
 20
-13.76646605808649
 30
0.0
  0
SPLINE
  5
CF
330
1F
100
AcDbEntity
  8
0
  6
Continuous
 62
     7
370
    25
100
AcDbSpline
210
0.0
220
0.0
230
1.0
 70
     8
 71
     3
 72
    18
 73
    14
 74
     0
 42
0.000000001
 43
0.00000001
 40
0.0
 40
0.0
 40
0.0
 40
0.0
 40
0.2499999999999999
 40
0.2499999999999999
 40
0.3749999999999999
 40
0.3749999999999999
 40
0.4999999999999999
 40
0.4999999999999999
 40
0.6249999999999999
 40
0.6249999999999999
 40
0.7499999999999998
 40
0.7499999999999998
 40
1.0
 40
1.0
 40
1.0
 40
1.0
 10
-0.0054210641561435
 20
-24.75908066554145
 30
0.0
 10
-0.0054254878654327
 20
-24.61894585609002
 30
0.0
 10
-0.0054313590495176
 20
-24.26812515917098
 30
0.0
 10
-0.0054421664492067
 20
-23.39448309134576
 30
0.0
 10
-0.005446095722102
 20
-23.04622074142076
 30
0.0
 10
-0.0054545001992881
 20
-22.24206706000086
 30
0.0
 10
-0.0054589749693194
 20
-21.78620181149321
 30
0.0
 10
-0.0054683170502597
 20
-20.78148804515013
 30
0.0
 10
-0.0054731836856519
 20
-20.23271217720077
 30
0.0
 10
-0.0054831276854742
 20
-19.06354026236054
 30
0.0
 10
-0.0054882042973093
 20
-18.4432457752737
 30
0.0
 10
-0.0055034680424895
 20
-16.51301167013334
 30
0.0
 10
-0.0055136712300382
 20
-15.13508022190611
 30
0.0
 10
-0.0055232762464761
 20
-13.76646618274562
 30
0.0
  0
SPLINE
  5
D0
330
1F
100
AcDbEntity
  8
0
  6
Continuous
 62
     7
370
    25
100
AcDbSpline
210
0.0
220
0.0
230
1.0
 70
     8
 71
     3
 72
    28
 73
    24
 74
     0
 42
0.000000001
 43
0.00000001
 40
0.0
 40
0.0
 40
0.0
 40
0.0
 40
0.1249999999999993
 40
0.1249999999999993
 40
0.1875000000000009
 40
0.1875000000000009
 40
0.2500000000000026
 40
0.2500000000000026
 40
0.3750000000000022
 40
0.3750000000000022
 40
0.5000000000000018
 40
0.5000000000000018
 40
0.5625000000000016
 40
0.5625000000000016
 40
0.6250000000000012
 40
0.6250000000000012
 40
0.7500000000000008
 40
0.7500000000000008
 40
0.8125000000000006
 40
0.8125000000000006
 40
0.8750000000000002
 40
0.8750000000000002
 40
1.0
 40
1.0
 40
1.0
 40
1.0
 10
150.5477929061105
 20
-10.83930141200538
 30
0.0
 10
151.413821823458
 20
-10.83095589461552
 30
0.0
 10
152.2688532231665
 20
-10.73991245058988
 30
0.0
 10
153.5351148215745
 20
-10.48103117436827
 30
0.0
 10
153.9562074039305
 20
-10.37356767111112
 30
0.0
 10
154.7794483434715
 20
-10.12064878324977
 30
0.0
 10
155.1826173592819
 20
-9.975174451799441
 30
0.0
 10
156.367254631777
 20
-9.482803175605763
 30
0.0
 10
157.1253371017231
 20
-9.079679033371875
 30
0.0
 10
158.567461241593
 20
-8.121683811856975
 30
0.0
 10
159.2314118286082
 20
-7.58049520016043
 30
0.0
 10
160.143992408678
 20
-6.677955086069963
 30
0.0
 10
160.4341954568145
 20
-6.361873723124932
 30
0.0
 10
160.985785675907
 20
-5.698332589488899
 30
0.0
 10
161.246522935086
 20
-5.351212242185062
 30
0.0
 10
161.968640303451
 20
-4.284764207915883
 30
0.0
 10
162.3765333638995
 20
-3.533645980899502
 30
0.0
 10
162.8770900809655
 20
-2.346191405754018
 30
0.0
 10
163.0258991471846
 20
-1.937838905214095
 30
0.0
 10
163.2802652225116
 20
-1.114138838976167
 30
0.0
 10
163.386193411898
 20
-0.6986828413952269
 30
0.0
 10
163.6416796839135
 20
0.5582526900185167
 30
0.0
 10
163.729525892816
 20
1.410200398562777
 30
0.0
 10
163.7317413825195
 20
2.276668122141261
 30
0.0
  0
SPLINE
  5
D2
330
1F
100
AcDbEntity
  8
0
  6
Continuous
 62
     7
370
    25
100
AcDbSpline
210
0.0
220
0.0
230
1.0
 70
     8
 71
     3
 72
    28
 73
    24
 74
     0
 42
0.000000001
 43
0.00000001
 40
0.0
 40
0.0
 40
0.0
 40
0.0
 40
0.1250000000000027
 40
0.1250000000000027
 40
0.2500000000000055
 40
0.2500000000000055
 40
0.3125000000000069
 40
0.3125000000000069
 40
0.3750000000000084
 40
0.3750000000000084
 40
0.500000000000009
 40
0.500000000000009
 40
0.562500000000008
 40
0.562500000000008
 40
0.625000000000007
 40
0.625000000000007
 40
0.7500000000000047
 40
0.7500000000000047
 40
0.8125000000000036
 40
0.8125000000000036
 40
0.8750000000000023
 40
0.8750000000000023
 40
1.0
 40
1.0
 40
1.0
 40
1.0
 10
-163.7317413825195
 20
2.276668122141244
 30
0.0
 10
-163.7295249323344
 20
1.409824758835953
 30
0.0
 10
-163.6415836954921
 20
0.5520795664756342
 30
0.0
 10
-163.2942512547739
 20
-1.145202525116101
 30
0.0
 10
-163.0384940396447
 20
-1.965298724492269
 30
0.0
 10
-162.5391488378046
 20
-3.146857077685996
 30
0.0
 10
-162.3531849773997
 20
-3.532994330453652
 30
0.0
 10
-161.9415130677357
 20
-4.289555423237925
 30
0.0
 10
-161.7148200044211
 20
-4.661053101411756
 30
0.0
 10
-160.9892965494132
 20
-5.728085436953488
 30
0.0
 10
-160.4418805792571
 20
-6.384341500150076
 30
0.0
 10
-159.5269886840734
 20
-7.287662108831157
 30
0.0
 10
-159.2055411723397
 20
-7.5757638296482
 30
0.0
 10
-158.5332656114248
 20
-8.121276931714307
 30
0.0
 10
-158.1865648773578
 20
-8.375465046880942
 30
0.0
 10
-157.1159349429308
 20
-9.08436288512171
 30
0.0
 10
-156.3617566235062
 20
-9.485896078620195
 30
0.0
 10
-155.1691535484777
 20
-9.980358245484856
 30
0.0
 10
-154.7596638566722
 20
-10.127397118623
 30
0.0
 10
-153.9368172773121
 20
-10.37882200667682
 30
0.0
 10
-153.5217317965967
 20
-10.48409320761604
 30
0.0
 10
-152.2657272237531
 20
-10.73988789748266
 30
0.0
 10
-151.4141603211216
 20
-10.83095263267118
 30
0.0
 10
-150.5477929061105
 20
-10.83930141200538
 30
0.0
  0
SPLINE
  5
D4
330
1F
100
AcDbEntity
  8
0
  6
Continuous
 62
     7
370
    25
100
AcDbSpline
210
0.0
220
0.0
230
1.0
 70
     8
 71
     3
 72
    22
 73
    18
 74
     0
 42
0.000000001
 43
0.00000001
 40
0.0
 40
0.0
 40
0.0
 40
0.0
 40
0.0337681768289044
 40
0.0699041990961418
 40
0.1083951289549945
 40
0.149213633467799
 40
0.1923478069227835
 40
0.2378049782926949
 40
0.2855914947041001
 40
0.335706561125578
 40
0.3881476880653388
 40
0.4429124139909616
 40
0.5000006986442972
 40
0.6274397205746384
 40
0.7532535511451072
 40
0.8774407350884241
 40
1.0
 40
1.0
 40
1.0
 40
1.0
 10
163.7317413825195
 20
2.276668122141258
 30
0.0
 10
163.7346753637839
 20
3.476273373710749
 30
0.0
 10
163.740749058893
 20
5.959600938813755
 30
0.0
 10
163.7485300318483
 20
9.810543065922351
 30
0.0
 10
163.7557676314402
 20
13.91209234870314
 30
0.0
 10
163.7623057687585
 20
18.26239593437262
 30
0.0
 10
163.7681779423878
 20
22.8602940168003
 30
0.0
 10
163.7733703643543
 20
27.70583143869366
 30
0.0
 10
163.7778857688745
 20
32.7994476773116
 30
0.0
 10
163.781721670446
 20
38.14123890253922
 30
0.0
 10
163.7848832953633
 20
43.7309879070402
 30
0.0
 10
163.787349936132
 20
49.56850834736199
 30
0.0
 10
163.7899419678593
 20
58.07076897386838
 30
0.0
 10
163.7905070101946
 20
69.09744380706915
 30
0.0
 10
163.785468776748
 20
82.5080797779988
 30
0.0
 10
163.7754568099809
 20
95.7452004644186
 30
0.0
 10
163.7640404388045
 20
104.511963828047
 30
0.0
 10
163.7583699131866
 20
108.8664259833743
 30
0.0
  0
SPLINE
  5
D6
330
1F
100
AcDbEntity
  8
0
  6
Continuous
 62
     7
370
    25
100
AcDbSpline
210
0.0
220
0.0
230
1.0
 70
     8
 71
     3
 72
    21
 73
    17
 74
     0
 42
0.000000001
 43
0.00000001
 40
0.0
 40
0.0
 40
0.0
 40
0.0
 40
0.0698339656519513
 40
0.1401998222687351
 40
0.2110973633580333
 40
0.2825263673083612
 40
0.3544865529814294
 40
0.4269775440804404
 40
0.4999993865358641
 40
0.5886658500171232
 40
0.6715945482349923
 40
0.7487785688029815
 40
0.8202120054340218
 40
0.8859148065336564
 40
0.9458717169511499
 40
1.0
 40
1.0
 40
1.0
 40
1.0
 10
-163.7583699131866
 20
108.8664259833743
 30
0.0
 10
-163.7617369024764
 20
106.3852702690764
 30
0.0
 10
-163.7684965257572
 20
101.4040610978929
 30
0.0
 10
-163.776317849759
 20
93.90381702734918
 30
0.0
 10
-163.7824985222886
 20
86.34684493073219
 30
0.0
 10
-163.7868686114201
 20
78.73317068586624
 30
0.0
 10
-163.7894642524737
 20
71.06283415504693
 30
0.0
 10
-163.790298403286
 20
63.33586460614843
 30
0.0
 10
-163.7891847298772
 20
55.0152791345458
 30
0.0
 10
-163.7862533454603
 20
46.32381265327035
 30
0.0
 10
-163.7815071740467
 20
37.48446570730247
 30
0.0
 10
-163.7750572077842
 20
29.25746667257746
 30
0.0
 10
-163.7669742466152
 20
21.64260543017216
 30
0.0
 10
-163.7571360646619
 20
14.64000865425268
 30
0.0
 10
-163.7459619964436
 20
8.25246785935503
 30
0.0
 10
-163.7363173382133
 20
4.199580520839186
 30
0.0
 10
-163.7317413825196
 20
2.276668122141237
 30
0.0
  0
SPLINE
  5
D8
330
1F
100
AcDbEntity
  8
0
  6
Continuous
 62
     7
370
    25
100
AcDbSpline
210
0.0
220
0.0
230
1.0
 70
     8
 71
     3
 72
    30
 73
    26
 74
     0
 42
0.000000001
 43
0.00000001
 40
0.0
 40
0.0
 40
0.0
 40
0.0
 40
0.1249999999999953
 40
0.1249999999999953
 40
0.187499999999994
 40
0.187499999999994
 40
0.2499999999999927
 40
0.2499999999999927
 40
0.3124999999999914
 40
0.3124999999999914
 40
0.37499999999999
 40
0.37499999999999
 40
0.4999999999999915
 40
0.4999999999999915
 40
0.5624999999999936
 40
0.5624999999999936
 40
0.6249999999999957
 40
0.6249999999999957
 40
0.750000000000001
 40
0.750000000000001
 40
0.8125000000000018
 40
0.8125000000000018
 40
0.8750000000000026
 40
0.8750000000000026
 40
1.0
 40
1.0
 40
1.0
 40
1.0
 10
163.7583699131865
 20
108.8664259833742
 30
0.0
 10
163.7571653625521
 20
109.7089332042238
 30
0.0
 10
163.6768555008825
 20
110.542433274225
 30
0.0
 10
163.4352789299806
 20
111.7788920743024
 30
0.0
 10
163.3341522571836
 20
112.1888520983854
 30
0.0
 10
163.0945001423227
 20
112.9893482277654
 30
0.0
 10
162.9556708470601
 20
113.381782258794
 30
0.0
 10
162.6401426238301
 20
114.1510786467459
 30
0.0
 10
162.463445471269
 20
114.5279417336075
 30
0.0
 10
162.0712851238786
 20
115.2657277384691
 30
0.0
 10
161.8544131605741
 20
115.6286144724553
 30
0.0
 10
161.1553260965721
 20
116.6739619482039
 30
0.0
 10
160.625860255952
 20
117.3146554359069
 30
0.0
 10
159.7381828333422
 20
118.1928363860013
 30
0.0
 10
159.4266052014962
 20
118.4716600593711
 30
0.0
 10
158.7710284946113
 20
119.0005688793466
 30
0.0
 10
158.4321007205827
 20
119.2465074905109
 30
0.0
 10
157.3863804654461
 20
119.9287245284415
 30
0.0
 10
156.6495417017376
 20
120.3109811475055
 30
0.0
 10
155.4850606807182
 20
120.7761011849454
 30
0.0
 10
155.0850469189372
 20
120.913367750669
 30
0.0
 10
154.2813564468551
 20
121.145893039863
 30
0.0
 10
153.8762381321407
 20
121.241928686469
 30
0.0
 10
152.6514005367526
 20
121.471422954506
 30
0.0
 10
151.8222788492065
 20
121.546765134752
 30
0.0
 10
150.980469577463
 20
121.5436515400794
 30
0.0
  0
SPLINE
  5
DA
330
1F
100
AcDbEntity
  8
0
  6
Continuous
 62
     7
370
    25
100
AcDbSpline
210
0.0
220
0.0
230
1.0
 70
     8
 71
     3
 72
    30
 73
    26
 74
     0
 42
0.000000001
 43
0.00000001
 40
0.0
 40
0.0
 40
0.0
 40
0.0
 40
0.1250000000000001
 40
0.1250000000000001
 40
0.1875000000000004
 40
0.1875000000000004
 40
0.2500000000000006
 40
0.2500000000000006
 40
0.3125000000000008
 40
0.3125000000000008
 40
0.3750000000000011
 40
0.3750000000000011
 40
0.5000000000000027
 40
0.5000000000000027
 40
0.562500000000002
 40
0.562500000000002
 40
0.6250000000000012
 40
0.6250000000000012
 40
0.7499999999999999
 40
0.7499999999999999
 40
0.8124999999999992
 40
0.8124999999999992
 40
0.8749999999999986
 40
0.8749999999999986
 40
1.0
 40
1.0
 40
1.0
 40
1.0
 10
-150.980469577463
 20
121.5436515400794
 30
0.0
 10
-151.8223940291815
 20
121.5467655607676
 30
0.0
 10
-152.6555626347905
 20
121.4714259855408
 30
0.0
 10
-153.8919335708134
 20
121.2385879397482
 30
0.0
 10
-154.3027502298275
 20
121.140418787285
 30
0.0
 10
-155.1053932250024
 20
120.9067274922661
 30
0.0
 10
-155.498948649577
 20
120.7709853829776
 30
0.0
 10
-156.2706024533315
 20
120.4618935689477
 30
0.0
 10
-156.648701457837
 20
120.2885453826176
 30
0.0
 10
-157.3890970332665
 20
119.9034033200661
 30
0.0
 10
-157.753250669281
 20
119.6903457461201
 30
0.0
 10
-158.8062267094366
 20
119.0004166860785
 30
0.0
 10
-159.4522061196809
 20
118.4769532899921
 30
0.0
 10
-160.33865221174
 20
117.5981771492004
 30
0.0
 10
-160.6202872413325
 20
117.289549248884
 30
0.0
 10
-161.1549432071405
 20
116.6398450354922
 30
0.0
 10
-161.40488151279
 20
116.3023059880854
 30
0.0
 10
-162.0973468064625
 20
115.2622002202946
 30
0.0
 10
-162.4862147311226
 20
114.5285432031086
 30
0.0
 10
-162.960881369789
 20
113.3679690086254
 30
0.0
 10
-163.101354597405
 20
112.9689397910806
 30
0.0
 10
-163.34009213901
 20
112.1663877995464
 30
0.0
 10
-163.4390646710421
 20
111.761700647484
 30
0.0
 10
-163.6768944828125
 20
110.5377572640066
 30
0.0
 10
-163.7571656916689
 20
109.708703007472
 30
0.0
 10
-163.7583699131865
 20
108.8664259833742
 30
0.0
  0
SPLINE
  5
DC
330
1F
100
AcDbEntity
  8
0
  6
Continuous
 62
     7
370
    25
100
AcDbSpline
210
0.0
220
0.0
230
1.0
 70
     8
 71
     3
 72
    27
 73
    23
 74
     0
 42
0.000000001
 43
0.00000001
 40
0.0
 40
0.0
 40
0.0
 40
0.0
 40
0.0338389434645548
 40
0.0673331122493494
 40
0.1004821565836332
 40
0.1332857438261114
 40
0.1657435646629928
 40
0.1978556157666793
 40
0.229622286107242
 40
0.2610439403950345
 40
0.2921207767357655
 40
0.3228529194357092
 40
0.3532404761537482
 40
0.3832835224633973
 40
0.4129820969481093
 40
0.4423362268035931
 40
0.4713459310029868
 40
0.5000112209055173
 40
0.6195546477981193
 40
0.742734264606575
 40
0.8695494814471766
 40
1.0
 40
1.0
 40
1.0
 40
1.0
 10
0.0000000000000003
 20
121.2570131417876
 30
0.0
 10
-1.703493456216601
 20
121.257061187279
 30
0.0
 10
-5.093123993104095
 20
121.2571567887411
 30
0.0
 10
-10.15149797241839
 20
121.2579196497439
 30
0.0
 10
-15.15771373856734
 20
121.2591485596657
 30
0.0
 10
-20.11170557115099
 20
121.2608941766431
 30
0.0
 10
-25.01342669444136
 20
121.2631534237472
 30
0.0
 10
-29.86286881401589
 20
121.2659352778033
 30
0.0
 10
-34.660060923204
 20
121.2692416900362
 30
0.0
 10
-39.40504392727614
 20
121.2730760081504
 30
0.0
 10
-44.09784797296808
 20
121.2774415830017
 30
0.0
 10
-48.73849218779019
 20
121.2823418214249
 30
0.0
 10
-53.32699106917547
 20
121.2877799350628
 30
0.0
 10
-57.86335628752194
 20
121.2937590182098
 30
0.0
 10
-62.34759688916238
 20
121.3002808078749
 30
0.0
 10
-66.77972005330896
 20
121.3073500828608
 30
0.0
 10
-71.15973266515516
 20
121.3149603102798
 30
0.0
 10
-80.07859085090499
 20
121.3318291485922
 30
0.0
 10
-93.73592075333377
 20
121.362288483605
 30
0.0
 10
-112.3308948198877
 20
121.4127562508998
 30
0.0
 10
-131.4734342114555
 20
121.4730886115209
 30
0.0
 10
-144.4171572246188
 20
121.5199100267242
 30
0.0
 10
-150.9804695774631
 20
121.5436515400793
 30
0.0
  0
SPLINE
  5
DD
330
1F
100
AcDbEntity
  8
0
  6
Continuous
 62
     7
370
    25
100
AcDbSpline
210
0.0
220
0.0
230
1.0
 70
     8
 71
     3
 72
    22
 73
    18
 74
     0
 42
0.000000001
 43
0.00000001
 40
0.0
 40
0.0
 40
0.0
 40
0.0
 40
0.1249999999999999
 40
0.1249999999999999
 40
0.2499999999999998
 40
0.2499999999999998
 40
0.3749999999999998
 40
0.3749999999999998
 40
0.4999999999999999
 40
0.4999999999999999
 40
0.6249999999999999
 40
0.6249999999999999
 40
0.7499999999999999
 40
0.7499999999999999
 40
0.875
 40
0.875
 40
1.0
 40
1.0
 40
1.0
 40
1.0
 10
0.0
 20
121.2570131417894
 30
0.0
 10
-0.0000086920028612
 20
122.0066773053648
 30
0.0
 10
-0.0000177374018888
 20
122.7726694196099
 30
0.0
 10
-0.0000362662944081
 20
124.3106632592449
 30
0.0
 10
-0.0000457489657911
 20
125.0825697375738
 30
0.0
 10
-0.0000648004879535
 20
126.6005889620554
 30
0.0
 10
-0.0000743678533541
 20
127.3465612393105
 30
0.0
 10
-0.0000931888907809
 20
128.7794314096368
 30
0.0
 10
-0.0001024407220232
 20
129.4661762539892
 30
0.0
 10
-0.0001202342058458
 20
130.7503808006608
 30
0.0
 10
-0.0001287741598272
 20
131.347717910435
 30
0.0
 10
-0.0001448059020852
 20
132.4302684739932
 30
0.0
 10
-0.000152296605613
 20
132.9154238327651
 30
0.0
 10
-0.0001659937885254
 20
133.7609685047024
 30
0.0
 10
-0.0001722000279096
 20
134.1213737614155
 30
0.0
 10
-0.0001832146209774
 20
134.7156143337544
 30
0.0
 10
-0.0001880234970736
 20
134.9495232665594
 30
0.0
 10
-0.0001921353846829
 20
135.1239510077066
 30
0.0
  0
SPLINE
  5
DE
330
1F
100
AcDbEntity
  8
0
  6
Continuous
 62
     7
370
    25
100
AcDbSpline
210
0.0
220
0.0
230
1.0
 70
     8
 71
     3
 72
    22
 73
    18
 74
     0
 42
0.000000001
 43
0.00000001
 40
0.0
 40
0.0
 40
0.0
 40
0.0
 40
0.0749904339909083
 40
0.1487938115540263
 40
0.2214102294720485
 40
0.2928396640017209
 40
0.363081913289078
 40
0.4321368652801626
 40
0.5000045489862167
 40
0.5576772879425441
 40
0.6167278192006252
 40
0.6771563306277738
 40
0.7389632989927318
 40
0.8021496932065433
 40
0.8667177146904839
 40
0.9326685765320392
 40
1.0
 40
1.0
 40
1.0
 40
1.0
 10
150.9804695774631
 20
121.5436515400793
 30
0.0
 10
147.207524317836
 20
121.5298749614165
 30
0.0
 10
139.7213574017641
 20
121.5025398795891
 30
0.0
 10
128.5812665218578
 20
121.4645442199869
 30
0.0
 10
117.6200017605768
 20
121.4295422662831
 30
0.0
 10
106.8375144248964
 20
121.3978877824147
 30
0.0
 10
96.23377134592747
 20
121.3695329614177
 30
0.0
 10
85.80875350331053
 20
121.3445465348928
 30
0.0
 10
76.01574887183293
 20
121.3237955118475
 30
0.0
 10
66.72574288432953
 20
121.3069302071108
 30
0.0
 10
57.80969866731302
 20
121.2933800815081
 30
0.0
 10
48.6851281299535
 20
121.2819825165446
 30
0.0
 10
39.35193909987547
 20
121.2727433932907
 30
0.0
 10
29.80996171064998
 20
121.2656171424288
 30
0.0
 10
20.05901972288283
 20
121.2606250397768
 30
0.0
 10
10.09914127451941
 20
121.2575666660839
 30
0.0
 10
3.389546815924132
 20
121.2571989196141
 30
0.0
 10
-0.0000000000000003
 20
121.2570131417876
 30
0.0
  0
SPLINE
  5
DF
330
1F
100
AcDbEntity
  8
0
  6
Continuous
 62
     7
370
    25
100
AcDbSpline
210
0.0
220
0.0
230
1.0
 70
     8
 71
     3
 72
    18
 73
    14
 74
     0
 42
0.000000001
 43
0.00000001
 40
0.0
 40
0.0
 40
0.0
 40
0.0
 40
0.2499999999999996
 40
0.2499999999999996
 40
0.3749999999999996
 40
0.3749999999999996
 40
0.4999999999999996
 40
0.4999999999999996
 40
0.6249999999999996
 40
0.6249999999999996
 40
0.7499999999999996
 40
0.7499999999999996
 40
1.0
 40
1.0
 40
1.0
 40
1.0
 10
0.0014814882259638
 20
-24.75908072773623
 30
0.0
 10
0.0013863642215134
 20
-24.61894585783138
 30
0.0
 10
0.0012961606895482
 20
-24.26812508065537
 30
0.0
 10
0.0011544636200315
 20
-23.39448314857139
 30
0.0
 10
0.001106117224618
 20
-23.04622088179455
 30
0.0
 10
0.0010046697797269
 20
-22.24206740924296
 30
0.0
 10
0.0009515585410832
 20
-21.78620228618867
 30
0.0
 10
0.0008382573281739
 20
-20.78148871729196
 30
0.0
 10
0.0007780590320573
 20
-20.23271292039106
 30
0.0
 10
0.0006487686405085
 20
-19.0635409530691
 30
0.0
 10
0.0005796721130864
 20
-18.44324634116748
 30
0.0
 10
0.0003573800541181
 20
-16.51301134291008
 30
0.0
 10
0.000188830301371
 20
-15.13507857640707
 30
0.0
 10
-0.0000000000014363
 20
-13.76646211875147
 30
0.0
  0
SPLINE
  5
E1
330
1F
100
AcDbEntity
  8
0
  6
Continuous
 62
     7
370
    25
100
AcDbSpline
210
0.0
220
0.0
230
1.0
 70
     8
 71
     3
 72
     8
 73
     4
 74
     0
 42
0.000000001
 43
0.00000001
 40
0.0
 40
0.0
 40
0.0
 40
0.0
 40
1.0
 40
1.0
 40
1.0
 40
1.0
 10
-0.0055232762464761
 20
-13.76646618274562
 30
0.0
 10
-0.0035604666621675
 20
-13.7664648285765
 30
0.0
 10
-0.0016094540894399
 20
-13.76646327619718
 30
0.0
 10
0.0001531434536059
 20
-13.76646201341151
 30
0.0
  0
SPLINE
  5
E2
330
1F
100
AcDbEntity
  8
0
  6
Continuous
 62
     7
370
    25
100
AcDbSpline
210
0.0
220
0.0
230
1.0
 70
     8
 71
     3
 72
     8
 73
     4
 74
     0
 42
0.000000001
 43
0.00000001
 40
0.0
 40
0.0
 40
0.0
 40
0.0
 40
1.0
 40
1.0
 40
1.0
 40
1.0
 10
0.0
 20
119.2230827383758
 30
0.0
 10
0.0000010106092402
 20
119.9010667067942
 30
0.0
 10
0.0000019948494156
 20
120.579043364834
 30
0.0
 10
0.0
 20
121.2570131417894
 30
0.0
  0
SPLINE
  5
E3
330
1F
100
AcDbEntity
  8
0
  6
Continuous
 62
     7
370
    25
100
AcDbSpline
210
0.0
220
0.0
230
1.0
 70
     8
 71
     3
 72
    10
 73
     6
 74
     0
 42
0.000000001
 43
0.00000001
 40
0.0
 40
0.0
 40
0.0
 40
0.0
 40
0.5
 40
0.5
 40
1.0
 40
1.0
 40
1.0
 40
1.0
 10
-0.0000000000000225
 20
76.5276180279845
 30
0.0
 10
-0.0000036455743225
 20
83.64554318375474
 30
0.0
 10
-0.0000030918745912
 20
90.7625379521437
 30
0.0
 10
-0.0000004418446008
 20
104.9943711022897
 30
0.0
 10
0.0000012939462698
 20
112.1091600710724
 30
0.0
 10
-0.0000000000000005
 20
119.2230827383758
 30
0.0
  0
SPLINE
  5
E4
330
1F
100
AcDbEntity
  8
0
  6
Continuous
 62
     7
370
    25
100
AcDbSpline
210
0.0
220
0.0
230
1.0
 70
     8
 71
     3
 72
    54
 73
    50
 74
     0
 42
0.000000001
 43
0.00000001
 40
0.0
 40
0.0
 40
0.0
 40
0.0
 40
0.005258757226055
 40
0.0105092024540681
 40
0.0157527447556035
 40
0.0209907990734208
 40
0.0262247854345654
 40
0.0314561281111151
 40
0.0366862547282582
 40
0.0419165953201049
 40
0.047148581334321
 40
0.0523836445873354
 40
0.0576232161725104
 40
0.0628687253242677
 40
0.0939950137272089
 40
0.1251729887707624
 40
0.1565056401768736
 40
0.1877681891110418
 40
0.2189874661367327
 40
0.2502342473814798
 40
0.2814503435728677
 40
0.3126355055184067
 40
0.343929682572478
 40
0.3752603268405997
 40
0.406401726335058
 40
0.4375450033523431
 40
0.4688680916872812
 40
0.500193484234092
 40
0.531371719880694
 40
0.5625450843626304
 40
0.5938099550125633
 40
0.6250798540151415
 40
0.6563556099491208
 40
0.6876359711030055
 40
0.7188013583913487
 40
0.7499704186854647
 40
0.781296108043951
 40
0.8126248827877508
 40
0.8437700198117042
 40
0.8749180365580513
 40
0.9062246579412513
 40
0.9375347400337074
 40
0.9464745269929155
 40
0.9553972027044118
 40
0.9643097835538714
 40
0.9732193105016891
 40
0.9821328326192968
 40
0.9910573905372354
 40
1.0
 40
1.0
 40
1.0
 40
1.0
 10
0.0000045330002613
 20
-3.475895766242735
 30
0.0
 10
-0.2202767501131483
 20
-3.474945026402839
 30
0.0
 10
-0.6604911394770311
 20
-3.473045049463587
 30
0.0
 10
-1.320179303759688
 20
-3.456545490297884
 30
0.0
 10
-1.978651897211631
 20
-3.430046346371882
 30
0.0
 10
-2.635909611218041
 20
-3.392570603330862
 30
0.0
 10
-3.291952572486808
 20
-3.344376883346954
 30
0.0
 10
-3.946780964796889
 20
-3.285392533275498
 30
0.0
 10
-4.600394958848639
 20
-3.215632815228339
 30
0.0
 10
-5.25279440080101
 20
-3.135088895094264
 30
0.0
 10
-5.903980158385534
 20
-3.043757565301147
 30
0.0
 10
-6.553949076386187
 20
-2.941634679203227
 30
0.0
 10
-7.202712858613104
 20
-2.82871214264175
 30
0.0
 10
-8.914750672564866
 20
-2.501607614275213
 30
0.0
 10
-11.66437952470145
 20
-1.812163087937704
 30
0.0
 10
-15.36191031250329
 20
-0.4859631808220299
 30
0.0
 10
-18.91903351274644
 20
1.1949710571987
 30
0.0
 10
-22.29394841413446
 20
3.220262315637538
 30
0.0
 10
-25.45257784759203
 20
5.562616938656436
 30
0.0
 10
-28.36334495777474
 20
8.203732560487449
 30
0.0
 10
-31.00350137204371
 20
11.11344164768256
 30
0.0
 10
-33.34503632582739
 20
14.27101700015798
 30
0.0
 10
-35.36871594968612
 20
17.6468360536885
 30
0.0
 10
-37.04652961353467
 20
21.20515334228177
 30
0.0
 10
-38.36799546425679
 20
24.90378380330566
 30
0.0
 10
-39.31874948856399
 20
28.71426336628601
 30
0.0
 10
-39.89564125086876
 20
32.60682460961772
 30
0.0
 10
-40.08519566616771
 20
36.53880046064319
 30
0.0
 10
-39.89171298814487
 20
40.46425024064779
 30
0.0
 10
-39.312549284636
 20
44.34900164421296
 30
0.0
 10
-38.35717182958627
 20
48.16272046549827
 30
0.0
 10
-37.02828910670806
 20
51.86744906017415
 30
0.0
 10
-35.34457976112937
 20
55.42571113886908
 30
0.0
 10
-33.31967502657853
 20
58.79637956362067
 30
0.0
 10
-30.97931335678067
 20
61.95053928394299
 30
0.0
 10
-28.3385065056872
 20
64.86036698718219
 30
0.0
 10
-25.42197599867049
 20
67.50409268634067
 30
0.0
 10
-22.25893511972541
 20
69.84562257089668
 30
0.0
 10
-18.88964955181859
 20
71.86454807508348
 30
0.0
 10
-15.3388599300062
 20
73.54184974884761
 30
0.0
 10
-11.63551606443393
 20
74.8682874676833
 30
0.0
 10
-8.722224009044734
 20
75.59616966522071
 30
0.0
 10
-6.696422702260997
 20
75.96927195905668
 30
0.0
 10
-5.588011453602727
 20
76.14153983696988
 30
0.0
 10
-4.476482735740766
 20
76.28242532143766
 30
0.0
 10
-3.361808164795279
 20
76.39214374247788
 30
0.0
 10
-2.243995665975234
 20
76.46993336238364
 30
0.0
 10
-1.123043028006941
 20
76.51862862686292
 30
0.0
 10
-0.3745997315824005
 20
76.52461954336437
 30
0.0
 10
-0.0000000000000225
 20
76.5276180279845
 30
0.0
  0
SPLINE
  5
E5
330
1F
100
AcDbEntity
  8
0
  6
Continuous
 62
     7
370
    25
100
AcDbSpline
210
0.0
220
0.0
230
1.0
 70
     8
 71
     3
 72
    17
 73
    13
 74
     0
 42
0.000000001
 43
0.00000001
 40
0.0
 40
0.0
 40
0.0
 40
0.0
 40
0.0698010073747145
 40
0.146256454229329
 40
0.2293870733945436
 40
0.3192153115408594
 40
0.4157644261121631
 40
0.5190572192133072
 40
0.6291143730981925
 40
0.7459523595917075
 40
0.8695809047443713
 40
1.0
 40
1.0
 40
1.0
 40
1.0
 10
-0.0055232762023399
 20
-13.76646605808651
 30
0.0
 10
-0.0051622972142217
 20
-13.53088425421842
 30
0.0
 10
-0.0044059255107298
 20
-13.03726158872123
 30
0.0
 10
-0.0034947216496635
 20
-12.25979840534429
 30
0.0
 10
-0.0026711651253691
 20
-11.4118715071703
 30
0.0
 10
-0.0019616318709519
 20
-10.49257777217141
 30
0.0
 10
-0.0013586205691859
 20
-9.501406151425883
 30
0.0
 10
-0.0008648735595019
 20
-8.437810421320695
 30
0.0
 10
-0.0004793618122087
 20
-7.301386107081635
 30
0.0
 10
-0.0002044410283219
 20
-6.091781167445548
 30
0.0
 10
-0.0000315924786203
 20
-4.809042033662714
 30
0.0
 10
-0.0000077215118574
 20
-3.928126645827382
 30
0.0
 10
0.0000045330002613
 20
-3.475895766242735
 30
0.0
  0
SPLINE
  5
E6
330
1F
100
AcDbEntity
  8
0
  6
Continuous
 62
     7
370
    25
100
AcDbSpline
210
0.0
220
0.0
230
1.0
 70
     8
 71
     3
 72
    17
 73
    13
 74
     0
 42
0.000000001
 43
0.00000001
 40
0.0
 40
0.0
 40
0.0
 40
0.0
 40
0.0701028822444439
 40
0.1467935996685689
 40
0.2300927877751524
 40
0.3200227400973371
 40
0.4166065057410684
 40
0.5198666310593725
 40
0.6298235117082259
 40
0.7464933288354897
 40
0.8698855518645576
 40
1.0
 40
1.0
 40
1.0
 40
1.0
 10
0.0055232762088047
 20
-13.76646630740496
 30
0.0
 10
0.0051607529217991
 20
-13.5298646629847
 30
0.0
 10
0.0044016386520367
 20
-13.03442701534496
 30
0.0
 10
0.0034881411520726
 20
-12.2545569856277
 30
0.0
 10
0.0026637946174999
 20
-11.40489047873486
 30
0.0
 10
0.0019546406422934
 20
-10.48453156153573
 30
0.0
 10
0.0013528332537225
 20
-9.492978924940248
 30
0.0
 10
0.0008608766518854
 20
-8.429695729305104
 30
0.0
 10
0.0004776124025294
 20
-7.294286563297662
 30
0.0
 10
0.0002054503268167
 20
-6.086407673581952
 30
0.0
 10
0.0000359449403405
 20
-4.806111368776185
 30
0.0
 10
0.0000151871249762
 20
-3.927070793677719
 30
0.0
 10
0.0000045330002613
 20
-3.475895766242735
 30
0.0
  0
SPLINE
  5
E7
330
1F
100
AcDbEntity
  8
0
  6
Continuous
 62
     7
370
    25
100
AcDbSpline
210
0.0
220
0.0
230
1.0
 70
     8
 71
     3
 72
    54
 73
    50
 74
     0
 42
0.000000001
 43
0.00000001
 40
0.0
 40
0.0
 40
0.0
 40
0.0
 40
0.0052190073335954
 40
0.0104309413020338
 40
0.015637190060935
 40
0.0208391461653111
 40
0.0260382054782364
 40
0.0312357660660338
 40
0.0364332270843415
 40
0.0416319876595162
 40
0.0468334457698638
 40
0.052038997131199
 40
0.0572500340911868
 40
0.0624679445368425
 40
0.0937765300711597
 40
0.1250860138367774
 40
0.1562324246780611
 40
0.1873805121227098
 40
0.2187075876233118
 40
0.2500363206064285
 40
0.2812037062640721
 40
0.3123721721542504
 40
0.3436507959209393
 40
0.3749295741391265
 40
0.4061978158239313
 40
0.4374657915847361
 40
0.4686374042042392
 40
0.4998186561101598
 40
0.5311423675351943
 40
0.5624685198087236
 40
0.5936101049176004
 40
0.6247545732389729
 40
0.6560834814031494
 40
0.6873806742431183
 40
0.718564235783837
 40
0.7497834846078371
 40
0.7810284488974647
 40
0.8122506820182821
 40
0.8435090199923145
 40
0.874842010977116
 40
0.9060112053042957
 40
0.9371330991312662
 40
0.946120899193144
 40
0.9550944217312788
 40
0.9640608776743529
 40
0.9730274798089258
 40
0.9820014271616583
 40
0.9909898906410254
 40
1.0
 40
1.0
 40
1.0
 40
1.0
 10
0.0000000000000225
 20
76.5276180279845
 30
0.0
 10
0.2186158364469966
 20
76.52659835099399
 30
0.0
 10
0.6555512174330319
 20
76.52456037898992
 30
0.0
 10
1.310395170473001
 20
76.50799549410307
 30
0.0
 10
1.964177800445287
 20
76.48153684569354
 30
0.0
 10
2.61689942973426
 20
76.44421849461087
 30
0.0
 10
3.268560318553511
 20
76.3962988796955
 30
0.0
 10
3.919160706416847
 20
76.3377088491535
 30
0.0
 10
4.568700888753213
 20
76.26846690990293
 30
0.0
 10
5.2171808790648
 20
76.18856822944042
 30
0.0
 10
5.864601694332317
 20
76.09801375175883
 30
0.0
 10
6.51096055720973
 20
75.99680467555217
 30
0.0
 10
7.156268833575385
 20
75.88493541831474
 30
0.0
 10
8.87379023359806
 20
75.55832104956147
 30
0.0
 10
11.63570009550297
 20
74.8682277335579
 30
0.0
 10
15.33899574854076
 20
73.54179786814727
 30
0.0
 10
18.88994174776063
 20
71.8643928299673
 30
0.0
 10
22.25919806861526
 20
69.84545065997654
 30
0.0
 10
25.42235944802861
 20
67.50378188418891
 30
0.0
 10
28.33884838677108
 20
64.86002933913356
 30
0.0
 10
30.97973796124732
 20
61.95002670990495
 30
0.0
 10
33.32004017141789
 20
58.79583867240925
 30
0.0
 10
35.34497587416583
 20
55.42497709410901
 30
0.0
 10
37.02860562131376
 20
51.86669318403851
 30
0.0
 10
38.35746684853139
 20
48.16175926852744
 30
0.0
 10
39.31274625288049
 20
44.34802765537241
 30
0.0
 10
39.89183152209201
 20
40.46308078172247
 30
0.0
 10
40.08519881299839
 20
36.53764152395173
 30
0.0
 10
39.89551329634786
 20
32.60548877154028
 30
0.0
 10
39.31849358651247
 20
28.71295824828669
 30
0.0
 10
38.36755948633611
 20
24.90233316931308
 30
0.0
 10
37.04595884308532
 20
21.20376547599427
 30
0.0
 10
35.36792655786075
 20
17.64535128057117
 30
0.0
 10
33.34411137885082
 20
14.26962762752852
 30
0.0
 10
31.0023239118522
 20
11.11200283928686
 30
0.0
 10
28.36203946012708
 20
8.20242319777601
 30
0.0
 10
25.45101227583858
 20
5.56132832397415
 30
0.0
 10
22.29236784685246
 20
3.219209300731655
 30
0.0
 10
18.91738899149643
 20
1.194099087920845
 30
0.0
 10
15.36068327841806
 20
-0.4864529515253742
 30
0.0
 10
11.66358924626837
 20
-1.812376659717351
 30
0.0
 10
8.762263756630041
 20
-2.53981887027813
 30
0.0
 10
6.740450059901467
 20
-2.913867444028769
 30
0.0
 10
5.625805772415115
 20
-3.087681425323882
 30
0.0
 10
4.50759180364089
 20
-3.229721379152318
 30
0.0
 10
3.385779237017982
 20
-3.340220143756262
 30
0.0
 10
2.26037733229009
 20
-3.418429755415183
 30
0.0
 10
1.131382941073952
 20
-3.467224570164265
 30
0.0
 10
0.3774329135726189
 20
-3.473003050843606
 30
0.0
 10
0.0000045330002617
 20
-3.475895765911473
 30
0.0
  0
SPLINE
  5
E8
330
1F
100
AcDbEntity
  8
0
  6
Continuous
 62
     7
370
    25
100
AcDbSpline
210
0.0
220
0.0
230
1.0
 70
     8
 71
     3
 72
     8
 73
     4
 74
     0
 42
0.000000001
 43
0.00000001
 40
0.0
 40
0.0
 40
0.0
 40
0.0
 40
1.0
 40
1.0
 40
1.0
 40
1.0
 10
0.0000000000049358
 20
-13.76646220822282
 30
0.0
 10
-0.0001944494104905
 20
-10.41412553933993
 30
0.0
 10
-0.0001567085129567
 20
-6.962797417160195
 30
0.0
 10
0.0000045330006901
 20
-3.475895766077205
 30
0.0
  0
SPLINE
  5
E9
330
1F
100
AcDbEntity
  8
0
  6
Continuous
 62
     7
370
    25
100
AcDbSpline
210
0.0
220
0.0
230
1.0
 70
     8
 71
     3
 72
    10
 73
     6
 74
     0
 42
0.000000001
 43
0.00000001
 40
0.0
 40
0.0
 40
0.0
 40
0.0
 40
0.5
 40
0.5
 40
1.0
 40
1.0
 40
1.0
 40
1.0
 10
-0.0000167229524653
 20
-3.475896522464824
 30
0.0
 10
-0.0001405232122512
 20
-3.175842573396641
 30
0.0
 10
-0.0002816061026857
 20
-2.874159984519967
 30
0.0
 10
-0.0005805574763998
 20
-2.310629950541182
 30
0.0
 10
-0.0007380992264359
 20
-2.049398458441879
 30
0.0
 10
-0.0008926118438798
 20
-1.824826304417791
 30
0.0
  0
SPLINE
  5
EA
330
1F
100
AcDbEntity
  8
0
  6
Continuous
 62
     7
370
    25
100
AcDbSpline
210
0.0
220
0.0
230
1.0
 70
     8
 71
     3
 72
    48
 73
    44
 74
     0
 42
0.000000001
 43
0.00000001
 40
0.0
 40
0.0
 40
0.0
 40
0.0
 40
0.0000041772457853
 40
0.0317903114328119
 40
0.0629084069107919
 40
0.0879154374795244
 40
0.1252352881032406
 40
0.1939988949145192
 40
0.2502280103438251
 40
0.3018283382150049
 40
0.3751889946931311
 40
0.4367542287827403
 40
0.5000687415085728
 40
0.5624699691740174
 40
0.6248787082372177
 40
0.6872958384039487
 40
0.7497222393795198
 40
0.7589837221056306
 40
0.7682744355674528
 40
0.7775943722499553
 40
0.786943524555135
 40
0.796321884802017
 40
0.8057294452266589
 40
0.8151661979821556
 40
0.8246321351386335
 40
0.8341272486832629
 40
0.8436515305202545
 40
0.8532049724708635
 40
0.8627875662733928
 40
0.8723993035831926
 40
0.8820401759726653
 40
0.8917101749312676
 40
0.9014092918655104
 40
0.9111375180989633
 40
0.9208948448722574
 40
0.9306812633430842
 40
0.9404967645862
 40
0.9503413395934296
 40
0.9602149792736638
 40
0.970117674452865
 40
0.9800494158740701
 40
0.9900101941973859
 40
1.0
 40
1.0
 40
1.0
 40
1.0
 10
-0.0004999996394368
 20
-1.824820733862392
 30
0.0
 10
-0.0003333330984477
 20
-1.824820800869476
 30
0.0
 10
1.268057735025763
 20
-1.825330748373891
 30
0.0
 10
3.779925348798359
 20
-1.698080985245719
 30
0.0
 10
7.252874591877091
 20
-1.166968168953775
 30
0.0
 10
10.87597360030106
 20
-0.2715157258477915
 30
0.0
 10
15.81571148699529
 20
1.479225403520204
 30
0.0
 10
21.52647228023218
 20
4.648629688395537
 30
0.0
 10
26.9343750014136
 20
9.218465252680234
 30
0.0
 10
31.62691204974849
 20
14.75490791145245
 30
0.0
 10
35.27848533235922
 20
21.32160299498368
 30
0.0
 10
37.59659564905475
 20
28.93239546489559
 30
0.0
 10
38.34932385509306
 20
36.41710719347957
 30
0.0
 10
37.61580224621738
 20
43.93524046992888
 30
0.0
 10
35.43970390788334
 20
51.13224034730256
 30
0.0
 10
31.90340587003757
 20
57.76583752150122
 30
0.0
 10
28.48786345992946
 20
61.93599450761831
 30
0.0
 10
26.1727634660928
 20
64.18968928329186
 30
0.0
 10
25.35352056592388
 20
64.94199879215459
 30
0.0
 10
24.51001269514245
 20
65.67226992502621
 30
0.0
 10
23.64272234593137
 20
66.3797025894986
 30
0.0
 10
22.75221624812451
 20
67.06343127094554
 30
0.0
 10
21.83907828212863
 20
67.72262108769476
 30
0.0
 10
20.90392752227346
 20
68.35644337651927
 30
0.0
 10
19.94741331260305
 20
68.96408372661594
 30
0.0
 10
18.97021647478187
 20
69.54474129360422
 30
0.0
 10
17.97304881310906
 20
70.097630474673
 30
0.0
 10
16.95665302462998
 20
70.62198196023907
 30
0.0
 10
15.92180244572794
 20
71.11704396355286
 30
0.0
 10
14.86930078715469
 20
71.5820834117604
 30
0.0
 10
13.79998181553657
 20
72.01638715087478
 30
0.0
 10
12.71470899164665
 20
72.41926316341191
 30
0.0
 10
11.61437506172606
 20
72.79004174148002
 30
0.0
 10
10.49990160196425
 20
73.12807683686778
 30
0.0
 10
9.372238515293233
 20
73.43274674578407
 30
0.0
 10
8.232363479934662
 20
73.70345727903559
 30
0.0
 10
7.081281349284001
 20
73.93963559746972
 30
0.0
 10
5.920023502180935
 20
74.1407590146525
 30
0.0
 10
4.749647144978337
 20
74.3062526850364
 30
0.0
 10
3.571234558237411
 20
74.43587874340353
 30
0.0
 10
2.385892313370618
 20
74.52828316720083
 30
0.0
 10
1.194750363073544
 20
74.5864483254251
 30
0.0
 10
0.3987156506339511
 20
74.5936456119466
 30
0.0
 10
0.0001191915420222
 20
74.59724949112135
 30
0.0
  0
SPLINE
  5
EB
330
1F
100
AcDbEntity
  8
0
  6
Continuous
 62
     7
370
    25
100
AcDbSpline
210
0.0
220
0.0
230
1.0
 70
     8
 71
     3
 72
    10
 73
     6
 74
     0
 42
0.000000001
 43
0.00000001
 40
0.0
 40
0.0
 40
0.0
 40
0.0
 40
0.5
 40
0.5
 40
1.0
 40
1.0
 40
1.0
 40
1.0
 10
0.0000714028756465
 20
76.52761802770321
 30
0.0
 10
0.0000775887176396
 20
76.18137934537528
 30
0.0
 10
0.0000850875383261
 20
75.82567225147918
 30
0.0
 10
0.0001015258233395
 20
75.16166652874934
 30
0.0
 10
0.000110433799505
 20
74.85463982818152
 30
0.0
 10
0.0001191915422413
 20
74.5972494962701
 30
0.0
  0
SPLINE
  5
EC
330
1F
100
AcDbEntity
  8
0
  6
Continuous
 62
     7
370
    25
100
AcDbSpline
210
0.0
220
0.0
230
1.0
 70
     8
 71
     3
 72
    71
 73
    67
 74
     0
 42
0.000000001
 43
0.00000001
 40
0.0
 40
0.0
 40
0.0
 40
0.0
 40
0.0053008772217979
 40
0.0108662167097448
 40
0.0166960123303856
 40
0.0227902572305929
 40
0.0291489438380323
 40
0.0357720638615383
 40
0.0426596082914185
 40
0.0498115673997024
 40
0.0572279307403504
 40
0.0649086871494243
 40
0.0728538247452349
 40
0.0810633309284652
 40
0.0895371923822761
 40
0.0982753950724007
 40
0.1072779242472209
 40
0.1165447644378404
 40
0.1260758994581476
 40
0.1358713124048695
 40
0.1459309856576225
 40
0.1562549008789603
 40
0.1668430390144116
 40
0.177695380292523
 40
0.1888119042248917
 40
0.2001925896062008
 40
0.2118374145142496
 40
0.2237463563099849
 40
0.2359193916375283
 40
0.2483564964242056
 40
0.2610576458805706
 40
0.2740228145004339
 40
0.2872519760608853
 40
0.3007451036223209
 40
0.3145021695284648
 40
0.3285231454063956
 40
0.3428080021665678
 40
0.3573567100028368
 40
0.3721692383924814
 40
0.3872455560962274
 40
0.4025856311582712
 40
0.418189430906302
 40
0.4340569219515275
 40
0.4501880701886945
 40
0.466582840796114
 40
0.4832411982356861
 40
0.5001631062529216
 40
0.5237070193887898
 40
0.5479705107163685
 40
0.5729541839610947
 40
0.5986586989646325
 40
0.6250847717293027
 40
0.67645885448196
 40
0.7181146028939762
 40
0.75003960429945
 40
0.8062519046037268
 40
0.8748990980851123
 40
0.9121180033606499
 40
0.937144958119453
 40
0.9459828566360402
 40
0.9548681822017047
 40
0.9638007604467653
 40
0.9727804137750714
 40
0.9818069613687607
 40
0.9908802191928987
 40
1.0
 40
1.0
 40
1.0
 40
1.0
 10
0.000119191541962
 20
74.59724949112135
 30
0.0
 10
-0.2115246863155713
 20
74.59623024838989
 30
0.0
 10
-0.6453714150482722
 20
74.5941409126184
 30
0.0
 10
-1.311790512506741
 20
74.57653956439326
 30
0.0
 10
-2.00944911967122
 20
74.54643922057907
 30
0.0
 10
-2.73803591232046
 20
74.50104655902095
 30
0.0
 10
-3.49716879639287
 20
74.43886819355035
 30
0.0
 10
-4.286387769021797
 20
74.35794999986881
 30
0.0
 10
-5.105147348053625
 20
74.25638549572967
 30
0.0
 10
-5.952808862783013
 20
74.1321751902544
 30
0.0
 10
-6.82863255895983
 20
73.98327194198225
 30
0.0
 10
-7.73176957347253
 20
73.80757409824253
 30
0.0
 10
-8.661253810500796
 20
73.60293427768381
 30
0.0
 10
-9.615993763582939
 20
73.36716457971215
 30
0.0
 10
-10.59476433072997
 20
73.09804371922758
 30
0.0
 10
-11.59619867555935
 20
72.79332458376236
 30
0.0
 10
-12.61878019267098
 20
72.45074268713755
 30
0.0
 10
-13.6608346411756
 20
72.06802543325827
 30
0.0
 10
-14.72052251608065
 20
71.64290225811749
 30
0.0
 10
-15.79583173319021
 20
71.17311567044517
 30
0.0
 10
-16.88457070921381
 20
70.65643321976225
 30
0.0
 10
-17.9843619248614
 20
70.09066041230918
 30
0.0
 10
-19.09263606476847
 20
69.47365459071455
 30
0.0
 10
-20.20662683407979
 20
68.80333978661598
 30
0.0
 10
-21.3233665573512
 20
68.0777225482817
 30
0.0
 10
-22.43968267102086
 20
67.29490873714028
 30
0.0
 10
-23.5521952259679
 20
66.45312127808782
 30
0.0
 10
-24.65731552151406
 20
65.55071883845231
 30
0.0
 10
-25.75124599652942
 20
64.58621539954021
 30
0.0
 10
-26.82998150695575
 20
63.55830067275899
 30
0.0
 10
-27.88931212194067
 20
62.46586129940135
 30
0.0
 10
-28.92482757274499
 20
61.30800275929699
 30
0.0
 10
-29.93192348950816
 20
60.08407189871892
 30
0.0
 10
-30.90580956069148
 20
58.7936799721893
 30
0.0
 10
-31.84151974836794
 20
57.43672607627472
 30
0.0
 10
-32.7339246895327
 20
56.01342083596198
 30
0.0
 10
-33.57774640832452
 20
54.52431018660518
 30
0.0
 10
-34.36757545934456
 20
52.97029907396259
 30
0.0
 10
-35.09789060632486
 20
51.35267488267287
 30
0.0
 10
-35.7630811577712
 20
49.67313035745428
 30
0.0
 10
-36.35747196035793
 20
47.93378586389898
 30
0.0
 10
-36.87535144835024
 20
46.13721042500026
 30
0.0
 10
-37.31100154766234
 20
44.28644244878203
 30
0.0
 10
-37.65873426638922
 20
42.3850053083419
 30
0.0
 10
-37.91291661618106
 20
40.43693486300594
 30
0.0
 10
-38.06805407546729
 20
38.44675206101198
 30
0.0
 10
-38.12500306636494
 20
36.16573460892391
 30
0.0
 10
-38.02553706863603
 20
33.58083699474491
 30
0.0
 10
-37.69685881712967
 20
30.69045683730466
 30
0.0
 10
-37.13018866138465
 20
27.74902023828832
 30
0.0
 10
-36.30886863316768
 20
24.77812274728687
 30
0.0
 10
-34.8854804580578
 20
20.89439094812848
 30
0.0
 10
-32.70085764668852
 20
16.62884689460311
 30
0.0
 10
-29.79740522824745
 20
12.55484672761936
 30
0.0
 10
-26.32265572264882
 20
8.700392317162864
 30
0.0
 10
-21.51555459448245
 20
4.64130676879481
 30
0.0
 10
-15.8084912715015
 20
1.476475225514775
 30
0.0
 10
-10.87292010723095
 20
-0.2723710571980141
 30
0.0
 10
-8.114540089536696
 20
-0.9540200097267539
 30
0.0
 10
-6.437494147559779
 20
-1.272292593769857
 30
0.0
 10
-5.386523475148355
 20
-1.440863725248945
 30
0.0
 10
-4.325547888729601
 20
-1.579910553712972
 30
0.0
 10
-3.25538836851025
 20
-1.689063732842853
 30
0.0
 10
-2.176916721201563
 20
-1.76699020437256
 30
0.0
 10
-1.091027211674268
 20
-1.816033741979816
 30
0.0
 10
-0.3646282493936907
 20
-1.82188674749369
 30
0.0
 10
-0.0004999996394368
 20
-1.824820733862392
 30
0.0
  0
CIRCLE
  5
ED
330
1F
100
AcDbEntity
  8
0
  6
Continuous
 62
     7
370
    25
100
AcDbCircle
 10
0.0
 20
36.4646960224
 30
0.0
 40
23.62499999999998
  0
LINE
  5
EE
330
1F
100
AcDbEntity
  8
0
  6
Continuous
 62
     7
370
    25
100
AcDbLine
 10
-173.2922824631
 20
159.5057255295
 30
0.0
 11
-150.4732179401
 21
135.9058462682
 31
0.0
  0
LINE
  5
EF
330
1F
100
AcDbEntity
  8
0
  6
Continuous
 62
     7
370
    25
100
AcDbLine
 10
-177.8027211188
 20
108.7223352475
 30
0.0
 11
-200.5146311198
 21
132.211393411
 31
0.0
  0
LINE
  5
F0
330
1F
100
AcDbEntity
  8
0
  6
Continuous
 62
     7
370
    25
100
AcDbLine
 10
200.5146311198
 20
132.211393411
 30
0.0
 11
177.8027211188
 21
108.7223352475
 31
0.0
  0
LINE
  5
F1
330
1F
100
AcDbEntity
  8
0
  6
Continuous
 62
     7
370
    25
100
AcDbLine
 10
150.4732179401
 20
135.9058462682
 30
0.0
 11
173.2922824631
 21
159.5057255295
 31
0.0
  0
LINE
  5
F2
330
1F
100
AcDbEntity
  8
0
  6
Continuous
 62
     7
370
    25
100
AcDbLine
 10
-200.5146311198
 20
-7.1894807838
 30
0.0
 11
-177.8093595373
 21
2.5684318343
 31
0.0
  0
LINE
  5
F3
330
1F
100
AcDbEntity
  8
0
  6
Continuous
 62
     7
370
    25
100
AcDbLine
 10
-150.1406614043
 20
-25.1280731215
 30
0.0
 11
-172.2119556639
 21
-34.6135249898
 31
0.0
  0
LINE
  5
F4
330
1F
100
AcDbEntity
  8
0
  6
Continuous
 62
     7
370
    25
100
AcDbLine
 10
172.2119556639
 20
-34.6135249898
 30
0.0
 11
150.1406614043
 21
-25.1280731215
 31
0.0
  0
LINE
  5
F5
330
1F
100
AcDbEntity
  8
0
  6
Continuous
 62
     7
370
    25
100
AcDbLine
 10
177.8093595373
 20
2.5684318343
 30
0.0
 11
200.5146311198
 21
-7.1894807838
 31
0.0
  0
LINE
  5
F6
330
1F
100
AcDbEntity
  8
0
  6
Continuous
 62
     7
370
    25
100
AcDbLine
 10
-172.2119556639
 20
-41.5792709756
 30
0.0
 11
-172.2119556639
 21
-34.6135249898
 31
0.0
  0
LINE
  5
F7
330
1F
100
AcDbEntity
  8
0
  6
Continuous
 62
     7
370
    25
100
AcDbLine
 10
-204.5703081612
 20
-20.6570021512
 30
0.0
 11
-198.3332638253
 21
-17.9765438531
 31
0.0
  0
LINE
  5
F8
330
1F
100
AcDbEntity
  8
0
  6
Continuous
 62
     7
370
    25
100
AcDbLine
 10
-207.3349624354
 20
-7.1894807838
 30
0.0
 11
-200.5146311198
 21
-7.1894807838
 31
0.0
  0
LINE
  5
F9
330
1F
100
AcDbEntity
  8
0
  6
Continuous
 62
     7
370
    25
100
AcDbLine
 10
172.2119556639
 20
-41.5792709756
 30
0.0
 11
172.2119556639
 21
-34.6135249898
 31
0.0
  0
LINE
  5
FA
330
1F
100
AcDbEntity
  8
0
  6
Continuous
 62
     7
370
    25
100
AcDbLine
 10
204.5703081612
 20
-20.6570021512
 30
0.0
 11
198.3332638253
 21
-17.9765438531
 31
0.0
  0
LINE
  5
FB
330
1F
100
AcDbEntity
  8
0
  6
Continuous
 62
     7
370
    25
100
AcDbLine
 10
200.5146311198
 20
-7.1894807838
 30
0.0
 11
207.3349624354
 21
-7.1894807838
 31
0.0
  0
LINE
  5
FC
330
1F
100
AcDbEntity
  8
0
  6
Continuous
 62
     7
370
    25
100
AcDbLine
 10
241.9903929863
 20
197.8279511254
 30
0.0
 11
241.9903929863
 21
201.7974512154
 31
0.0
  0
LINE
  5
FD
330
1F
100
AcDbEntity
  8
0
  6
Continuous
 62
     7
370
    25
100
AcDbLine
 10
247.9379776195
 20
199.3098481575
 30
0.0
 11
245.1521979504
 21
196.5240684883
 31
0.0
  0
LINE
  5
FE
330
1F
100
AcDbEntity
  8
0
  6
Continuous
 62
     7
370
    25
100
AcDbLine
 10
-241.9903929863
 20
197.8279511254
 30
0.0
 11
-241.9903929863
 21
201.7974512154
 31
0.0
  0
LINE
  5
FF
330
1F
100
AcDbEntity
  8
0
  6
Continuous
 62
     7
370
    25
100
AcDbLine
 10
-247.9379776195
 20
199.3098481575
 30
0.0
 11
-245.1521979504
 21
196.5240684883
 31
0.0
  0
LINE
  5
100
330
1F
100
AcDbEntity
  8
0
  6
Continuous
 62
     7
370
    25
100
AcDbLine
 10
246.4560805875
 20
193.3622635243
 30
0.0
 11
250.4255806774
 21
193.3622635243
 31
0.0
  0
LINE
  5
101
330
1F
100
AcDbEntity
  8
0
  6
Continuous
 62
     7
370
    25
100
AcDbLine
 10
-246.4560805875
 20
193.3622635243
 30
0.0
 11
-250.4255806774
 21
193.3622635243
 31
0.0
  0
LINE
  5
102
330
1F
100
AcDbEntity
  8
0
  6
Continuous
 62
     7
370
    25
100
AcDbLine
 10
-173.2922824631
 20
159.5057255295
 30
0.0
 11
-173.2922824631
 21
166.3140598976
 31
0.0
  0
LINE
  5
103
330
1F
100
AcDbEntity
  8
0
  6
Continuous
 62
     7
370
    25
100
AcDbLine
 10
-207.3349624354
 20
132.211393411
 30
0.0
 11
-200.5146311198
 21
132.211393411
 31
0.0
  0
LINE
  5
104
330
1F
100
AcDbEntity
  8
0
  6
Continuous
 62
     7
370
    25
100
AcDbLine
 10
173.2922824631
 20
159.5057255295
 30
0.0
 11
173.2922824631
 21
166.3140598976
 31
0.0
  0
LINE
  5
105
330
1F
100
AcDbEntity
  8
0
  6
Continuous
 62
     7
370
    25
100
AcDbLine
 10
200.5146311198
 20
132.211393411
 30
0.0
 11
207.3349624354
 21
132.211393411
 31
0.0
  0
LINE
  5
106
330
1F
100
AcDbEntity
  8
0
  6
Continuous
 62
     7
370
    25
100
AcDbLine
 10
241.9903929863
 20
197.8279511254
 30
0.0
 11
-241.9903929863
 21
197.8279511254
 31
0.0
  0
LINE
  5
107
330
1F
100
AcDbEntity
  8
0
  6
Continuous
 62
     7
370
    25
100
AcDbLine
 10
-241.9903929863
 20
201.7974512154
 30
0.0
 11
241.9903929863
 21
201.7974512154
 31
0.0
  0
LINE
  5
108
330
1F
100
AcDbEntity
  8
0
  6
Continuous
 62
     7
370
    25
100
AcDbLine
 10
246.4560805875
 20
-159.0913007406
 30
0.0
 11
246.4560805875
 21
193.3622635243
 31
0.0
  0
LINE
  5
109
330
1F
100
AcDbEntity
  8
0
  6
Continuous
 62
     7
370
    25
100
AcDbLine
 10
250.4255806774
 20
193.3622635243
 30
0.0
 11
250.4255806774
 21
-159.0913007406
 31
0.0
  0
LINE
  5
10A
330
1F
100
AcDbEntity
  8
0
  6
Continuous
 62
     7
370
    25
100
AcDbLine
 10
-250.4255806774
 20
-159.0913007406
 30
0.0
 11
-250.4255806774
 21
193.3622635243
 31
0.0
  0
LINE
  5
10B
330
1F
100
AcDbEntity
  8
0
  6
Continuous
 62
     7
370
    25
100
AcDbLine
 10
-246.4560805875
 20
193.3622635243
 30
0.0
 11
-246.4560805875
 21
-159.0913007406
 31
0.0
  0
LINE
  5
10C
330
1F
100
AcDbEntity
  8
0
  6
Continuous
 62
     7
370
    25
100
AcDbLine
 10
200.5146311198
 20
-7.1894807838
 30
0.0
 11
200.5146311198
 21
132.211393411
 31
0.0
  0
LINE
  5
10D
330
1F
100
AcDbEntity
  8
0
  6
Continuous
 62
     7
370
    25
100
AcDbLine
 10
207.3349624354
 20
132.211393411
 30
0.0
 11
207.3349624354
 21
-7.1894807838
 31
0.0
  0
LINE
  5
10E
330
1F
100
AcDbEntity
  8
0
  6
Continuous
 62
     7
370
    25
100
AcDbLine
 10
-207.3349624354
 20
-7.1894807838
 30
0.0
 11
-207.3349624354
 21
132.211393411
 31
0.0
  0
LINE
  5
10F
330
1F
100
AcDbEntity
  8
0
  6
Continuous
 62
     7
370
    25
100
AcDbLine
 10
-200.5146311198
 20
132.211393411
 30
0.0
 11
-200.5146311198
 21
-7.1894807838
 31
0.0
  0
LINE
  5
110
330
1F
100
AcDbEntity
  8
0
  6
Continuous
 62
     7
370
    25
100
AcDbLine
 10
173.2922824631
 20
159.5057255295
 30
0.0
 11
-173.2922824631
 21
159.5057255295
 31
0.0
  0
LINE
  5
111
330
1F
100
AcDbEntity
  8
0
  6
Continuous
 62
     7
370
    25
100
AcDbLine
 10
-173.2922824631
 20
166.3140598976
 30
0.0
 11
173.2922824631
 21
166.3140598976
 31
0.0
  0
LINE
  5
112
330
1F
100
AcDbEntity
  8
0
  6
Continuous
 62
     7
370
    25
100
AcDbLine
 10
172.2119556639
 20
-41.5792709756
 30
0.0
 11
-172.2119556639
 21
-41.5792709756
 31
0.0
  0
LINE
  5
113
330
1F
100
AcDbEntity
  8
0
  6
Continuous
 62
     7
370
    25
100
AcDbLine
 10
-172.2119556639
 20
-34.6135249898
 30
0.0
 11
172.2119556639
 21
-34.6135249898
 31
0.0
  0
LINE
  5
114
330
1F
100
AcDbEntity
  8
0
  6
Continuous
 62
     7
370
    25
100
AcDbLine
 10
246.4560805875
 20
-159.0913007406
 30
0.0
 11
-246.4560805875
 21
-159.0913007406
 31
0.0
  0
LINE
  5
115
330
1F
100
AcDbEntity
  8
0
  6
Continuous
 62
     7
370
    25
100
AcDbLine
 10
-243.6662546935
 20
203.4733129225
 30
0.0
 11
-241.9903929863
 21
201.7974512154
 31
0.0
  0
LINE
  5
116
330
1F
100
AcDbEntity
  8
0
  6
Continuous
 62
     7
370
    25
100
AcDbLine
 10
-250.4255806774
 20
193.3622635243
 30
0.0
 11
-252.1014423846
 21
195.0381252314
 31
0.0
  0
LINE
  5
117
330
1F
100
AcDbEntity
  8
0
  6
Continuous
 62
     7
370
    25
100
AcDbLine
 10
252.1014423846
 20
195.0381252314
 30
0.0
 11
250.4255806774
 21
193.3622635243
 31
0.0
  0
LINE
  5
118
330
1F
100
AcDbEntity
  8
0
  6
Continuous
 62
     7
370
    25
100
AcDbLine
 10
241.9903929863
 20
201.7974512154
 30
0.0
 11
243.6662546935
 21
203.4733129225
 31
0.0
  0
LINE
  5
119
330
1F
100
AcDbEntity
  8
0
  6
Continuous
 62
     7
370
    25
100
AcDbLine
 10
-243.6662546935
 20
203.4733129225
 30
0.0
 11
243.6662546935
 21
203.4733129225
 31
0.0
  0
LINE
  5
11A
330
1F
100
AcDbEntity
  8
0
  6
Continuous
 62
     7
370
    25
100
AcDbLine
 10
-252.1014423846
 20
-159.0913007406
 30
0.0
 11
-252.1014423846
 21
195.0381252314
 31
0.0
  0
LINE
  5
11B
330
1F
100
AcDbEntity
  8
0
  6
Continuous
 62
     7
370
    25
100
AcDbLine
 10
-250.4255806774
 20
-159.0913007406
 30
0.0
 11
-252.1014423846
 21
-159.0913007406
 31
0.0
  0
LINE
  5
11C
330
1F
100
AcDbEntity
  8
0
  6
Continuous
 62
     7
370
    25
100
AcDbLine
 10
252.1014423846
 20
-159.0913007406
 30
0.0
 11
252.1014423846
 21
195.0381252314
 31
0.0
  0
LINE
  5
11D
330
1F
100
AcDbEntity
  8
0
  6
Continuous
 62
     7
370
    25
100
AcDbLine
 10
250.4255806774
 20
-159.0913007406
 30
0.0
 11
252.1014423846
 21
-159.0913007406
 31
0.0
  0
LINE
  5
11E
330
1F
100
AcDbEntity
  8
0
  6
Continuous
 62
     7
370
    25
100
AcDbLine
 10
0.0014814882
 20
-24.7590807277
 30
0.0
 11
-0.0054210642
 21
-24.7590806655
 31
0.0
  0
LINE
  5
11F
330
1F
100
AcDbEntity
  8
0
  6
Continuous
 62
     7
370
    25
100
AcDbLine
 10
0.0001531474
 20
-13.7664663814
 30
0.0
 11
0.0055232732
 21
-13.7664619173
 31
0.0
  0
ARC
  5
120
330
1F
100
AcDbEntity
  8
0
  6
Continuous
 62
     7
370
    25
100
AcDbCircle
 10
-16.6301000765
 20
-13.2260698872
 30
0.0
 40
167.1949298449837
100
AcDbArc
 50
355.9178677138
 51
0.8179458883
  0
ARC
  5
121
330
1F
100
AcDbEntity
  8
0
  6
Continuous
 62
     7
370
    25
100
AcDbCircle
 10
6.0893168108
 20
-13.5264095531
 30
0.0
 40
156.6601566787743
100
AcDbArc
 50
179.0171878466
 51
184.2469985513
  0
ARC
  5
122
330
1F
100
AcDbEntity
  8
0
  6
Continuous
 62
     7
370
    25
100
AcDbCircle
 10
164.7993943635
 20
290.5312213697
 30
0.0
 40
288.2565304565306
100
AcDbArc
 50
269.7877857283
 51
272.5868256917
  0
ARC
  5
123
330
1F
100
AcDbEntity
  8
0
  6
Continuous
 62
     7
370
    25
100
AcDbCircle
 10
-164.7993943635
 20
290.5312213697
 30
0.0
 40
288.2565304565545
100
AcDbArc
 50
267.4131743083
 51
270.2122142717
  0
ARC
  5
124
330
1F
100
AcDbEntity
  8
0
  6
Continuous
 62
     7
370
    25
100
AcDbCircle
 10
164.8144353087
 20
-472.7152256432
 30
0.0
 40
581.5826104542876
100
AcDbArc
 50
88.7203265371
 51
90.1040404617
  0
ARC
  5
125
330
1F
100
AcDbEntity
  8
0
  6
Continuous
 62
     7
370
    25
100
AcDbCircle
 10
-164.8144353087
 20
-472.7152256438
 30
0.0
 40
581.5826104548944
100
AcDbArc
 50
89.8959595383
 51
91.2796734629
  0
ARC
  5
126
330
1F
100
AcDbEntity
  8
0
  6
Continuous
 62
     7
370
    25
100
AcDbCircle
 10
-21.7517619825
 20
122.6330577084
 30
0.0
 40
172.7356669176338
100
AcDbArc
 50
359.6386456223
 51
4.4068784803
  0
ARC
  5
127
330
1F
100
AcDbEntity
  8
0
  6
Continuous
 62
     7
370
    25
100
AcDbCircle
 10
21.7517619825
 20
122.6330577084
 30
0.0
 40
172.7356669176376
100
AcDbArc
 50
175.5931215197
 51
180.3613543777
  0
SPLINE
  5
128
330
1B
100
AcDbEntity
 67
     1
  8
0
  6
Continuous
 62
     7
370
    25
100
AcDbSpline
210
0.0
220
0.0
230
1.0
 70
     8
 71
     3
 72
    16
 73
    12
 74
     0
 42
0.000000001
 43
0.00000001
 40
0.0
 40
0.0
 40
0.0
 40
0.0
 40
0.03126302364696
 40
0.1104973849960938
 40
0.2086810427200188
 40
0.3258005259360408
 40
0.4618276237880619
 40
0.6167492089997416
 40
0.7905724171221695
 40
0.9832772593033823
 40
1.0
 40
1.0
 40
1.0
 40
1.0
 10
46.0243015839783
 20
0.5099790076007471
 30
0.0
 10
46.57592109294118
 20
0.5271927288921854
 30
0.0
 10
48.52558897988449
 20
0.5880336510702342
 30
0.0
 10
52.21487874247418
 20
0.7082398904980289
 30
0.0
 10
57.42518714592072
 20
0.8853427088816799
 30
0.0
 10
63.64386126820519
 20
1.10705760263561
 30
0.0
 10
70.86899845625234
 20
1.376481070709486
 30
0.0
 10
79.09989893225858
 20
1.695074218152966
 30
0.0
 10
88.33595259643815
 20
2.065703197235355
 30
0.0
 10
95.12468370327767
 20
2.343658947226372
 30
0.0
 10
98.83482526232518
 20
2.49975051131221
 30
0.0
 10
99.13107914821323
 20
2.512214384099494
 30
0.0
  0
SPLINE
  5
129
330
1B
100
AcDbEntity
 67
     1
  8
0
  6
Continuous
 62
     7
370
    25
100
AcDbSpline
210
0.0
220
0.0
230
1.0
 70
     8
 71
     3
 72
    18
 73
    14
 74
     0
 42
0.000000001
 43
0.00000001
 40
0.0
 40
0.0
 40
0.0
 40
0.0
 40
0.1649397202519927
 40
0.3265357888353903
 40
0.4692011186900952
 40
0.5929305374381815
 40
0.6977261716892298
 40
0.7835717385381846
 40
0.8504633064174928
 40
0.891747131029705
 40
0.9202949085573383
 40
0.954276547891052
 40
1.0
 40
1.0
 40
1.0
 40
1.0
 10
-99.13313805626535
 20
2.509854885531106
 30
0.0
 10
-96.19370048148133
 20
2.387524985175291
 30
0.0
 10
-90.37441349743604
 20
2.145345051501268
 30
0.0
 10
-82.01431683148611
 20
1.807657606134112
 30
0.0
 10
-74.3901690584936
 20
1.508393539974271
 30
0.0
 10
-67.7802431800444
 20
1.257352371663266
 30
0.0
 10
-62.18502502866447
 20
1.052295600251017
 30
0.0
 10
-57.60612206822839
 20
0.8906097682110647
 30
0.0
 10
-54.1610544040557
 20
0.7730693955633888
 30
0.0
 10
-51.74397094294823
 20
0.692743960041424
 30
0.0
 10
-49.91622223038596
 20
0.6331339349363307
 30
0.0
 10
-48.09157316745456
 20
0.5744945985416833
 30
0.0
 10
-46.78126482723262
 20
0.53358095098454
 30
0.0
 10
-46.02959615014198
 20
0.5101105155227437
 30
0.0
  0
SPLINE
  5
12C
330
1B
100
AcDbEntity
 67
     1
  8
0
  6
Continuous
 62
     7
370
    25
100
AcDbSpline
210
0.0
220
0.0
230
1.0
 70
     8
 71
     3
 72
    12
 73
     8
 74
     0
 42
0.000000001
 43
0.00000001
 40
0.0
 40
0.0
 40
0.0
 40
0.0
 40
0.2505963560224833
 40
0.3799275069415011
 40
0.509382030524338
 40
0.7628269905878269
 40
1.0
 40
1.0
 40
1.0
 40
1.0
 10
-46.11058916291982
 20
0.5125044273760482
 30
0.0
 10
-45.19427569321708
 20
0.3956548245486746
 30
0.0
 10
-43.80505879618508
 20
0.2184999010136843
 30
0.0
 10
-42.05537909481038
 20
-0.7008588224467899
 30
0.0
 10
-40.47678054475035
 20
-1.928658373546804
 30
0.0
 10
-38.95323189964461
 20
-3.955161700050322
 30
0.0
 10
-38.58952462341389
 20
-5.862662935696678
 30
0.0
 10
-38.41370238571452
 20
-6.784781236824515
 30
0.0
  0
SPLINE
  5
12D
330
1B
100
AcDbEntity
 67
     1
  8
0
  6
Continuous
 62
     7
370
    25
100
AcDbSpline
210
0.0
220
0.0
230
1.0
 70
     8
 71
     3
 72
    11
 73
     7
 74
     0
 42
0.000000001
 43
0.00000001
 40
0.0
 40
0.0
 40
0.0
 40
0.0
 40
0.2415367325868081
 40
0.4999071226943673
 40
0.7583251381150026
 40
1.0
 40
1.0
 40
1.0
 40
1.0
 10
38.41370005386297
 20
-6.784786902099771
 30
0.0
 10
38.59068659255408
 20
-5.860931480925091
 30
0.0
 10
38.95699456718445
 20
-3.94883347231665
 30
0.0
 10
40.768432426211
 20
-1.545482086143954
 30
0.0
 10
43.26846060725622
 20
0.1295370572521187
 30
0.0
 10
45.19644889868977
 20
0.388278719590289
 30
0.0
 10
46.12816843558556
 20
0.5133182039484194
 30
0.0
  0
LWPOLYLINE
  5
13E
330
1B
100
AcDbEntity
 67
     1
  8
0
  6
Continuous
 62
     7
370
    25
100
AcDbPolyline
 90
        9
 70
   128
 43
0.0
 10
-32.2500214369
 20
15.53833409
 10
-32.0521220589
 20
15.3528976756
 10
-31.4794133029
 20
15.1879093739
 10
-30.5538078289
 20
15.0496818744
 10
-29.3107206325
 20
14.9435039598
 10
-27.7977140163
 20
14.8734381499
 10
-26.0726777878
 20
14.8421652631
 10
-24.2016143121
 20
14.8508818451
 10
-22.2561131667
 20
14.8992543869
  0
LWPOLYLINE
  5
140
330
1B
100
AcDbEntity
 67
     1
  8
0
  6
Continuous
 62
     7
370
    25
100
AcDbPolyline
 90
        9
 70
   128
 43
0.0
 10
22.2561131667
 20
14.8992543869
 10
24.2016143121
 20
14.8508818451
 10
26.0726777878
 20
14.8421652631
 10
27.7977140163
 20
14.8734381499
 10
29.3107206325
 20
14.9435039598
 10
30.5538078289
 20
15.0496818744
 10
31.4794133029
 20
15.1879093739
 10
32.0521220589
 20
15.3528976756
 10
32.2500214369
 20
15.53833409
  0
SPLINE
  5
143
330
1B
100
AcDbEntity
 67
     1
  8
0
  6
Continuous
 62
     7
370
    25
100
AcDbSpline
210
0.0
220
0.0
230
1.0
 70
     8
 71
     3
 72
    71
 73
    67
 74
     0
 42
0.000000001
 43
0.00000001
 40
0.0
 40
0.0
 40
0.0
 40
0.0
 40
0.0102683132513672
 40
0.0205633119542576
 40
0.0308849977361857
 40
0.0412333722120398
 40
0.0516084369842106
 40
0.0620101936427209
 40
0.0724386437653514
 40
0.0828937889177615
 40
0.093375630653614
 40
0.1038841705146995
 40
0.1144194100310496
 40
0.12498135072106
 40
0.1355699940916072
 40
0.1461853416381571
 40
0.156827394844889
 40
0.1674961551847994
 40
0.1781916241198176
 40
0.1889138031009137
 40
0.1996626935682059
 40
0.2104382969510716
 40
0.2212406146682432
 40
0.2320696481279299
 40
0.2429253987279
 40
0.2538078678555977
 40
0.2647170568882392
 40
0.2756529671929083
 40
0.2866156001266619
 40
0.2976049570366206
 40
0.3086210392600658
 40
0.3196638481245395
 40
0.3307333849479288
 40
0.3418296510385667
 40
0.3529526476953193
 40
0.3641023762076759
 40
0.3752788378558402
 40
0.3864820339108161
 40
0.3977119656344972
 40
0.4089686342797517
 40
0.4202520410905044
 40
0.431562187301828
 40
0.4428990741400179
 40
0.4542627028226811
 40
0.4656530745588145
 40
0.4770701905488824
 40
0.4885140519849007
 40
0.4999846600505135
 40
0.5602017059068269
 40
0.6231443874163554
 40
0.688812617522109
 40
0.7572062852158024
 40
0.7712781305121202
 40
0.7858531442348524
 40
0.8009313254771013
 40
0.8165126732011194
 40
0.8325971862475025
 40
0.8491848633429697
 40
0.8662757031070201
 40
0.8838697040576188
 40
0.9019668646161034
 40
0.9205671831114264
 40
0.9396706577838291
 40
0.9592772867880587
 40
0.979387068196171
 40
1.0
 40
1.0
 40
1.0
 40
1.0
 10
21.00865396723635
 20
-29.75394260927368
 30
0.0
 10
21.00949851664047
 20
-29.72375714828172
 30
0.0
 10
21.01118981027679
 20
-29.66330777985425
 30
0.0
 10
21.0140806554823
 20
-29.56050712764913
 30
0.0
 10
21.0172343841548
 20
-29.44862349097767
 30
0.0
 10
21.0206763659785
 20
-29.32673989472155
 30
0.0
 10
21.02439977676288
 20
-29.19503890567422
 30
0.0
 10
21.02840645214985
 20
-29.05340990329699
 30
0.0
 10
21.03269589839494
 20
-28.90182376679081
 30
0.0
 10
21.03726824832323
 20
-28.74023214669784
 30
0.0
 10
21.0421234662234
 20
-28.56859461674406
 30
0.0
 10
21.04726156171701
 20
-28.38687142792912
 30
0.0
 10
21.05268253223187
 20
-28.1950255148886
 30
0.0
 10
21.05838637847544
 20
-27.99302201349412
 30
0.0
 10
21.06437310027298
 20
-27.78082844774503
 30
0.0
 10
21.0706426976868
 20
-27.55841473648635
 30
0.0
 10
21.07719517071537
 20
-27.32575324840909
 30
0.0
 10
21.08403051937417
 20
-27.08281884385745
 30
0.0
 10
21.09114874367395
 20
-26.82958891994992
 30
0.0
 10
21.09854984362662
 20
-26.56604345454607
 30
0.0
 10
21.1062338192436
 20
-26.29216505023165
 30
0.0
 10
21.11420067053638
 20
-26.00793897797772
 30
0.0
 10
21.1224503975162
 20
-25.7133532205359
 30
0.0
 10
21.13098300019433
 20
-25.40839851552346
 30
0.0
 10
21.13979847858181
 20
-25.09306839817949
 30
0.0
 10
21.1488968326897
 20
-24.76735924376625
 30
0.0
 10
21.15827806252885
 20
-24.43127030959095
 30
0.0
 10
21.16794216811012
 20
-24.08480377662285
 30
0.0
 10
21.17788914944414
 20
-23.72796479067947
 30
0.0
 10
21.18811900654158
 20
-23.36076150315682
 30
0.0
 10
21.19863173941291
 20
-22.98320511127656
 30
0.0
 10
21.20942734806857
 20
-22.59530989782409
 30
0.0
 10
21.22050583251885
 20
-22.19709327035008
 30
0.0
 10
21.23186719277402
 20
-21.78857579980951
 30
0.0
 10
21.24351142884413
 20
-21.36978125860758
 30
0.0
 10
21.25543854073942
 20
-20.94073665803499
 30
0.0
 10
21.2676485284693
 20
-20.50147228502756
 30
0.0
 10
21.28014139204544
 20
-20.05202173835928
 30
0.0
 10
21.29291713147104
 20
-19.59242196372792
 30
0.0
 10
21.30597574678028
 20
-19.12271328962052
 30
0.0
 10
21.31931723789114
 20
-18.64293945675635
 30
0.0
 10
21.33294160515619
 20
-18.15314766794299
 30
0.0
 10
21.34684884730014
 20
-17.65338855769946
 30
0.0
 10
21.36103896914391
 20
-17.14371645845539
 30
0.0
 10
21.37551195267625
 20
-16.62418855193569
 30
0.0
 10
21.39026786539704
 20
-16.09486819158437
 30
0.0
 10
21.40530645455025
 20
-15.55581259925136
 30
0.0
 10
21.44232160002169
 20
-14.23028791830165
 30
0.0
 10
21.50524395393028
 20
-11.98135687152609
 30
0.0
 10
21.59965674843416
 20
-8.604461533311895
 30
0.0
 10
21.70408138458138
 20
-4.864122708925132
 30
0.0
 10
21.78669843691894
 20
-1.902849236500519
 30
0.0
 10
21.84228122019984
 20
0.0855892244042422
 30
0.0
 10
21.86756414563972
 20
0.9890445297654691
 30
0.0
 10
21.89394062156409
 20
1.931287867747079
 30
0.0
 10
21.9214132761868
 20
2.912704242990838
 30
0.0
 10
21.9499813966155
 20
3.933598789442536
 30
0.0
 10
21.97964520873098
 20
4.994215843318835
 30
0.0
 10
22.01040466715453
 20
6.094723389799459
 30
0.0
 10
22.04225981753296
 20
7.23520759416954
 30
0.0
 10
22.07521061042741
 20
8.41566152304482
 30
0.0
 10
22.1092572837069
 20
9.63598552792571
 30
0.0
 10
22.14439897288437
 20
10.89594390700188
 30
0.0
 10
22.18063908229556
 20
12.19528965379897
 30
0.0
 10
22.21796445415337
 20
13.53323627197439
 30
0.0
 10
22.24329261498835
 20
14.44017976173241
 30
0.0
 10
22.25611316673525
 20
14.89925438691792
 30
0.0
  0
SPLINE
  5
145
330
1B
100
AcDbEntity
 67
     1
  8
0
  6
Continuous
 62
     7
370
    25
100
AcDbSpline
210
0.0
220
0.0
230
1.0
 70
     8
 71
     3
 72
    56
 73
    52
 74
     0
 42
0.000000001
 43
0.00000001
 40
0.0
 40
0.0
 40
0.0
 40
0.0
 40
0.0100147983975897
 40
0.0199123261957935
 40
0.0296925833638339
 40
0.0393555698727739
 40
0.0489012856955727
 40
0.058329730807146
 40
0.0676409051844246
 40
0.0768348088064164
 40
0.0859114416542867
 40
0.0948708037114275
 40
0.1037128949635322
 40
0.1124377153986879
 40
0.1210452650074647
 40
0.1295355437830074
 40
0.1379085517211445
 40
0.1461642888204972
 40
0.1543027550826016
 40
0.1623239505120313
 40
0.1702278751165371
 40
0.1780145289071957
 40
0.1856839118985686
 40
0.1932360241088685
 40
0.200670865560154
 40
0.2079884362785176
 40
0.2151887362943083
 40
0.2222717656423666
 40
0.2292375243622715
 40
0.2360860124986212
 40
0.2428172301013288
 40
0.3112152094018563
 40
0.3768882545731077
 40
0.4398362547167309
 40
0.5000591228763391
 40
0.5663798236527845
 40
0.6313547555980109
 40
0.694984101126337
 40
0.7572680590054759
 40
0.7777985927679988
 40
0.7982740242452953
 40
0.8186943636410845
 40
0.8390596212421909
 40
0.859369807419437
 40
0.8796249326285377
 40
0.8998250074110079
 40
0.9199700423950838
 40
0.9400600482966556
 40
0.9600950359202133
 40
0.9800750161598029
 40
1.0
 40
1.0
 40
1.0
 40
1.0
 10
-22.25611316673525
 20
14.89925438691792
 30
0.0
 10
-22.24988130108576
 20
14.67614516209827
 30
0.0
 10
-22.23749054325976
 20
14.23253926155726
 30
0.0
 10
-22.219059911507
 20
13.5722832071811
 30
0.0
 10
-22.20088212164343
 20
12.9208764197837
 30
0.0
 10
-22.18296036468167
 20
12.27846989060986
 30
0.0
 10
-22.16529380056503
 20
11.64510657762641
 30
0.0
 10
-22.14788265006268
 20
11.02084841965159
 30
0.0
 10
-22.1307268548186
 20
10.40574322176427
 30
0.0
 10
-22.11382642988603
 20
9.799833675683017
 30
0.0
 10
-22.09718137099715
 20
9.203155293316314
 30
0.0
 10
-22.08079167894783
 20
8.615737254317898
 30
0.0
 10
-22.06465735318558
 20
8.037602485020827
 30
0.0
 10
-22.04877839349373
 20
7.468767936855566
 30
0.0
 10
-22.03315479954755
 20
6.909244809525969
 30
0.0
 10
-22.01778657102954
 20
6.359038785680574
 30
0.0
 10
-22.00267370759769
 20
5.818150259347934
 30
0.0
 10
-21.98781620889201
 20
5.286574562609086
 30
0.0
 10
-21.97321407453174
 20
4.764302189169935
 30
0.0
 10
-21.95886730411177
 20
4.251319015003585
 30
0.0
 10
-21.94477589721012
 20
3.747606515961302
 30
0.0
 10
-21.93093985335247
 20
3.253141981925618
 30
0.0
 10
-21.91735917213262
 20
2.767898728665452
 30
0.0
 10
-21.90403385276412
 20
2.291846302714382
 30
0.0
 10
-21.89096389570444
 20
1.824950695951427
 30
0.0
 10
-21.87814929672351
 20
1.367174508724658
 30
0.0
 10
-21.8655900685044
 20
0.9184772840984956
 30
0.0
 10
-21.85328616194993
 20
0.4788152020660519
 30
0.0
 10
-21.84123775269258
 20
0.0481430874422345
 30
0.0
 10
-21.82944419831724
 20
-0.3735920208037535
 30
0.0
 10
-21.7826114327927
 20
-2.049525770923662
 30
0.0
 10
-21.70407923560695
 20
-4.864105351461374
 30
0.0
 10
-21.59966141268945
 20
-8.604357218331193
 30
0.0
 10
-21.50523783609761
 20
-11.98142782755867
 30
0.0
 10
-21.416716299097
 20
-15.14601015225757
 30
0.0
 10
-21.33454778932682
 20
-18.09036380216243
 30
0.0
 10
-21.25904012792494
 20
-20.79462063996425
 30
0.0
 10
-21.19340675806669
 20
-23.14238402179041
 30
0.0
 10
-21.14969689223062
 20
-24.70503779891299
 30
0.0
 10
-21.12216459063416
 20
-25.69091963874312
 30
0.0
 10
-21.10675906193206
 20
-26.24273227805822
 30
0.0
 10
-21.09236837659748
 20
-26.75828509615052
 30
0.0
 10
-21.07899176778613
 20
-27.23748558202976
 30
0.0
 10
-21.0666294077308
 20
-27.68025607481411
 30
0.0
 10
-21.05528137066716
 20
-28.08654908209403
 30
0.0
 10
-21.04494718974416
 20
-28.45636807869657
 30
0.0
 10
-21.03562865083443
 20
-28.78966646331028
 30
0.0
 10
-21.02731910242673
 20
-29.08672633720545
 30
0.0
 10
-21.02004326990482
 20
-29.34674658478563
 30
0.0
 10
-21.01370925503459
 20
-29.57308834302115
 30
0.0
 10
-21.01033751420888
 20
-29.69371326832001
 30
0.0
 10
-21.00865396723635
 20
-29.75394260927368
 30
0.0
  0
SPLINE
  5
146
330
1B
100
AcDbEntity
 67
     1
  8
0
  6
Continuous
 62
     7
370
    25
100
AcDbSpline
210
0.0
220
0.0
230
1.0
 70
    24
 71
     3
 72
    22
 73
    18
 74
     0
 42
0.000000001
 43
0.00000001
 40
0.0
 40
0.0
 40
0.0
 40
0.0
 40
0.1249999999999999
 40
0.1249999999999999
 40
0.2499999999999999
 40
0.2499999999999999
 40
0.3749999999999998
 40
0.3749999999999998
 40
0.4999999999999998
 40
0.4999999999999998
 40
0.6249999999999998
 40
0.6249999999999998
 40
0.7499999999999998
 40
0.7499999999999998
 40
0.8749999999999998
 40
0.8749999999999998
 40
1.0
 40
1.0
 40
1.0
 40
1.0
 10
32.2500214369262
 20
15.5383340900389
 30
0.0
 10
32.17789860363683
 20
13.47300636848301
 30
0.0
 10
32.10434328841601
 20
11.3666577315148
 30
0.0
 10
31.95720948581423
 20
7.153296893732147
 30
0.0
 10
31.88364210329729
 20
5.046602694615745
 30
0.0
 10
31.73987244061177
 20
0.929578219553695
 30
0.0
 10
31.66968662975485
 20
-1.080280437011485
 30
0.0
 10
31.53618418955765
 20
-4.903290128385342
 30
0.0
 10
31.47288520763075
 20
-6.715935807395053
 30
0.0
 10
31.35624601228366
 20
-10.05604534806985
 30
0.0
 10
31.30291916100196
 20
-11.58312656815287
 30
0.0
 10
31.20841307791109
 20
-14.28942670031885
 30
0.0
 10
31.16723887521023
 20
-15.46850159758316
 30
0.0
 10
31.09803734298555
 20
-17.45017420193492
 30
0.0
 10
31.07000608080225
 20
-18.25288452565563
 30
0.0
 10
31.0268848110948
 20
-19.4877161268792
 30
0.0
 10
31.01178458584626
 20
-19.92013000172595
 30
0.0
 10
31.0025622374273
 20
-20.18422350691425
 30
0.0
  0
SPLINE
  5
148
330
1B
100
AcDbEntity
 67
     1
  8
0
  6
Continuous
 62
     7
370
    25
100
AcDbSpline
210
0.0
220
0.0
230
1.0
 70
    24
 71
     3
 72
    22
 73
    18
 74
     0
 42
0.000000001
 43
0.00000001
 40
0.0
 40
0.0
 40
0.0
 40
0.0
 40
0.1249999999999999
 40
0.1249999999999999
 40
0.2499999999999998
 40
0.2499999999999998
 40
0.3749999999999998
 40
0.3749999999999998
 40
0.4999999999999999
 40
0.4999999999999999
 40
0.6249999999999999
 40
0.6249999999999999
 40
0.7499999999999999
 40
0.7499999999999999
 40
0.875
 40
0.875
 40
1.0
 40
1.0
 40
1.0
 40
1.0
 10
-31.0025622374273
 20
-20.18422350691425
 30
0.0
 10
-31.01178458584625
 20
-19.92013000172595
 30
0.0
 10
-31.0268848110948
 20
-19.48771612687919
 30
0.0
 10
-31.07000608080225
 20
-18.25288452565561
 30
0.0
 10
-31.09803734298555
 20
-17.45017420193494
 30
0.0
 10
-31.16723887521021
 20
-15.46850159758316
 30
0.0
 10
-31.20841307791109
 20
-14.28942670031885
 30
0.0
 10
-31.30291916100195
 20
-11.58312656815288
 30
0.0
 10
-31.35624601228365
 20
-10.05604534806986
 30
0.0
 10
-31.47288520763075
 20
-6.715935807395066
 30
0.0
 10
-31.53618418955767
 20
-4.903290128385321
 30
0.0
 10
-31.66968662975486
 20
-1.080280437011458
 30
0.0
 10
-31.73987244061176
 20
0.9295782195537019
 30
0.0
 10
-31.88364210329729
 20
5.046602694615751
 30
0.0
 10
-31.95720948581422
 20
7.153296893732161
 30
0.0
 10
-32.104343288416
 20
11.36665773151482
 30
0.0
 10
-32.17789860363683
 20
13.47300636848301
 30
0.0
 10
-32.2500214369262
 20
15.53833409003891
 30
0.0
  0
LWPOLYLINE
  5
14A
330
1B
100
AcDbEntity
 67
     1
  8
0
  6
Continuous
 62
     7
370
    25
100
AcDbPolyline
 90
        9
 70
   128
 43
0.0
 10
-40.6294065857
 20
27.0533225198
 10
-39.0730056694
 20
27.0920205532
 10
-37.5761548889
 20
27.0989938188
 10
-36.196125906
 20
27.0739755094
 10
-34.9857206131
 20
27.0179228615
 10
-33.991250856
 20
26.9329805298
 10
-33.2507664768
 20
26.8223985302
 10
-32.792599472
 20
26.6904078888
 10
-32.6342799696
 20
26.5420587573
  0
LWPOLYLINE
  5
14B
330
1B
100
AcDbEntity
 67
     1
  8
0
  6
Continuous
 62
     7
370
    25
100
AcDbPolyline
 90
        9
 70
   128
 43
0.0
 10
40.6294065857
 20
27.0533225198
 10
39.0730056694
 20
27.0920205532
 10
37.5761548889
 20
27.0989938188
 10
36.1961259061
 20
27.0739755094
 10
34.9857206131
 20
27.0179228615
 10
33.991250856
 20
26.9329805298
 10
33.2507664768
 20
26.8223985302
 10
32.792599472
 20
26.6904078888
 10
32.6342799696
 20
26.5420587573
  0
SPLINE
  5
14C
330
1B
100
AcDbEntity
 67
     1
  8
0
  6
Continuous
 62
     7
370
    25
100
AcDbSpline
210
0.0
220
0.0
230
1.0
 70
     8
 71
     3
 72
    35
 73
    31
 74
     0
 42
0.000000001
 43
0.00000001
 40
0.0
 40
0.0
 40
0.0
 40
0.0
 40
0.0151076317102328
 40
0.0302945212901623
 40
0.0455584320131953
 40
0.0608970440604114
 40
0.076307955823887
 40
0.0917886854109508
 40
0.1073366723507302
 40
0.1229492795034644
 40
0.1386237951722094
 40
0.1543574354156283
 40
0.170147346559635
 40
0.1859906079047137
 40
0.2018842346247509
 40
0.2178251808522741
 40
0.2338103429440178
 40
0.2498365629197718
 40
0.3091865871306061
 40
0.3707045901920092
 40
0.4342487847539666
 40
0.4996398950067453
 40
0.6148876905846589
 40
0.7492580114708464
 40
0.8002806156354422
 40
0.8747212579869135
 40
0.9133139936254715
 40
0.9469681901258169
 40
0.9758195617703881
 40
1.0
 40
1.0
 40
1.0
 40
1.0
 10
-39.33118595929637
 20
3.116906432052903
 30
0.0
 10
-39.33307717668018
 20
3.14962570527904
 30
0.0
 10
-39.33686953317902
 20
3.215235904042123
 30
0.0
 10
-39.34328160505132
 20
3.326814751619854
 30
0.0
 10
-39.35023857972185
 20
3.448461479022641
 30
0.0
 10
-39.35779068473543
 20
3.581194230217202
 30
0.0
 10
-39.36592268956925
 20
3.724834655385409
 30
0.0
 10
-39.37463747901831
 20
3.879511936841995
 30
0.0
 10
-39.38393350704409
 20
4.045256265271531
 30
0.0
 10
-39.39381089311051
 20
4.222108044811046
 30
0.0
 10
-39.40426978882608
 20
4.410087972401263
 30
0.0
 10
-39.41531082653886
 20
4.609204679635721
 30
0.0
 10
-39.42693501284969
 20
4.819452334079148
 30
0.0
 10
-39.43914374133504
 20
5.040810827539238
 30
0.0
 10
-39.45193888064274
 20
5.273245949082184
 30
0.0
 10
-39.46532243211662
 20
5.516707248471753
 30
0.0
 10
-39.47929783362616
 20
5.771135450470713
 30
0.0
 10
-39.50698106666615
 20
6.27530248986495
 30
0.0
 10
-39.55227978566282
 20
7.098907535127235
 30
0.0
 10
-39.62061754553488
 20
8.34813192186109
 30
0.0
 10
-39.6984060228014
 20
9.77951424093896
 30
0.0
 10
-39.80708838143512
 20
11.78826466674614
 30
0.0
 10
-39.96426367028045
 20
14.67031202825762
 30
0.0
 10
-40.12862472079216
 20
17.73982445504942
 30
0.0
 10
-40.27960459167927
 20
20.5345919025486
 30
0.0
 10
-40.37718100507958
 20
22.35413558303075
 30
0.0
 10
-40.46616355518335
 20
24.01171912638184
 30
0.0
 10
-40.52802967070259
 20
25.16569030657053
 30
0.0
 10
-40.5815386841674
 20
26.16157719760676
 30
0.0
 10
-40.61441618531795
 20
26.77404491036765
 30
0.0
 10
-40.62940704434389
 20
27.05330631463015
 30
0.0
  0
SPLINE
  5
14E
330
1B
100
AcDbEntity
 67
     1
  8
0
  6
Continuous
 62
     7
370
    25
100
AcDbSpline
210
0.0
220
0.0
230
1.0
 70
     8
 71
     3
 72
    31
 73
    27
 74
     0
 42
0.000000001
 43
0.00000001
 40
0.0
 40
0.0
 40
0.0
 40
0.0
 40
0.013241933114392
 40
0.0279816105120661
 40
0.044242388452459
 40
0.0620486957409491
 40
0.0814256229619547
 40
0.1023984393570292
 40
0.124992029879666
 40
0.1991132483360542
 40
0.2497915806009596
 40
0.3841831004224165
 40
0.4993751386644243
 40
0.564776339634037
 40
0.6283261526251295
 40
0.6898450710992133
 40
0.7491911777070983
 40
0.7777680574094659
 40
0.8062063669051273
 40
0.8344885199085523
 40
0.8625975344570335
 40
0.8905170888923287
 40
0.9182315717744393
 40
0.9457261254733869
 40
0.9729866832834196
 40
1.0
 40
1.0
 40
1.0
 40
1.0
 10
40.62940704435342
 20
27.0533063146474
 30
0.0
 10
40.62119887500282
 20
26.90031581955517
 30
0.0
 10
40.60385414173756
 20
26.57703066105618
 30
0.0
 10
40.57645719491535
 20
26.06717518643007
 30
0.0
 10
40.546325175533
 20
25.50616101030807
 30
0.0
 10
40.51346738804578
 20
24.89396610206141
 30
0.0
 10
40.47788998634154
 20
24.23065264457232
 30
0.0
 10
40.4396030443152
 20
23.51654426762113
 30
0.0
 10
40.36836921500709
 20
22.19020392040295
 30
0.0
 10
40.28070972400187
 20
20.55508232402863
 30
0.0
 10
40.13004040994528
 20
17.76614303743336
 30
0.0
 10
39.96578559147422
 20
14.69839768685239
 30
0.0
 10
39.80847032003791
 20
11.81377521213693
 30
0.0
 10
39.69967159222391
 20
9.802800305222917
 30
0.0
 10
39.62176455449374
 20
8.36916183526968
 30
0.0
 10
39.55330847011928
 20
7.117712376947853
 30
0.0
 10
39.50376136722116
 20
6.216769923179558
 30
0.0
 10
39.4689548741578
 20
5.582714140401866
 30
0.0
 10
39.44519413363955
 20
5.150486013715907
 30
0.0
 10
39.4233047574792
 20
4.753475508130808
 30
0.0
 10
39.40327332920221
 20
4.391858726691248
 30
0.0
 10
39.38509735203706
 20
4.065754926275332
 30
0.0
 10
39.36876202971411
 20
3.774856911104199
 30
0.0
 10
39.3543141858411
 20
3.51975846360373
 30
0.0
 10
39.3415921068181
 20
3.297102296778376
 30
0.0
 10
39.33464412477738
 20
3.176789027212142
 30
0.0
 10
39.33118595929638
 20
3.11690643205291
 30
0.0
  0
SPLINE
  5
150
330
1B
100
AcDbEntity
 67
     1
  8
0
  6
Continuous
 62
     7
370
    25
100
AcDbSpline
210
0.0
220
0.0
230
1.0
 70
     8
 71
     3
 72
    24
 73
    20
 74
     0
 42
0.000000001
 43
0.00000001
 40
0.0
 40
0.0
 40
0.0
 40
0.0
 40
0.0235161633567469
 40
0.0508925831255456
 40
0.0822625167335742
 40
0.1177642143680539
 40
0.1575341593449459
 40
0.2016982392850327
 40
0.2503605923714842
 40
0.3845637030610928
 40
0.5000519878947657
 40
0.6298015700431076
 40
0.7498566438704596
 40
0.792541646170232
 40
0.8349221366619722
 40
0.8769250434275105
 40
0.9184811657997676
 40
0.9595259255369069
 40
1.0
 40
1.0
 40
1.0
 40
1.0
 10
-39.1555954328671
 20
0.6006075227080326
 30
0.0
 10
-39.06631889838962
 20
0.5959098504556143
 30
0.0
 10
-38.87311078943366
 20
0.5857433674296211
 30
0.0
 10
-38.56174730952248
 20
0.5552112684368143
 30
0.0
 10
-38.20658023734424
 20
0.5062764732433889
 30
0.0
 10
-37.80760798618226
 20
0.431542297918544
 30
0.0
 10
-37.36561756011653
 20
0.3241135463957975
 30
0.0
 10
-36.88253470734684
 20
0.1756512758522705
 30
0.0
 10
-36.07374510358758
 20
-0.1325073618777609
 30
0.0
 10
-35.06398911498462
 20
-0.6761808809812377
 30
0.0
 10
-33.92268910370024
 20
-1.583882469699829
 30
0.0
 10
-32.98845020052049
 20
-2.640267575024717
 30
0.0
 10
-32.40198970462304
 20
-3.607881146972774
 30
0.0
 10
-32.07385770947459
 20
-4.327148916849953
 30
0.0
 10
-31.89807671781448
 20
-4.784666769928912
 30
0.0
 10
-31.7515150109393
 20
-5.248018062796782
 30
0.0
 10
-31.6348701203557
 20
-5.714547339785707
 30
0.0
 10
-31.54529162378229
 20
-6.181312195718686
 30
0.0
 10
-31.50916794054768
 20
-6.493868181997153
 30
0.0
 10
-31.49123254366103
 20
-6.649052126746012
 30
0.0
  0
SPLINE
  5
151
330
1B
100
AcDbEntity
 67
     1
  8
0
  6
Continuous
 62
     7
370
    25
100
AcDbSpline
210
0.0
220
0.0
230
1.0
 70
     8
 71
     3
 72
    22
 73
    18
 74
     0
 42
0.000000001
 43
0.00000001
 40
0.0
 40
0.0
 40
0.0
 40
0.0
 40
0.0738867772685288
 40
0.1445894773688498
 40
0.2120788004283065
 40
0.2763096782323211
 40
0.3372330650707173
 40
0.3948306285451809
 40
0.4491045687092334
 40
0.4999683966800726
 40
0.5772818733223017
 40
0.6527281842231787
 40
0.7262450736726189
 40
0.7977776413041772
 40
0.8672762043672158
 40
0.9346967042425876
 40
1.0
 40
1.0
 40
1.0
 40
1.0
 10
-39.1555963413257
 20
0.6005832147763374
 30
0.0
 10
-39.15443484647376
 20
0.6226244350451132
 30
0.0
 10
-39.15216191023514
 20
0.665757031120491
 30
0.0
 10
-39.15050810080232
 20
0.7427354347422712
 30
0.0
 10
-39.15002630249824
 20
0.8269752236790759
 30
0.0
 10
-39.15073931326555
 20
0.9188438692682779
 30
0.0
 10
-39.15260096975886
 20
1.017333173469796
 30
0.0
 10
-39.15570133943552
 20
1.121440145049064
 30
0.0
 10
-39.16001597546312
 20
1.230162831812327
 30
0.0
 10
-39.16678538182818
 20
1.364279925893164
 30
0.0
 10
-39.17763280272561
 20
1.53178549666224
 30
0.0
 10
-39.19384059693414
 20
1.743783245223611
 30
0.0
 10
-39.21378728440721
 20
1.976975080609941
 30
0.0
 10
-39.23730324909332
 20
2.23078221874002
 30
0.0
 10
-39.26452212483603
 20
2.505305735406083
 30
0.0
 10
-39.29499380990048
 20
2.796807208473299
 30
0.0
 10
-39.31925086525015
 20
3.011348452272355
 30
0.0
 10
-39.33118591918794
 20
3.116907897955594
 30
0.0
  0
SPLINE
  5
152
330
1B
100
AcDbEntity
 67
     1
  8
0
  6
Continuous
 62
     7
370
    25
100
AcDbSpline
210
0.0
220
0.0
230
1.0
 70
     8
 71
     3
 72
    19
 73
    15
 74
     0
 42
0.000000001
 43
0.00000001
 40
0.0
 40
0.0
 40
0.0
 40
0.0
 40
0.0402331092435852
 40
0.0810474518678857
 40
0.1224364338236845
 40
0.164392866228379
 40
0.2069090142513094
 40
0.2499765423600051
 40
0.3711567931069135
 40
0.4998450803297387
 40
0.6187968883365361
 40
0.749922699464516
 40
0.8662782648687812
 40
1.0
 40
1.0
 40
1.0
 40
1.0
 10
39.33118591918794
 20
3.116907897955594
 30
0.0
 10
39.32368859919885
 20
3.051242304466684
 30
0.0
 10
39.30858564811259
 20
2.918962470078369
 30
0.0
 10
39.28811278024987
 20
2.732402576942787
 30
0.0
 10
39.26899592880608
 20
2.552871436799907
 30
0.0
 10
39.25140666878623
 20
2.381499676837741
 30
0.0
 10
39.23530193729344
 20
2.218127058646158
 30
0.0
 10
39.211948171012
 20
1.969696135545707
 30
0.0
 10
39.18617868937348
 20
1.660523224146206
 30
0.0
 10
39.16494985826989
 20
1.344094080909658
 30
0.0
 10
39.15314834074205
 20
1.083110761246703
 30
0.0
 10
39.14866263124934
 20
0.8836032985391276
 30
0.0
 10
39.14979895699353
 20
0.7191324435745148
 30
0.0
 10
39.15357643971033
 20
0.6418876660650719
 30
0.0
 10
39.1555963413257
 20
0.6005832147763304
 30
0.0
  0
SPLINE
  5
153
330
1B
100
AcDbEntity
 67
     1
  8
0
  6
Continuous
 62
     7
370
    25
100
AcDbSpline
210
0.0
220
0.0
230
1.0
 70
     8
 71
     3
 72
    24
 73
    20
 74
     0
 42
0.000000001
 43
0.00000001
 40
0.0
 40
0.0
 40
0.0
 40
0.0
 40
0.125
 40
0.125
 40
0.25
 40
0.25
 40
0.3749999999999999
 40
0.3749999999999999
 40
0.4999999999999999
 40
0.4999999999999999
 40
0.6249999999999999
 40
0.6249999999999999
 40
0.7499999999999998
 40
0.7499999999999998
 40
0.8124999999999999
 40
0.8124999999999999
 40
0.8749999999999999
 40
0.8749999999999999
 40
1.0
 40
1.0
 40
1.0
 40
1.0
 10
39.15559634132511
 20
0.6005832147763026
 30
0.0
 10
38.68318088929465
 20
0.5803604777304683
 30
0.0
 10
38.20860780762133
 20
0.5174843314868851
 30
0.0
 10
37.28852941002049
 20
0.3118395599753937
 30
0.0
 10
36.84086683167248
 20
0.1696026732372763
 30
0.0
 10
35.97025580348541
 20
-0.1936943722475673
 30
0.0
 10
35.54401735287271
 20
-0.4173738498454635
 30
0.0
 10
34.74529853882493
 20
-0.9319789804718495
 30
0.0
 10
34.37019214110888
 20
-1.223211754357453
 30
0.0
 10
33.66946806645353
 20
-1.875044576918249
 30
0.0
 10
33.34333906892439
 20
-2.237759444034093
 30
0.0
 10
32.76749423811451
 20
-3.007460586122515
 30
0.0
 10
32.51413426371309
 20
-3.417280523084001
 30
0.0
 10
32.18810364520305
 20
-4.071083247202408
 30
0.0
 10
32.08842804623797
 20
-4.296062215543045
 30
0.0
 10
31.91159601706198
 20
-4.750013340433331
 30
0.0
 10
31.83383389407405
 20
-4.980078152926365
 30
0.0
 10
31.63216716671693
 20
-5.679444113828994
 30
0.0
 10
31.53959795904261
 20
-6.15786234532946
 30
0.0
 10
31.49123255318946
 20
-6.649052127684165
 30
0.0
  0
SPLINE
  5
157
330
1B
100
AcDbEntity
 67
     1
  8
0
  6
Continuous
 62
     7
370
    25
100
AcDbSpline
210
0.0
220
0.0
230
1.0
 70
     8
 71
     3
 72
    14
 73
    10
 74
     0
 42
0.000000001
 43
0.00000001
 40
0.0
 40
0.0
 40
0.0
 40
0.0
 40
0.25
 40
0.25
 40
0.5
 40
0.5
 40
0.75
 40
0.75
 40
1.0
 40
1.0
 40
1.0
 40
1.0
 10
0.0
 20
-31.1841089261172
 30
0.0
 10
1.818432199209798
 20
-31.18410892611721
 30
0.0
 10
3.655598957888934
 20
-31.20067976626559
 30
0.0
 10
7.311490459275039
 20
-31.26800356895403
 30
0.0
 10
9.130021188121463
 20
-31.3187601418695
 30
0.0
 10
12.69116520239612
 20
-31.45341135762174
 30
0.0
 10
14.43358751937651
 20
-31.53729877970767
 30
0.0
 10
17.78972606925321
 20
-31.73510841939316
 30
0.0
 10
19.40329456077557
 20
-31.84901410443343
 30
0.0
 10
20.93107413032195
 20
-31.97553846880101
 30
0.0
  0
SPLINE
  5
158
330
1B
100
AcDbEntity
 67
     1
  8
0
  6
Continuous
 62
     7
370
    25
100
AcDbSpline
210
0.0
220
0.0
230
1.0
 70
     8
 71
     3
 72
    14
 73
    10
 74
     0
 42
0.000000001
 43
0.00000001
 40
0.0
 40
0.0
 40
0.0
 40
0.0
 40
0.25
 40
0.25
 40
0.5
 40
0.5
 40
0.75
 40
0.75
 40
1.0
 40
1.0
 40
1.0
 40
1.0
 10
-20.93107413032195
 20
-31.97553846880101
 30
0.0
 10
-19.40329456077557
 20
-31.84901410443342
 30
0.0
 10
-17.78972606925322
 20
-31.73510841939319
 30
0.0
 10
-14.43358751937651
 20
-31.53729877970769
 30
0.0
 10
-12.69116520239613
 20
-31.45341135762175
 30
0.0
 10
-9.130021188121466
 20
-31.31876014186949
 30
0.0
 10
-7.311490459275045
 20
-31.26800356895403
 30
0.0
 10
-3.655598957888937
 20
-31.20067976626559
 30
0.0
 10
-1.8184321992098
 20
-31.18410892611721
 30
0.0
 10
0.0
 20
-31.1841089261172
 30
0.0
  0
SPLINE
  5
15A
330
1B
100
AcDbEntity
 67
     1
  8
0
  6
Continuous
 62
     7
370
    25
100
AcDbSpline
210
0.0
220
0.0
230
1.0
 70
     8
 71
     3
 72
    33
 73
    29
 74
     0
 42
0.000000001
 43
0.00000001
 40
0.0
 40
0.0
 40
0.0
 40
0.0
 40
0.0212205668596199
 40
0.0432559515978206
 40
0.0661075254923163
 40
0.0897765176242506
 40
0.1142640336549814
 40
0.1395710716277999
 40
0.1656985353381142
 40
0.1926472457041553
 40
0.2204179504839763
 40
0.2490113326172051
 40
0.2851652381198616
 40
0.374042070046316
 40
0.4437223119641853
 40
0.4983592461283581
 40
0.5654973261780062
 40
0.6234865096754116
 40
0.6902207619003288
 40
0.7485909213236649
 40
0.8148304459347239
 40
0.8737464406283054
 40
0.8949775331685992
 40
0.9159420367035158
 40
0.9367822234548974
 40
0.9576429093649742
 40
0.9786684868116943
 40
1.0
 40
1.0
 40
1.0
 40
1.0
 10
20.93107413032195
 20
-31.97553846880102
 30
0.0
 10
21.03411966745423
 20
-31.98575764182753
 30
0.0
 10
21.24416743837627
 20
-32.00658837913665
 30
0.0
 10
21.56196506231083
 20
-32.02625417589479
 30
0.0
 10
21.88886474085273
 20
-32.03722762249718
 30
0.0
 10
22.2242034392581
 20
-32.03768634953029
 30
0.0
 10
22.56754913489562
 20
-32.02696262820791
 30
0.0
 10
22.91831761973199
 20
-32.00405396003605
 30
0.0
 10
23.27586909457554
 20
-31.96805358737816
 30
0.0
 10
23.63950324022177
 20
-31.91802027648512
 30
0.0
 10
24.00835115578781
 20
-31.85308158714985
 30
0.0
 10
24.41114375129712
 20
-31.76582611474477
 30
0.0
 10
25.06404316291553
 20
-31.59395257046964
 30
0.0
 10
25.86199214204265
 20
-31.30549349293611
 30
0.0
 10
26.68347347769968
 20
-30.89623277721776
 30
0.0
 10
27.38414618821016
 20
-30.46061515548902
 30
0.0
 10
28.00834343311928
 20
-29.98391987621477
 30
0.0
 10
28.63321201360421
 20
-29.39538988576119
 30
0.0
 10
29.18891304544481
 20
-28.74557116975471
 30
0.0
 10
29.71797273180983
 20
-27.95976241980878
 30
0.0
 10
30.16663111371856
 20
-27.08275479196744
 30
0.0
 10
30.45728249275156
 20
-26.27295916670878
 30
0.0
 10
30.61676853888335
 20
-25.67245411040035
 30
0.0
 10
30.70155524581105
 20
-25.2867627424284
 30
0.0
 10
30.77051325500141
 20
-24.89522851366711
 30
0.0
 10
30.82335930170331
 20
-24.49866213005915
 30
0.0
 10
30.86155438534974
 20
-24.09732243224236
 30
0.0
 10
30.87376549018983
 20
-23.8306673448143
 30
0.0
 10
30.87991514164216
 20
-23.69637680623098
 30
0.0
  0
SPLINE
  5
15C
330
1B
100
AcDbEntity
 67
     1
  8
0
  6
Continuous
 62
     7
370
    25
100
AcDbSpline
210
0.0
220
0.0
230
1.0
 70
     8
 71
     3
 72
    34
 73
    30
 74
     0
 42
0.000000001
 43
0.00000001
 40
0.0
 40
0.0
 40
0.0
 40
0.0
 40
0.0116917858804064
 40
0.0232740923809343
 40
0.0347692661899542
 40
0.0462001650240052
 40
0.057590033576146
 40
0.0689623681359716
 40
0.0803407736160796
 40
0.0917488172442053
 40
0.1032098834159776
 40
0.1147470341208149
 40
0.1263828789632437
 40
0.1852664045110655
 40
0.2514838724084668
 40
0.3096879176727027
 40
0.3762227005824309
 40
0.4341430576600551
 40
0.5011995766636125
 40
0.5558766722199951
 40
0.6255721058528309
 40
0.7149173366538636
 40
0.7505784501198453
 40
0.7978702905963495
 40
0.8428682422558634
 40
0.8855757563753754
 40
0.9259968791049892
 40
0.9641363925651568
 40
1.0
 40
1.0
 40
1.0
 40
1.0
 10
-30.87991514164216
 20
-23.696376806231
 30
0.0
 10
-30.87691148755356
 20
-23.76984497753072
 30
0.0
 10
-30.87093230495017
 20
-23.91609337990297
 30
0.0
 10
-30.85607880973762
 20
-24.13599521408986
 30
0.0
 10
-30.83692300649088
 20
-24.35464561004054
 30
0.0
 10
-30.81303072139493
 20
-24.57207479716631
 30
0.0
 10
-30.78449181713921
 20
-24.7881412599696
 30
0.0
 10
-30.75126024401228
 20
-25.00274755115922
 30
0.0
 10
-30.71332950569463
 20
-25.2157829797328
 30
0.0
 10
-30.67068530664043
 20
-25.4271399284997
 30
0.0
 10
-30.6233207178291
 20
-25.63670658808059
 30
0.0
 10
-30.5712227294119
 20
-25.84438085321451
 30
0.0
 10
-30.43776128688765
 20
-26.32747385783697
 30
0.0
 10
-30.16610804514782
 20
-27.08391009276097
 30
0.0
 10
-29.71794334143133
 20
-27.95969137977092
 30
0.0
 10
-29.18997715780686
 20
-28.74401694455879
 30
0.0
 10
-28.6357507479394
 20
-29.39263053062245
 30
0.0
 10
-28.01224119091539
 20
-29.98058116198246
 30
0.0
 10
-27.38866745927059
 20
-30.45747491610619
 30
0.0
 10
-26.68833997105649
 20
-30.89354288092161
 30
0.0
 10
-25.86509621370958
 20
-31.30431428223037
 30
0.0
 10
-25.0672523677754
 20
-31.59295332943053
 30
0.0
 10
-24.33503174904532
 20
-31.78591913575375
 30
0.0
 10
-23.77454777397959
 20
-31.90025940374215
 30
0.0
 10
-23.16745890252943
 20
-31.98418125301987
 30
0.0
 10
-22.57790975763988
 20
-32.03008733433001
 30
0.0
 10
-22.00896084852707
 20
-32.04142348861631
 30
0.0
 10
-21.46379805289641
 20
-32.02525303279001
 30
0.0
 10
-21.10497028542544
 20
-31.99176670854019
 30
0.0
 10
-20.93107413032197
 20
-31.97553846880102
 30
0.0
  0
SPLINE
  5
160
330
1B
100
AcDbEntity
 67
     1
  8
0
  6
Continuous
 62
     7
370
    25
100
AcDbSpline
210
0.0
220
0.0
230
1.0
 70
     8
 71
     3
 72
    33
 73
    29
 74
     0
 42
0.000000001
 43
0.00000001
 40
0.0
 40
0.0
 40
0.0
 40
0.0
 40
0.0291886892335375
 40
0.0584024147385475
 40
0.0876412378984578
 40
0.1169052194321536
 40
0.1461944193960637
 40
0.1755088971862068
 40
0.2048487115403045
 40
0.2342139205398618
 40
0.2636045816122988
 40
0.2930207515330597
 40
0.322462486427762
 40
0.3519298417743456
 40
0.3814228724052292
 40
0.4109416325094779
 40
0.4404861756350134
 40
0.4700565546907765
 40
0.4996528219489537
 40
0.5541010297205462
 40
0.6088352904240014
 40
0.6638558231032796
 40
0.7191628226946158
 40
0.7747564603516117
 40
0.8306368837640765
 40
0.8868042174707286
 40
0.943258563165853
 40
1.0
 40
1.0
 40
1.0
 40
1.0
 10
0.0000000000001512
 20
-33.89825639707644
 30
0.0
 10
-0.198948775448422
 20
-33.89839101763484
 30
0.0
 10
-0.5970169724308171
 20
-33.89866037422092
 30
0.0
 10
-1.194204437392924
 20
-33.90083687485013
 30
0.0
 10
-1.791561855477015
 20
-33.90431051916616
 30
0.0
 10
-2.38891771578647
 20
-33.90920887962497
 30
0.0
 10
-2.986099804957257
 20
-33.91549772914139
 30
0.0
 10
-3.582935258903838
 20
-33.92318625060996
 30
0.0
 10
-4.17925061368401
 20
-33.93227198022812
 30
0.0
 10
-4.774871857395692
 20
-33.94275557896164
 30
0.0
 10
-5.369624482144245
 20
-33.95463686938645
 30
0.0
 10
-5.963333537929378
 20
-33.96791589911503
 30
0.0
 10
-6.55582368192607
 20
-33.98259265501499
 30
0.0
 10
-7.146919247355185
 20
-33.99866714162969
 30
0.0
 10
-7.736444241489476
 20
-34.01613935361374
 30
0.0
 10
-8.324222610735072
 20
-34.03500930750858
 30
0.0
 10
-8.910077509859311
 20
-34.05527694211104
 30
0.0
 10
-9.49383429477954
 20
-34.07694248566261
 30
0.0
 10
-10.23789427210573
 20
-34.1064535533742
 30
0.0
 10
-11.14023096101242
 20
-34.14555946647703
 30
0.0
 10
-12.19670977505115
 20
-34.1964574129075
 30
0.0
 10
-13.24639457164508
 20
-34.25222545262578
 30
0.0
 10
-14.28803937693519
 20
-34.31286161989501
 30
0.0
 10
-15.3203433807953
 20
-34.37837337139793
 30
0.0
 10
-16.34215324726086
 20
-34.44873263865157
 30
0.0
 10
-17.351673107915
 20
-34.52404498441346
 30
0.0
 10
-18.34945273225426
 20
-34.60391340780004
 30
0.0
 10
-18.99960515814838
 20
-34.66104679453619
 30
0.0
 10
-19.32550584086064
 20
-34.68968593976025
 30
0.0
  0
SPLINE
  5
162
330
1B
100
AcDbEntity
 67
     1
  8
0
  6
Continuous
 62
     7
370
    25
100
AcDbSpline
210
0.0
220
0.0
230
1.0
 70
     8
 71
     3
 72
    33
 73
    29
 74
     0
 42
0.000000001
 43
0.00000001
 40
0.0
 40
0.0
 40
0.0
 40
0.0
 40
0.0301238194068473
 40
0.0601670773011668
 40
0.090129783236724
 40
0.1200119485236573
 40
0.149813586240745
 40
0.1795347112478025
 40
0.2091753401982108
 40
0.2387354915515698
 40
0.2682151855864902
 40
0.2976144444135136
 40
0.3269332919881672
 40
0.3561717541241551
 40
0.3853298585066846
 40
0.4144076347059303
 40
0.4434051141906358
 40
0.4723223303418559
 40
0.5011593184668383
 40
0.5569479031037811
 40
0.6126451663825929
 40
0.668251465061329
 40
0.7237671639500974
 40
0.7791926359626609
 40
0.8345282621675266
 40
0.8897744318385046
 40
0.9449315425047113
 40
1.0
 40
1.0
 40
1.0
 40
1.0
 10
19.32550584086058
 20
-34.68968593976025
 30
0.0
 10
19.1529874533422
 20
-34.67437649804768
 30
0.0
 10
18.80841205214553
 20
-34.643798557365
 30
0.0
 10
18.2850285615779
 20
-34.59957187535487
 30
0.0
 10
17.75799374480106
 20
-34.55662549357678
 30
0.0
 10
17.22697768729543
 20
-34.51507185853449
 30
0.0
 10
16.69231835379015
 20
-34.47488096154545
 30
0.0
 10
16.15417424105828
 20
-34.43606081102084
 30
0.0
 10
15.61275041883195
 20
-34.39860926983783
 30
0.0
 10
15.06823811843113
 20
-34.36252690835835
 30
0.0
 10
14.52083076858084
 20
-34.32781357444481
 30
0.0
 10
13.97071963106773
 20
-34.2944693086794
 30
0.0
 10
13.41809488791435
 20
-34.26249410054861
 30
0.0
 10
12.86314525649363
 20
-34.23188795194862
 30
0.0
 10
12.30605807230507
 20
-34.20265086603199
 30
0.0
 10
11.74701897943964
 20
-34.17478282865117
 30
0.0
 10
11.18621273059633
 20
-34.14828389334065
 30
0.0
 10
10.62381996692836
 20
-34.12315386119914
 30
0.0
 10
9.88386312446108
 20
-34.09196914675771
 30
0.0
 10
8.962655706378008
 20
-34.05653817180553
 30
0.0
 10
7.85639921543399
 20
-34.01925012367847
 30
0.0
 10
6.743786549203799
 20
-33.98693372183286
 30
0.0
 10
5.626006064194891
 20
-33.95958666403835
 30
0.0
 10
4.504233717228703
 20
-33.93721774712522
 30
0.0
 10
3.379643338731096
 20
-33.91979416784412
 30
0.0
 10
2.253402272911943
 20
-33.90743807433612
 30
0.0
 10
1.12667094146715
 20
-33.89969470810399
 30
0.0
 10
0.375355555682264
 20
-33.8987355769462
 30
0.0
 10
0.0
 20
-33.89825639707644
 30
0.0
  0
SPLINE
  5
163
330
1B
100
AcDbEntity
 67
     1
  8
0
  6
Continuous
 62
     7
370
    25
100
AcDbSpline
210
0.0
220
0.0
230
1.0
 70
    24
 71
     3
 72
    50
 73
    46
 74
     0
 42
0.000000001
 43
0.00000001
 40
0.0
 40
0.0
 40
0.0
 40
0.0
 40
0.010990098628575
 40
0.0219472498312729
 40
0.0328745459506151
 40
0.0437751047376146
 40
0.0546520669351175
 40
0.0655085937651408
 40
0.0763478643293511
 40
0.0871730729326682
 40
0.0979874263407337
 40
0.1087941409826487
 40
0.1195964401109385
 40
0.1303975509311439
 40
0.1412007017137488
 40
0.1520091189013426
 40
0.1628260242239603
 40
0.173654631835464
 40
0.1844981454836035
 40
0.1953597557260534
 40
0.206242637204248
 40
0.2171499459862529
 40
0.2280848169892234
 40
0.239050361491219
 40
0.250049664741285
 40
0.3128016031150387
 40
0.3749706759715968
 40
0.4371678643190044
 40
0.5000033290272404
 40
0.5627552674042327
 40
0.6249243402619058
 40
0.6871215286081743
 40
0.7499569933129523
 40
0.7709835215068463
 40
0.7919008342995524
 40
0.8127309841935482
 40
0.8334963013908341
 40
0.8542193256768936
 40
0.8749227349704491
 40
0.8956292716376827
 40
0.9163616677530773
 40
0.9371425705289176
 40
0.957994469129078
 40
0.9789396240304619
 40
1.0
 40
1.0
 40
1.0
 40
1.0
 10
-0.0000000000000033
 20
-36.09402284252982
 30
0.0
 10
-0.2062702602612269
 20
-36.09402284252982
 30
0.0
 10
-0.6181923992440437
 20
-36.09402284252984
 30
0.0
 10
-1.235034082516673
 20
-36.09402284252981
 30
0.0
 10
-1.849848838586561
 20
-36.09402284252984
 30
0.0
 10
-2.462636571523924
 20
-36.09402284252981
 30
0.0
 10
-3.073397121154271
 20
-36.09402284252984
 30
0.0
 10
-3.682130338419026
 20
-36.09402284252981
 30
0.0
 10
-4.288836066271788
 20
-36.09402284252982
 30
0.0
 10
-4.89351414586177
 20
-36.09402284252984
 30
0.0
 10
-5.49616441601996
 20
-36.09402284252982
 30
0.0
 10
-6.096786714580709
 20
-36.09402284252982
 30
0.0
 10
-6.695380879234155
 20
-36.09402284252982
 30
0.0
 10
-7.291946748549651
 20
-36.09402284252984
 30
0.0
 10
-7.886484162838563
 20
-36.09402284252982
 30
0.0
 10
-8.478992965471518
 20
-36.09402284252982
 30
0.0
 10
-9.069473002447234
 20
-36.09402284252981
 30
0.0
 10
-9.6579241283469
 20
-36.09402284252981
 30
0.0
 10
-10.24434618822777
 20
-36.09402284252982
 30
0.0
 10
-10.82873908925723
 20
-36.09402284252981
 30
0.0
 10
-11.41110253629889
 20
-36.09402284252981
 30
0.0
 10
-11.99143702502588
 20
-36.09402284252981
 30
0.0
 10
-12.56974012563365
 20
-36.09402284252981
 30
0.0
 10
-13.14602040882305
 20
-36.09402284252981
 30
0.0
 10
-14.62011308097656
 20
-36.0940228425298
 30
0.0
 10
-16.93219825029802
 20
-36.09402284252981
 30
0.0
 10
-19.95078305978859
 20
-36.09402284252981
 30
0.0
 10
-22.7757518783546
 20
-36.0940228425298
 30
0.0
 10
-25.38789725618127
 20
-36.09402284252979
 30
0.0
 10
-27.76245913228793
 20
-36.09402284252979
 30
0.0
 10
-29.86034665230649
 20
-36.09402284252977
 30
0.0
 10
-31.66696689265018
 20
-36.09402284252976
 30
0.0
 10
-32.83747131066735
 20
-36.09402284252975
 30
0.0
 10
-33.56140975501549
 20
-36.09402284252976
 30
0.0
 10
-33.95951547408202
 20
-36.09402284252973
 30
0.0
 10
-34.31971304128868
 20
-36.09402284252975
 30
0.0
 10
-34.64200850408936
 20
-36.09402284252973
 30
0.0
 10
-34.9263986926933
 20
-36.09402284252973
 30
0.0
 10
-35.17287805459618
 20
-36.09402284252973
 30
0.0
 10
-35.38146260540505
 20
-36.0940228425297
 30
0.0
 10
-35.55208753395522
 20
-36.09402284252973
 30
0.0
 10
-35.68499383003626
 20
-36.09402284252972
 30
0.0
 10
-35.77927879561867
 20
-36.0940228425297
 30
0.0
 10
-35.83833566985729
 20
-36.09402284252973
 30
0.0
 10
-35.84569472773929
 20
-36.0940228425297
 30
0.0
 10
-35.84938434961915
 20
-36.0940228425297
 30
0.0
  0
SPLINE
  5
164
330
1B
100
AcDbEntity
 67
     1
  8
0
  6
Continuous
 62
     7
370
    25
100
AcDbSpline
210
0.0
220
0.0
230
1.0
 70
    24
 71
     3
 72
    50
 73
    46
 74
     0
 42
0.000000001
 43
0.00000001
 40
0.0
 40
0.0
 40
0.0
 40
0.0
 40
0.0109856421486387
 40
0.0219387124870572
 40
0.0328623095835536
 40
0.0437595571472386
 40
0.0546336015949725
 40
0.0654876095223588
 40
0.0763247650889101
 40
0.0871482673275073
 40
0.0979613273890071
 40
0.1087671657335179
 40
0.119569009280395
 40
0.1303700885294385
 40
0.1411736346660754
 40
0.1519828766634667
 40
0.1628010383945235
 40
0.1736313357667035
 40
0.1844769738922266
 40
0.1953411443059837
 40
0.2062270222429221
 40
0.2171377639860896
 40
0.2280765042958181
 40
0.2390463539297315
 40
0.2500503972623918
 40
0.3128021522198209
 40
0.3749710433607412
 40
0.4371680499071761
 40
0.5000033309455727
 40
0.5627550882166126
 40
0.6249239801213239
 40
0.68712098591895
 40
0.7499562647772026
 40
0.7709915051815479
 40
0.7919159278408918
 40
0.8127515825458308
 40
0.8335208018122926
 40
0.8542461329192167
 40
0.8749502665316918
 40
0.8956559630037534
 40
0.9163859775416504
 40
0.9371629854515495
 40
0.958009508692439
 40
0.9789478449056204
 40
1.0
 40
1.0
 40
1.0
 40
1.0
 10
35.84938434961915
 20
-36.0940228425297
 30
0.0
 10
35.8484297553287
 20
-36.09402284252969
 30
0.0
 10
35.84652339706613
 20
-36.0940228425297
 30
0.0
 10
35.83057317879294
 20
-36.09402284252972
 30
0.0
 10
35.80502906798973
 20
-36.0940228425297
 30
0.0
 10
35.76895926513347
 20
-36.09402284252972
 30
0.0
 10
35.72261240281942
 20
-36.09402284252973
 30
0.0
 10
35.66592203506752
 20
-36.0940228425297
 30
0.0
 10
35.59890586784898
 20
-36.09402284252973
 30
0.0
 10
35.52155913891311
 20
-36.09402284252972
 30
0.0
 10
35.43388310496128
 20
-36.09402284252973
 30
0.0
 10
35.33587742739211
 20
-36.09402284252973
 30
0.0
 10
35.22754220860377
 20
-36.09402284252973
 30
0.0
 10
35.10887744719996
 20
-36.09402284252973
 30
0.0
 10
34.97988318380411
 20
-36.09402284252973
 30
0.0
 10
34.84055946134362
 20
-36.09402284252973
 30
0.0
 10
34.69090633692409
 20
-36.09402284252973
 30
0.0
 10
34.53092387218084
 20
-36.09402284252973
 30
0.0
 10
34.36061215763127
 20
-36.09402284252975
 30
0.0
 10
34.17997122180083
 20
-36.09402284252973
 30
0.0
 10
33.98900136780939
 20
-36.09402284252976
 30
0.0
 10
33.78770191040466
 20
-36.09402284252973
 30
0.0
 10
33.57607590264536
 20
-36.09402284252975
 30
0.0
 10
33.35411242228948
 20
-36.09402284252976
 30
0.0
 10
32.75807358230703
 20
-36.09402284252972
 30
0.0
 10
31.66917368126586
 20
-36.09402284252976
 30
0.0
 10
29.86329202553966
 20
-36.09402284252977
 30
0.0
 10
27.76434275666059
 20
-36.09402284252979
 30
0.0
 10
25.39013081577254
 20
-36.09402284252979
 30
0.0
 10
22.77898837500297
 20
-36.09402284252981
 30
0.0
 10
19.95516931955996
 20
-36.09402284252981
 30
0.0
 10
16.9351706893613
 20
-36.09402284252981
 30
0.0
 10
14.45082875490327
 20
-36.09402284252981
 30
0.0
 10
12.62188618445462
 20
-36.09402284252981
 30
0.0
 10
11.51239325286966
 20
-36.09402284252982
 30
0.0
 10
10.39527563927874
 20
-36.09402284252981
 30
0.0
 10
9.270502398772667
 20
-36.09402284252982
 30
0.0
 10
8.13808626888897
 20
-36.09402284252984
 30
0.0
 10
6.998028714739884
 20
-36.09402284252982
 30
0.0
 10
5.850334472809505
 20
-36.09402284252981
 30
0.0
 10
4.695007575278729
 20
-36.09402284252981
 30
0.0
 10
3.532052229728626
 20
-36.09402284252982
 30
0.0
 10
2.361472720406693
 20
-36.09402284252982
 30
0.0
 10
1.183272374759937
 20
-36.09402284252982
 30
0.0
 10
0.3951362287921678
 20
-36.09402284252982
 30
0.0
 10
-0.0000000000000033
 20
-36.09402284252982
 30
0.0
  0
SPLINE
  5
165
330
1B
100
AcDbEntity
 67
     1
  8
0
  6
Continuous
 62
     7
370
    25
100
AcDbSpline
210
0.0
220
0.0
230
1.0
 70
     8
 71
     3
 72
     8
 73
     4
 74
     0
 42
0.000000001
 43
0.00000001
 40
0.0
 40
0.0
 40
0.0
 40
0.0
 40
1.0
 40
1.0
 40
1.0
 40
1.0
 10
-31.96746307969315
 20
-6.997719598112226
 30
0.0
 10
-31.97142994839815
 20
-6.892384040134848
 30
0.0
 10
-31.9784688462645
 20
-6.786990688265458
 30
0.0
 10
-31.98865479377301
 20
-6.681538281883483
 30
0.0
  0
SPLINE
  5
166
330
1B
100
AcDbEntity
 67
     1
  8
0
  6
Continuous
 62
     7
370
    25
100
AcDbSpline
210
0.0
220
0.0
230
1.0
 70
     8
 71
     3
 72
     8
 73
     4
 74
     0
 42
0.000000001
 43
0.00000001
 40
0.0
 40
0.0
 40
0.0
 40
0.0
 40
1.0
 40
1.0
 40
1.0
 40
1.0
 10
-31.342864642281
 20
-23.53960854648241
 30
0.0
 10
-31.55159470426355
 20
-18.0266085864855
 30
0.0
 10
-31.75977768931805
 20
-12.51256218687723
 30
0.0
 10
-31.96746307969315
 20
-6.997719598112226
 30
0.0
  0
SPLINE
  5
167
330
1B
100
AcDbEntity
 67
     1
  8
0
  6
Continuous
 62
     7
370
    25
100
AcDbSpline
210
0.0
220
0.0
230
1.0
 70
     8
 71
     3
 72
    29
 73
    25
 74
     0
 42
0.000000001
 43
0.00000001
 40
0.0
 40
0.0
 40
0.0
 40
0.0
 40
0.0177098646421981
 40
0.0354672920657129
 40
0.053282468136602
 40
0.0711654891469218
 40
0.0891263461378263
 40
0.1071749101035249
 40
0.125320918170097
 40
0.1871030114226159
 40
0.2495126275618765
 40
0.3120965347852933
 40
0.374699914699969
 40
0.498880156213059
 40
0.6240407229228091
 40
0.6882972280689819
 40
0.7491453717997447
 40
0.8133204333825013
 40
0.8746601053115419
 40
0.8996377036035508
 40
0.9245227939646967
 40
0.9494531712046187
 40
0.9745668816222253
 40
1.0
 40
1.0
 40
1.0
 40
1.0
 10
-19.32550584086064
 20
-34.68968593976025
 30
0.0
 10
-19.433484446673
 20
-34.69850746242846
 30
0.0
 10
-19.64973165276796
 20
-34.71617419942834
 30
0.0
 10
-19.97280254268636
 20
-34.73115956564062
 30
0.0
 10
-20.2953232459396
 20
-34.73776358667089
 30
0.0
 10
-20.61713613439126
 20
-34.73515133393931
 30
0.0
 10
-20.93822487412882
 20
-34.72354823683675
 30
0.0
 10
-21.2585400382534
 20
-34.70289250503942
 30
0.0
 10
-21.83342870209561
 20
-34.64947244462105
 30
0.0
 10
-22.6532197147158
 20
-34.5211908642618
 30
0.0
 10
-23.69045815764764
 20
-34.25281764364289
 30
0.0
 10
-24.68891291371086
 20
-33.88751264830218
 30
0.0
 10
-25.95250504412175
 20
-33.27658924600662
 30
0.0
 10
-27.4084149021026
 20
-32.28467005110721
 30
0.0
 10
-28.68084841301715
 20
-30.97419150621981
 30
0.0
 10
-29.55695215859875
 20
-29.72200546831431
 30
0.0
 10
-30.13992236102228
 20
-28.66314354649459
 30
0.0
 10
-30.62315301188767
 20
-27.50969584153708
 30
0.0
 10
-30.92456302972744
 20
-26.49372990490176
 30
0.0
 10
-31.09531860879719
 20
-25.71377063785337
 30
0.0
 10
-31.18958000301972
 20
-25.17993724139443
 30
0.0
 10
-31.26248396297309
 20
-24.63903883148662
 30
0.0
 10
-31.31600158160919
 20
-24.09084691282186
 30
0.0
 10
-31.33387264600464
 20
-23.72412710890694
 30
0.0
 10
-31.34286464228093
 20
-23.53960854648239
 30
0.0
  0
SPLINE
  5
168
330
1B
100
AcDbEntity
 67
     1
  8
0
  6
Continuous
 62
     7
370
    25
100
AcDbSpline
210
0.0
220
0.0
230
1.0
 70
     8
 71
     3
 72
    31
 73
    27
 74
     0
 42
0.000000001
 43
0.00000001
 40
0.0
 40
0.0
 40
0.0
 40
0.0
 40
0.0128207409251734
 40
0.0255445139185851
 40
0.0381882099278351
 40
0.0507689751056842
 40
0.0633041472283633
 40
0.0758111878746398
 40
0.088307611644424
 40
0.1008109138382423
 40
0.1133384980966253
 40
0.1259076055046524
 40
0.1871953414773391
 40
0.2513366040114609
 40
0.3123268683856167
 40
0.3767480295189672
 40
0.5019745831831213
 40
0.6260922365144329
 40
0.688629384899239
 40
0.7511511173871136
 40
0.8135567958011262
 40
0.8753414738021559
 40
0.9068616076422225
 40
0.9381097812723576
 40
0.9691381753950936
 40
1.0
 40
1.0
 40
1.0
 40
1.0
 10
31.34286464228096
 20
-23.53960854648239
 30
0.0
 10
31.33883642846707
 20
-23.63254475490047
 30
0.0
 10
31.33081046768706
 20
-23.81771426135343
 30
0.0
 10
31.31203606332009
 20
-24.0950445803326
 30
0.0
 10
31.28839253301343
 20
-24.37054512359409
 30
0.0
 10
31.25940809622893
 20
-24.64427540650037
 30
0.0
 10
31.2252084573285
 20
-24.91621777137952
 30
0.0
 10
31.18575171059052
 20
-25.18637471306155
 30
0.0
 10
31.14103118113176
 20
-25.45474436095436
 30
0.0
 10
31.09102363451736
 20
-25.7213222187645
 30
0.0
 10
31.03569498267733
 20
-25.98611886716022
 30
0.0
 10
30.89677773012466
 20
-26.5882869927624
 30
0.0
 10
30.61962538696063
 20
-27.51950133587311
 30
0.0
 10
30.13548453756842
 20
-28.67239591959818
 30
0.0
 10
29.55092401733453
 20
-29.73185771867556
 30
0.0
 10
28.672415211207
 20
-30.98433764628737
 30
0.0
 10
27.3979518158241
 20
-32.29343738864891
 30
0.0
 10
25.9411543333629
 20
-33.28320527804259
 30
0.0
 10
24.67772842292858
 20
-33.89220201983122
 30
0.0
 10
23.67946854049793
 20
-34.25621217157946
 30
0.0
 10
22.64212842761021
 20
-34.52350170375197
 30
0.0
 10
21.74502431734742
 20
-34.66287119730484
 30
0.0
 10
21.01165459976934
 20
-34.72278317352313
 30
0.0
 10
20.45206729459003
 20
-34.74033976676826
 30
0.0
 10
19.89059766522973
 20
-34.73247163957095
 30
0.0
 10
19.51353150738761
 20
-34.70392222734716
 30
0.0
 10
19.32550584086058
 20
-34.68968593976025
 30
0.0
  0
SPLINE
  5
169
330
1B
100
AcDbEntity
 67
     1
  8
0
  6
Continuous
 62
     7
370
    25
100
AcDbSpline
210
0.0
220
0.0
230
1.0
 70
     8
 71
     3
 72
     8
 73
     4
 74
     0
 42
0.000000001
 43
0.00000001
 40
0.0
 40
0.0
 40
0.0
 40
0.0
 40
1.0
 40
1.0
 40
1.0
 40
1.0
 10
31.96746307969315
 20
-6.997719598112219
 30
0.0
 10
31.75977744461235
 20
-12.51256868475102
 30
0.0
 10
31.55159480427535
 20
-18.0266059449635
 30
0.0
 10
31.342864642281
 20
-23.53960854648241
 30
0.0
  0
SPLINE
  5
16A
330
1B
100
AcDbEntity
 67
     1
  8
0
  6
Continuous
 62
     7
370
    25
100
AcDbSpline
210
0.0
220
0.0
230
1.0
 70
     8
 71
     3
 72
     8
 73
     4
 74
     0
 42
0.000000001
 43
0.00000001
 40
0.0
 40
0.0
 40
0.0
 40
0.0
 40
1.0
 40
1.0
 40
1.0
 40
1.0
 10
31.98865479377305
 20
-6.681538281883483
 30
0.0
 10
31.9784688462645
 20
-6.786990688265458
 30
0.0
 10
31.97142994839825
 20
-6.892384040134841
 30
0.0
 10
31.96746307969315
 20
-6.997719598112219
 30
0.0
  0
SPLINE
  5
16D
330
1B
100
AcDbEntity
 67
     1
  8
0
  6
Continuous
 62
     7
370
    25
100
AcDbSpline
210
0.0
220
0.0
230
1.0
 70
     8
 71
     3
 72
    24
 73
    20
 74
     0
 42
0.000000001
 43
0.00000001
 40
0.0
 40
0.0
 40
0.0
 40
0.0
 40
0.1250000000000003
 40
0.1250000000000003
 40
0.2500000000000006
 40
0.2500000000000006
 40
0.3750000000000008
 40
0.3750000000000008
 40
0.500000000000001
 40
0.500000000000001
 40
0.6250000000000012
 40
0.6250000000000012
 40
0.7500000000000014
 40
0.7500000000000014
 40
0.8125000000000012
 40
0.8125000000000012
 40
0.8750000000000009
 40
0.8750000000000009
 40
1.0
 40
1.0
 40
1.0
 40
1.0
 10
-39.1555963413258
 20
0.6005832147763444
 30
0.0
 10
-38.70987571222685
 20
0.5784162585832155
 30
0.0
 10
-38.26273226274392
 20
0.5135802118610076
 30
0.0
 10
-37.39703356675763
 20
0.304123033895716
 30
0.0
 10
-36.97643299266688
 20
0.1600248137121826
 30
0.0
 10
-36.15958004042095
 20
-0.2069047969698035
 30
0.0
 10
-35.76025655484632
 20
-0.432369148375765
 30
0.0
 10
-35.01300276951797
 20
-0.950332765782276
 30
0.0
 10
-34.66259976583203
 20
-1.243150015874793
 30
0.0
 10
-34.00889360841744
 20
-1.897957149657188
 30
0.0
 10
-33.70512433369827
 20
-2.262064230915496
 30
0.0
 10
-33.1694661480522
 20
-3.034239466384883
 30
0.0
 10
-32.93417460387649
 20
-3.445156676950181
 30
0.0
 10
-32.63183310707537
 20
-4.100385988890433
 30
0.0
 10
-32.53948683893816
 20
-4.325803997406376
 30
0.0
 10
-32.37581162625589
 20
-4.780540243490027
 30
0.0
 10
-32.30392062198206
 20
-5.010953773132543
 30
0.0
 10
-32.11772370015937
 20
-5.711235697372766
 30
0.0
 10
-32.03262552422574
 20
-6.190092171690059
 30
0.0
 10
-31.98865479377283
 20
-6.681538281883462
 30
0.0
  0
SPLINE
  5
16E
330
1B
100
AcDbEntity
 67
     1
  8
0
  6
Continuous
 62
     7
370
    25
100
AcDbSpline
210
0.0
220
0.0
230
1.0
 70
     8
 71
     3
 72
    26
 73
    22
 74
     0
 42
0.000000001
 43
0.00000001
 40
0.0
 40
0.0
 40
0.0
 40
0.0
 40
0.0225782338951709
 40
0.0464240366299545
 40
0.0715620846208905
 40
0.098015160572075
 40
0.1258035079450291
 40
0.1738755587738844
 40
0.2502803498498157
 40
0.3211306691454569
 40
0.3755898170271841
 40
0.4409319567636727
 40
0.500160530055079
 40
0.6309104368677468
 40
0.7499089538046294
 40
0.7928224016977277
 40
0.8353308899335761
 40
0.8773650139133083
 40
0.9188599752953716
 40
0.9597562293544053
 40
1.0
 40
1.0
 40
1.0
 40
1.0
 10
39.15559653973121
 20
0.6005779066053583
 30
0.0
 10
39.07475229823847
 20
0.5957559293355286
 30
0.0
 10
38.90852512361512
 20
0.5858412632707353
 30
0.0
 10
38.65310177883907
 20
0.5592588591570996
 30
0.0
 10
38.38492159011916
 20
0.5219789855262641
 30
0.0
 10
38.10431530002469
 20
0.4715879359590905
 30
0.0
 10
37.74530177600751
 20
0.391929689025225
 30
0.0
 10
37.21742510363235
 20
0.2428354387931375
 30
0.0
 10
36.55817590690263
 20
-0.0118335539007475
 30
0.0
 10
35.90694912515401
 20
-0.349455616402046
 30
0.0
 10
35.32067642475704
 20
-0.7257795923511223
 30
0.0
 10
34.7999412168035
 20
-1.12869030252951
 30
0.0
 10
34.10785855591217
 20
-1.771616576890893
 30
0.0
 10
33.37217236267941
 20
-2.670108741458267
 30
0.0
 10
32.82768174611178
 20
-3.641420186050306
 30
0.0
 10
32.52485940966497
 20
-4.359872043414654
 30
0.0
 10
32.36197555966218
 20
-4.819682741303441
 30
0.0
 10
32.22676086661632
 20
-5.284126770091643
 30
0.0
 10
32.11961815549463
 20
-5.750527771003378
 30
0.0
 10
32.03770698904115
 20
-6.215984048638163
 30
0.0
 10
32.00492473314546
 20
-6.527187049822615
 30
0.0
 10
31.98866541362572
 20
-6.681537288801199
 30
0.0
  0
SPLINE
  5
173
330
1B
100
AcDbEntity
 67
     1
  8
0
  6
Continuous
 62
     7
370
    25
100
AcDbSpline
210
0.0
220
0.0
230
1.0
 70
     8
 71
     3
 72
    14
 73
    10
 74
     0
 42
0.000000001
 43
0.00000001
 40
0.0
 40
0.0
 40
0.0
 40
0.0
 40
0.25
 40
0.25
 40
0.5
 40
0.5
 40
0.75
 40
0.75
 40
1.0
 40
1.0
 40
1.0
 40
1.0
 10
-51.314774215141
 20
-5.561538139844377
 30
0.0
 10
-51.31430204216149
 20
-5.844361087717409
 30
0.0
 10
-51.31357675789224
 20
-6.128266855545101
 30
0.0
 10
-51.31161431397929
 20
-6.651650291195383
 30
0.0
 10
-51.31037705287008
 20
-6.890291619060323
 30
0.0
 10
-51.3075489654035
 20
-7.27919809123298
 30
0.0
 10
-51.30596202715959
 20
-7.42892855883557
 30
0.0
 10
-51.30270540939188
 20
-7.623248125745614
 30
0.0
 10
-51.30103996905418
 20
-7.668104563405636
 30
0.0
 10
-51.299455482936
 20
-7.668104563405629
 30
0.0
  0
SPLINE
  5
175
330
1B
100
AcDbEntity
 67
     1
  8
0
  6
Continuous
 62
     7
370
    25
100
AcDbSpline
210
0.0
220
0.0
230
1.0
 70
     8
 71
     3
 72
    14
 73
    10
 74
     0
 42
0.000000001
 43
0.00000001
 40
0.0
 40
0.0
 40
0.0
 40
0.0
 40
0.25
 40
0.25
 40
0.5
 40
0.5
 40
0.75
 40
0.75
 40
1.0
 40
1.0
 40
1.0
 40
1.0
 10
51.31503931150449
 20
-5.561540209588753
 30
0.0
 10
51.31456707656291
 20
-5.844362991686023
 30
0.0
 10
51.31384172495632
 20
-6.128268527774434
 30
0.0
 10
51.31187914413069
 20
-6.651651460731441
 30
0.0
 10
51.31064181359918
 20
-6.890292520827734
 30
0.0
 10
51.30781359612646
 20
-7.279198542116686
 30
0.0
 10
51.30622659746371
 20
-7.428928829118108
 30
0.0
 10
51.30296987592984
 20
-7.623248171214778
 30
0.0
 10
51.30130439227283
 20
-7.668104563405629
 30
0.0
 10
51.2997198723939
 20
-7.668104563405629
 30
0.0
  0
SPLINE
  5
177
330
1B
100
AcDbEntity
 67
     1
  8
0
  6
Continuous
 62
     7
370
    25
100
AcDbSpline
210
0.0
220
0.0
230
1.0
 70
    24
 71
     3
 72
     9
 73
     5
 74
     0
 42
0.000000001
 43
0.00000001
 40
0.0
 40
0.0
 40
0.0
 40
0.0
 40
0.4897689941138761
 40
1.0
 40
1.0
 40
1.0
 40
1.0
 10
121.4144632285652
 20
-7.668104563405623
 30
0.0
 10
109.9676955154764
 20
-7.668104563405616
 30
0.0
 10
86.59592668025437
 20
-7.668104563405602
 30
0.0
 10
63.22453073467152
 20
-7.668104563405623
 30
0.0
 10
51.2997198723939
 20
-7.668104563405629
 30
0.0
  0
SPLINE
  5
178
330
1B
100
AcDbEntity
 67
     1
  8
0
  6
Continuous
 62
     7
370
    25
100
AcDbSpline
210
0.0
220
0.0
230
1.0
 70
    24
 71
     3
 72
     9
 73
     5
 74
     0
 42
0.000000001
 43
0.00000001
 40
0.0
 40
0.0
 40
0.0
 40
0.0
 40
0.64938353522137
 40
1.0
 40
1.0
 40
1.0
 40
1.0
 10
-51.299455482936
 20
-7.668104563405629
 30
0.0
 10
-66.47652450811319
 20
-7.668104563405629
 30
0.0
 10
-89.84802717487456
 20
-7.668104563405629
 30
0.0
 10
-113.2198998544102
 20
-7.668104563405629
 30
0.0
 10
-121.4144632285652
 20
-7.668104563405629
 30
0.0
  0
SPLINE
  5
17F
330
1B
100
AcDbEntity
 67
     1
  8
0
  6
Continuous
 62
     8
370
    25
100
AcDbSpline
210
0.0
220
0.0
230
1.0
 70
     8
 71
     3
 72
     9
 73
     5
 74
     0
 42
0.000000001
 43
0.00000001
 40
0.0
 40
0.0
 40
0.0
 40
0.0
 40
0.4563864752783752
 40
0.9999999999999999
 40
0.9999999999999999
 40
0.9999999999999999
 40
0.9999999999999999
 10
97.3387110861587
 20
4.361964317205494
 30
0.0
 10
88.51084211763629
 20
4.157884121844465
 30
0.0
 10
69.1678741579968
 20
3.710718821346569
 30
0.0
 10
49.8387560070781
 20
3.326029014096565
 30
0.0
 10
39.33118595929646
 20
3.116906432052903
 30
0.0
  0
SPLINE
  5
180
330
1B
100
AcDbEntity
 67
     1
  8
0
  6
Continuous
 62
     8
370
    25
100
AcDbSpline
210
0.0
220
0.0
230
1.0
 70
     8
 71
     3
 72
     9
 73
     5
 74
     0
 42
0.000000001
 43
0.00000001
 40
0.0
 40
0.0
 40
0.0
 40
0.0
 40
0.5431161814796578
 40
1.0
 40
1.0
 40
1.0
 40
1.0
 10
-39.3311859592965
 20
3.116906432052903
 30
0.0
 10
-49.83875725522575
 20
3.326034644438348
 30
0.0
 10
-69.18557779609525
 20
3.711087087206105
 30
0.0
 10
-88.54626082825601
 20
4.158672233387859
 30
0.0
 10
-97.39184362115164
 20
4.363166644088368
 30
0.0
  0
SPLINE
  5
181
330
1B
100
AcDbEntity
 67
     1
  8
0
  6
Continuous
 62
     8
370
    25
100
AcDbSpline
210
0.0
220
0.0
230
1.0
 70
     8
 71
     3
 72
    12
 73
     8
 74
     0
 42
0.000000001
 43
0.00000001
 40
0.0
 40
0.0
 40
0.0
 40
0.0
 40
0.2342292092223834
 40
0.4675243059135751
 40
0.7009891212081584
 40
0.9360390579118046
 40
1.0
 40
1.0
 40
1.0
 40
1.0
 10
39.15559653973135
 20
0.6005779066053583
 30
0.0
 10
40.17386743102407
 20
0.5886534770210006
 30
0.0
 10
42.20634832127735
 20
0.56485217280558
 30
0.0
 10
44.32945581079036
 20
0.5408997913679894
 30
0.0
 10
45.65802302538894
 20
0.5246673200294816
 30
0.0
 10
46.21986016369372
 20
0.5163425407373884
 30
0.0
 10
46.07799827460318
 20
0.5141316865985914
 30
0.0
 10
46.04765282326272
 20
0.5136587663018138
 30
0.0
  0
SPLINE
  5
182
330
1B
100
AcDbEntity
 67
     1
  8
0
  6
Continuous
 62
     8
370
    25
100
AcDbSpline
210
0.0
220
0.0
230
1.0
 70
     8
 71
     3
 72
    12
 73
     8
 74
     0
 42
0.000000001
 43
0.00000001
 40
0.0
 40
0.0
 40
0.0
 40
0.0
 40
0.07922406367589
 40
0.3104412879100208
 40
0.5400987236719653
 40
0.7695902466142561
 40
1.0
 40
1.0
 40
1.0
 40
1.0
 10
-46.02949768120961
 20
0.5132624952184848
 30
0.0
 10
-46.06933803604423
 20
0.5138494522749157
 30
0.0
 10
-46.22545336883319
 20
0.5161494567949079
 30
0.0
 10
-45.66240703056719
 20
0.5246425908696228
 30
0.0
 10
-44.3282941264471
 20
0.5409086128699212
 30
0.0
 10
-42.20664382160223
 20
0.5648501119176752
 30
0.0
 10
-40.17396509837107
 20
0.5886529337363611
 30
0.0
 10
-39.15559653224845
 20
0.60057810678419
 30
0.0
  0
SPLINE
  5
183
330
1B
100
AcDbEntity
 67
     1
  8
0
  6
Continuous
 62
     8
370
    25
100
AcDbSpline
210
0.0
220
0.0
230
1.0
 70
     8
 71
     3
 72
    13
 73
     9
 74
     0
 42
0.000000001
 43
0.00000001
 40
0.0
 40
0.0
 40
0.0
 40
0.0
 40
0.0192939169882585
 40
0.0793592642073993
 40
0.3395574215915126
 40
0.5797340794222372
 40
0.7998835355512574
 40
0.9999999999999999
 40
0.9999999999999999
 40
0.9999999999999999
 40
0.9999999999999999
 10
38.40802206228299
 20
-6.784794140792111
 30
0.0
 10
38.40962396042082
 20
-6.784593724719318
 30
0.0
 10
38.41621284839161
 20
-6.783769378264331
 30
0.0
 10
38.3263228608706
 20
-6.779521739404909
 30
0.0
 10
37.82516293382839
 20
-6.769626787139896
 30
0.0
 10
36.36521486306473
 20
-6.74820190975467
 30
0.0
 10
34.4364358065814
 20
-6.720753896921241
 30
0.0
 10
32.7782344044305
 20
-6.69418804503271
 30
0.0
 10
31.98865479377305
 20
-6.681538281883483
 30
0.0
  0
SPLINE
  5
184
330
1B
100
AcDbEntity
 67
     1
  8
0
  6
Continuous
 62
     8
370
    25
100
AcDbSpline
210
0.0
220
0.0
230
1.0
 70
     8
 71
     3
 72
    16
 73
    12
 74
     0
 42
0.000000001
 43
0.00000001
 40
0.0
 40
0.0
 40
0.0
 40
0.0
 40
0.2000453486144364
 40
0.4201166325540153
 40
0.4979769132056125
 40
0.5780662291126493
 40
0.6603846433841213
 40
0.7449322283908324
 40
0.831709065965558
 40
0.9207152475780596
 40
1.0
 40
1.0
 40
1.0
 40
1.0
 10
-31.98865479377301
 20
-6.681538281883483
 30
0.0
 10
-32.77837096340754
 20
-6.694193411292522
 30
0.0
 10
-34.4368594019454
 20
-6.720770536872735
 30
0.0
 10
-35.88991383766106
 20
-6.741403480480877
 30
0.0
 10
-36.77834522598693
 20
-6.75434297939545
 30
0.0
 10
-37.26141774478
 20
-6.761489987457812
 30
0.0
 10
-37.67208284774566
 20
-6.767850182662051
 30
0.0
 10
-38.00472036825742
 20
-6.77342238662209
 30
0.0
 10
-38.23946146842713
 20
-6.778144369935214
 30
0.0
 10
-38.40615869153824
 20
-6.782090871989409
 30
0.0
 10
-38.3720804497309
 20
-6.783715626930357
 30
0.0
 10
-38.35602560411387
 20
-6.784481076917176
 30
0.0
  0
SPLINE
  5
186
330
1B
100
AcDbEntity
 67
     1
  8
0
  6
Continuous
 62
     8
370
    25
100
AcDbSpline
210
0.0
220
0.0
230
1.0
 70
     8
 71
     3
 72
    10
 73
     6
 74
     0
 42
0.000000001
 43
0.00000001
 40
0.0
 40
0.0
 40
0.0
 40
0.0
 40
0.263094616162217
 40
0.6380417525878171
 40
1.0
 40
1.0
 40
1.0
 40
1.0
 10
51.15403273362548
 20
0.6746426664240995
 30
0.0
 10
51.16261406994814
 20
0.3782460470171875
 30
0.0
 10
51.18342502741556
 20
-0.3405577858627967
 30
0.0
 10
51.24038743439201
 20
-2.540500384384664
 30
0.0
 10
51.29045009390897
 20
-4.566430538357043
 30
0.0
 10
51.3150402148349
 20
-5.561540825233108
 30
0.0
  0
SPLINE
  5
187
330
1B
100
AcDbEntity
 67
     1
  8
0
  6
Continuous
 62
     8
370
    25
100
AcDbSpline
210
0.0
220
0.0
230
1.0
 70
     8
 71
     3
 72
    11
 73
     7
 74
     0
 42
0.000000001
 43
0.00000001
 40
0.0
 40
0.0
 40
0.0
 40
0.0
 40
0.268826204127161
 40
0.5477088136744808
 40
0.8283582581021915
 40
1.0
 40
1.0
 40
1.0
 40
1.0
 10
-51.314774215141
 20
-5.561538139844377
 30
0.0
 10
-51.296298962434
 20
-4.81161563821858
 30
0.0
 10
-51.25865732412963
 20
-3.283717102259734
 30
0.0
 10
-51.20958954944064
 20
-1.362923483286073
 30
0.0
 10
-51.17226742095675
 20
0.0542866472262871
 30
0.0
 10
-51.15891036409278
 20
0.5032432451809732
 30
0.0
 10
-51.15384144261902
 20
0.673619531165015
 30
0.0
  0
SPLINE
  5
188
330
1B
100
AcDbEntity
 67
     1
  8
0
  6
Continuous
 62
     8
370
    25
100
AcDbSpline
210
0.0
220
0.0
230
1.0
 70
     8
 71
     3
 72
     9
 73
     5
 74
     0
 42
0.000000001
 43
0.00000001
 40
0.0
 40
0.0
 40
0.0
 40
0.0
 40
0.4056285108228904
 40
1.0
 40
1.0
 40
1.0
 40
1.0
 10
-109.6682166399951
 20
-5.125989570506959
 30
0.0
 10
-101.7783323756843
 20
-5.196510780823608
 30
0.0
 10
-82.32732226718701
 20
-5.370367421653858
 30
0.0
 10
-62.87605369201884
 20
-5.49027119262676
 30
0.0
 10
-51.3147742226122
 20
-5.561538575537872
 30
0.0
  0
LINE
  5
18B
330
1B
100
AcDbEntity
 67
     1
  8
0
  6
Continuous
 62
     7
370
    25
100
AcDbLine
 10
-38.4233396892
 20
-6.6735244456
 30
0.0
 11
-35.8450099245
 21
-36.1440228425
 31
0.0
  0
LINE
  5
18C
330
1B
100
AcDbEntity
 67
     1
  8
0
  6
Continuous
 62
     7
370
    25
100
AcDbLine
 10
35.8450099245
 20
-36.1440228425
 30
0.0
 11
38.4233396892
 21
-6.6735244456
 31
0.0
  0
LINE
  5
18D
330
1B
100
AcDbEntity
 67
     1
  8
0
  6
Continuous
 62
     7
370
    25
100
AcDbLine
 10
246.4560805875
 20
133.2618708035
 30
0.0
 11
-246.4560805875
 21
133.2618708035
 31
0.0
  0
LINE
  5
18E
330
1B
100
AcDbEntity
 67
     1
  8
0
  6
Continuous
 62
     7
370
    25
100
AcDbLine
 10
-250.4255806774
 20
129.7548911236
 30
0.0
 11
-252.1014423846
 21
116.2618708035
 31
0.0
  0
LINE
  5
18F
330
1B
100
AcDbEntity
 67
     1
  8
0
  6
Continuous
 62
     7
370
    25
100
AcDbLine
 10
250.4255806774
 20
129.7548911236
 30
0.0
 11
252.1014423846
 21
116.2618708035
 31
0.0
  0
LINE
  5
190
330
1B
100
AcDbEntity
 67
     1
  8
0
  6
Continuous
 62
     7
370
    25
100
AcDbLine
 10
252.1014423846
 20
116.2618708035
 30
0.0
 11
209.1299200913
 21
116.2618708035
 31
0.0
  0
LINE
  5
191
330
1B
100
AcDbEntity
 67
     1
  8
0
  6
Continuous
 62
     7
370
    25
100
AcDbLine
 10
-252.1014423846
 20
116.2618708035
 30
0.0
 11
-209.1299200913
 21
116.2618708035
 31
0.0
  0
LINE
  5
192
330
1B
100
AcDbEntity
 67
     1
  8
0
  6
Continuous
 62
     7
370
    25
100
AcDbLine
 10
-181.9292070993
 20
-1.4689953165
 30
0.0
 11
-209.1299200913
 21
116.2618708035
 31
0.0
  0
LINE
  5
193
330
1B
100
AcDbEntity
 67
     1
  8
0
  6
Continuous
 62
     7
370
    25
100
AcDbLine
 10
121.5894732286
 20
-7.6681045634
 30
0.0
 11
174.1345427386
 21
-7.6681045634
 31
0.0
  0
LINE
  5
194
330
1B
100
AcDbEntity
 67
     1
  8
0
  6
Continuous
 62
     7
370
    25
100
AcDbLine
 10
-174.1345427386
 20
-7.6681045634
 30
0.0
 11
-121.5894732286
 21
-7.6681045634
 31
0.0
  0
LINE
  5
195
330
1B
100
AcDbEntity
 67
     1
  8
0
  6
Continuous
 62
     7
370
    25
100
AcDbLine
 10
181.9292070993
 20
-1.4689953165
 30
0.0
 11
209.1299200913
 21
116.2618708035
 31
0.0
  0
LINE
  5
196
330
1B
100
AcDbEntity
 67
     1
  8
0
  6
Continuous
 62
     7
370
    25
100
AcDbLine
 10
-32.2500214369
 20
15.53833409
 30
0.0
 11
-33.2442508319
 21
44.0093388647
 31
0.0
  0
LINE
  5
197
330
1B
100
AcDbEntity
 67
     1
  8
0
  6
Continuous
 62
     7
370
    25
100
AcDbLine
 10
33.2442508319
 20
44.0093388647
 30
0.0
 11
32.2500214369
 21
15.53833409
 31
0.0
  0
LINE
  5
198
330
1B
100
AcDbEntity
 67
     1
  8
0
  6
Continuous
 62
     7
370
    25
100
AcDbLine
 10
-22.2561131667
 20
14.8992543869
 30
0.0
 11
22.2561131667
 21
14.8992543869
 31
0.0
  0
LINE
  5
199
330
1B
100
AcDbEntity
 67
     1
  8
0
  6
Continuous
 62
     7
370
    25
100
AcDbLine
 10
21.0086539672
 20
-29.7539426093
 30
0.0
 11
-21.0086539672
 21
-29.7539426093
 31
0.0
  0
LINE
  5
19A
330
1B
100
AcDbEntity
 67
     1
  8
0
  6
Continuous
 62
     7
370
    25
100
AcDbLine
 10
46.0476528233
 20
0.5136587663
 30
0.0
 11
46.0242024791
 21
0.5131465033
 31
0.0
  0
LINE
  5
19B
330
1B
100
AcDbEntity
 67
     1
  8
0
  6
Continuous
 62
     7
370
    25
100
AcDbLine
 10
-46.0139798707
 20
0.5129234036
 30
0.0
 11
-46.0294976812
 21
0.5132624952
 31
0.0
  0
LINE
  5
19C
330
1B
100
AcDbEntity
 67
     1
  8
0
  6
Continuous
 62
     7
370
    25
100
AcDbLine
 10
20.9310741303
 20
-31.9755384688
 30
0.0
 11
21.0086539672
 21
-29.7539426093
 31
0.0
  0
LINE
  5
19D
330
1B
100
AcDbEntity
 67
     1
  8
0
  6
Continuous
 62
     7
370
    25
100
AcDbLine
 10
-21.0086539672
 20
-29.7539426093
 30
0.0
 11
-20.9310741303
 21
-31.9755384688
 31
0.0
  0
LINE
  5
19E
330
1B
100
AcDbEntity
 67
     1
  8
0
  6
Continuous
 62
     7
370
    25
100
AcDbLine
 10
31.0025622374
 20
-20.1842235069
 30
0.0
 11
30.8799151416
 21
-23.6963768062
 31
0.0
  0
LINE
  5
19F
330
1B
100
AcDbEntity
 67
     1
  8
0
  6
Continuous
 62
     7
370
    25
100
AcDbLine
 10
-30.8799151416
 20
-23.6963768062
 30
0.0
 11
-31.0025622374
 21
-20.1842235069
 31
0.0
  0
LINE
  5
1A0
330
1B
100
AcDbEntity
 67
     1
  8
0
  6
Continuous
 62
     7
370
    25
100
AcDbLine
 10
0.0
 20
-33.8982563971
 30
0.0
 11
0.0
 21
-31.1841089261
 31
0.0
  0
LINE
  5
1A1
330
1B
100
AcDbEntity
 67
     1
  8
0
  6
Continuous
 62
     7
370
    25
100
AcDbLine
 10
-38.3363253644
 20
-7.6681045634
 30
0.0
 11
-51.2994554829
 21
-7.6681045634
 31
0.0
  0
LINE
  5
1A2
330
1B
100
AcDbEntity
 67
     1
  8
0
  6
Continuous
 62
     7
370
    25
100
AcDbLine
 10
51.2997198724
 20
-7.6681045634
 30
0.0
 11
38.3363253644
 21
-7.6681045634
 31
0.0
  0
LINE
  5
1A3
330
1B
100
AcDbEntity
 67
     1
  8
0
  6
Continuous
 62
     8
370
    25
100
AcDbLine
 10
-23.3497785925
 20
46.2177345263
 30
0.0
 11
-22.2561131667
 21
14.8992543869
 31
0.0
  0
LINE
  5
1A4
330
1B
100
AcDbEntity
 67
     1
  8
0
  6
Continuous
 62
     8
370
    25
100
AcDbLine
 10
22.2561131667
 20
14.8992543869
 30
0.0
 11
23.3497785925
 21
46.2177345263
 31
0.0
  0
LINE
  5
1A5
330
1B
100
AcDbEntity
 67
     1
  8
0
  6
Continuous
 62
     8
370
    25
100
AcDbLine
 10
-40.6294065857
 20
27.0533225198
 30
0.0
 11
-41.1391641321
 21
41.6508687315
 31
0.0
  0
LINE
  5
1A6
330
1B
100
AcDbEntity
 67
     1
  8
0
  6
Continuous
 62
     8
370
    25
100
AcDbLine
 10
41.1391641321
 20
41.6508687315
 30
0.0
 11
40.6294065857
 21
27.0533225198
 31
0.0
  0
LINE
  5
1A7
330
1B
100
AcDbEntity
 67
     1
  8
0
  6
Continuous
 62
     8
370
    25
100
AcDbLine
 10
-69.8166621415
 20
27.8533548885
 30
0.0
 11
-40.6294065857
 21
27.0533225198
 31
0.0
  0
LINE
  5
1A8
330
1B
100
AcDbEntity
 67
     1
  8
0
  6
Continuous
 62
     8
370
    25
100
AcDbLine
 10
40.6294065857
 20
27.0533225198
 30
0.0
 11
69.8766655321
 21
27.8463465315
 31
0.0
  0
LINE
  5
1A9
330
1B
100
AcDbEntity
 67
     1
  8
0
  6
Continuous
 62
     8
370
    25
100
AcDbLine
 10
51.3150374248
 20
-5.561540824
 30
0.0
 11
109.604998447
 21
-5.10838462
 31
0.0
  0
LINE
  5
1AA
330
1B
100
AcDbEntity
 67
     1
  8
0
  6
Continuous
 62
     8
370
    25
100
AcDbLine
 10
38.7324455843
 20
-5.5986254662
 30
0.0
 11
51.3150374341
 21
-5.5615362777
 31
0.0
  0
LINE
  5
1AB
330
1B
100
AcDbEntity
 67
     1
  8
0
  6
Continuous
 62
     8
370
    25
100
AcDbLine
 10
-51.3147729789
 20
-5.5615377334
 30
0.0
 11
-38.7324023555
 21
-5.5986261779
 31
0.0
  0
ARC
  5
1AC
330
1B
100
AcDbEntity
 67
     1
  8
0
  6
Continuous
 62
     7
370
    25
100
AcDbCircle
 10
-246.4560805875
 20
129.2618708035
 30
0.0
 40
4.000000000000009
100
AcDbArc
 50
90.0
 51
172.92
  0
ARC
  5
1AD
330
1B
100
AcDbEntity
 67
     1
  8
0
  6
Continuous
 62
     7
370
    25
100
AcDbCircle
 10
246.4560805875
 20
129.2618708035
 30
0.0
 40
4.000000000000057
100
AcDbArc
 50
7.08
 51
90.0
  0
ARC
  5
1AE
330
1B
100
AcDbEntity
 67
     1
  8
0
  6
Continuous
 62
     7
370
    25
100
AcDbCircle
 10
-121.5894732286
 20
22.3318954366
 30
0.0
 40
29.99999999999921
100
AcDbArc
 50
270.0
 51
319.4583981265
  0
ARC
  5
1AF
330
1B
100
AcDbEntity
 67
     1
  8
0
  6
Continuous
 62
     7
370
    25
100
AcDbCircle
 10
174.1345427386
 20
0.3318954366
 30
0.0
 40
8.000000000000185
100
AcDbArc
 50
270.0
 51
346.9905743176
  0
ARC
  5
1B0
330
1B
100
AcDbEntity
 67
     1
  8
0
  6
Continuous
 62
     7
370
    25
100
AcDbCircle
 10
121.5894732286
 20
22.3318954366
 30
0.0
 40
30.00000000000127
100
AcDbArc
 50
220.5416018735
 51
270.0
  0
ARC
  5
1B1
330
1B
100
AcDbEntity
 67
     1
  8
0
  6
Continuous
 62
     7
370
    25
100
AcDbCircle
 10
-174.1345427386
 20
0.3318954366
 30
0.0
 40
7.999999999999889
100
AcDbArc
 50
193.0094256824
 51
270.0
  0
ARC
  5
1B2
330
1B
100
AcDbEntity
 67
     1
  8
0
  6
Continuous
 62
     7
370
    25
100
AcDbCircle
 10
0.0
 20
-81.6681045634
 30
0.0
 40
129.9999999999999
100
AcDbArc
 50
40.5416018735
 51
139.4583981265
  0
ARC
  5
1B3
330
1B
100
AcDbEntity
 67
     1
  8
0
  6
Continuous
 62
     7
370
    25
100
AcDbCircle
 10
21.0538362729
 20
-19.7978180598
 30
0.0
 40
9.956227070849915
100
AcDbArc
 50
269.7399854089
 51
357.7757675848
  0
ARC
  5
1B4
330
1B
100
AcDbEntity
 67
     1
  8
0
  6
Continuous
 62
     7
370
    25
100
AcDbCircle
 10
-21.0538362729
 20
-19.7978180598
 30
0.0
 40
9.956227070849945
100
AcDbArc
 50
182.2242324152
 51
270.2600145911
  0
ARC
  5
1B5
330
1B
100
AcDbEntity
 67
     1
  8
0
  6
Continuous
 62
     7
370
    25
100
AcDbCircle
 10
-39.4695716485
 20
-4.8073234282
 30
0.0
 40
7.925439591610761
100
AcDbArc
 50
2.4404059877
 51
88.9995102354
  0
ARC
  5
1B6
330
1B
100
AcDbEntity
 67
     1
  8
0
  6
Continuous
 62
     7
370
    25
100
AcDbCircle
 10
39.4695716485
 20
-4.8073234282
 30
0.0
 40
7.925439591610742
100
AcDbArc
 50
91.0004897646
 51
177.5595940123
  0
ARC
  5
1B7
330
1B
100
AcDbEntity
 67
     1
  8
0
  6
Continuous
 62
     7
370
    25
100
AcDbCircle
 10
-22.246469307
 20
-34.5856323833
 30
0.0
 40
2.922816229829023
100
AcDbArc
 50
357.9598136838
 51
63.2535090588
  0
ARC
  5
1B8
330
1B
100
AcDbEntity
 67
     1
  8
0
  6
Continuous
 62
     7
370
    25
100
AcDbCircle
 10
22.246469307
 20
-34.5856323833
 30
0.0
 40
2.922816229829023
100
AcDbArc
 50
116.7464909412
 51
182.0401863162
  0
ARC
  5
1B9
330
1B
100
AcDbEntity
 67
     1
  8
0
  6
Continuous
 62
     7
370
    25
100
AcDbCircle
 10
-31.2948847702
 20
-24.1598680686
 30
0.0
 40
0.6221124841254093
100
AcDbArc
 50
48.1615098472
 51
94.4232784931
  0
ARC
  5
1BA
330
1B
100
AcDbEntity
 67
     1
  8
0
  6
Continuous
 62
     7
370
    25
100
AcDbCircle
 10
31.2948847702
 20
-24.1598680686
 30
0.0
 40
0.622112484125075
100
AcDbArc
 50
85.5767215069
 51
131.8384901528
  0
ARC
  5
1BB
330
1B
100
AcDbEntity
 67
     1
  8
0
  6
Continuous
 62
     7
370
    25
100
AcDbCircle
 10
-31.3674924294
 20
-12.3682027016
 30
0.0
 40
5.7204890442138
100
AcDbArc
 50
91.2394639334
 51
96.233784293
  0
ARC
  5
1BC
330
1B
100
AcDbEntity
 67
     1
  8
0
  6
Continuous
 62
     7
370
    25
100
AcDbCircle
 10
31.3674924294
 20
-12.3682027016
 30
0.0
 40
5.720489044219614
100
AcDbArc
 50
83.766215707
 51
88.7605360666
  0
ARC
  5
1BD
330
1B
100
AcDbEntity
 67
     1
  8
0
  6
Continuous
 62
     7
370
    25
100
AcDbCircle
 10
-31.9068899385
 20
-7.7083067439
 30
0.0
 40
0.7131642147472387
100
AcDbArc
 50
50.947203118
 51
94.8723305585
  0
ARC
  5
1BE
330
1B
100
AcDbEntity
 67
     1
  8
0
  6
Continuous
 62
     7
370
    25
100
AcDbCircle
 10
31.9068899385
 20
-7.7083067439
 30
0.0
 40
0.7131642147472022
100
AcDbArc
 50
85.1276694415
 51
129.052796882
  0
VIEWPORT
  5
312
330
1B
100
AcDbEntity
 67
     1
  8
0
100
AcDbViewport
 10
0.0
 20
0.0
 30
0.0
 40
205.6
 41
156.0
 68
     1
 69
     1
 12
0.0
 22
22.1910060118
 13
0.0
 23
0.0
 14
10.0
 24
10.0
 15
10.0
 25
10.0
 16
0.0
 26
0.0
 36
1.0
 17
0.0
 27
0.0
 37
0.0
 42
50.0
 43
0.0
 44
0.0
 45
390.2177189906
 50
0.0
 51
0.0
 72
   100
 90
   557152
  1

281
     0
 71
     1
 74
     0
110
0.0
120
0.0
130
0.0
111
1.0
121
0.0
131
0.0
112
0.0
122
1.0
132
0.0
 79
     0
146
0.0
  0
ENDSEC
  0
SECTION
  2
OBJECTS
  0
DICTIONARY
  5
C
330
0
100
AcDbDictionary
281
     1
  3
ACAD_GROUP
350
D
  3
ACAD_LAYOUT
350
1A
  3
ACAD_MLINESTYLE
350
17
  3
ACAD_PLOTSETTINGS
350
19
  3
ACAD_PLOTSTYLENAME
350
E
  3
ACAD_SCALELIST
350
47
  0
DICTIONARY
  5
D
102
{ACAD_REACTORS
330
C
102
}
330
C
100
AcDbDictionary
281
     1
  0
DICTIONARY
  5
1A
102
{ACAD_REACTORS
330
C
102
}
330
C
100
AcDbDictionary
281
     1
  3
_Back
350
26
  3
_Front
350
1E
  3
_Isometric
350
259
  3
_Left
350
20F
  3
Model
350
22
  0
DICTIONARY
  5
17
102
{ACAD_REACTORS
330
C
102
}
330
C
100
AcDbDictionary
281
     1
  3
Standard
350
18
  0
DICTIONARY
  5
19
102
{ACAD_REACTORS
330
C
102
}
330
C
100
AcDbDictionary
281
     1
  0
ACDBDICTIONARYWDFLT
  5
E
102
{ACAD_REACTORS
330
C
102
}
330
C
100
AcDbDictionary
281
     1
  3
Normal
350
F
100
AcDbDictionaryWithDefault
340
F
  0
DICTIONARY
  5
47
102
{ACAD_REACTORS
330
C
102
}
330
C
100
AcDbDictionary
281
     1
  3
A0
350
48
  3
A1
350
49
  3
A2
350
4A
  3
A3
350
4B
  3
A4
350
4C
  3
A5
350
4D
  3
A6
350
4E
  3
A7
350
4F
  3
A8
350
50
  3
A9
350
51
  3
B0
350
52
  3
B1
350
53
  3
B2
350
54
  3
B3
350
55
  3
B4
350
56
  3
B5
350
57
  3
B6
350
58
  3
B7
350
59
  3
B8
350
5A
  3
B9
350
5B
  3
C0
350
5C
  3
C1
350
5D
  3
C2
350
5E
  3
C3
350
5F
  3
C4
350
60
  3
C5
350
61
  3
C6
350
62
  3
C7
350
63
  3
C8
350
64
  3
C9
350
65
  3
D0
350
66
  3
D1
350
67
  3
D2
350
68
  0
LAYOUT
  5
26
102
{ACAD_REACTORS
330
1A
102
}
330
1A
100
AcDbPlotSettings
  1

  2
none_device
  4
ISO_A4_(210.00_x_297.00_MM)
  6

 40
7.5
 41
20.0
 42
7.5
 43
20.0
 44
210.0
 45
297.0
 46
0.0
 47
0.0
 48
0.0
 49
0.0
140
0.0
141
0.0
142
1.0
143
1.9618789291
 70
   688
 72
     1
 73
     1
 74
     1
  7

 75
     0
147
0.5097154494
148
252.1014423846
149
36.1440228425
100
AcDbLayout
  1
_Back
 70
     1
 71
     2
 10
0.0
 20
0.0
 11
0.0
 21
0.0
 12
0.0
 22
0.0
 32
0.0
 14
0.0
 24
0.0
 34
0.0
 15
0.0
 25
0.0
 35
0.0
146
0.0
 13
0.0
 23
0.0
 33
0.0
 16
1.0
 26
0.0
 36
0.0
 17
0.0
 27
1.0
 37
0.0
 76
     0
330
23
331
314
  0
LAYOUT
  5
1E
102
{ACAD_REACTORS
330
1A
102
}
330
1A
100
AcDbPlotSettings
  1

  2
none_device
  4
ISO_A4_(210.00_x_297.00_MM)
  6

 40
7.5
 41
20.0
 42
7.5
 43
20.0
 44
210.0
 45
297.0
 46
0.0
 47
0.0
 48
0.0
 49
0.0
140
0.0
141
0.0
142
1.0
143
1.9618789291
 70
   688
 72
     1
 73
     1
 74
     1
  7

 75
     0
147
0.5097154494
148
252.1014423846
149
36.1440228425
100
AcDbLayout
  1
_Front
 70
     1
 71
     1
 10
-291.3390209659
 20
-50.8581148105
 11
291.3390209659
 21
361.1364602927
 12
0.0
 22
0.0
 32
0.0
 14
-252.1014423846
 24
-36.1440228425
 34
0.0
 15
252.1014423846
 25
133.2618708035
 35
0.0
146
0.0
 13
0.0
 23
0.0
 33
0.0
 16
1.0
 26
0.0
 36
0.0
 17
0.0
 27
1.0
 37
0.0
 76
     0
330
1B
331
312
  0
LAYOUT
  5
259
102
{ACAD_REACTORS
330
1A
102
}
330
1A
100
AcDbPlotSettings
  1

  2
none_device
  4
ISO_A4_(210.00_x_297.00_MM)
  6

 40
7.5
 41
20.0
 42
7.5
 43
20.0
 44
210.0
 45
297.0
 46
0.0
 47
0.0
 48
0.0
 49
0.0
140
0.0
141
0.0
142
1.0
143
1.9618789291
 70
   688
 72
     1
 73
     1
 74
     1
  7

 75
     0
147
0.5097154494
148
252.1014423846
149
36.1440228425
100
AcDbLayout
  1
_Isometric
 70
     1
 71
     4
 10
0.0
 20
0.0
 11
0.0
 21
0.0
 12
0.0
 22
0.0
 32
0.0
 14
0.0
 24
0.0
 34
0.0
 15
0.0
 25
0.0
 35
0.0
146
0.0
 13
0.0
 23
0.0
 33
0.0
 16
1.0
 26
0.0
 36
0.0
 17
0.0
 27
1.0
 37
0.0
 76
     0
330
258
331
318
  0
LAYOUT
  5
20F
102
{ACAD_REACTORS
330
1A
102
}
330
1A
100
AcDbPlotSettings
  1

  2
none_device
  4
ISO_A4_(210.00_x_297.00_MM)
  6

 40
7.5
 41
20.0
 42
7.5
 43
20.0
 44
210.0
 45
297.0
 46
0.0
 47
0.0
 48
0.0
 49
0.0
140
0.0
141
0.0
142
1.0
143
1.9618789291
 70
   688
 72
     1
 73
     1
 74
     1
  7

 75
     0
147
0.5097154494
148
252.1014423846
149
36.1440228425
100
AcDbLayout
  1
_Left
 70
     1
 71
     3
 10
0.0
 20
0.0
 11
0.0
 21
0.0
 12
0.0
 22
0.0
 32
0.0
 14
0.0
 24
0.0
 34
0.0
 15
0.0
 25
0.0
 35
0.0
146
0.0
 13
0.0
 23
0.0
 33
0.0
 16
1.0
 26
0.0
 36
0.0
 17
0.0
 27
1.0
 37
0.0
 76
     0
330
20E
331
316
  0
LAYOUT
  5
22
102
{ACAD_REACTORS
330
1A
102
}
330
1A
100
AcDbPlotSettings
  1

  2
none_device
  4
ANSI_A_(11.00_x_8.50_Inches)
  6

 40
6.35
 41
19.05
 42
6.35000508
 43
19.05000254
 44
279.4
 45
215.9
 46
133.34999746
 47
76.7259997421
 48
0.0
 49
0.0
140
0.0
141
0.0
142
0.0215984484
143
1.0
 70
  1696
 72
     0
 73
     0
 74
     0
  7

 75
     0
147
0.0179189148
148
-1300.4909072572
149
0.0
100
AcDbLayout
  1
Model
 70
     1
 71
     0
 10
0.0
 20
0.0
 11
420.0
 21
297.0
 12
0.0
 22
0.0
 32
0.0
 14
-252.1014423846
 24
-159.091300899
 34
0.0
 15
252.1014423846
 25
203.4733129225
 35
0.0
146
0.0
 13
0.0
 23
0.0
 33
0.0
 16
1.0
 26
0.0
 36
0.0
 17
0.0
 27
1.0
 37
0.0
 76
     0
330
1F
331
29
  0
MLINESTYLE
  5
18
102
{ACAD_REACTORS
330
17
102
}
330
17
100
AcDbMlineStyle
  2
Standard
 70
     0
  3

 62
   256
 51
90.0
 52
90.0
 71
     2
 49
0.5
 62
   256
  6
BYLAYER
 49
-0.5
 62
   256
  6
BYLAYER
  0
ACDBPLACEHOLDER
  5
F
102
{ACAD_REACTORS
330
E
102
}
330
E
  0
SCALE
  5
48
102
{ACAD_REACTORS
330
47
102
}
330
47
100
AcDbScale
 70
     0
300
1:1
140
1.0
141
1.0
290
     1
  0
SCALE
  5
49
102
{ACAD_REACTORS
330
47
102
}
330
47
100
AcDbScale
 70
     0
300
1:2
140
1.0
141
2.0
290
     0
  0
SCALE
  5
4A
102
{ACAD_REACTORS
330
47
102
}
330
47
100
AcDbScale
 70
     0
300
1:4
140
1.0
141
4.0
290
     0
  0
SCALE
  5
4B
102
{ACAD_REACTORS
330
47
102
}
330
47
100
AcDbScale
 70
     0
300
1:5
140
1.0
141
5.0
290
     0
  0
SCALE
  5
4C
102
{ACAD_REACTORS
330
47
102
}
330
47
100
AcDbScale
 70
     0
300
1:8
140
1.0
141
8.0
290
     0
  0
SCALE
  5
4D
102
{ACAD_REACTORS
330
47
102
}
330
47
100
AcDbScale
 70
     0
300
1:10
140
1.0
141
10.0
290
     0
  0
SCALE
  5
4E
102
{ACAD_REACTORS
330
47
102
}
330
47
100
AcDbScale
 70
     0
300
1:16
140
1.0
141
16.0
290
     0
  0
SCALE
  5
4F
102
{ACAD_REACTORS
330
47
102
}
330
47
100
AcDbScale
 70
     0
300
1:20
140
1.0
141
20.0
290
     0
  0
SCALE
  5
50
102
{ACAD_REACTORS
330
47
102
}
330
47
100
AcDbScale
 70
     0
300
1:30
140
1.0
141
30.0
290
     0
  0
SCALE
  5
51
102
{ACAD_REACTORS
330
47
102
}
330
47
100
AcDbScale
 70
     0
300
1:40
140
1.0
141
40.0
290
     0
  0
SCALE
  5
52
102
{ACAD_REACTORS
330
47
102
}
330
47
100
AcDbScale
 70
     0
300
1:50
140
1.0
141
50.0
290
     0
  0
SCALE
  5
53
102
{ACAD_REACTORS
330
47
102
}
330
47
100
AcDbScale
 70
     0
300
1:100
140
1.0
141
100.0
290
     0
  0
SCALE
  5
54
102
{ACAD_REACTORS
330
47
102
}
330
47
100
AcDbScale
 70
     0
300
2:1
140
2.0
141
1.0
290
     0
  0
SCALE
  5
55
102
{ACAD_REACTORS
330
47
102
}
330
47
100
AcDbScale
 70
     0
300
4:1
140
4.0
141
1.0
290
     0
  0
SCALE
  5
56
102
{ACAD_REACTORS
330
47
102
}
330
47
100
AcDbScale
 70
     0
300
8:1
140
8.0
141
1.0
290
     0
  0
SCALE
  5
57
102
{ACAD_REACTORS
330
47
102
}
330
47
100
AcDbScale
 70
     0
300
10:1
140
10.0
141
1.0
290
     0
  0
SCALE
  5
58
102
{ACAD_REACTORS
330
47
102
}
330
47
100
AcDbScale
 70
     0
300
100:1
140
100.0
141
1.0
290
     0
  0
SCALE
  5
59
102
{ACAD_REACTORS
330
47
102
}
330
47
100
AcDbScale
 70
     0
300
1/128" = 1'-0"
140
0.0078125
141
12.0
290
     0
  0
SCALE
  5
5A
102
{ACAD_REACTORS
330
47
102
}
330
47
100
AcDbScale
 70
     0
300
1/64" = 1'-0"
140
0.015625
141
12.0
290
     0
  0
SCALE
  5
5B
102
{ACAD_REACTORS
330
47
102
}
330
47
100
AcDbScale
 70
     0
300
1/32" = 1'-0"
140
0.03125
141
12.0
290
     0
  0
SCALE
  5
5C
102
{ACAD_REACTORS
330
47
102
}
330
47
100
AcDbScale
 70
     0
300
1/16" = 1'-0"
140
0.0625
141
12.0
290
     0
  0
SCALE
  5
5D
102
{ACAD_REACTORS
330
47
102
}
330
47
100
AcDbScale
 70
     0
300
3/32" = 1'-0"
140
0.09375
141
12.0
290
     0
  0
SCALE
  5
5E
102
{ACAD_REACTORS
330
47
102
}
330
47
100
AcDbScale
 70
     0
300
1/8" = 1'-0"
140
0.125
141
12.0
290
     0
  0
SCALE
  5
5F
102
{ACAD_REACTORS
330
47
102
}
330
47
100
AcDbScale
 70
     0
300
3/16" = 1'-0"
140
0.1875
141
12.0
290
     0
  0
SCALE
  5
60
102
{ACAD_REACTORS
330
47
102
}
330
47
100
AcDbScale
 70
     0
300
1/4" = 1'-0"
140
0.25
141
12.0
290
     0
  0
SCALE
  5
61
102
{ACAD_REACTORS
330
47
102
}
330
47
100
AcDbScale
 70
     0
300
3/8" = 1'-0"
140
0.375
141
12.0
290
     0
  0
SCALE
  5
62
102
{ACAD_REACTORS
330
47
102
}
330
47
100
AcDbScale
 70
     0
300
1/2" = 1'-0"
140
0.5
141
12.0
290
     0
  0
SCALE
  5
63
102
{ACAD_REACTORS
330
47
102
}
330
47
100
AcDbScale
 70
     0
300
3/4" = 1'-0"
140
0.75
141
12.0
290
     0
  0
SCALE
  5
64
102
{ACAD_REACTORS
330
47
102
}
330
47
100
AcDbScale
 70
     0
300
1" = 1'-0"
140
1.0
141
12.0
290
     0
  0
SCALE
  5
65
102
{ACAD_REACTORS
330
47
102
}
330
47
100
AcDbScale
 70
     0
300
1-1/2" = 1'-0"
140
1.5
141
12.0
290
     0
  0
SCALE
  5
66
102
{ACAD_REACTORS
330
47
102
}
330
47
100
AcDbScale
 70
     0
300
3" = 1'-0"
140
3.0
141
12.0
290
     0
  0
SCALE
  5
67
102
{ACAD_REACTORS
330
47
102
}
330
47
100
AcDbScale
 70
     0
300
6" = 1'-0"
140
6.0
141
12.0
290
     0
  0
SCALE
  5
68
102
{ACAD_REACTORS
330
47
102
}
330
47
100
AcDbScale
 70
     0
300
1'-0" = 1'-0"
140
12.0
141
12.0
290
     0
  0
ENDSEC
  0
EOF
