  0
SECTION
  2
HEADER
  9
$ACADVER
  1
AC1015
  9
$ACADMAINTVER
 70
     6
  9
$DWGCODEPAGE
  3
ANSI_1252
  9
$INSBASE
 10
0.0
 20
0.0
 30
0.0
  9
$EXTMIN
 10
-250.7847443433
 20
-153.0
 30
0.0
  9
$EXTMAX
 10
250.7847443432
 20
16.0
 30
0.0
  9
$LIMMIN
 10
0.0
 20
0.0
  9
$LIMMAX
 10
420.0
 20
297.0
  9
$ORTHOMODE
 70
     0
  9
$REGENMODE
 70
     1
  9
$FILLMODE
 70
     1
  9
$QTEXTMODE
 70
     0
  9
$MIRRTEXT
 70
     1
  9
$LTSCALE
 40
1.0
  9
$ATTMODE
 70
     1
  9
$TEXTSIZE
 40
3.5
  9
$TRACEWID
 40
1.0
  9
$TEXTSTYLE
  7
Standard
  9
$CLAYER
  8
0
  9
$CELTYPE
  6
ByLayer
  9
$CECOLOR
 62
   256
  9
$CELTSCALE
 40
1.0
  9
$DISPSILH
 70
     0
  9
$DIMSCALE
 40
1.0
  9
$DIMASZ
 40
3.302
  9
$DIMEXO
 40
1.0
  9
$DIMDLI
 40
3.75
  9
$DIMRND
 40
0.0
  9
$DIMDLE
 40
0.0
  9
$DIMEXE
 40
1.0
  9
$DIMTP
 40
0.0
  9
$DIMTM
 40
0.0
  9
$DIMTXT
 40
3.5
  9
$DIMCEN
 40
2.5
  9
$DIMTSZ
 40
0.0
  9
$DIMTOL
 70
     0
  9
$DIMLIM
 70
     0
  9
$DIMTIH
 70
     1
  9
$DIMTOH
 70
     1
  9
$DIMSE1
 70
     0
  9
$DIMSE2
 70
     0
  9
$DIMTAD
 70
     1
  9
$DIMZIN
 70
     1
  9
$DIMBLK
  1

  9
$DIMASO
 70
     1
  9
$DIMSHO
 70
     1
  9
$DIMPOST
  1

  9
$DIMAPOST
  1

  9
$DIMALT
 70
     0
  9
$DIMALTD
 70
     3
  9
$DIMALTF
 40
0.0393700787
  9
$DIMLFAC
 40
1.0
  9
$DIMTOFL
 70
     1
  9
$DIMTVP
 40
0.0
  9
$DIMTIX
 70
     0
  9
$DIMSOXD
 70
     0
  9
$DIMSAH
 70
     0
  9
$DIMBLK1
  1

  9
$DIMBLK2
  1

  9
$DIMSTYLE
  2
ISO-25
  9
$DIMCLRD
 70
     0
  9
$DIMCLRE
 70
     0
  9
$DIMCLRT
 70
     0
  9
$DIMTFAC
 40
1.0
  9
$DIMGAP
 40
1.524
  9
$DIMJUST
 70
     0
  9
$DIMSD1
 70
     0
  9
$DIMSD2
 70
     0
  9
$DIMTOLJ
 70
     0
  9
$DIMTZIN
 70
     1
  9
$DIMALTZ
 70
     0
  9
$DIMALTTZ
 70
     0
  9
$DIMUPT
 70
     0
  9
$DIMDEC
 70
     2
  9
$DIMTDEC
 70
     2
  9
$DIMALTU
 70
     2
  9
$DIMALTTD
 70
     3
  9
$DIMTXSTY
  7
Standard
  9
$DIMAUNIT
 70
     0
  9
$DIMADEC
 70
     2
  9
$DIMALTRND
 40
0.0
  9
$DIMAZIN
 70
     0
  9
$DIMDSEP
 70
    44
  9
$DIMATFIT
 70
     3
  9
$DIMFRAC
 70
     0
  9
$DIMLDRBLK
  1

  9
$DIMLUNIT
 70
     2
  9
$DIMLWD
 70
    -2
  9
$DIMLWE
 70
    -2
  9
$DIMTMOVE
 70
     0
  9
$LUNITS
 70
     2
  9
$LUPREC
 70
     2
  9
$SKETCHINC
 40
1.0
  9
$FILLETRAD
 40
10.0
  9
$AUNITS
 70
     0
  9
$AUPREC
 70
     2
  9
$MENU
  1
.
  9
$ELEVATION
 40
0.0
  9
$PELEVATION
 40
0.0
  9
$THICKNESS
 40
0.0
  9
$LIMCHECK
 70
     0
  9
$CHAMFERA
 40
0.0
  9
$CHAMFERB
 40
0.0
  9
$CHAMFERC
 40
0.0
  9
$CHAMFERD
 40
0.0
  9
$SKPOLY
 70
     0
  9
$TDCREATE
 40
2459901.352163322
  9
$TDUCREATE
 40
2459901.352163322
  9
$TDUPDATE
 40
2459901.352212211
  9
$TDUUPDATE
 40
2459901.352212211
  9
$TDINDWG
 40
0.0000000116
  9
$TDUSRTIMER
 40
0.0000000116
  9
$USRTIMER
 70
     1
  9
$ANGBASE
 50
0.0
  9
$ANGDIR
 70
     0
  9
$PDMODE
 70
     0
  9
$PDSIZE
 40
-1.0
  9
$PLINEWID
 40
0.0
  9
$SPLFRAME
 70
     0
  9
$SPLINETYPE
 70
     6
  9
$SPLINESEGS
 70
     8
  9
$HANDSEED
  5
317
  9
$SURFTAB1
 70
     6
  9
$SURFTAB2
 70
     6
  9
$SURFTYPE
 70
     6
  9
$SURFU
 70
     6
  9
$SURFV
 70
     6
  9
$UCSBASE
  2

  9
$UCSNAME
  2

  9
$UCSORG
 10
0.0
 20
0.0
 30
0.0
  9
$UCSXDIR
 10
1.0
 20
0.0
 30
0.0
  9
$UCSYDIR
 10
0.0
 20
1.0
 30
0.0
  9
$UCSORTHOREF
  2

  9
$UCSORTHOVIEW
 70
     0
  9
$UCSORGTOP
 10
0.0
 20
0.0
 30
0.0
  9
$UCSORGBOTTOM
 10
0.0
 20
0.0
 30
0.0
  9
$UCSORGLEFT
 10
0.0
 20
0.0
 30
0.0
  9
$UCSORGRIGHT
 10
0.0
 20
0.0
 30
0.0
  9
$UCSORGFRONT
 10
0.0
 20
0.0
 30
0.0
  9
$UCSORGBACK
 10
0.0
 20
0.0
 30
0.0
  9
$PUCSBASE
  2

  9
$PUCSNAME
  2

  9
$PUCSORG
 10
0.0
 20
0.0
 30
0.0
  9
$PUCSXDIR
 10
1.0
 20
0.0
 30
0.0
  9
$PUCSYDIR
 10
0.0
 20
1.0
 30
0.0
  9
$PUCSORTHOREF
  2

  9
$PUCSORTHOVIEW
 70
     0
  9
$PUCSORGTOP
 10
0.0
 20
0.0
 30
0.0
  9
$PUCSORGBOTTOM
 10
0.0
 20
0.0
 30
0.0
  9
$PUCSORGLEFT
 10
0.0
 20
0.0
 30
0.0
  9
$PUCSORGRIGHT
 10
0.0
 20
0.0
 30
0.0
  9
$PUCSORGFRONT
 10
0.0
 20
0.0
 30
0.0
  9
$PUCSORGBACK
 10
0.0
 20
0.0
 30
0.0
  9
$USERI1
 70
     0
  9
$USERI2
 70
     0
  9
$USERI3
 70
     0
  9
$USERI4
 70
     0
  9
$USERI5
 70
     0
  9
$USERR1
 40
0.0
  9
$USERR2
 40
0.0
  9
$USERR3
 40
0.0
  9
$USERR4
 40
0.0
  9
$USERR5
 40
0.0
  9
$WORLDVIEW
 70
     1
  9
$SHADEDGE
 70
     3
  9
$SHADEDIF
 70
    70
  9
$TILEMODE
 70
     1
  9
$MAXACTVP
 70
    64
  9
$PINSBASE
 10
0.0
 20
0.0
 30
0.0
  9
$PLIMCHECK
 70
     0
  9
$PEXTMIN
 10
-250.7847443432
 20
-153.0
 30
0.0
  9
$PEXTMAX
 10
250.7847443441
 20
16.0
 30
0.0
  9
$PLIMMIN
 10
-289.8173893773
 20
-167.6372418878
  9
$PLIMMAX
 10
289.8173893781
 20
242.2055309696
  9
$UNITMODE
 70
     0
  9
$VISRETAIN
 70
     1
  9
$PLINEGEN
 70
     0
  9
$PSLTSCALE
 70
     1
  9
$TREEDEPTH
 70
  3020
  9
$CMLSTYLE
  2
Standard
  9
$CMLJUST
 70
     0
  9
$CMLSCALE
 40
20.0
  9
$PROXYGRAPHICS
 70
     1
  9
$MEASUREMENT
 70
     1
  9
$CELWEIGHT
370
    -1
  9
$ENDCAPS
280
     0
  9
$JOINSTYLE
280
     0
  9
$LWDISPLAY
290
     1
  9
$INSUNITS
 70
     4
  9
$HYPERLINKBASE
  1

  9
$STYLESHEET
  1

  9
$XEDIT
290
     1
  9
$CEPSNTYPE
380
     0
  9
$PSTYLEMODE
290
     1
  9
$FINGERPRINTGUID
  2
{67976b53-6349-4674-b020-5a68f63a6fbc}
  9
$VERSIONGUID
  2
{FAEB1C32-E019-11D5-929B-00C0DF256EC4}
  9
$EXTNAMES
290
     1
  9
$PSVPSCALE
 40
0.0
  9
$OLESTARTUP
290
     0
  0
ENDSEC
  0
SECTION
  2
CLASSES
  0
CLASS
  1
ACDBDICTIONARYWDFLT
  2
AcDbDictionaryWithDefault
  3
ObjectDBX Classes
 90
        0
280
     0
281
     0
  0
CLASS
  1
VISUALSTYLE
  2
AcDbVisualStyle
  3
ObjectDBX Classes
 90
     4095
280
     0
281
     0
  0
CLASS
  1
MATERIAL
  2
AcDbMaterial
  3
ObjectDBX Classes
 90
     1153
280
     0
281
     0
  0
CLASS
  1
SCALE
  2
AcDbScale
  3
ObjectDBX Classes
 90
     1153
280
     0
281
     0
  0
CLASS
  1
TABLESTYLE
  2
AcDbTableStyle
  3
ObjectDBX Classes
 90
     4095
280
     0
281
     0
  0
CLASS
  1
MLEADERSTYLE
  2
AcDbMLeaderStyle
  3
ACDB_MLEADERSTYLE_CLASS
 90
     4095
280
     0
281
     0
  0
CLASS
  1
SUN
  2
AcDbSun
  3
SCENEOE
 90
     1153
280
     0
281
     0
  0
CLASS
  1
ACDBPLACEHOLDER
  2
AcDbPlaceHolder
  3
ObjectDBX Classes
 90
        0
280
     0
281
     0
  0
CLASS
  1
LAYOUT
  2
AcDbLayout
  3
ObjectDBX Classes
 90
        0
280
     0
281
     0
  0
ENDSEC
  0
SECTION
  2
TABLES
  0
TABLE
  2
VPORT
  5
8
330
0
100
AcDbSymbolTable
 70
     1
  0
VPORT
  5
29
330
8
100
AcDbSymbolTableRecord
100
AcDbViewportTableRecord
  2
*Active
 70
     0
 10
0.0
 20
0.0
 11
1.0
 21
1.0
 12
0.0
 22
-68.5
 13
0.0
 23
0.0
 14
10.0
 24
10.0
 15
10.0
 25
10.0
 16
0.0
 26
0.0
 36
1.0
 17
0.0
 27
0.0
 37
0.0
 40
172.38
 41
2.967866797
 42
50.0
 43
0.0
 44
0.0
 50
0.0
 51
0.0
 71
     0
 72
   100
 73
     1
 74
     3
 75
     0
 76
     0
 77
     0
 78
     0
281
     0
 65
     1
110
0.0
120
0.0
130
0.0
111
1.0
121
0.0
131
0.0
112
0.0
122
1.0
132
0.0
 79
     0
146
0.0
  0
ENDTAB
  0
TABLE
  2
LTYPE
  5
5
330
0
100
AcDbSymbolTable
 70
     6
  0
LTYPE
  5
14
330
5
100
AcDbSymbolTableRecord
100
AcDbLinetypeTableRecord
  2
ByBlock
 70
     0
  3

 72
    65
 73
     0
 40
0.0
  0
LTYPE
  5
15
330
5
100
AcDbSymbolTableRecord
100
AcDbLinetypeTableRecord
  2
ByLayer
 70
     0
  3

 72
    65
 73
     0
 40
0.0
  0
LTYPE
  5
16
330
5
100
AcDbSymbolTableRecord
100
AcDbLinetypeTableRecord
  2
Continuous
 70
     0
  3
Solid line
 72
    65
 73
     0
 40
0.0
  0
LTYPE
  5
6E
330
5
100
AcDbSymbolTableRecord
100
AcDbLinetypeTableRecord
  2
HIDDEN
 70
     0
  3
Hidden __ __ __ __ __ __ __ __ __ __ __ __ __ __
 72
    65
 73
     2
 40
1.905
 49
1.27
 74
     0
 49
-0.635
 74
     0
  0
LTYPE
  5
6F
330
5
100
AcDbSymbolTableRecord
100
AcDbLinetypeTableRecord
  2
PHANTOM
 70
     0
  3
Phantom ______  __  __  ______  __  __  ______
 72
    65
 73
     6
 40
12.7
 49
6.35
 74
     0
 49
-1.27
 74
     0
 49
1.27
 74
     0
 49
-1.27
 74
     0
 49
1.27
 74
     0
 49
-1.27
 74
     0
  0
LTYPE
  5
70
330
5
100
AcDbSymbolTableRecord
100
AcDbLinetypeTableRecord
  2
CENTER
 70
     0
  3
Center ____ _ ____ _ ____ _ ____ _ ____ _ ____
 72
    65
 73
     4
 40
10.16
 49
6.35
 74
     0
 49
-1.27
 74
     0
 49
1.27
 74
     0
 49
-1.27
 74
     0
  0
LTYPE
  5
71
330
5
100
AcDbSymbolTableRecord
100
AcDbLinetypeTableRecord
  2
CENTERX2
 70
     0
  3
Center (2x) ________  __  ________  __  _____
 72
    65
 73
     4
 40
20.32
 49
12.7
 74
     0
 49
-2.54
 74
     0
 49
2.54
 74
     0
 49
-2.54
 74
     0
  0
LTYPE
  5
72
330
5
100
AcDbSymbolTableRecord
100
AcDbLinetypeTableRecord
  2
DOT2
 70
     0
  3
Dot (.5x) ........................................
 72
    65
 73
     2
 40
0.635
 49
0.0
 74
     0
 49
-0.635
 74
     0
  0
ENDTAB
  0
TABLE
  2
LAYER
  5
2
330
0
100
AcDbSymbolTable
 70
     1
  0
LAYER
  5
10
330
2
100
AcDbSymbolTableRecord
100
AcDbLayerTableRecord
  2
0
 70
     0
 62
     7
  6
Continuous
370
    -3
390
F
  0
ENDTAB
  0
TABLE
  2
STYLE
  5
3
330
0
100
AcDbSymbolTable
 70
     1
  0
STYLE
  5
11
330
3
100
AcDbSymbolTableRecord
100
AcDbTextStyleTableRecord
  2
Standard
 70
     0
 40
0.0
 41
1.0
 50
0.0
 71
     0
 42
3.5
  3
txt
  4

  0
ENDTAB
  0
TABLE
  2
VIEW
  5
6
330
0
100
AcDbSymbolTable
 70
     0
  0
ENDTAB
  0
TABLE
  2
UCS
  5
7
330
0
100
AcDbSymbolTable
 70
     0
  0
ENDTAB
  0
TABLE
  2
APPID
  5
9
330
0
100
AcDbSymbolTable
 70
     1
  0
APPID
  5
12
330
9
100
AcDbSymbolTableRecord
100
AcDbRegAppTableRecord
  2
ACAD
 70
     0
  0
ENDTAB
  0
TABLE
  2
DIMSTYLE
  5
A
330
0
100
AcDbSymbolTable
 70
     1
100
AcDbDimStyleTable
  0
DIMSTYLE
105
27
330
A
100
AcDbSymbolTableRecord
100
AcDbDimStyleTableRecord
  2
ISO-25
 70
     0
 41
2.5
 42
0.625
 43
3.75
 44
1.25
 73
     0
 74
     0
 77
     1
 78
     8
140
2.5
141
2.5
143
0.0393700787
147
0.625
171
     3
172
     1
178
     0
271
     2
272
     2
274
     3
278
    44
283
     0
284
     8
340
11
  0
ENDTAB
  0
TABLE
  2
BLOCK_RECORD
  5
1
330
0
100
AcDbSymbolTable
 70
     2
  0
BLOCK_RECORD
  5
1F
330
1
100
AcDbSymbolTableRecord
100
AcDbBlockTableRecord
  2
*Model_Space
340
22
  0
BLOCK_RECORD
  5
1B
330
1
100
AcDbSymbolTableRecord
100
AcDbBlockTableRecord
  2
*Paper_Space
340
1E
  0
BLOCK_RECORD
  5
23
330
1
100
AcDbSymbolTableRecord
100
AcDbBlockTableRecord
  2
*Paper_Space0
340
26
  0
BLOCK_RECORD
  5
241
330
1
100
AcDbSymbolTableRecord
100
AcDbBlockTableRecord
  2
*Paper_Space1
340
242
  0
ENDTAB
  0
ENDSEC
  0
SECTION
  2
BLOCKS
  0
BLOCK
  5
20
330
1F
100
AcDbEntity
  8
0
100
AcDbBlockBegin
  2
*Model_Space
 70
     0
 10
0.0
 20
0.0
 30
0.0
  3
*Model_Space
  1

  0
ENDBLK
  5
21
330
1F
100
AcDbEntity
  8
0
100
AcDbBlockEnd
  0
BLOCK
  5
1C
330
1B
100
AcDbEntity
 67
     1
  8
0
100
AcDbBlockBegin
  2
*Paper_Space
 70
     0
 10
0.0
 20
0.0
 30
0.0
  3
*Paper_Space
  1

  0
ENDBLK
  5
1D
330
1B
100
AcDbEntity
 67
     1
  8
0
100
AcDbBlockEnd
  0
BLOCK
  5
24
330
23
100
AcDbEntity
  8
0
100
AcDbBlockBegin
  2
*Paper_Space0
 70
     0
 10
0.0
 20
0.0
 30
0.0
  3
*Paper_Space0
  1

  0
SPLINE
  5
1D5
330
23
100
AcDbEntity
  8
0
  6
Continuous
 62
     7
370
    25
100
AcDbSpline
210
0.0
220
0.0
230
1.0
 70
     8
 71
     3
 72
    11
 73
     7
 74
     0
 42
0.000000001
 43
0.00000001
 40
0.0
 40
0.0
 40
0.0
 40
0.0
 40
0.2546937546830719
 40
0.5132680943917041
 40
0.7647679051213386
 40
1.0
 40
1.0
 40
1.0
 40
1.0
 10
-177.0418103423223
 20
15.66989741801519
 30
0.0
 10
-177.4840264831474
 20
15.45587681782654
 30
0.0
 10
-178.3751964931577
 20
15.02457473994052
 30
0.0
 10
-179.3757234709073
 20
13.92921750276128
 30
0.0
 10
-180.0371987149417
 20
12.65223340358919
 30
0.0
 10
-180.1460534969481
 20
11.73111631454622
 30
0.0
 10
-180.1986617975625
 20
11.28595071108467
 30
0.0
  0
SPLINE
  5
1D9
330
23
100
AcDbEntity
  8
0
  6
Continuous
 62
     7
370
    25
100
AcDbSpline
210
0.0
220
0.0
230
1.0
 70
     8
 71
     3
 72
    30
 73
    26
 74
     0
 42
0.000000001
 43
0.00000001
 40
0.0
 40
0.0
 40
0.0
 40
0.0
 40
0.0411920285229685
 40
0.0825905321787905
 40
0.1241957203657677
 40
0.1660077993715798
 40
0.208026972431424
 40
0.2502534397849286
 40
0.2926873987317784
 40
0.3353290436861654
 40
0.3781785662300124
 40
0.421236155165078
 40
0.4645019965639025
 40
0.5079762738196634
 40
0.5516591676949655
 40
0.5955508563695723
 40
0.6396515154870992
 40
0.6839613182007386
 40
0.7284804352179867
 40
0.7732090348444262
 40
0.818147283026581
 40
0.8632953433938569
 40
0.9086533772996039
 40
0.9542215438613216
 40
1.0
 40
1.0
 40
1.0
 40
1.0
 10
-177.8589820441531
 20
1.073913062467055
 30
0.0
 10
-177.7821178323789
 20
1.073909814663515
 30
0.0
 10
-177.6280041268014
 20
1.073903302776819
 30
0.0
 10
-177.3870523273306
 20
1.073839752051775
 30
0.0
 10
-177.1384105640784
 20
1.0737234797846
 30
0.0
 10
-176.8815608038578
 20
1.07354179532837
 30
0.0
 10
-176.6168640518811
 20
1.073286807751109
 30
0.0
 10
-176.344462936798
 20
1.072950461622868
 30
0.0
 10
-176.0645781378406
 20
1.072525927390447
 30
0.0
 10
-175.777428515824
 20
1.072007275913098
 30
0.0
 10
-175.4832527917494
 20
1.071389615634646
 30
0.0
 10
-175.1823037824099
 20
1.070669104210636
 30
0.0
 10
-174.874850010269
 20
1.06984299323
 30
0.0
 10
-174.5611752881607
 20
1.06890966308601
 30
0.0
 10
-174.2415788144684
 20
1.067868659427124
 30
0.0
 10
-173.9163750930255
 20
1.06672072806123
 30
0.0
 10
-173.585893861397
 20
1.06546784864997
 30
0.0
 10
-173.2504799769254
 20
1.064113268331418
 30
0.0
 10
-172.9104932718947
 20
1.062661529653008
 30
0.0
 10
-172.5663083773576
 20
1.0611185135877
 30
0.0
 10
-172.2183145000873
 20
1.059491418936256
 30
0.0
 10
-171.8669152100917
 20
1.057788973329504
 30
0.0
 10
-171.5125280177176
 20
1.056020765758253
 30
0.0
 10
-171.1555845671028
 20
1.054199871860992
 30
0.0
 10
-170.9167638062136
 20
1.052958214257965
 30
0.0
 10
-170.7970785304566
 20
1.052335956242961
 30
0.0
  0
SPLINE
  5
1DC
330
23
100
AcDbEntity
  8
0
  6
Continuous
 62
     7
370
    25
100
AcDbSpline
210
0.0
220
0.0
230
1.0
 70
    24
 71
     3
 72
    14
 73
    10
 74
     0
 42
0.000000001
 43
0.00000001
 40
0.0
 40
0.0
 40
0.0
 40
0.0
 40
0.25
 40
0.25
 40
0.5
 40
0.5
 40
0.75
 40
0.75
 40
1.0
 40
1.0
 40
1.0
 40
1.0
 10
-170.7970785304565
 20
0.0
 30
0.0
 10
-171.3709388913724
 20
0.0
 30
0.0
 10
-171.9557401350943
 20
0.0
 30
0.0
 10
-173.1142570969229
 20
0.0
 30
0.0
 10
-173.6877561942725
 20
0.0
 30
0.0
 10
-174.7889800110617
 20
0.0
 30
0.0
 10
-175.3164949318581
 20
0.0
 30
0.0
 10
-176.2963577236098
 20
0.0
 30
0.0
 10
-176.7485834555809
 20
0.0
 30
0.0
 10
-177.153809420182
 20
0.0
 30
0.0
  0
SPLINE
  5
1DE
330
23
100
AcDbEntity
  8
0
  6
Continuous
 62
     7
370
    25
100
AcDbSpline
210
0.0
220
0.0
230
1.0
 70
    24
 71
     3
 72
    14
 73
    10
 74
     0
 42
0.000000001
 43
0.00000001
 40
0.0
 40
0.0
 40
0.0
 40
0.0
 40
0.25
 40
0.25
 40
0.5
 40
0.5
 40
0.75
 40
0.75
 40
1.0
 40
1.0
 40
1.0
 40
1.0
 10
179.0
 20
0.0
 30
0.0
 10
179.0
 20
0.0
 30
0.0
 10
178.9785212611865
 20
0.0
 30
0.0
 10
178.8810553409383
 20
0.0
 30
0.0
 10
178.8047378541243
 20
0.0
 30
0.0
 10
178.6094757082487
 20
0.0
 30
0.0
 10
178.4911916599458
 20
0.0
 30
0.0
 10
178.244997759178
 20
0.0
 30
0.0
 10
178.1178511301977
 20
0.0
 30
0.0
 10
178.0
 20
0.0
 30
0.0
  0
SPLINE
  5
1E1
330
23
100
AcDbEntity
  8
0
  6
Continuous
 62
     7
370
    25
100
AcDbSpline
210
0.0
220
0.0
230
1.0
 70
     8
 71
     3
 72
    25
 73
    21
 74
     0
 42
0.000000001
 43
0.00000001
 40
0.0
 40
0.0
 40
0.0
 40
0.0
 40
0.0431910276106999
 40
0.086835026243043
 40
0.1309321352795657
 40
0.1754824896241882
 40
0.220486219879068
 40
0.2659434525127781
 40
0.3118543100203394
 40
0.3582189110754835
 40
0.4050373706756163
 40
0.4523098002800266
 40
0.5000363079414579
 40
0.5519196212883325
 40
0.6103189588524655
 40
0.675232919758403
 40
0.746659897495426
 40
0.8245980917128898
 40
0.909045515485891
 40
1.0
 40
1.0
 40
1.0
 40
1.0
 10
178.0
 20
1.052335956242947
 30
0.0
 10
178.0452280539654
 20
1.052314198690646
 30
0.0
 10
178.1361584964733
 20
1.052270455401128
 30
0.0
 10
178.2726319218187
 20
1.051906897446955
 30
0.0
 10
178.4092232810899
 20
1.051310439880202
 30
0.0
 10
178.5452271985457
 20
1.050450748307175
 30
0.0
 10
178.6799067129863
 20
1.049326899433892
 30
0.0
 10
178.812496751329
 20
1.047933635631118
 30
0.0
 10
178.9422079790491
 20
1.046270713880262
 30
0.0
 10
179.0682311953124
 20
1.044341012496841
 30
0.0
 10
179.1897421178188
 20
1.04214979994785
 30
0.0
 10
179.305907010866
 20
1.039710785871187
 30
0.0
 10
179.4187315332986
 20
1.036953851913949
 30
0.0
 10
179.5309474260819
 20
1.033816953164318
 30
0.0
 10
179.6432641251577
 20
1.030111302543796
 30
0.0
 10
179.7519081173107
 20
1.025658965143325
 30
0.0
 10
179.8506191575432
 20
1.020385134472071
 30
0.0
 10
179.931200703465
 20
1.014266768533445
 30
0.0
 10
179.9885344229168
 20
1.00734462555234
 30
0.0
 10
179.9960847733283
 20
1.002508018013132
 30
0.0
 10
180.0
 20
0.9999999999999731
 30
0.0
  0
SPLINE
  5
1E3
330
23
100
AcDbEntity
  8
0
  6
Continuous
 62
     7
370
    25
100
AcDbSpline
210
0.0
220
0.0
230
1.0
 70
     8
 71
     3
 72
    30
 73
    26
 74
     0
 42
0.000000001
 43
0.00000001
 40
0.0
 40
0.0
 40
0.0
 40
0.0
 40
0.0412034049556835
 40
0.0826131950665249
 40
0.1242294347929906
 40
0.1660521876355926
 40
0.2080815161534391
 40
0.2503174819823499
 40
0.2927601458525523
 40
0.3354095676059139
 40
0.3782658062128388
 40
0.4213289197887309
 40
0.4645989656100743
 40
0.5080760001301607
 40
0.5517600789944319
 40
0.5956512570555025
 40
0.6397495883878014
 40
0.6840551263019229
 40
0.7285679233586068
 40
0.7732880313824363
 40
0.8182155014752382
 40
0.8633503840291408
 40
0.9086927287393697
 40
0.9542425846167607
 40
1.0
 40
1.0
 40
1.0
 40
1.0
 10
-177.3194097734671
 20
11.36956531233524
 30
0.0
 10
-177.3948508792172
 20
11.36953049649804
 30
0.0
 10
-177.5461109702721
 20
11.36946069043342
 30
0.0
 10
-177.7639050401076
 20
11.36888817154592
 30
0.0
 10
-177.9753381958407
 20
11.36796037797624
 30
0.0
 10
-178.1793860351209
 20
11.36663446145914
 30
0.0
 10
-178.3758879979876
 20
11.36491067206134
 30
0.0
 10
-178.5644529926354
 20
11.36277875666583
 30
0.0
 10
-178.7447555998575
 20
11.36023247884552
 30
0.0
 10
-178.9164569179661
 20
11.35726574925307
 30
0.0
 10
-179.0792267508951
 20
11.35387371945737
 30
0.0
 10
-179.2327384605067
 20
11.3500525353539
 30
0.0
 10
-179.37667121448
 20
11.34579945156348
 30
0.0
 10
-179.5107102590648
 20
11.34111284756709
 30
0.0
 10
-179.6345477262429
 20
11.33599226895242
 30
0.0
 10
-179.7478833662744
 20
11.33043846200607
 30
0.0
 10
-179.8504251072037
 20
11.32445340380202
 30
0.0
 10
-179.9418904490944
 20
11.31804035066764
 30
0.0
 10
-180.0220047262941
 20
11.31120380998316
 30
0.0
 10
-180.090511186745
 20
11.30394979425563
 30
0.0
 10
-180.1471366883123
 20
11.29628500731698
 30
0.0
 10
-180.1917242126055
 20
11.28822003619827
 30
0.0
 10
-180.2237385065121
 20
11.27975748187265
 30
0.0
 10
-180.244127405453
 20
11.27093667834847
 30
0.0
 10
-180.2469235765332
 20
11.26477008622093
 30
0.0
 10
-180.2483248401985
 20
11.26167978121472
 30
0.0
  0
SPLINE
  5
1E4
330
23
100
AcDbEntity
  8
0
  6
Continuous
 62
     7
370
    25
100
AcDbSpline
210
0.0
220
0.0
230
1.0
 70
     8
 71
     3
 72
    33
 73
    29
 74
     0
 42
0.000000001
 43
0.00000001
 40
0.0
 40
0.0
 40
0.0
 40
0.0
 40
0.0404883517816281
 40
0.0808142708051968
 40
0.120977790497321
 40
0.1609789446943506
 40
0.2008177676489407
 40
0.2404942940367795
 40
0.2800085589634085
 40
0.3193605979712507
 40
0.3585504470466964
 40
0.3975781426274049
 40
0.43644372160971
 40
0.4751472213561783
 40
0.513688679703364
 40
0.5520681349696545
 40
0.5902856259633522
 40
0.6283411919908536
 40
0.6662348728650472
 40
0.7039667089138733
 40
0.7415367409890508
 40
0.7789450104749972
 40
0.8161915592979314
 40
0.8532764299351859
 40
0.890199665424678
 40
0.9269613093746398
 40
0.963561405973498
 40
1.0
 40
1.0
 40
1.0
 40
1.0
 10
-170.2620294926528
 20
11.26167978121472
 30
0.0
 10
-170.3678195855389
 20
11.26441725810312
 30
0.0
 10
-170.5789753584662
 20
11.26988122956275
 30
0.0
 10
-170.8947452857232
 20
11.27774264406482
 30
0.0
 10
-171.2086079365916
 20
11.28532597979349
 30
0.0
 10
-171.5202613554121
 20
11.2926011684656
 30
0.0
 10
-171.8294127832267
 20
11.29956669506275
 30
0.0
 10
-172.1357777456979
 20
11.3062145437396
 30
0.0
 10
-172.4390805098921
 20
11.31253951747024
 30
0.0
 10
-172.7390541539825
 20
11.31853673868521
 30
0.0
 10
-173.0354407179528
 20
11.32420229646173
 30
0.0
 10
-173.3279913110933
 20
11.32953305473283
 30
0.0
 10
-173.6164662098542
 20
11.33452668297628
 30
0.0
 10
-173.9006349375638
 20
11.33918162677255
 30
0.0
 10
-174.1802763289778
 20
11.34349709356398
 30
0.0
 10
-174.4551785786978
 20
11.34747303358338
 30
0.0
 10
-174.725139276866
 20
11.35111012147567
 30
0.0
 10
-174.9899654221353
 20
11.35440973672983
 30
0.0
 10
-175.2494734509582
 20
11.35737394523649
 30
0.0
 10
-175.5034891405915
 20
11.36000547490819
 30
0.0
 10
-175.7518479167881
 20
11.36230771142172
 30
0.0
 10
-175.9943935995116
 20
11.36428461775699
 30
0.0
 10
-176.2309828812874
 20
11.36594093488769
 30
0.0
 10
-176.4614684927486
 20
11.36728133879367
 30
0.0
 10
-176.6857613368528
 20
11.3683134662
 30
0.0
 10
-176.9035997798649
 20
11.36903659548162
 30
0.0
 10
-177.1154046334169
 20
11.36948351162502
 30
0.0
 10
-177.2515083772894
 20
11.36953808565638
 30
0.0
 10
-177.3194097734671
 20
11.36956531233524
 30
0.0
  0
SPLINE
  5
1E6
330
23
100
AcDbEntity
  8
0
  6
Continuous
 62
     7
370
    25
100
AcDbSpline
210
0.0
220
0.0
230
1.0
 70
     8
 71
     3
 72
    33
 73
    29
 74
     0
 42
0.000000001
 43
0.00000001
 40
0.0
 40
0.0
 40
0.0
 40
0.0
 40
0.0405071054937105
 40
0.080849632144111
 40
0.1210276883608445
 40
0.1610413838929635
 40
0.2008908298501178
 40
0.2405761387241392
 40
0.280097424411037
 40
0.3194548022334223
 40
0.3586483889633523
 40
0.397678302845599
 40
0.4365446636213875
 40
0.4752475925525756
 40
0.5137872124462978
 40
0.5521636476800885
 40
0.5903770242274946
 40
0.6284274696841868
 40
0.6663151132945606
 40
0.7040400859788751
 40
0.7416025203609212
 40
0.7790025507962135
 40
0.816240313400755
 40
0.8533159460803572
 40
0.8902295885605419
 40
0.9269813824170254
 40
0.963571471106838
 40
1.0
 40
1.0
 40
1.0
 40
1.0
 10
-180.7833738780022
 20
1.052335956242947
 30
0.0
 10
-180.7823747291504
 20
1.052886738990885
 30
0.0
 10
-180.7803804909507
 20
1.053986066677212
 30
0.0
 10
-180.7646824779294
 20
1.055603767536981
 30
0.0
 10
-180.7398388198569
 20
1.057182483945693
 30
0.0
 10
-180.7050834039497
 20
1.058712728770048
 30
0.0
 10
-180.6608117185797
 20
1.060187505495844
 30
0.0
 10
-180.6071202337474
 20
1.061600258034506
 30
0.0
 10
-180.5441948519263
 20
1.062945400502086
 30
0.0
 10
-180.4722069405217
 20
1.064218158790653
 30
0.0
 10
-180.3913404971803
 20
1.065414594331238
 30
0.0
 10
-180.3017843973857
 20
1.066531578327645
 30
0.0
 10
-180.2037339433676
 20
1.067566778232345
 30
0.0
 10
-180.0973899400055
 20
1.068518640079716
 30
0.0
 10
-179.9829584339181
 20
1.069386371104472
 30
0.0
 10
-179.8606502806065
 20
1.070169921526074
 30
0.0
 10
-179.7306807652734
 20
1.070869965870858
 30
0.0
 10
-179.5932692081598
 20
1.071487883749986
 30
0.0
 10
-179.4486386092863
 20
1.072025740338198
 30
0.0
 10
-179.2970151853971
 20
1.072486265940475
 30
0.0
 10
-179.1386283324209
 20
1.072872837116115
 30
0.0
 10
-178.9737090416049
 20
1.073189450418857
 30
0.0
 10
-178.8024940813822
 20
1.073440722112809
 30
0.0
 10
-178.6252088350698
 20
1.073631790373106
 30
0.0
 10
-178.4421293119537
 20
1.073768578038786
 30
0.0
 10
-178.2533506498278
 20
1.073856717756477
 30
0.0
 10
-178.0596438502261
 20
1.073905435733033
 30
0.0
 10
-177.9257705775744
 20
1.073910523975097
 30
0.0
 10
-177.8589820441531
 20
1.073913062467055
 30
0.0
  0
SPLINE
  5
1F2
330
23
100
AcDbEntity
  8
0
  6
Continuous
 62
     7
370
    25
100
AcDbSpline
210
0.0
220
0.0
230
1.0
 70
    24
 71
     3
 72
    10
 73
     6
 74
     0
 42
0.000000001
 43
0.00000001
 40
0.0
 40
0.0
 40
0.0
 40
0.0
 40
0.5
 40
0.5
 40
1.0
 40
1.0
 40
1.0
 40
1.0
 10
-173.7935466536115
 20
16.0
 30
0.0
 10
-173.3432955818325
 20
16.00000000000001
 30
0.0
 10
-172.7856480420972
 20
16.00000000000003
 30
0.0
 10
-171.5620660234426
 20
16.00000000000001
 30
0.0
 10
-170.8996521158928
 20
16.00000000000001
 30
0.0
 10
-170.262029492653
 20
16.0
 30
0.0
  0
LWPOLYLINE
  5
1F3
330
23
100
AcDbEntity
  8
0
  6
Continuous
 62
     7
370
    25
100
AcDbPolyline
 90
        9
 70
   128
 43
0.0
 10
-177.3194097735
 20
11.3695653123
 10
-177.2092652807
 20
12.290632605
 10
-176.9798946407
 20
13.1666501819
 10
-176.6393040683
 20
13.9670405244
 10
-176.1993819264
 20
14.6638658929
 10
-175.67548376
 20
15.2328034983
 10
-175.0858963098
 20
15.6539944921
 10
-174.45119921
 20
15.9127371424
 10
-173.7935466536
 20
16.0
  0
SPLINE
  5
1F8
330
23
100
AcDbEntity
  8
0
  6
Continuous
 62
     7
370
    25
100
AcDbSpline
210
0.0
220
0.0
230
1.0
 70
    24
 71
     3
 72
    14
 73
    10
 74
     0
 42
0.000000001
 43
0.00000001
 40
0.0
 40
0.0
 40
0.0
 40
0.0
 40
0.25
 40
0.25
 40
0.5
 40
0.5
 40
0.75
 40
0.75
 40
1.0
 40
1.0
 40
1.0
 40
1.0
 10
-177.153809420182
 20
0.0
 30
0.0
 10
-177.5590353847832
 20
0.0
 30
0.0
 10
-177.9329271546981
 20
0.0
 30
0.0
 10
-178.5900970015475
 20
0.0
 30
0.0
 10
-178.8731914560914
 20
0.0
 30
0.0
 10
-179.3289678996695
 20
0.0
 30
0.0
 10
-179.5015630568735
 20
0.0
 30
0.0
 10
-179.729429570705
 20
0.0
 30
0.0
 10
-179.7847443432475
 20
0.0
 30
0.0
 10
-179.7847443432475
 20
0.0
 30
0.0
  0
SPLINE
  5
1FA
330
23
100
AcDbEntity
  8
0
  6
Continuous
 62
     7
370
    25
100
AcDbSpline
210
0.0
220
0.0
230
1.0
 70
    24
 71
     3
 72
    10
 73
     6
 74
     0
 42
0.000000001
 43
0.00000001
 40
0.0
 40
0.0
 40
0.0
 40
0.0
 40
0.5
 40
0.5
 40
1.0
 40
1.0
 40
1.0
 40
1.0
 10
-175.2551771664255
 20
16.0
 30
0.0
 10
-175.2551771664255
 20
16.00000000000001
 30
0.0
 10
-175.1285725987651
 20
16.00000000000003
 30
0.0
 10
-174.6221543281227
 20
16.00000000000001
 30
0.0
 10
-174.2437977253906
 20
16.00000000000001
 30
0.0
 10
-173.7935466536115
 20
16.0
 30
0.0
  0
SPLINE
  5
1FD
330
23
100
AcDbEntity
  8
0
  6
Continuous
 62
     7
370
    25
100
AcDbSpline
210
0.0
220
0.0
230
1.0
 70
     8
 71
     3
 72
    76
 73
    72
 74
     0
 42
0.000000001
 43
0.00000001
 40
0.0
 40
0.0
 40
0.0
 40
0.0
 40
0.0109009630948383
 40
0.0217860210125193
 40
0.0326564463262048
 40
0.0435134733001817
 40
0.05435829685774
 40
0.0651920716284156
 40
0.0760159110766636
 40
0.0868308867138379
 40
0.0976380273949935
 40
0.108438318701864
 40
0.119232702413104
 40
0.1300220761814346
 40
0.1408073414538129
 40
0.1515894842415644
 40
0.1623694800483436
 40
0.173148275366129
 40
0.1839267875563118
 40
0.1947059048022878
 40
0.2054864861341598
 40
0.2162693615260523
 40
0.2270553320664351
 40
0.2378451702018236
 40
0.2486396200540196
 40
0.2594394070495493
 40
0.2702453816074537
 40
0.2810585024305962
 40
0.2918797231384321
 40
0.3027099892886866
 40
0.3135502388797862
 40
0.3244014029050739
 40
0.3352644059588781
 40
0.3461401668944503
 40
0.3570295995337236
 40
0.3679336134287913
 40
0.3788531146734182
 40
0.3897890066370434
 40
0.4007421907260234
 40
0.4117135675029903
 40
0.4227040377211632
 40
0.4337145033888429
 40
0.4447458688835906
 40
0.4557990421154401
 40
0.466874935738506
 40
0.4779744684101728
 40
0.4890985660970759
 40
0.5002481632134805
 40
0.5225071856794549
 40
0.5446687890760658
 40
0.566739755101755
 40
0.5887268945119709
 40
0.6106370788826598
 40
0.6324772683405645
 40
0.6542545371310394
 40
0.6759760909600573
 40
0.6976492798137306
 40
0.7192816090313039
 40
0.7408807465384155
 40
0.7624541697913805
 40
0.7840078900946389
 40
0.8055479070655432
 40
0.8270807802326962
 40
0.8486136165274881
 40
0.870154052395507
 40
0.891709908375609
 40
0.9132885351116679
 40
0.9348978371319779
 40
0.9565464821665554
 40
0.9782438540224462
 40
1.0
 40
1.0
 40
1.0
 40
1.0
 10
-112.0007438038816
 20
-0.1039723436096623
 30
0.0
 10
-112.2002667149427
 20
-0.1046093117729047
 30
0.0
 10
-112.5990214208378
 20
-0.1058823187235769
 30
0.0
 10
-113.1965475449893
 20
-0.1077458584032437
 30
0.0
 10
-113.7929087143965
 20
-0.1095738319970979
 30
0.0
 10
-114.3879990187794
 20
-0.1113630643750918
 30
0.0
 10
-114.9817129741151
 20
-0.1131144047148425
 30
0.0
 10
-115.5739433846469
 20
-0.1148276259878428
 30
0.0
 10
-116.1645819059388
 20
-0.1165027890485948
 30
0.0
 10
-116.7535188863106
 20
-0.1181398777651138
 30
0.0
 10
-117.3406433981753
 20
-0.1197388966075741
 30
0.0
 10
-117.9258432300151
 20
-0.1212998446218361
 30
0.0
 10
-118.5090048481463
 20
-0.1228227220760325
 30
0.0
 10
-119.0900143932708
 20
-0.1243075321039483
 30
0.0
 10
-119.6687594543728
 20
-0.1257542817516416
 30
0.0
 10
-120.2451267197166
 20
-0.1271629622998371
 30
0.0
 10
-120.8190042480934
 20
-0.1285335735519283
 30
0.0
 10
-121.3902791240898
 20
-0.1298661155000741
 30
0.0
 10
-121.9588372047526
 20
-0.1311605883157763
 30
0.0
 10
-122.5245630919387
 20
-0.1324169921335383
 30
0.0
 10
-123.0873401302203
 20
-0.1336353271019913
 30
0.0
 10
-123.6470504043015
 20
-0.1348155933906664
 30
0.0
 10
-124.203574712701
 20
-0.135957791106367
 30
0.0
 10
-124.7567926367716
 20
-0.1370619206159523
 30
0.0
 10
-125.306582408649
 20
-0.1381279816368292
 30
0.0
 10
-125.8528245237482
 20
-0.139155982543035
 30
0.0
 10
-126.3953987577921
 20
-0.1401459213313527
 30
0.0
 10
-126.9341850686595
 20
-0.1410977917153805
 30
0.0
 10
-127.4690649356647
 20
-0.1420115942983025
 30
0.0
 10
-127.9999185029355
 20
-0.142887328972649
 30
0.0
 10
-128.5266247501226
 20
-0.1437249958500669
 30
0.0
 10
-129.0490614236957
 20
-0.1445245949830837
 30
0.0
 10
-129.5671050478039
 20
-0.1452861264391037
 30
0.0
 10
-130.0806309139083
 20
-0.146009590279883
 30
0.0
 10
-130.5895130755974
 20
-0.1466949865662898
 30
0.0
 10
-131.0936243438382
 20
-0.1473423153567355
 30
0.0
 10
-131.5928362731296
 20
-0.1479515767028733
 30
0.0
 10
-132.087019174984
 20
-0.1485227706521375
 30
0.0
 10
-132.5760421452083
 20
-0.1490558972598727
 30
0.0
 10
-133.0597730022393
 20
-0.1495509565666159
 30
0.0
 10
-133.5380782940921
 20
-0.1500079486241035
 30
0.0
 10
-134.0108232866964
 20
-0.1504268734198455
 30
0.0
 10
-134.4778719706312
 20
-0.150807731155847
 30
0.0
 10
-134.9390870090797
 20
-0.1511505212042352
 30
0.0
 10
-135.3943299027361
 20
-0.1514552460145646
 30
0.0
 10
-135.8434603433012
 20
-0.1517218964844497
 30
0.0
 10
-136.2863386018296
 20
-0.151950506730697
 30
0.0
 10
-136.8674358329438
 20
-0.1522040486816451
 30
0.0
 10
-137.5738122544977
 20
-0.1524258360269953
 30
0.0
 10
-138.38803703352
 20
-0.1525394771498961
 30
0.0
 10
-139.1672350822899
 20
-0.1524999766595592
 30
0.0
 10
-139.9110621328442
 20
-0.1523073970215588
 30
0.0
 10
-140.6192063318067
 20
-0.1519617196003714
 30
0.0
 10
-141.2913763518116
 20
-0.1514629469668155
 30
0.0
 10
-141.9273046941408
 20
-0.1508110757919706
 30
0.0
 10
-142.5267464261858
 20
-0.1500061042645218
 30
0.0
 10
-143.0894784263206
 20
-0.1490480298709795
 30
0.0
 10
-143.6152999311098
 20
-0.1479368511050627
 30
0.0
 10
-144.1040263083188
 20
-0.1466725703344746
 30
0.0
 10
-144.5554904322571
 20
-0.1452552493219489
 30
0.0
 10
-144.9693748277429
 20
-0.143684835745575
 30
0.0
 10
-145.3453565179607
 20
-0.1419613084244625
 30
0.0
 10
-145.6831382283564
 20
-0.1400846617238549
 30
0.0
 10
-145.9824495959085
 20
-0.1380548949244803
 30
0.0
 10
-146.2430408407538
 20
-0.1358719992344826
 30
0.0
 10
-146.4647011567679
 20
-0.1335360904260452
 30
0.0
 10
-146.646992310812
 20
-0.1310468513627955
 30
0.0
 10
-146.7898382892666
 20
-0.1284051910260264
 30
0.0
 10
-146.891947067219
 20
-0.125607657527893
 30
0.0
 10
-146.9567144185106
 20
-0.1226671572826937
 30
0.0
 10
-146.9656377324523
 20
-0.120582432073163
 30
0.0
 10
-146.9701054241468
 20
-0.1195386595952697
 30
0.0
  0
SPLINE
  5
200
330
23
100
AcDbEntity
  8
0
  6
Continuous
 62
     7
370
    25
100
AcDbSpline
210
0.0
220
0.0
230
1.0
 70
    24
 71
     3
 72
    37
 73
    33
 74
     0
 42
0.000000001
 43
0.00000001
 40
0.0
 40
0.0
 40
0.0
 40
0.0
 40
0.0104446963508592
 40
0.0208755518009454
 40
0.0312953466467241
 40
0.0417068700455463
 40
0.0521129178058111
 40
0.0625162901504972
 40
0.072919789462942
 40
0.0833262180239073
 40
0.093738375749062
 40
0.1041590579359969
 40
0.1145910530298076
 40
0.1250371404161002
 40
0.187526729137135
 40
0.2500254481321647
 40
0.3125150368535253
 40
0.375013755848314
 40
0.437503344571526
 40
0.5000020635643946
 40
0.5624916522872585
 40
0.6249903712805223
 40
0.6874799600046779
 40
0.7499786789966191
 40
0.8124682677191956
 40
0.8749669867127187
 40
0.8958418653583887
 40
0.9166724928678585
 40
0.9374812133983698
 40
0.9582904416759234
 40
0.9791225907875625
 40
1.0
 40
1.0
 40
1.0
 40
1.0
 10
-80.0
 20
-128.0
 30
0.0
 10
-80.19135334052129
 20
-128.0
 30
0.0
 10
-80.57380644764369
 20
-128.0
 30
0.0
 10
-81.14700468169178
 20
-128.0
 30
0.0
 10
-81.71929019801043
 20
-127.9999999999999
 30
0.0
 10
-82.29066289304767
 20
-128.0
 30
0.0
 10
-82.86112264116773
 20
-128.0
 30
0.0
 10
-83.43066930614485
 20
-128.0
 30
0.0
 10
-83.99930281308927
 20
-128.0
 30
0.0
 10
-84.56702285324958
 20
-128.0
 30
0.0
 10
-85.13382999744893
 20
-128.0
 30
0.0
 10
-85.69972153781178
 20
-128.0
 30
0.0
 10
-86.26470703089161
 20
-128.0
 30
0.0
 10
-87.76507138920695
 20
-128.0
 30
0.0
 10
-90.17663518099528
 20
-128.0
 30
0.0
 10
-93.41509506735245
 20
-128.0
 30
0.0
 10
-96.52573235419173
 20
-128.0
 30
0.0
 10
-99.4758520686882
 20
-128.0000000000001
 30
0.0
 10
-102.2399126134462
 20
-128.0
 30
0.0
 10
-104.7881207521115
 20
-128.0
 30
0.0
 10
-107.0994367887144
 20
-128.0
 30
0.0
 10
-109.1477929644924
 20
-128.0
 30
0.0
 10
-110.9175450890672
 20
-128.0
 30
0.0
 10
-112.3873335984863
 20
-128.0
 30
0.0
 10
-113.5475021520767
 20
-128.0
 30
0.0
 10
-114.1969791492735
 20
-127.9999999999999
 30
0.0
 10
-114.539010147138
 20
-128.0
 30
0.0
 10
-114.7072271101616
 20
-128.0
 30
0.0
 10
-114.838222428656
 20
-128.0
 30
0.0
 10
-114.9311049043684
 20
-128.0
 30
0.0
 10
-114.9892512854973
 20
-128.0
 30
0.0
 10
-114.996414504169
 20
-128.0
 30
0.0
 10
-115.0
 20
-128.0
 30
0.0
  0
SPLINE
  5
204
330
23
100
AcDbEntity
  8
0
  6
Continuous
 62
     7
370
    25
100
AcDbSpline
210
0.0
220
0.0
230
1.0
 70
     8
 71
     3
 72
    26
 73
    22
 74
     0
 42
0.000000001
 43
0.00000001
 40
0.0
 40
0.0
 40
0.0
 40
0.0
 40
0.0248036386596489
 40
0.0496936656586812
 40
0.0746910878411776
 40
0.0998166426813895
 40
0.1250907522559631
 40
0.1875521127123637
 40
0.250306693099529
 40
0.3126824135581575
 40
0.3747431369049545
 40
0.4992051536637172
 40
0.6241728168031659
 40
0.688155554773495
 40
0.7493938008581673
 40
0.8135602376331171
 40
0.8748826372489485
 40
0.906771006389863
 40
0.9380981572148742
 40
0.969095037406249
 40
1.0
 40
1.0
 40
1.0
 40
1.0
 10
18.44436524219219
 20
-149.0
 30
0.0
 10
18.38648195837023
 20
-148.999216018494
 30
0.0
 10
18.27051378962912
 20
-148.9976453249607
 30
0.0
 10
18.09441063347795
 20
-148.9849820532895
 30
0.0
 10
17.91642517817414
 20
-148.9647817933356
 30
0.0
 10
17.73641085150838
 20
-148.936296729982
 30
0.0
 10
17.46558227119918
 20
-148.8818849822051
 30
0.0
 10
17.10164736991665
 20
-148.7823860576659
 30
0.0
 10
16.64585933909779
 20
-148.6114343282691
 30
0.0
 10
16.19133601594095
 20
-148.3957745612641
 30
0.0
 10
15.59146325079866
 20
-148.049579719174
 30
0.0
 10
14.85555277057055
 20
-147.5059543592554
 30
0.0
 10
14.1627001788226
 20
-146.8057105179846
 30
0.0
 10
13.66539449590214
 20
-146.1498212099161
 30
0.0
 10
13.32708164288729
 20
-145.6022937959457
 30
0.0
 10
13.04218954699345
 20
-145.0128957976933
 30
0.0
 10
12.85676288460176
 20
-144.4761003697057
 30
0.0
 10
12.74915059084878
 20
-144.0331949410558
 30
0.0
 10
12.69024447967786
 20
-143.6903404954551
 30
0.0
 10
12.65331194417145
 20
-143.3457427100273
 30
0.0
 10
12.6487604529256
 20
-143.115133426658
 30
0.0
 10
12.64648808654086
 20
-143.0000000000001
 30
0.0
  0
SPLINE
  5
20B
330
23
100
AcDbEntity
  8
0
  6
Continuous
 62
     7
370
    25
100
AcDbSpline
210
0.0
220
0.0
230
1.0
 70
     8
 71
     3
 72
    27
 73
    23
 74
     0
 42
0.000000001
 43
0.00000001
 40
0.0
 40
0.0
 40
0.0
 40
0.0
 40
0.0152274723943255
 40
0.0305351884229908
 40
0.0459541156418063
 40
0.0615145576406743
 40
0.0772460002275015
 40
0.0931769797501926
 40
0.1093349753949086
 40
0.1257463260387409
 40
0.1855780642935868
 40
0.2510799148132343
 40
0.3633860429988697
 40
0.5008872222396481
 40
0.5593310939148375
 40
0.6253500519436246
 40
0.6736712086912343
 40
0.7499006370396986
 40
0.8267643346059758
 40
0.8940668217382879
 40
0.9518104673572401
 40
1.0
 40
1.0
 40
1.0
 40
1.0
 10
13.27844931952905
 20
-143.0
 30
0.0
 10
13.2791246444287
 20
-143.0511110185739
 30
0.0
 10
13.28047885296203
 20
-143.15360239352
 30
0.0
 10
13.29138632711111
 20
-143.3073830331953
 30
0.0
 10
13.30878132013414
 20
-143.4613564793222
 30
0.0
 10
13.33330916514378
 20
-143.6153707628133
 30
0.0
 10
13.36479339666713
 20
-143.7692724710475
 30
0.0
 10
13.40327950108856
 20
-143.9229042660386
 30
0.0
 10
13.44875559021901
 20
-144.0761146187636
 30
0.0
 10
13.54715709209894
 20
-144.3623767598539
 30
0.0
 10
13.73805660132476
 20
-144.7802533220827
 30
0.0
 10
14.13695216580778
 20
-145.4136132093162
 30
0.0
 10
14.77429981160066
 20
-146.1306949195474
 30
0.0
 10
15.46835692949775
 20
-146.6882910751717
 30
0.0
 10
16.08204213553244
 20
-147.0768649458823
 30
0.0
 10
16.49319829974425
 20
-147.2998153468286
 30
0.0
 10
16.95171939548844
 20
-147.5117942216868
 30
0.0
 10
17.43806748238898
 20
-147.6983530290605
 30
0.0
 10
17.96942016138155
 20
-147.8513699261346
 30
0.0
 10
18.45265779040498
 20
-147.9450633468305
 30
0.0
 10
18.86456573064494
 20
-147.9923785261984
 30
0.0
 10
19.11229617415361
 20
-147.9976169945467
 30
0.0
 10
19.224989991992
 20
-148.0
 30
0.0
  0
LWPOLYLINE
  5
213
330
23
100
AcDbEntity
  8
0
  6
Continuous
 62
     8
370
    25
100
AcDbPolyline
 90
        4
 70
   128
 43
0.0
 10
177.7824859329
 20
-0.103840599
 10
16.4795834697
 20
-0.103840599
 10
-47.7605801673
 20
-0.103840599
 10
-112.0007438039
 20
-0.1039723436
  0
LINE
  5
218
330
23
100
AcDbEntity
  8
0
  6
Continuous
 62
     7
370
    25
100
AcDbLine
 10
-146.9701169423
 20
-0.119532231
 30
0.0
 11
-115.0
 21
-128.0
 31
0.0
  0
LINE
  5
219
330
23
100
AcDbEntity
  8
0
  6
Continuous
 62
     7
370
    25
100
AcDbLine
 10
-58.0
 20
-127.9585790305
 30
0.0
 11
138.0
 21
-127.9585790305
 31
0.0
  0
LINE
  5
21A
330
23
100
AcDbEntity
  8
0
  6
Continuous
 62
     7
370
    25
100
AcDbLine
 10
-170.7970785305
 20
0.0
 30
0.0
 11
-170.7970785305
 21
1.0523359562
 31
0.0
  0
LINE
  5
21B
330
23
100
AcDbEntity
  8
0
  6
Continuous
 62
     7
370
    25
100
AcDbLine
 10
178.0
 20
0.0
 30
0.0
 11
178.0
 21
16.0
 31
0.0
  0
LINE
  5
21C
330
23
100
AcDbEntity
  8
0
  6
Continuous
 62
     7
370
    25
100
AcDbLine
 10
-170.2620294927
 20
11.2616797812
 30
0.0
 11
-170.7970785305
 21
1.0523359562
 31
0.0
  0
LINE
  5
21D
330
23
100
AcDbEntity
  8
0
  6
Continuous
 62
     7
370
    25
100
AcDbLine
 10
-180.783373878
 20
1.0523359562
 30
0.0
 11
-180.2483248402
 21
11.2616797812
 31
0.0
  0
LINE
  5
21E
330
23
100
AcDbEntity
  8
0
  6
Continuous
 62
     7
370
    25
100
AcDbLine
 10
-170.7970785305
 20
1.0523359562
 30
0.0
 11
178.0
 21
1.0523359562
 31
0.0
  0
LINE
  5
21F
330
23
100
AcDbEntity
  8
0
  6
Continuous
 62
     7
370
    25
100
AcDbLine
 10
178.0
 20
1.0
 30
0.0
 11
-170.7970785305
 21
1.0
 31
0.0
  0
LINE
  5
220
330
23
100
AcDbEntity
  8
0
  6
Continuous
 62
     7
370
    25
100
AcDbLine
 10
178.0
 20
11.2616797812
 30
0.0
 11
-170.2620294927
 21
11.2616797812
 31
0.0
  0
LINE
  5
221
330
23
100
AcDbEntity
  8
0
  6
Continuous
 62
     7
370
    25
100
AcDbLine
 10
180.0
 20
14.0
 30
0.0
 11
180.0
 21
1.0
 31
0.0
  0
LINE
  5
222
330
23
100
AcDbEntity
  8
0
  6
Continuous
 62
     7
370
    25
100
AcDbLine
 10
178.0
 20
0.0
 30
0.0
 11
-170.7970785305
 21
0.0
 31
0.0
  0
LINE
  5
223
330
23
100
AcDbEntity
  8
0
  6
Continuous
 62
     7
370
    25
100
AcDbLine
 10
-170.2620294927
 20
16.0
 30
0.0
 11
-170.2620294927
 21
11.2616797812
 31
0.0
  0
LINE
  5
224
330
23
100
AcDbEntity
  8
0
  6
Continuous
 62
     7
370
    25
100
AcDbLine
 10
-170.2620294927
 20
16.0
 30
0.0
 11
178.0
 21
16.0
 31
0.0
  0
LINE
  5
225
330
23
100
AcDbEntity
  8
0
  6
Continuous
 62
     7
370
    25
100
AcDbLine
 10
180.0
 20
-128.0
 30
0.0
 11
180.0
 21
0.82499
 31
0.0
  0
LINE
  5
226
330
23
100
AcDbEntity
  8
0
  6
Continuous
 62
     7
370
    25
100
AcDbLine
 10
180.0
 20
-128.0
 30
0.0
 11
-80.0
 21
-128.0
 31
0.0
  0
LINE
  5
227
330
23
100
AcDbEntity
  8
0
  6
Continuous
 62
     7
370
    25
100
AcDbLine
 10
-51.0
 20
-152.0
 30
0.0
 11
27.0
 21
-152.0
 31
0.0
  0
LINE
  5
228
330
23
100
AcDbEntity
  8
0
  6
Continuous
 62
     7
370
    25
100
AcDbLine
 10
-51.0
 20
-128.0
 30
0.0
 11
-51.0
 21
-152.0
 31
0.0
  0
LINE
  5
229
330
23
100
AcDbEntity
  8
0
  6
Continuous
 62
     7
370
    25
100
AcDbLine
 10
27.0
 20
-149.0
 30
0.0
 11
18.4443652422
 21
-149.0
 31
0.0
  0
LINE
  5
22A
330
23
100
AcDbEntity
  8
0
  6
Continuous
 62
     7
370
    25
100
AcDbLine
 10
27.0
 20
-149.0
 30
0.0
 11
27.0
 21
-152.0
 31
0.0
  0
LINE
  5
22B
330
23
100
AcDbEntity
  8
0
  6
Continuous
 62
     7
370
    25
100
AcDbLine
 10
26.0
 20
-153.0
 30
0.0
 11
-50.0
 21
-153.0
 31
0.0
  0
LINE
  5
22C
330
23
100
AcDbEntity
  8
0
  6
Continuous
 62
     7
370
    25
100
AcDbLine
 10
12.6464880865
 20
-143.0
 30
0.0
 11
50.3004714505
 21
-143.0
 31
0.0
  0
LINE
  5
22D
330
23
100
AcDbEntity
  8
0
  6
Continuous
 62
     7
370
    25
100
AcDbLine
 10
50.3004714505
 20
-143.0
 30
0.0
 11
50.3004714505
 21
-148.0
 31
0.0
  0
LINE
  5
22E
330
23
100
AcDbEntity
  8
0
  6
Continuous
 62
     7
370
    25
100
AcDbLine
 10
50.3004714505
 20
-148.0
 30
0.0
 11
19.224989992
 21
-148.0
 31
0.0
  0
LINE
  5
22F
330
23
100
AcDbEntity
  8
0
  6
Continuous
 62
     8
370
    25
100
AcDbLine
 10
180.0
 20
0.1026129318
 30
0.0
 11
179.4120894204
 21
0.0943207349
 31
0.0
  0
LINE
  5
230
330
23
100
AcDbEntity
  8
0
  6
Continuous
 62
     8
370
    25
100
AcDbLine
 10
180.0
 20
-0.103840599
 30
0.0
 11
179.2175140671
 21
-0.103840599
 31
0.0
  0
LINE
  5
231
330
23
100
AcDbEntity
  8
0
  6
Continuous
 62
     8
370
    25
100
AcDbLine
 10
-112.0003759348
 20
0.0
 30
0.0
 11
-112.0007438039
 21
-0.1039723436
 31
0.0
  0
LINE
  5
232
330
23
100
AcDbEntity
  8
0
  6
Continuous
 62
     8
370
    25
100
AcDbLine
 10
12.6464880865
 20
-143.0
 30
0.0
 11
12.6464880865
 21
-128.0
 31
0.0
  0
LINE
  5
233
330
23
100
AcDbEntity
  8
0
  6
Continuous
 62
     8
370
    25
100
AcDbLine
 10
13.2784493195
 20
-128.0
 30
0.0
 11
13.2784493195
 21
-143.0
 31
0.0
  0
ARC
  5
234
330
23
100
AcDbEntity
  8
0
  6
Continuous
 62
     7
370
    25
100
AcDbCircle
 10
28.0
 20
-149.0
 30
0.0
 40
1.0
100
AcDbArc
 50
90.0
 51
180.0
  0
ARC
  5
235
330
23
100
AcDbEntity
  8
0
  6
Continuous
 62
     7
370
    25
100
AcDbCircle
 10
-176.9594313988
 20
0.896114351
 30
0.0
 40
0.9169535131568713
100
AcDbArc
 50
168.8194373997
 51
257.7614477466
  0
ARC
  5
236
330
23
100
AcDbEntity
  8
0
  6
Continuous
 62
     7
370
    25
100
AcDbCircle
 10
179.0
 20
1.0
 30
0.0
 40
1.000000000000028
100
AcDbArc
 50
270.0
 51
0.0
  0
ARC
  5
237
330
23
100
AcDbEntity
  8
0
  6
Continuous
 62
     7
370
    25
100
AcDbCircle
 10
178.4986304738
 20
1.6295145422
 30
0.0
 40
9.645062962009778
100
AcDbArc
 50
81.0448095014
 51
92.9633983002
  0
ARC
  5
238
330
23
100
AcDbEntity
  8
0
  6
Continuous
 62
     7
370
    25
100
AcDbCircle
 10
178.0
 20
14.0
 30
0.0
 40
2.000000000000028
100
AcDbArc
 50
0.0
 51
90.0
  0
ARC
  5
239
330
23
100
AcDbEntity
  8
0
  6
Continuous
 62
     7
370
    25
100
AcDbCircle
 10
-179.7847443425
 20
1.0
 30
0.0
 40
1.000000000793705
100
AcDbArc
 50
177.0000000017
 51
270.0
  0
ARC
  5
23A
330
23
100
AcDbEntity
  8
0
  6
Continuous
 62
     7
370
    25
100
AcDbCircle
 10
-175.2551771664
 20
11.0
 30
0.0
 40
5.000000000000313
100
AcDbArc
 50
90.0
 51
177.0
  0
ARC
  5
23B
330
23
100
AcDbEntity
  8
0
  6
Continuous
 62
     7
370
    25
100
AcDbCircle
 10
-146.0000085486
 20
0.123144182
 30
0.0
 40
0.9999914547098568
100
AcDbArc
 50
187.0736579888
 51
194.0450605972
  0
ARC
  5
23C
330
23
100
AcDbEntity
  8
0
  6
Continuous
 62
     7
370
    25
100
AcDbCircle
 10
-50.0
 20
-152.0
 30
0.0
 40
1.000000000000014
100
AcDbArc
 50
180.0
 51
270.0
  0
ARC
  5
23D
330
23
100
AcDbEntity
  8
0
  6
Continuous
 62
     7
370
    25
100
AcDbCircle
 10
26.0
 20
-152.0
 30
0.0
 40
1.000000000000028
100
AcDbArc
 50
270.0
 51
0.0
  0
ARC
  5
23E
330
23
100
AcDbEntity
  8
0
  6
Continuous
 62
     7
370
    25
100
AcDbCircle
 10
19.3500901122
 20
-148.90234375
 30
0.0
 40
0.9109743592594544
100
AcDbArc
 50
97.8931209029
 51
186.1539201034
  0
ARC
  5
23F
330
23
100
AcDbEntity
  8
0
  6
Continuous
 62
     7
370
    25
100
AcDbCircle
 10
50.3004714505
 20
-118.0
 30
0.0
 40
30.00000000000012
100
AcDbArc
 50
270.0
 51
340.5287793655
  0
ARC
  5
240
330
23
100
AcDbEntity
  8
0
  6
Continuous
 62
     8
370
    25
100
AcDbCircle
 10
50.3004714505
 20
-118.0
 30
0.0
 40
25.00000000000018
100
AcDbArc
 50
270.0
 51
336.4218215218
  0
VIEWPORT
  5
313
330
23
100
AcDbEntity
  8
0
100
AcDbViewport
 10
0.0
 20
0.0
 30
0.0
 40
205.6
 41
156.0
 68
     1
 69
     1
 12
0.0
 22
-68.5
 13
0.0
 23
0.0
 14
10.0
 24
10.0
 15
10.0
 25
10.0
 16
0.0
 26
0.0
 36
1.0
 17
0.0
 27
0.0
 37
0.0
 42
50.0
 43
0.0
 44
0.0
 45
388.1796548629
 50
0.0
 51
0.0
 72
   100
 90
   557152
  1

281
     0
 71
     1
 74
     0
110
0.0
120
0.0
130
0.0
111
1.0
121
0.0
131
0.0
112
0.0
122
1.0
132
0.0
 79
     0
146
0.0
  0
ENDBLK
  5
25
330
23
100
AcDbEntity
  8
0
100
AcDbBlockEnd
  0
BLOCK
  5
243
330
241
100
AcDbEntity
  8
0
100
AcDbBlockBegin
  2
*Paper_Space1
 70
     0
 10
0.0
 20
0.0
 30
0.0
  3
*Paper_Space1
  1

  0
SPLINE
  5
245
330
241
100
AcDbEntity
  8
0
  6
Continuous
 62
     7
370
    25
100
AcDbSpline
210
0.0
220
0.0
230
1.0
 70
     8
 71
     3
 72
    10
 73
     6
 74
     0
 42
0.000000001
 43
0.00000001
 40
0.0
 40
0.0
 40
0.0
 40
0.0
 40
0.3380709093666975
 40
0.8148194526686872
 40
1.0
 40
1.0
 40
1.0
 40
1.0
 10
-8.73257364579812
 20
-58.57543938884444
 30
0.0
 10
-9.050321727093745
 20
-58.55457276325801
 30
0.0
 10
-9.816159042622717
 20
-58.50427996382363
 30
0.0
 10
-10.33384866629011
 20
-58.511164241266
 30
0.0
 10
-10.38774412840434
 20
-58.5872210976508
 30
0.0
 10
-10.40282186303515
 20
-58.60849867933278
 30
0.0
  0
SPLINE
  5
246
330
241
100
AcDbEntity
  8
0
  6
Continuous
 62
     7
370
    25
100
AcDbSpline
210
0.0
220
0.0
230
1.0
 70
     8
 71
     3
 72
    10
 73
     6
 74
     0
 42
0.000000001
 43
0.00000001
 40
0.0
 40
0.0
 40
0.0
 40
0.0
 40
0.1215635854744608
 40
0.4249110658716699
 40
1.0
 40
1.0
 40
1.0
 40
1.0
 10
10.2733247233904
 20
-58.48013223214055
 30
0.0
 10
10.26241503971858
 20
-58.46210095404638
 30
0.0
 10
10.22428153699877
 20
-58.39907476438507
 30
0.0
 10
9.872964588053803
 20
-58.45642240687972
 30
0.0
 10
9.332724492061367
 20
-58.51040117391508
 30
0.0
 10
8.97904368393425
 20
-58.5457396356257
 30
0.0
  0
SPLINE
  5
247
330
241
100
AcDbEntity
  8
0
  6
Continuous
 62
     7
370
    25
100
AcDbSpline
210
0.0
220
0.0
230
1.0
 70
     8
 71
     3
 72
    10
 73
     6
 74
     0
 42
0.000000001
 43
0.00000001
 40
0.0
 40
0.0
 40
0.0
 40
0.0
 40
0.5
 40
0.5
 40
1.0
 40
1.0
 40
1.0
 40
1.0
 10
139.426903419589
 20
-59.2358712332114
 30
0.0
 10
139.5224392759526
 20
-59.23601980338981
 30
0.0
 10
139.6179438176369
 20
-59.23575764105925
 30
0.0
 10
139.8089795529268
 20
-59.23440965949606
 30
0.0
 10
139.9044940954161
 20
-59.23332390048913
 30
0.0
 10
140.0000000000396
 20
-59.2318254579918
 30
0.0
  0
SPLINE
  5
249
330
241
100
AcDbEntity
  8
0
  6
Continuous
 62
     7
370
    25
100
AcDbSpline
210
0.0
220
0.0
230
1.0
 70
     8
 71
     3
 72
    25
 73
    21
 74
     0
 42
0.000000001
 43
0.00000001
 40
0.0
 40
0.0
 40
0.0
 40
0.0
 40
0.0039062499999999
 40
0.0039062499999999
 40
0.0078124999999999
 40
0.015625
 40
0.03125
 40
0.0625
 40
0.1249999999999999
 40
0.2499999999999998
 40
0.4999999999999998
 40
0.7499999999999997
 40
0.8749999999999998
 40
0.9374999999999998
 40
0.9687499999999999
 40
0.9843749999999999
 40
0.9921874999999998
 40
0.99609375
 40
0.99609375
 40
1.0
 40
1.0
 40
1.0
 40
1.0
 10
140.172794785173
 20
-69.1948645184106
 30
0.0
 10
139.772605808216
 20
-69.20180522875681
 30
0.0
 10
139.3724161965023
 20
-69.20132881566025
 30
0.0
 10
138.572037054618
 20
-69.2013288156602
 30
0.0
 10
137.3714683417911
 20
-69.20132881566019
 30
0.0
 10
134.5701413451957
 20
-69.20132881566019
 30
0.0
 10
128.9674873520049
 20
-69.2013288156602
 30
0.0
 10
117.7621793656231
 20
-69.2013288156602
 30
0.0
 10
95.35156339285935
 20
-69.20132881566022
 30
0.0
 10
50.53033144733188
 20
-69.20132881566019
 30
0.0
 10
-13.49999990342148
 20
-69.20132881566029
 30
0.0
 10
-77.53033125417498
 20
-69.2013288156602
 30
0.0
 10
-122.3515631997023
 20
-69.20132881566023
 30
0.0
 10
-144.7621791724659
 20
-69.20132881566022
 30
0.0
 10
-155.9674871588475
 20
-69.20132881566018
 30
0.0
 10
-161.5701411520386
 20
-69.20132881566015
 30
0.0
 10
-164.3714681486341
 20
-69.20132881566016
 30
0.0
 10
-165.572036861461
 20
-69.2013288156603
 30
0.0
 10
-166.3724160033449
 20
-69.20132881566032
 30
0.0
 10
-166.772605600858
 20
-69.20180523234869
 30
0.0
 10
-167.172794784701
 20
-69.19486451841878
 30
0.0
  0
SPLINE
  5
24B
330
241
100
AcDbEntity
  8
0
  6
Continuous
 62
     7
370
    25
100
AcDbSpline
210
0.0
220
0.0
230
1.0
 70
     8
 71
     3
 72
     8
 73
     4
 74
     0
 42
0.000000001
 43
0.00000001
 40
0.0
 40
0.0
 40
0.0
 40
0.0
 40
1.0
 40
1.0
 40
1.0
 40
1.0
 10
-166.999999999677
 20
-59.2318254579975
 30
0.0
 10
-166.8089881905508
 20
-59.23482234298819
 30
0.0
 10
-166.6179418344587
 20
-59.23616832241616
 30
0.0
 10
-166.426903419589
 20
-59.2358712332114
 30
0.0
  0
LWPOLYLINE
  5
24C
330
241
100
AcDbEntity
  8
0
  6
Continuous
 62
     7
370
    25
100
AcDbPolyline
 90
       10
 70
   128
 43
0.0
 10
-166.4269034196
 20
-59.2358712332
 10
-131.2632592859
 20
-59.2358712204
 10
-96.8175500778
 20
-59.2358712178
 10
-62.8363956714
 20
-59.2358712178
 10
-29.1166253273
 20
-59.2358712178
 10
4.5203207658
 20
-59.2358712178
 10
37.6485953959
 20
-59.2358712178
 10
71.0383173398
 20
-59.2358712178
 10
104.88411376
 20
-59.2358712205
 10
139.4269034196
 20
-59.2358712332
  0
SPLINE
  5
24E
330
241
100
AcDbEntity
  8
0
  6
Continuous
 62
     7
370
    25
100
AcDbSpline
210
0.0
220
0.0
230
1.0
 70
     8
 71
     3
 72
    32
 73
    28
 74
     0
 42
0.000000001
 43
0.00000001
 40
0.0
 40
0.0
 40
0.0
 40
0.0
 40
0.0052510710453715
 40
0.0172578848197242
 40
0.0363013077257457
 40
0.0628721576203162
 40
0.0951230845948057
 40
0.1257107906258753
 40
0.1851675127830531
 40
0.2506490976384915
 40
0.3437895930416182
 40
0.5000218842564215
 40
0.5726274307258552
 40
0.6387808445625008
 40
0.6978388998051497
 40
0.7498645462131899
 40
0.7751680371167985
 40
0.7999379006359467
 40
0.8241610371050178
 40
0.8478523565424155
 40
0.8710252405033483
 40
0.8936900971997551
 40
0.915853636351378
 40
0.9375313229905053
 40
0.9587561201240338
 40
0.9795631990032247
 40
1.0
 40
1.0
 40
1.0
 40
1.0
 10
-200.2202370249216
 20
-25.64718653115741
 30
0.0
 10
-200.2196530637958
 20
-25.73871099757928
 30
0.0
 10
-200.2177338488852
 20
-26.0395103366184
 30
0.0
 10
-200.2026550454812
 20
-26.6720069936805
 30
0.0
 10
-200.1554671096152
 20
-27.67522124275837
 30
0.0
 10
-200.0429633313768
 20
-29.02792322101824
 30
0.0
 10
-199.8431116081046
 20
-30.57391524291642
 30
0.0
 10
-199.4681442562628
 20
-32.67256758310013
 30
0.0
 10
-198.8066533519039
 20
-35.30505251352935
 30
0.0
 10
-197.52631513447
 20
-38.88993432498228
 30
0.0
 10
-195.0573792449793
 20
-43.80757648788629
 30
0.0
 10
-191.5833320468618
 20
-48.29524401106107
 30
0.0
 10
-187.7613951618007
 20
-51.74464333365673
 30
0.0
 10
-184.9642043346352
 20
-53.77019650654238
 30
0.0
 10
-182.2955471271304
 20
-55.33307691132842
 30
0.0
 10
-180.1464479562965
 20
-56.35453064986537
 30
0.0
 10
-178.4962752174199
 20
-57.02082906467276
 30
0.0
 10
-177.2776200546341
 20
-57.45913102068624
 30
0.0
 10
-176.0700921609273
 20
-57.84262464326834
 30
0.0
 10
-174.8759714751513
 20
-58.17357208797581
 30
0.0
 10
-173.6970392705536
 20
-58.4546256462375
 30
0.0
 10
-172.5349850501044
 20
-58.68844259163036
 30
0.0
 10
-171.3912872956724
 20
-58.87783475016847
 30
0.0
 10
-170.2667554915025
 20
-59.02564919989958
 30
0.0
 10
-169.1614322362576
 20
-59.13284882563462
 30
0.0
 10
-168.0747862633402
 20
-59.20491852334124
 30
0.0
 10
-167.3561113893982
 20
-59.22291032182805
 30
0.0
 10
-166.9999999996768
 20
-59.23182545799748
 30
0.0
  0
SPLINE
  5
24F
330
241
100
AcDbEntity
  8
0
  6
Continuous
 62
     7
370
    25
100
AcDbSpline
210
0.0
220
0.0
230
1.0
 70
     8
 71
     3
 72
    44
 73
    40
 74
     0
 42
0.000000001
 43
0.00000001
 40
0.0
 40
0.0
 40
0.0
 40
0.0
 40
0.1249999999999968
 40
0.1249999999999968
 40
0.1874999999999958
 40
0.1874999999999958
 40
0.2187499999999948
 40
0.2187499999999948
 40
0.2499999999999938
 40
0.2499999999999938
 40
0.3749999999999929
 40
0.3749999999999929
 40
0.4062499999999932
 40
0.4062499999999932
 40
0.4374999999999936
 40
0.4374999999999936
 40
0.4999999999999941
 40
0.4999999999999941
 40
0.6249999999999946
 40
0.6249999999999946
 40
0.6562499999999951
 40
0.6562499999999951
 40
0.6874999999999956
 40
0.6874999999999956
 40
0.7499999999999964
 40
0.7499999999999964
 40
0.8124999999999972
 40
0.8124999999999972
 40
0.8437499999999976
 40
0.8437499999999976
 40
0.8749999999999979
 40
0.8749999999999979
 40
0.9374999999999989
 40
0.9374999999999989
 40
0.9687499999999994
 40
0.9687499999999994
 40
0.9843749999999998
 40
0.9843749999999998
 40
1.0
 40
1.0
 40
1.0
 40
1.0
 10
-167.172794784701
 20
-69.19486451841878
 30
0.0
 10
-170.043438653995
 20
-69.1450772710472
 30
0.0
 10
-172.8604499110675
 20
-68.81104120233401
 30
0.0
 10
-177.0108253478131
 20
-67.911743057283
 30
0.0
 10
-178.3815271808105
 20
-67.54436774255089
 30
0.0
 10
-180.4180014575445
 20
-66.8895403335597
 30
0.0
 10
-181.0945862519179
 20
-66.65358981797633
 30
0.0
 10
-182.4366303517735
 20
-66.14820298286507
 30
0.0
 10
-183.0987393287776
 20
-65.88006449141477
 30
0.0
 10
-186.365417453986
 20
-64.46335724638168
 30
0.0
 10
-188.8392546954803
 20
-63.08824889453263
 30
0.0
 10
-191.7594250167375
 20
-61.07109344462906
 30
0.0
 10
-192.3347903632296
 20
-60.65264071312057
 30
0.0
 10
-193.4677556453737
 20
-59.78495034735349
 30
0.0
 10
-194.0266656781425
 20
-59.33449483247179
 30
0.0
 10
-195.666273109847
 20
-57.94482391469607
 30
0.0
 10
-196.7053378753215
 20
-56.97198308821604
 30
0.0
 10
-199.664223995705
 20
-53.91746902274784
 30
0.0
 10
-201.4282488414015
 20
-51.70196179668636
 30
0.0
 10
-203.3670525907855
 20
-48.70388032895952
 30
0.0
 10
-203.7423230268982
 20
-48.09093351193096
 30
0.0
 10
-204.4594495081755
 20
-46.85185022236071
 30
0.0
 10
-204.8014161693175
 20
-46.22582227313481
 30
0.0
 10
-205.7784162310055
 20
-44.32862727188372
 30
0.0
 10
-206.364417804585
 20
-43.03829751485272
 30
0.0
 10
-207.4088338390141
 20
-40.40777418059241
 30
0.0
 10
-207.867334763256
 20
-39.06761439513848
 30
0.0
 10
-208.457674347674
 20
-37.01930406488773
 30
0.0
 10
-208.638197381899
 20
-36.33018043293592
 30
0.0
 10
-208.9662246778316
 20
-34.9390287141793
 30
0.0
 10
-209.1139415015105
 20
-34.23555677306566
 30
0.0
 10
-209.503712439345
 20
-32.12275474153873
 30
0.0
 10
-209.6939632882825
 20
-30.7075484602304
 30
0.0
 10
-209.8741795703165
 20
-28.57465828273007
 30
0.0
 10
-209.9167244467717
 20
-27.86201471136097
 30
0.0
 10
-209.9539420078181
 20
-26.79049947188086
 30
0.0
 10
-209.9619164876245
 20
-26.43290292888303
 30
0.0
 10
-209.9689843404175
 20
-25.71685848995735
 30
0.0
 10
-209.9675602102045
 20
-25.3583609855882
 30
0.0
 10
-209.9675602102045
 20
-24.99999999994986
 30
0.0
  0
SPLINE
  5
252
330
241
100
AcDbEntity
  8
0
  6
Continuous
 62
     7
370
    25
100
AcDbSpline
210
0.0
220
0.0
230
1.0
 70
     8
 71
     3
 72
    35
 73
    31
 74
     0
 42
0.000000001
 43
0.00000001
 40
0.0
 40
0.0
 40
0.0
 40
0.0
 40
0.0156250000000001
 40
0.0156250000000001
 40
0.0312500000000001
 40
0.0312500000000001
 40
0.0625000000000001
 40
0.1250000000000003
 40
0.1250000000000003
 40
0.1875000000000005
 40
0.1875000000000005
 40
0.2500000000000007
 40
0.2500000000000007
 40
0.3750000000000011
 40
0.3750000000000011
 40
0.4375000000000013
 40
0.4375000000000013
 40
0.4687500000000014
 40
0.4687500000000014
 40
0.5000000000000016
 40
0.5000000000000016
 40
0.6250000000000004
 40
0.6250000000000004
 40
0.6875
 40
0.6875
 40
0.7499999999999996
 40
0.7499999999999996
 40
0.8749999999999998
 40
0.8749999999999998
 40
1.0
 40
1.0
 40
1.0
 40
1.0
 10
182.9675602102045
 20
-24.99999999986755
 30
0.0
 10
182.9675602102044
 20
-25.35810221166516
 30
0.0
 10
182.968981006785
 20
-25.71643243442792
 30
0.0
 10
182.961937790702
 20
-26.43150655511974
 30
0.0
 10
182.9539905167771
 20
-26.78833337983805
 30
0.0
 10
182.9169622203905
 20
-27.85669767434286
 30
0.0
 10
182.7901398129025
 20
-29.98495834857227
 30
0.0
 10
182.508314409965
 20
-32.08834397513337
 30
0.0
 10
181.9983382457064
 20
-34.87132014536678
 30
0.0
 10
181.6758859230795
 20
-36.25198149650117
 30
0.0
 10
180.8921764883254
 20
-38.99102865664085
 30
0.0
 10
180.4278688807024
 20
-40.35583479132497
 30
0.0
 10
178.8534114516783
 20
-44.33315495385615
 30
0.0
 10
177.5595656270576
 20
-46.84959096084574
 30
0.0
 10
175.2575885574703
 20
-50.42440210192655
 30
0.0
 10
174.429992128193
 20
-51.58266030164184
 30
0.0
 10
173.0943655485111
 20
-53.26791264548326
 30
0.0
 10
172.6346982381756
 20
-53.81901600456088
 30
0.0
 10
171.6940628232515
 20
-54.89221420996466
 30
0.0
 10
171.2120922996131
 20
-55.41559716591544
 30
0.0
 10
168.7447138445586
 20
-57.96726849804099
 30
0.0
 10
166.5878690046897
 20
-59.80112015554403
 30
0.0
 10
163.0754943007851
 20
-62.23761373037818
 30
0.0
 10
161.8521245770449
 20
-63.00014658683471
 30
0.0
 10
159.3600071651057
 20
-64.38761100190878
 30
0.0
 10
158.0874986611626
 20
-65.01612301908946
 30
0.0
 10
154.1921482309612
 20
-66.70975756741441
 30
0.0
 10
151.4912244858222
 20
-67.58686372142844
 30
0.0
 10
145.8815912485526
 20
-68.81048306709005
 30
0.0
 10
143.0440180338994
 20
-69.14506722249271
 30
0.0
 10
140.172794785173
 20
-69.1948645184106
 30
0.0
  0
SPLINE
  5
253
330
241
100
AcDbEntity
  8
0
  6
Continuous
 62
     7
370
    25
100
AcDbSpline
210
0.0
220
0.0
230
1.0
 70
     8
 71
     3
 72
    48
 73
    44
 74
     0
 42
0.000000001
 43
0.00000001
 40
0.0
 40
0.0
 40
0.0
 40
0.0
 40
0.0112173566764794
 40
0.022539884669909
 40
0.0339762529784499
 40
0.0455350651857143
 40
0.0572231445787656
 40
0.0690459992985869
 40
0.0810092772009977
 40
0.0931187890806026
 40
0.1053791168072979
 40
0.1177913442521052
 40
0.1303563403523438
 40
0.143075402872562
 40
0.1559502330524286
 40
0.1689827223770257
 40
0.1821750181186435
 40
0.1955296791443688
 40
0.2090496662059576
 40
0.2227365260381859
 40
0.2365858424505172
 40
0.2505923977119006
 40
0.3024889642967881
 40
0.3614689893533415
 40
0.4276009095319676
 40
0.5002441541235119
 40
0.5506524478372695
 40
0.6005318085871469
 40
0.6413108569024997
 40
0.6798202991062289
 40
0.7160214463594881
 40
0.7499205797921326
 40
0.7728484720742899
 40
0.7958213159786045
 40
0.8188053412128847
 40
0.8417738245665612
 40
0.8646973568318829
 40
0.8875436542228297
 40
0.9102780385717669
 40
0.932886182724434
 40
0.9553687218443033
 40
0.9777333028658773
 40
1.0
 40
1.0
 40
1.0
 40
1.0
 10
140.0000000000396
 20
-59.23182545799179
 30
0.0
 10
140.1955620786858
 20
-59.22775522008524
 30
0.0
 10
140.5885197803639
 20
-59.21957658267191
 30
0.0
 10
141.1804539588563
 20
-59.19388144781625
 30
0.0
 10
141.7777929985913
 20
-59.15796690509007
 30
0.0
 10
142.3807322578324
 20
-59.11059867780038
 30
0.0
 10
142.9894186207673
 20
-59.05171094727692
 30
0.0
 10
143.6039261080805
 20
-58.98086382779568
 30
0.0
 10
144.2243021319766
 20
-58.89772744008077
 30
0.0
 10
144.8505679458405
 20
-58.80196096891955
 30
0.0
 10
145.4826546617174
 20
-58.69323094225783
 30
0.0
 10
146.1203626878817
 20
-58.57103740308174
 30
0.0
 10
146.7634188153868
 20
-58.43491725473633
 30
0.0
 10
147.4115416502504
 20
-58.2844135860464
 30
0.0
 10
148.0644504733269
 20
-58.11908323971154
 30
0.0
 10
148.7218587085213
 20
-57.93848078356663
 30
0.0
 10
149.3834749713249
 20
-57.74216378308365
 30
0.0
 10
150.0490095465948
 20
-57.52970169744845
 30
0.0
 10
150.7181478002107
 20
-57.300682376825
 30
0.0
 10
151.390444610106
 20
-57.05475600627336
 30
0.0
 10
152.0652840724271
 20
-56.79154212121742
 30
0.0
 10
153.3496021525161
 20
-56.25854038066213
 30
0.0
 10
155.3176617996505
 20
-55.32122179706535
 30
0.0
 10
157.9831078329182
 20
-53.75771682002329
 30
0.0
 10
160.7791603290628
 20
-51.73060973182734
 30
0.0
 10
163.2308969496957
 20
-49.51349939672012
 30
0.0
 10
165.2663561809674
 20
-47.28593195833569
 30
0.0
 10
166.7804543482686
 20
-45.34486731253906
 30
0.0
 10
168.038644594151
 20
-43.4757186201619
 30
0.0
 10
169.0587164012747
 20
-41.73853624532628
 30
0.0
 10
169.9220518661543
 20
-40.05231203268693
 30
0.0
 10
170.5818039989019
 20
-38.56992165318724
 30
0.0
 10
171.0914109492763
 20
-37.275127816354
 30
0.0
 10
171.4915289623373
 20
-36.14253050279847
 30
0.0
 10
171.8513214800632
 20
-34.99572942856532
 30
0.0
 10
172.1698128069096
 20
-33.83765102690582
 30
0.0
 10
172.4464255847668
 20
-32.67131706248801
 30
0.0
 10
172.680890819538
 20
-31.4999360505604
 30
0.0
 10
172.8734864025505
 20
-30.32652057277725
 30
0.0
 10
173.0243890156623
 20
-29.15336985952378
 30
0.0
 10
173.1326581955543
 20
-27.98205796926188
 30
0.0
 10
173.2024169221899
 20
-26.81359871911473
 30
0.0
 10
173.2143056820265
 20
-26.03542170285402
 30
0.0
 10
173.2202370249215
 20
-25.6471865311575
 30
0.0
  0
LWPOLYLINE
  5
254
330
241
100
AcDbEntity
  8
0
  6
Continuous
 62
     7
370
    25
100
AcDbPolyline
 90
        3
 70
   128
 43
0.0
 10
173.2202370249
 20
-25.6471865312
 10
173.2202370618
 20
-25.2845632705
 10
173.2202370249
 20
-24.9999999999
  0
SPLINE
  5
256
330
241
100
AcDbEntity
  8
0
  6
Continuous
 62
     7
370
    25
100
AcDbSpline
210
0.0
220
0.0
230
1.0
 70
     8
 71
     3
 72
    10
 73
     6
 74
     0
 42
0.000000001
 43
0.00000001
 40
0.0
 40
0.0
 40
0.0
 40
0.0
 40
0.5
 40
0.5
 40
1.0
 40
1.0
 40
1.0
 40
1.0
 10
-240.262029492653
 20
175.2551771664255
 30
0.0
 10
-240.8996521158928
 20
175.2551771664255
 30
0.0
 10
-241.5620660234426
 20
175.1285725987651
 30
0.0
 10
-242.7856480420972
 20
174.6221543281227
 30
0.0
 10
-243.3432955818326
 20
174.2437977253906
 30
0.0
 10
-243.7935466536115
 20
173.7935466536115
 30
0.0
  0
SPLINE
  5
258
330
241
100
AcDbEntity
  8
0
  6
Continuous
 62
     7
370
    25
100
AcDbSpline
210
0.0
220
0.0
230
1.0
 70
     8
 71
     3
 72
    30
 73
    26
 74
     0
 42
0.000000001
 43
0.00000001
 40
0.0
 40
0.0
 40
0.0
 40
0.0
 40
0.0412034049556835
 40
0.0826131950665249
 40
0.1242294347929906
 40
0.1660521876355926
 40
0.2080815161534391
 40
0.2503174819823499
 40
0.2927601458525523
 40
0.3354095676059139
 40
0.3782658062128388
 40
0.4213289197887309
 40
0.4645989656100743
 40
0.5080760001301607
 40
0.5517600789944319
 40
0.5956512570555025
 40
0.6397495883878014
 40
0.6840551263019229
 40
0.7285679233586068
 40
0.7732880313824363
 40
0.8182155014752382
 40
0.8633503840291408
 40
0.9086927287393697
 40
0.9542425846167607
 40
1.0
 40
1.0
 40
1.0
 40
1.0
 10
-247.3194097734671
 20
177.3194097734671
 30
0.0
 10
-247.2425472632588
 20
177.3948508792172
 30
0.0
 10
-247.0884372435657
 20
177.5461109702721
 30
0.0
 10
-246.8475125579598
 20
177.7639050401076
 30
0.0
 10
-246.5989137744257
 20
177.9753381958407
 30
0.0
 10
-246.3421244466479
 20
178.1793860351209
 30
0.0
 10
-246.077505147
 20
178.3758879979876
 30
0.0
 10
-245.8051986195726
 20
178.5644529926354
 30
0.0
 10
-245.5254255098843
 20
178.7447555998575
 30
0.0
 10
-245.2384046856813
 20
178.9164569179661
 30
0.0
 10
-244.9443748637932
 20
179.0792267508951
 30
0.0
 10
-244.6435888598787
 20
179.2327384605067
 30
0.0
 10
-244.3363151944362
 20
179.37667121448
 30
0.0
 10
-244.0228376785701
 20
179.5107102590648
 30
0.0
 10
-243.7034555088749
 20
179.6345477262429
 30
0.0
 10
-243.378483187441
 20
179.7478833662744
 30
0.0
 10
-243.0482504500334
 20
179.8504251072037
 30
0.0
 10
-242.7131021524614
 20
179.9418904490944
 30
0.0
 10
-242.3733981245615
 20
180.0220047262941
 30
0.0
 10
-242.0295129984711
 20
180.090511186745
 30
0.0
 10
-241.681835968889
 20
180.1471366883123
 30
0.0
 10
-241.3307706433236
 20
180.1917242126055
 30
0.0
 10
-240.9767343834759
 20
180.2237385065121
 30
0.0
 10
-240.6201593844589
 20
180.244127405453
 30
0.0
 10
-240.3815868974211
 20
180.2469235765332
 30
0.0
 10
-240.2620294926527
 20
180.2483248401985
 30
0.0
  0
SPLINE
  5
259
330
241
100
AcDbEntity
  8
0
  6
Continuous
 62
     7
370
    25
100
AcDbSpline
210
0.0
220
0.0
230
1.0
 70
     8
 71
     3
 72
    10
 73
     6
 74
     0
 42
0.000000001
 43
0.00000001
 40
0.0
 40
0.0
 40
0.0
 40
0.0
 40
0.5
 40
0.5
 40
1.0
 40
1.0
 40
1.0
 40
1.0
 10
243.7935466536115
 20
173.7935466536115
 30
0.0
 10
243.3432955818323
 20
174.2437977253905
 30
0.0
 10
242.7856480420971
 20
174.6221543281227
 30
0.0
 10
241.5620660234425
 20
175.1285725987649
 30
0.0
 10
240.8996521158929
 20
175.2551771664255
 30
0.0
 10
240.262029492653
 20
175.2551771664255
 30
0.0
  0
SPLINE
  5
25B
330
241
100
AcDbEntity
  8
0
  6
Continuous
 62
     7
370
    25
100
AcDbSpline
210
0.0
220
0.0
230
1.0
 70
     8
 71
     3
 72
    33
 73
    29
 74
     0
 42
0.000000001
 43
0.00000001
 40
0.0
 40
0.0
 40
0.0
 40
0.0
 40
0.0404883517816245
 40
0.0808142708051899
 40
0.1209777904973141
 40
0.1609789446943403
 40
0.2008177676489304
 40
0.2404942940367658
 40
0.2800085589633975
 40
0.3193605979712321
 40
0.3585504470466778
 40
0.3975781426273863
 40
0.4364437216096881
 40
0.4751472213561586
 40
0.5136886797033443
 40
0.5520681349696362
 40
0.5902856259633326
 40
0.6283411919908324
 40
0.6662348728650278
 40
0.703966708913857
 40
0.7415367409890387
 40
0.7789450104749842
 40
0.8161915592979206
 40
0.8532764299351752
 40
0.89019966542467
 40
0.9269613093746374
 40
0.9635614059734929
 40
1.0
 40
1.0
 40
1.0
 40
1.0
 10
240.2620294926526
 20
180.2483248401983
 30
0.0
 10
240.3678195855387
 20
180.2472110374175
 30
0.0
 10
240.578975358466
 20
180.2449879002534
 30
0.0
 10
240.8947452857231
 20
180.2289623575835
 30
0.0
 10
241.2086079365913
 20
180.2038038185356
 30
0.0
 10
241.5202613554119
 20
180.1687471086791
 30
0.0
 10
241.8294127832264
 20
180.1241874850739
 30
0.0
 10
242.1357777456976
 20
180.0702214752567
 30
0.0
 10
242.4390805098919
 20
180.0070349681058
 30
0.0
 10
242.7390541539822
 20
179.9347993348276
 30
0.0
 10
243.0354407179526
 20
179.8536985725785
 30
0.0
 10
243.3279913110931
 20
179.7639215573522
 30
0.0
 10
243.6164662098538
 20
179.6656635916026
 30
0.0
 10
243.9006349375634
 20
179.5591254804592
 30
0.0
 10
244.1802763289775
 20
179.4445132707406
 30
0.0
 10
244.4551785786976
 20
179.3220378181175
 30
0.0
 10
244.7251392768657
 20
179.1919144079224
 30
0.0
 10
244.9899654221352
 20
179.0543623605056
 30
0.0
 10
245.2494734509579
 20
178.9096046759137
 30
0.0
 10
245.5034891405913
 20
178.7578675710577
 30
0.0
 10
245.7518479167878
 20
178.5993804413614
 30
0.0
 10
245.9943935995113
 20
178.4343742798686
 30
0.0
 10
246.2309828812872
 20
178.2630858482067
 30
0.0
 10
246.4614684927483
 20
178.085740554339
 30
0.0
 10
246.6857613368527
 20
177.9026143163135
 30
0.0
 10
246.9035997798647
 20
177.7138026075942
 30
0.0
 10
247.1154046334167
 20
177.5200751894443
 30
0.0
 10
247.2515083772892
 20
177.3861995705578
 30
0.0
 10
247.319409773467
 20
177.319409773467
 30
0.0
  0
SPLINE
  5
25E
330
241
100
AcDbEntity
  8
0
  6
Continuous
 62
     7
370
    25
100
AcDbSpline
210
0.0
220
0.0
230
1.0
 70
     8
 71
     3
 72
    10
 73
     6
 74
     0
 42
0.000000001
 43
0.00000001
 40
0.0
 40
0.0
 40
0.0
 40
0.0
 40
0.5
 40
0.5
 40
1.0
 40
1.0
 40
1.0
 40
1.0
 10
245.2551771664255
 20
170.262029492653
 30
0.0
 10
245.2551771664257
 20
170.8996521158928
 30
0.0
 10
245.1285725987653
 20
171.5620660234425
 30
0.0
 10
244.6221543281228
 20
172.7856480420972
 30
0.0
 10
244.2437977253906
 20
173.3432955818325
 30
0.0
 10
243.7935466536115
 20
173.7935466536115
 30
0.0
  0
SPLINE
  5
25F
330
241
100
AcDbEntity
  8
0
  6
Continuous
 62
     7
370
    25
100
AcDbSpline
210
0.0
220
0.0
230
1.0
 70
     8
 71
     3
 72
    30
 73
    26
 74
     0
 42
0.000000001
 43
0.00000001
 40
0.0
 40
0.0
 40
0.0
 40
0.0
 40
0.0412034049556834
 40
0.0826131950665297
 40
0.1242294347930003
 40
0.1660521876356023
 40
0.2080815161534515
 40
0.250317481982367
 40
0.2927601458525694
 40
0.3354095676059279
 40
0.3782658062128607
 40
0.421328919788751
 40
0.4645989656100943
 40
0.5080760001301821
 40
0.5517600789944507
 40
0.5956512570555235
 40
0.6397495883878203
 40
0.6840551263019381
 40
0.7285679233586178
 40
0.7732880313824506
 40
0.8182155014752497
 40
0.863350384029148
 40
0.9086927287393732
 40
0.9542425846167645
 40
1.0
 40
1.0
 40
1.0
 40
1.0
 10
247.319409773467
 20
177.319409773467
 30
0.0
 10
247.3948508792171
 20
177.2425472632587
 30
0.0
 10
247.546110970272
 20
177.0884372435656
 30
0.0
 10
247.7639050401074
 20
176.8475125579597
 30
0.0
 10
247.9753381958407
 20
176.5989137744257
 30
0.0
 10
248.1793860351207
 20
176.3421244466478
 30
0.0
 10
248.3758879979877
 20
176.0775051469999
 30
0.0
 10
248.5644529926353
 20
175.8051986195724
 30
0.0
 10
248.7447555998576
 20
175.5254255098842
 30
0.0
 10
248.916456917966
 20
175.238404685681
 30
0.0
 10
249.0792267508952
 20
174.9443748637931
 30
0.0
 10
249.2327384605067
 20
174.6435888598785
 30
0.0
 10
249.3766712144799
 20
174.3363151944359
 30
0.0
 10
249.5107102590648
 20
174.0228376785699
 30
0.0
 10
249.6345477262427
 20
173.7034555088747
 30
0.0
 10
249.7478833662746
 20
173.3784831874409
 30
0.0
 10
249.8504251072035
 20
173.0482504500331
 30
0.0
 10
249.9418904490945
 20
172.7131021524613
 30
0.0
 10
250.0220047262939
 20
172.3733981245613
 30
0.0
 10
250.0905111867448
 20
172.0295129984709
 30
0.0
 10
250.1471366883123
 20
171.6818359688887
 30
0.0
 10
250.1917242126053
 20
171.3307706433234
 30
0.0
 10
250.2237385065121
 20
170.9767343834758
 30
0.0
 10
250.2441274054529
 20
170.6201593844588
 30
0.0
 10
250.2469235765331
 20
170.381586897421
 30
0.0
 10
250.2483248401983
 20
170.2620294926526
 30
0.0
  0
SPLINE
  5
260
330
241
100
AcDbEntity
  8
0
  6
Continuous
 62
     7
370
    25
100
AcDbSpline
210
0.0
220
0.0
230
1.0
 70
     8
 71
     3
 72
    10
 73
     6
 74
     0
 42
0.000000001
 43
0.00000001
 40
0.0
 40
0.0
 40
0.0
 40
0.0
 40
0.5
 40
0.5
 40
1.0
 40
1.0
 40
1.0
 40
1.0
 10
-243.7935466536115
 20
173.7935466536115
 30
0.0
 10
-244.2437977253906
 20
173.3432955818325
 30
0.0
 10
-244.6221543281229
 20
172.7856480420972
 30
0.0
 10
-245.1285725987652
 20
171.5620660234426
 30
0.0
 10
-245.2551771664257
 20
170.8996521158928
 30
0.0
 10
-245.2551771664255
 20
170.262029492653
 30
0.0
  0
SPLINE
  5
262
330
241
100
AcDbEntity
  8
0
  6
Continuous
 62
     7
370
    25
100
AcDbSpline
210
0.0
220
0.0
230
1.0
 70
     8
 71
     3
 72
    33
 73
    29
 74
     0
 42
0.000000001
 43
0.00000001
 40
0.0
 40
0.0
 40
0.0
 40
0.0
 40
0.0404883517816281
 40
0.0808142708051968
 40
0.120977790497321
 40
0.1609789446943506
 40
0.2008177676489407
 40
0.2404942940367795
 40
0.2800085589634085
 40
0.3193605979712507
 40
0.3585504470466964
 40
0.3975781426274049
 40
0.43644372160971
 40
0.4751472213561783
 40
0.513688679703364
 40
0.5520681349696545
 40
0.5902856259633522
 40
0.6283411919908536
 40
0.6662348728650472
 40
0.7039667089138733
 40
0.7415367409890508
 40
0.7789450104749972
 40
0.8161915592979314
 40
0.8532764299351859
 40
0.890199665424678
 40
0.9269613093746398
 40
0.963561405973498
 40
1.0
 40
1.0
 40
1.0
 40
1.0
 10
-250.2483248401985
 20
170.2620294926528
 30
0.0
 10
-250.2472110374175
 20
170.3678195855389
 30
0.0
 10
-250.2449879002534
 20
170.5789753584662
 30
0.0
 10
-250.2289623575836
 20
170.8947452857232
 30
0.0
 10
-250.2038038185357
 20
171.2086079365916
 30
0.0
 10
-250.1687471086792
 20
171.5202613554121
 30
0.0
 10
-250.124187485074
 20
171.8294127832267
 30
0.0
 10
-250.0702214752569
 20
172.1357777456979
 30
0.0
 10
-250.0070349681059
 20
172.4390805098921
 30
0.0
 10
-249.9347993348277
 20
172.7390541539825
 30
0.0
 10
-249.8536985725786
 20
173.0354407179528
 30
0.0
 10
-249.7639215573522
 20
173.3279913110933
 30
0.0
 10
-249.6656635916027
 20
173.6164662098542
 30
0.0
 10
-249.5591254804593
 20
173.9006349375638
 30
0.0
 10
-249.4445132707405
 20
174.1802763289778
 30
0.0
 10
-249.3220378181175
 20
174.4551785786978
 30
0.0
 10
-249.1919144079225
 20
174.725139276866
 30
0.0
 10
-249.0543623605055
 20
174.9899654221353
 30
0.0
 10
-248.9096046759138
 20
175.2494734509582
 30
0.0
 10
-248.7578675710578
 20
175.5034891405915
 30
0.0
 10
-248.5993804413614
 20
175.7518479167881
 30
0.0
 10
-248.4343742798687
 20
175.9943935995116
 30
0.0
 10
-248.2630858482066
 20
176.2309828812874
 30
0.0
 10
-248.0857405543391
 20
176.4614684927486
 30
0.0
 10
-247.9026143163135
 20
176.6857613368528
 30
0.0
 10
-247.7138026075943
 20
176.9035997798649
 30
0.0
 10
-247.5200751894444
 20
177.1154046334169
 30
0.0
 10
-247.3861995705579
 20
177.2515083772894
 30
0.0
 10
-247.3194097734671
 20
177.3194097734671
 30
0.0
  0
SPLINE
  5
263
330
241
100
AcDbEntity
  8
0
  6
Continuous
 62
     7
370
    25
100
AcDbSpline
210
0.0
220
0.0
230
1.0
 70
     8
 71
     3
 72
    39
 73
    35
 74
     0
 42
0.000000001
 43
0.00000001
 40
0.0
 40
0.0
 40
0.0
 40
0.0
 40
0.0112348979110363
 40
0.0220867118897114
 40
0.0325427715471754
 40
0.0425896297350103
 40
0.0522126963273403
 40
0.0613964292790065
 40
0.0701253407476891
 40
0.0783841532921596
 40
0.0861578972093696
 40
0.0934320134336074
 40
0.1001923050174778
 40
0.1064246739643704
 40
0.1121159811929495
 40
0.117254283270241
 40
0.1218288296719237
 40
0.125830066411493
 40
0.189233757236884
 40
0.2506531938329794
 40
0.3351815156846118
 40
0.4193031651018109
 40
0.5003462831680338
 40
0.6265778671850986
 40
0.7499135127996248
 40
0.8126409507702503
 40
0.8750963810634292
 40
0.8887987368868189
 40
0.9040351951348615
 40
0.9207104158831354
 40
0.9387315595624571
 40
0.958008217786239
 40
0.9784541689709882
 40
1.0
 40
1.0
 40
1.0
 40
1.0
 10
173.2174249816496
 20
107.0000000000041
 30
0.0
 10
173.213733403011
 20
107.1942603528089
 30
0.0
 10
173.206476119994
 20
107.5761572314427
 30
0.0
 10
173.1834704829649
 20
108.1385108551724
 30
0.0
 10
173.1529868023107
 20
108.679911916099
 30
0.0
 10
173.1152563188909
 20
109.1995614888895
 30
0.0
 10
173.071591199657
 20
109.6966593481066
 30
0.0
 10
173.0230123216309
 20
110.1703958339176
 30
0.0
 10
172.970621798566
 20
110.6199807933687
 30
0.0
 10
172.9154967974047
 20
111.0446609186851
 30
0.0
 10
172.8587020731101
 20
111.4437230528663
 30
0.0
 10
172.8012740542724
 20
111.8164929338819
 30
0.0
 10
172.7442155914241
 20
112.1623280951568
 30
0.0
 10
172.6884605367277
 20
112.4806184423299
 30
0.0
 10
172.6349001294977
 20
112.7708023757453
 30
0.0
 10
172.5843722774485
 20
113.0323806579541
 30
0.0
 10
172.5376517596648
 20
113.2649199075194
 30
0.0
 10
172.2843770339532
 20
114.4837494994781
 30
0.0
 10
171.7171992389898
 20
116.6428302066893
 30
0.0
 10
170.4632710401833
 20
120.0448483159237
 30
0.0
 10
168.6707246276864
 20
123.6110921393254
 30
0.0
 10
166.2379235969799
 20
127.1948063467083
 30
0.0
 10
162.8898246411765
 20
130.9788211953305
 30
0.0
 10
158.4333389033321
 20
134.6239264108171
 30
0.0
 10
153.640106418508
 20
137.1909326289339
 30
0.0
 10
149.5936962617925
 20
138.6580155659001
 30
0.0
 10
147.2625437071032
 20
139.2564945301772
 30
0.0
 10
145.710846638713
 20
139.5586709759445
 30
0.0
 10
144.9331925476508
 20
139.6922662916122
 30
0.0
 10
144.0786188136753
 20
139.8177602510513
 30
0.0
 10
143.1515983037888
 20
139.928901341755
 30
0.0
 10
142.156783946755
 20
140.0185204893077
 30
0.0
 10
141.0988144697326
 20
140.0835433172139
 30
0.0
 10
140.3726118981058
 20
140.0977332711293
 30
0.0
 10
139.9999999946278
 20
140.1050140849755
 30
0.0
  0
SPLINE
  5
265
330
241
100
AcDbEntity
  8
0
  6
Continuous
 62
     7
370
    25
100
AcDbSpline
210
0.0
220
0.0
230
1.0
 70
     8
 71
     3
 72
    30
 73
    26
 74
     0
 42
0.000000001
 43
0.00000001
 40
0.0
 40
0.0
 40
0.0
 40
0.0
 40
0.1250000000000009
 40
0.1250000000000009
 40
0.1875000000000014
 40
0.1875000000000014
 40
0.2500000000000019
 40
0.2500000000000019
 40
0.3750000000000012
 40
0.3750000000000012
 40
0.4375000000000006
 40
0.4375000000000006
 40
0.5000000000000001
 40
0.5000000000000001
 40
0.6250000000000008
 40
0.6250000000000008
 40
0.6875000000000007
 40
0.6875000000000007
 40
0.7500000000000004
 40
0.7500000000000004
 40
0.8750000000000001
 40
0.8750000000000001
 40
0.9375000000000001
 40
0.9375000000000001
 40
1.0
 40
1.0
 40
1.0
 40
1.0
 10
140.1372653564524
 20
149.8034451428312
 30
0.0
 10
142.944994000426
 20
149.7637063556066
 30
0.0
 10
145.7023302935442
 20
149.451908115287
 30
0.0
 10
149.767539490017
 20
148.6019996687722
 30
0.0
 10
151.110607415595
 20
148.2539012071266
 30
0.0
 10
153.772183865044
 20
147.4251123867841
 30
0.0
 10
155.0962419143345
 20
146.941838676748
 30
0.0
 10
158.952122955393
 20
145.3203664929972
 30
0.0
 10
161.3892898334319
 20
144.0065020761705
 30
0.0
 10
164.8482184046031
 20
141.6921567689458
 30
0.0
 10
165.9682577669101
 20
140.8632177148503
 30
0.0
 10
168.139420874762
 20
139.0850486845342
 30
0.0
 10
169.175215183845
 20
138.1491139877679
 30
0.0
 10
172.1274499461511
 20
135.2128536357661
 30
0.0
 10
173.8950827464325
 20
133.0820802020404
 30
0.0
 10
176.2427378612055
 20
129.623420677554
 30
0.0
 10
176.9771203551041
 20
128.4203766291744
 30
0.0
 10
178.3138468260771
 20
125.9717709954221
 30
0.0
 10
178.919292286868
 20
124.722667275474
 30
0.0
 10
180.551248750195
 20
120.9026773134528
 30
0.0
 10
181.396093060445
 20
118.2601817678322
 30
0.0
 10
182.283133708993
 20
114.146561190169
 30
0.0
 10
182.51236198384
 20
112.7642172436656
 30
0.0
 10
182.8369886681255
 20
109.9876567255346
 30
0.0
 10
182.9324158347955
 20
108.5917399465944
 30
0.0
 10
182.959507460069
 20
107.1880211709592
 30
0.0
  0
SPLINE
  5
267
330
241
100
AcDbEntity
  8
0
  6
Continuous
 62
     7
370
    25
100
AcDbSpline
210
0.0
220
0.0
230
1.0
 70
     8
 71
     3
 72
     8
 73
     4
 74
     0
 42
0.000000001
 43
0.00000001
 40
0.0
 40
0.0
 40
0.0
 40
0.0
 40
1.0
 40
1.0
 40
1.0
 40
1.0
 10
139.9999999946276
 20
140.1050140849756
 30
0.0
 10
139.8422020415169
 20
140.1065710784027
 30
0.0
 10
139.6843891356733
 20
140.1070103585825
 30
0.0
 10
139.526584760319
 20
140.106339062591
 30
0.0
  0
LWPOLYLINE
  5
268
330
241
100
AcDbEntity
  8
0
  6
Continuous
 62
     7
370
    25
100
AcDbPolyline
 90
       10
 70
   128
 43
0.0
 10
139.5265847603
 20
140.1063390626
 10
104.3138160151
 20
140.1063390459
 10
69.8393231991
 20
140.1063390426
 10
35.8437602026
 20
140.1063390426
 10
2.1180929754
 20
140.1063390426
 10
-31.5220512768
 20
140.1063390426
 10
-64.6564642794
 20
140.1063390426
 10
-98.0608355947
 20
140.1063390426
 10
-131.9353515562
 20
140.1063390461
 10
-166.5265847603
 20
140.1063390626
  0
SPLINE
  5
269
330
241
100
AcDbEntity
  8
0
  6
Continuous
 62
     7
370
    25
100
AcDbSpline
210
0.0
220
0.0
230
1.0
 70
     8
 71
     3
 72
    10
 73
     6
 74
     0
 42
0.000000001
 43
0.00000001
 40
0.0
 40
0.0
 40
0.0
 40
0.0
 40
0.5
 40
0.5
 40
1.0
 40
1.0
 40
1.0
 40
1.0
 10
-166.526584760319
 20
140.106339062591
 30
0.0
 10
-166.6054983766434
 20
140.1066747598243
 30
0.0
 10
-166.6843912696379
 20
140.1067327861348
 30
0.0
 10
-166.8421983067108
 20
140.1062916858713
 30
0.0
 10
-166.9211010225823
 20
140.1057925816573
 30
0.0
 10
-167.0000000000395
 20
140.105014084922
 30
0.0
  0
SPLINE
  5
26B
330
241
100
AcDbEntity
  8
0
  6
Continuous
 62
     7
370
    25
100
AcDbSpline
210
0.0
220
0.0
230
1.0
 70
     8
 71
     3
 72
    25
 73
    21
 74
     0
 42
0.000000001
 43
0.00000001
 40
0.0
 40
0.0
 40
0.0
 40
0.0
 40
0.0039062500000002
 40
0.0039062500000002
 40
0.0078125000000003
 40
0.0156250000000004
 40
0.0312500000000003
 40
0.0625000000000001
 40
0.1249999999999999
 40
0.2499999999999998
 40
0.4999999999999997
 40
0.7499999999999994
 40
0.8749999999999994
 40
0.9374999999999994
 40
0.9687499999999994
 40
0.9843749999999997
 40
0.9921874999999999
 40
0.9960937499999999
 40
0.9960937499999999
 40
1.0
 40
1.0
 40
1.0
 40
1.0
 10
-167.137265363436
 20
149.8034451427322
 30
0.0
 10
-166.737168633409
 20
149.8091078548466
 30
0.0
 10
-166.3370715127576
 20
149.8077640640442
 30
0.0
 10
-165.536877421291
 20
149.8077640640442
 30
0.0
 10
-164.3365862840916
 20
149.807764064044
 30
0.0
 10
-161.5359069639606
 20
149.807764064044
 30
0.0
 10
-155.934548323697
 20
149.8077640640442
 30
0.0
 10
-144.7318310431701
 20
149.807764064044
 30
0.0
 10
-122.3263964821175
 20
149.807764064044
 30
0.0
 10
-77.51552736001148
 20
149.8077640640439
 30
0.0
 10
-13.50000004271712
 20
149.8077640640442
 30
0.0
 10
50.51552727457723
 20
149.807764064044
 30
0.0
 10
95.32639639668321
 20
149.8077640640442
 30
0.0
 10
117.7318309577363
 20
149.8077640640442
 30
0.0
 10
128.9345482382627
 20
149.8077640640442
 30
0.0
 10
134.5359068785262
 20
149.8077640640442
 30
0.0
 10
137.3365861986574
 20
149.8077640640442
 30
0.0
 10
138.5368773358568
 20
149.8077640640442
 30
0.0
 10
139.337071427323
 20
149.807764064044
 30
0.0
 10
139.7371685235655
 20
149.8091078563365
 30
0.0
 10
140.1372653564524
 20
149.8034451428312
 30
0.0
  0
SPLINE
  5
26C
330
241
100
AcDbEntity
  8
0
  6
Continuous
 62
     7
370
    25
100
AcDbSpline
210
0.0
220
0.0
230
1.0
 70
     8
 71
     3
 72
    15
 73
    11
 74
     0
 42
0.000000001
 43
0.00000001
 40
0.0
 40
0.0
 40
0.0
 40
0.0
 40
0.015625
 40
0.015625
 40
0.03125
 40
0.0624999999999999
 40
0.1249999999999999
 40
0.2499999999999998
 40
0.4999999999999999
 40
1.0
 40
1.0
 40
1.0
 40
1.0
 10
182.959507460069
 20
107.1880211709592
 30
0.0
 10
182.972794985045
 20
106.4995446361458
 30
0.0
 10
182.9675602102042
 20
105.8110642668216
 30
0.0
 10
182.9675602102045
 20
104.4341056955934
 30
0.0
 10
182.9675602102045
 20
102.3686678387511
 30
0.0
 10
182.967560210204
 20
97.54931283945184
 30
0.0
 10
182.967560210204
 20
87.91060284085376
 30
0.0
 10
182.9675602102039
 20
68.63318284365747
 30
0.0
 10
182.9675602102044
 20
30.07834284926484
 30
0.0
 10
182.9675602102045
 20
-2.968662860214591
 30
0.0
 10
182.9675602102045
 20
-24.99999999986755
 30
0.0
  0
SPLINE
  5
26E
330
241
100
AcDbEntity
  8
0
  6
Continuous
 62
     7
370
    25
100
AcDbSpline
210
0.0
220
0.0
230
1.0
 70
     8
 71
     3
 72
    11
 73
     7
 74
     0
 42
0.000000001
 43
0.00000001
 40
0.0
 40
0.0
 40
0.0
 40
0.0
 40
0.2500000000000001
 40
0.2500000000000001
 40
0.5000000000000001
 40
1.0
 40
1.0
 40
1.0
 40
1.0
 10
173.2202370249215
 20
106.3528134583732
 30
0.0
 10
173.2205205315422
 20
106.406759724669
 30
0.0
 10
173.2206748769559
 20
106.4606788926078
 30
0.0
 10
173.2207248856126
 20
106.5685462807482
 30
0.0
 10
173.2204117955484
 20
106.7303483885741
 30
0.0
 10
173.2189320592874
 20
106.8921452186316
 30
0.0
 10
173.2174249816495
 20
107.000000000004
 30
0.0
  0
SPLINE
  5
26F
330
241
100
AcDbEntity
  8
0
  6
Continuous
 62
     7
370
    25
100
AcDbSpline
210
0.0
220
0.0
230
1.0
 70
     8
 71
     3
 72
     8
 73
     4
 74
     0
 42
0.000000001
 43
0.00000001
 40
0.0
 40
0.0
 40
0.0
 40
0.0
 40
1.0
 40
1.0
 40
1.0
 40
1.0
 10
-200.217424981653
 20
106.999999999761
 30
0.0
 10
-200.2204391369261
 20
106.7842904370965
 30
0.0
 10
-200.2213707537588
 20
106.5685417898424
 30
0.0
 10
-200.2202370249215
 20
106.3528134583732
 30
0.0
  0
LWPOLYLINE
  5
270
330
241
100
AcDbEntity
  8
0
  6
Continuous
 62
     7
370
    25
100
AcDbPolyline
 90
       10
 70
   128
 43
0.0
 10
-200.2202370249
 20
106.3528134584
 10
-200.2202369835
 20
90.7941146957
 10
-200.2202369751
 20
75.9280587043
 10
-200.220236975
 20
61.4678832614
 10
-200.220236975
 20
47.2216079222
 10
-200.220236975
 20
33.0450274263
 10
-200.220236975
 20
19.0502625257
 10
-200.2202369751
 20
4.8473616364
 10
-200.2202369835
 20
-9.7455080369
 10
-200.2202370249
 20
-24.9999999999
  0
LWPOLYLINE
  5
271
330
241
100
AcDbEntity
  8
0
  6
Continuous
 62
     7
370
    25
100
AcDbPolyline
 90
        5
 70
   128
 43
0.0
 10
-209.9675602102
 20
-24.9999999999
 10
-209.9675602102
 20
49.0252929838
 10
-209.9675602102
 20
68.4128697176
 10
-209.9675602102
 20
87.8004464514
 10
-209.9595074601
 20
107.1880211706
  0
SPLINE
  5
273
330
241
100
AcDbEntity
  8
0
  6
Continuous
 62
     7
370
    25
100
AcDbSpline
210
0.0
220
0.0
230
1.0
 70
     8
 71
     3
 72
    37
 73
    33
 74
     0
 42
0.000000001
 43
0.00000001
 40
0.0
 40
0.0
 40
0.0
 40
0.0
 40
0.0109719925011042
 40
0.0216770551321262
 40
0.0321080407693864
 40
0.0422569266939278
 40
0.0521145101400358
 40
0.0616699510668352
 40
0.0709120139223288
 40
0.0798293397432056
 40
0.0884104953914584
 40
0.0966440247585642
 40
0.1045180374408873
 40
0.1120200605332086
 40
0.1191381445262221
 40
0.1258609792718232
 40
0.188104851533229
 40
0.2507031510776355
 40
0.3739958885671446
 40
0.5002306754800705
 40
0.6230640045920179
 40
0.7498548264700657
 40
0.8113889288179944
 40
0.8750662996724474
 40
0.8835022263506206
 40
0.8941985434391951
 40
0.9070652938686828
 40
0.921995495896924
 40
0.9388744645980989
 40
0.9575817000256077
 40
0.9779943622416349
 40
1.0
 40
1.0
 40
1.0
 40
1.0
 10
-167.0000000000392
 20
140.1050140849221
 30
0.0
 10
-167.1897093829898
 20
140.1022067799941
 30
0.0
 10
-167.5645128430621
 20
140.0966604670804
 30
0.0
 10
-168.1193957708101
 20
140.076495148006
 30
0.0
 10
-168.6596721343935
 20
140.0485781826358
 30
0.0
 10
-169.1848076393124
 20
140.0128279888314
 30
0.0
 10
-169.6942399895334
 20
139.9702451248485
 30
0.0
 10
-170.1873695544455
 20
139.9215332929056
 30
0.0
 10
-170.6635840567503
 20
139.8674944453407
 30
0.0
 10
-171.1222839962677
 20
139.8089281483414
 30
0.0
 10
-171.5628880398483
 20
139.7466467624085
 30
0.0
 10
-171.9848267029349
 20
139.6814692194567
 30
0.0
 10
-172.3875299677109
 20
139.6142005414879
 30
0.0
 10
-172.770426996926
 20
139.5456016062136
 30
0.0
 10
-173.1329797256356
 20
139.4764373523542
 30
0.0
 10
-174.4226864708332
 20
139.2161244071139
 30
0.0
 10
-176.6298232002709
 20
138.6464914580366
 30
0.0
 10
-180.6675947028988
 20
137.1781610818264
 30
0.0
 10
-185.4554002153798
 20
134.6087920993993
 30
0.0
 10
-190.4692395826536
 20
130.5023191675953
 30
0.0
 10
-194.6373160857699
 20
125.4646956147962
 30
0.0
 10
-197.223868238084
 20
120.7026529591758
 30
0.0
 10
-198.7284967244696
 20
116.6076629073433
 30
0.0
 10
-199.3141448869553
 20
114.3674111804516
 30
0.0
 10
-199.5986731933806
 20
112.964107727885
 30
0.0
 10
-199.7006476293285
 20
112.4202611386381
 30
0.0
 10
-199.8115360148426
 20
111.7639419777911
 30
0.0
 10
-199.924098151647
 20
110.9996467153969
 30
0.0
 10
-200.0303987835241
 20
110.1325765893753
 30
0.0
 10
-200.1211965840948
 20
109.1685103032152
 30
0.0
 10
-200.1909171810814
 20
108.1136693505692
 30
0.0
 10
-200.208370566824
 20
107.380402148076
 30
0.0
 10
-200.217424981653
 20
106.9999999997604
 30
0.0
  0
SPLINE
  5
274
330
241
100
AcDbEntity
  8
0
  6
Continuous
 62
     7
370
    25
100
AcDbSpline
210
0.0
220
0.0
230
1.0
 70
     8
 71
     3
 72
    30
 73
    26
 74
     0
 42
0.000000001
 43
0.00000001
 40
0.0
 40
0.0
 40
0.0
 40
0.0
 40
0.1249999999999999
 40
0.1249999999999999
 40
0.1874999999999998
 40
0.1874999999999998
 40
0.2499999999999998
 40
0.2499999999999998
 40
0.3750000000000008
 40
0.3750000000000008
 40
0.4375000000000009
 40
0.4375000000000009
 40
0.5000000000000011
 40
0.5000000000000011
 40
0.6250000000000006
 40
0.6250000000000006
 40
0.6874999999999999
 40
0.6874999999999999
 40
0.7499999999999993
 40
0.7499999999999993
 40
0.8749999999999997
 40
0.8749999999999997
 40
0.9374999999999998
 40
0.9374999999999998
 40
1.0
 40
1.0
 40
1.0
 40
1.0
 10
-209.959507460075
 20
107.188021170645
 30
0.0
 10
-209.9053244575275
 20
109.9954458732136
 30
0.0
 10
-209.580040301826
 20
112.7512411123642
 30
0.0
 10
-208.7102485998485
 20
116.8122101593206
 30
0.0
 10
-208.355685767145
 20
118.153557710863
 30
0.0
 10
-207.514152489508
 20
120.8110366394952
 30
0.0
 10
-207.0244514963821
 20
122.132732111026
 30
0.0
 10
-205.3843186297999
 20
125.980867786871
 30
0.0
 10
-204.0589233882807
 20
128.411792356087
 30
0.0
 10
-201.7279944742156
 20
131.8594012743736
 30
0.0
 10
-200.8938261536676
 20
132.975444050644
 30
0.0
 10
-199.1054776654246
 20
135.1379461766702
 30
0.0
 10
-198.1642984162257
 20
136.1693976681307
 30
0.0
 10
-195.2139881561386
 20
139.1078863043678
 30
0.0
 10
-193.0747601945236
 20
140.8652463220307
 30
0.0
 10
-189.6050112206761
 20
143.1960588877571
 30
0.0
 10
-188.3985183025176
 20
143.9247125950222
 30
0.0
 10
-185.9433503303391
 20
145.2497893711742
 30
0.0
 10
-184.6913074979186
 20
145.8492806861947
 30
0.0
 10
-180.8634189111431
 20
147.4627801011956
 30
0.0
 10
-178.2170174485574
 20
148.2949181803653
 30
0.0
 10
-174.0994683517665
 20
149.1617655624493
 30
0.0
 10
-172.7157628107469
 20
149.3842387257944
 30
0.0
 10
-169.9375359849299
 20
149.6951167625064
 30
0.0
 10
-168.5411330253154
 20
149.7835757016218
 30
0.0
 10
-167.137265363436
 20
149.8034451427322
 30
0.0
  0
SPLINE
  5
286
330
241
100
AcDbEntity
  8
0
  6
Continuous
 62
     7
370
    25
100
AcDbSpline
210
0.0
220
0.0
230
1.0
 70
     8
 71
     3
 72
    30
 73
    26
 74
     0
 42
0.000000001
 43
0.00000001
 40
0.0
 40
0.0
 40
0.0
 40
0.0
 40
0.0411920285229685
 40
0.0825905321787905
 40
0.1241957203657677
 40
0.1660077993715798
 40
0.208026972431424
 40
0.2502534397849286
 40
0.2926873987317784
 40
0.3353290436861654
 40
0.3781785662300124
 40
0.421236155165078
 40
0.4645019965639025
 40
0.5079762738196634
 40
0.5516591676949655
 40
0.5955508563695723
 40
0.6396515154870992
 40
0.6839613182007386
 40
0.7284804352179867
 40
0.7732090348444262
 40
0.818147283026581
 40
0.8632953433938569
 40
0.9086533772996039
 40
0.9542215438613216
 40
1.0
 40
1.0
 40
1.0
 40
1.0
 10
-247.8589820441532
 20
177.8589820441531
 30
0.0
 10
-247.9344215388233
 20
177.7821178323789
 30
0.0
 10
-248.0856786687954
 20
177.6280041268014
 30
0.0
 10
-248.3034464195323
 20
177.3870523273306
 30
0.0
 10
-248.5148373699984
 20
177.1384105640784
 30
0.0
 10
-248.7188255281696
 20
176.8815608038578
 30
0.0
 10
-248.9152507650658
 20
176.6168640518811
 30
0.0
 10
-249.1037218713991
 20
176.344462936798
 30
0.0
 10
-249.283913459761
 20
176.0645781378406
 30
0.0
 10
-249.4554866196638
 20
175.777428515824
 30
0.0
 10
-249.6181111574165
 20
175.4832527917494
 30
0.0
 10
-249.77146043429
 20
175.1823037824099
 30
0.0
 10
-249.9152136182755
 20
174.874850010269
 30
0.0
 10
-250.0490559557795
 20
174.5611752881607
 30
0.0
 10
-250.1726795790728
 20
174.2415788144684
 30
0.0
 10
-250.285784238775
 20
173.9163750930255
 30
0.0
 10
-250.3880778633012
 20
173.585893861397
 30
0.0
 10
-250.479277953442
 20
173.2504799769254
 30
0.0
 10
-250.5591098431456
 20
172.9104932718947
 30
0.0
 10
-250.6273167850533
 20
172.5663083773576
 30
0.0
 10
-250.6836256208831
 20
172.2183145000873
 30
0.0
 10
-250.727879402745
 20
171.8669152100917
 30
0.0
 10
-250.7595425916421
 20
171.5125280177176
 30
0.0
 10
-250.7795641979254
 20
171.1555845671028
 30
0.0
 10
-250.7821020371853
 20
170.9167638062136
 30
0.0
 10
-250.7833738780023
 20
170.7970785304566
 30
0.0
  0
SPLINE
  5
287
330
241
100
AcDbEntity
  8
0
  6
Continuous
 62
     7
370
    25
100
AcDbSpline
210
0.0
220
0.0
230
1.0
 70
     8
 71
     3
 72
    33
 73
    29
 74
     0
 42
0.000000001
 43
0.00000001
 40
0.0
 40
0.0
 40
0.0
 40
0.0
 40
0.0405071054937105
 40
0.080849632144111
 40
0.1210276883608445
 40
0.1610413838929635
 40
0.2008908298501178
 40
0.2405761387241392
 40
0.280097424411037
 40
0.3194548022334223
 40
0.3586483889633523
 40
0.397678302845599
 40
0.4365446636213875
 40
0.4752475925525756
 40
0.5137872124462978
 40
0.5521636476800885
 40
0.5903770242274946
 40
0.6284274696841868
 40
0.6663151132945606
 40
0.7040400859788751
 40
0.7416025203609212
 40
0.7790025507962135
 40
0.816240313400755
 40
0.8533159460803572
 40
0.8902295885605419
 40
0.9269813824170254
 40
0.963571471106838
 40
1.0
 40
1.0
 40
1.0
 40
1.0
 10
-240.7970785304564
 20
180.7833738780022
 30
0.0
 10
-240.9029820662261
 20
180.7823747291504
 30
0.0
 10
-241.1143588556902
 20
180.7803804909507
 30
0.0
 10
-241.4304572183405
 20
180.7646824779294
 30
0.0
 10
-241.7446345919914
 20
180.7398388198569
 30
0.0
 10
-242.0565894529128
 20
180.7050834039497
 30
0.0
 10
-242.3660289260234
 20
180.6608117185797
 30
0.0
 10
-242.67266856681
 20
180.6071202337474
 30
0.0
 10
-242.9762326332732
 20
180.5441948519263
 30
0.0
 10
-243.2764542048598
 20
180.4722069405217
 30
0.0
 10
-243.5730753200591
 20
180.3913404971803
 30
0.0
 10
-243.8658470873885
 20
180.3017843973857
 30
0.0
 10
-244.1545297823214
 20
180.2037339433676
 30
0.0
 10
-244.4388929272527
 20
180.0973899400055
 30
0.0
 10
-244.7187153559841
 20
179.9829584339181
 30
0.0
 10
-244.9937852621594
 20
179.8606502806065
 30
0.0
 10
-245.263900234962
 20
179.7306807652734
 30
0.0
 10
-245.5288672720691
 20
179.5932692081598
 30
0.0
 10
-245.788502809003
 20
179.4486386092863
 30
0.0
 10
-246.0426326219154
 20
179.2970151853971
 30
0.0
 10
-246.2910921360911
 20
179.1386283324209
 30
0.0
 10
-246.5337251686919
 20
178.9737090416049
 30
0.0
 10
-246.7703884180106
 20
178.8024940813822
 30
0.0
 10
-247.0009345889757
 20
178.6252088350698
 30
0.0
 10
-247.2252746746576
 20
178.4421293119537
 30
0.0
 10
-247.4431467046448
 20
178.2533506498278
 30
0.0
 10
-247.6549727292661
 20
178.0596438502261
 30
0.0
 10
-247.791079321596
 20
177.9257705775744
 30
0.0
 10
-247.8589820441532
 20
177.8589820441531
 30
0.0
  0
SPLINE
  5
28A
330
241
100
AcDbEntity
  8
0
  6
Continuous
 62
     7
370
    25
100
AcDbSpline
210
0.0
220
0.0
230
1.0
 70
     8
 71
     3
 72
    30
 73
    26
 74
     0
 42
0.000000001
 43
0.00000001
 40
0.0
 40
0.0
 40
0.0
 40
0.0
 40
0.0411920285229683
 40
0.0825905321787902
 40
0.1241957203657722
 40
0.1660077993715814
 40
0.2080269724314283
 40
0.2502534397849336
 40
0.2926873987317822
 40
0.3353290436861721
 40
0.3781785662300221
 40
0.4212361551650843
 40
0.4645019965639086
 40
0.5079762738196714
 40
0.5516591676949745
 40
0.5955508563695789
 40
0.639651515487107
 40
0.6839613182007439
 40
0.7284804352179918
 40
0.7732090348444305
 40
0.818147283026585
 40
0.8632953433938573
 40
0.9086533772996077
 40
0.9542215438613216
 40
1.0
 40
1.0
 40
1.0
 40
1.0
 10
247.858982044153
 20
177.858982044153
 30
0.0
 10
247.7821178323788
 20
177.9344215388232
 30
0.0
 10
247.6280041268012
 20
178.0856786687952
 30
0.0
 10
247.3870523273305
 20
178.3034464195323
 30
0.0
 10
247.1384105640784
 20
178.5148373699983
 30
0.0
 10
246.8815608038577
 20
178.7188255281697
 30
0.0
 10
246.6168640518809
 20
178.9152507650656
 30
0.0
 10
246.3444629367979
 20
179.1037218713991
 30
0.0
 10
246.0645781378406
 20
179.2839134597609
 30
0.0
 10
245.7774285158239
 20
179.4554866196637
 30
0.0
 10
245.4832527917492
 20
179.6181111574165
 30
0.0
 10
245.1823037824097
 20
179.7714604342899
 30
0.0
 10
244.8748500102689
 20
179.9152136182754
 30
0.0
 10
244.5611752881605
 20
180.0490559557794
 30
0.0
 10
244.2415788144682
 20
180.1726795790726
 30
0.0
 10
243.9163750930253
 20
180.2857842387749
 30
0.0
 10
243.5858938613969
 20
180.3880778633011
 30
0.0
 10
243.2504799769253
 20
180.4792779534419
 30
0.0
 10
242.9104932718945
 20
180.5591098431455
 30
0.0
 10
242.5663083773574
 20
180.6273167850531
 30
0.0
 10
242.2183145000872
 20
180.6836256208831
 30
0.0
 10
241.8669152100916
 20
180.7278794027448
 30
0.0
 10
241.5125280177175
 20
180.7595425916419
 30
0.0
 10
241.1555845671027
 20
180.7795641979252
 30
0.0
 10
240.9167638062135
 20
180.7821020371852
 30
0.0
 10
240.7970785304564
 20
180.7833738780022
 30
0.0
  0
SPLINE
  5
28B
330
241
100
AcDbEntity
  8
0
  6
Continuous
 62
     7
370
    25
100
AcDbSpline
210
0.0
220
0.0
230
1.0
 70
     8
 71
     3
 72
    33
 73
    29
 74
     0
 42
0.000000001
 43
0.00000001
 40
0.0
 40
0.0
 40
0.0
 40
0.0
 40
0.0405071054937077
 40
0.0808496321441053
 40
0.1210276883608394
 40
0.161041383892956
 40
0.2008908298501074
 40
0.2405761387241255
 40
0.2800974244110246
 40
0.3194548022334124
 40
0.3586483889633406
 40
0.3976783028455859
 40
0.4365446636213762
 40
0.4752475925525642
 40
0.5137872124462857
 40
0.5521636476800756
 40
0.5903770242274792
 40
0.6284274696841705
 40
0.6663151132945466
 40
0.70404008597886
 40
0.7416025203609117
 40
0.7790025507962046
 40
0.8162403134007467
 40
0.8533159460803496
 40
0.8902295885605349
 40
0.9269813824170241
 40
0.9635714711068348
 40
1.0
 40
1.0
 40
1.0
 40
1.0
 10
250.7833738780022
 20
170.7970785304564
 30
0.0
 10
250.7823747291503
 20
170.9029820662261
 30
0.0
 10
250.7803804909506
 20
171.1143588556902
 30
0.0
 10
250.7646824779292
 20
171.4304572183404
 30
0.0
 10
250.7398388198569
 20
171.7446345919914
 30
0.0
 10
250.7050834039495
 20
172.0565894529127
 30
0.0
 10
250.6608117185796
 20
172.3660289260234
 30
0.0
 10
250.6071202337473
 20
172.6726685668099
 30
0.0
 10
250.544194851926
 20
172.9762326332729
 30
0.0
 10
250.4722069405217
 20
173.2764542048598
 30
0.0
 10
250.3913404971802
 20
173.5730753200589
 30
0.0
 10
250.3017843973857
 20
173.8658470873884
 30
0.0
 10
250.2037339433676
 20
174.1545297823213
 30
0.0
 10
250.0973899400053
 20
174.4388929272525
 30
0.0
 10
249.982958433918
 20
174.7187153559839
 30
0.0
 10
249.8606502806066
 20
174.9937852621593
 30
0.0
 10
249.7306807652733
 20
175.2639002349618
 30
0.0
 10
249.5932692081598
 20
175.528867272069
 30
0.0
 10
249.4486386092862
 20
175.7885028090028
 30
0.0
 10
249.297015185397
 20
176.0426326219153
 30
0.0
 10
249.1386283324208
 20
176.2910921360908
 30
0.0
 10
248.9737090416048
 20
176.5337251686918
 30
0.0
 10
248.8024940813821
 20
176.7703884180104
 30
0.0
 10
248.6252088350697
 20
177.0009345889756
 30
0.0
 10
248.4421293119535
 20
177.2252746746574
 30
0.0
 10
248.2533506498278
 20
177.4431467046448
 30
0.0
 10
248.059643850226
 20
177.654972729266
 30
0.0
 10
247.9257705775743
 20
177.7910793215959
 30
0.0
 10
247.858982044153
 20
177.858982044153
 30
0.0
  0
SPLINE
  5
292
330
241
100
AcDbEntity
  8
0
  6
Continuous
 62
     7
370
    25
100
AcDbSpline
210
0.0
220
0.0
230
1.0
 70
     8
 71
     3
 72
    25
 73
    21
 74
     0
 42
0.000000001
 43
0.00000001
 40
0.0
 40
0.0
 40
0.0
 40
0.0
 40
0.0431910276106999
 40
0.086835026243043
 40
0.1309321352795657
 40
0.1754824896241882
 40
0.220486219879068
 40
0.2659434525127781
 40
0.3118543100203394
 40
0.3582189110754835
 40
0.4050373706756163
 40
0.4523098002800266
 40
0.5000363079414579
 40
0.5519196212883325
 40
0.6103189588524655
 40
0.675232919758403
 40
0.746659897495426
 40
0.8245980917128898
 40
0.909045515485891
 40
1.0
 40
1.0
 40
1.0
 40
1.0
 10
-250.7833738780024
 20
-178.0
 30
0.0
 10
-250.7824869882327
 20
-178.0452280539654
 30
0.0
 10
-250.7807039073319
 20
-178.1361584964733
 30
0.0
 10
-250.7661888143886
 20
-178.2726319218187
 30
0.0
 10
-250.7427403965826
 20
-178.4092232810899
 30
0.0
 10
-250.7093243532329
 20
-178.5452271985457
 30
0.0
 10
-250.6660470808413
 20
-178.6799067129863
 30
0.0
 10
-250.6127741709648
 20
-178.812496751329
 30
0.0
 10
-250.5495114906063
 20
-178.9422079790491
 30
0.0
 10
-250.4763063636982
 20
-179.0682311953124
 30
0.0
 10
-250.393279264416
 20
-179.1897421178188
 30
0.0
 10
-250.300618588866
 20
-179.305907010866
 30
0.0
 10
-250.1959504399347
 20
-179.4187315332986
 30
0.0
 10
-250.0741930491527
 20
-179.5309474260819
 30
0.0
 10
-249.9288944496604
 20
-179.6432641251577
 30
0.0
 10
-249.7560232146744
 20
-179.7519081173107
 30
0.0
 10
-249.5540520431703
 20
-179.8506191575432
 30
0.0
 10
-249.3225075859889
 20
-179.931200703465
 30
0.0
 10
-249.0623844047186
 20
-179.9885344229168
 30
0.0
 10
-248.8786482150552
 20
-179.9960847733283
 30
0.0
 10
-248.7833719972499
 20
-180.0
 30
0.0
  0
SPLINE
  5
294
330
241
100
AcDbEntity
  8
0
  6
Continuous
 62
     7
370
    25
100
AcDbSpline
210
0.0
220
0.0
230
1.0
 70
     8
 71
     3
 72
    27
 73
    23
 74
     0
 42
0.000000001
 43
0.00000001
 40
0.0
 40
0.0
 40
0.0
 40
0.0
 40
0.0463201251548534
 40
0.0910109910121478
 40
0.1340725289053698
 40
0.1755046733542181
 40
0.2153073621502308
 40
0.2534805364607203
 40
0.2900241409558764
 40
0.3249381239654339
 40
0.3582224376737554
 40
0.3898770383651006
 40
0.4199018867353706
 40
0.4482969482933588
 40
0.475062193884198
 40
0.5001976003823309
 40
0.5873011718396904
 40
0.6728826212142526
 40
0.7569425558242615
 40
0.8394816254801329
 40
0.9205005254984011
 40
0.9999999999999999
 40
0.9999999999999999
 40
0.9999999999999999
 40
0.9999999999999999
 10
248.78337199725
 20
-180.0
 30
0.0
 10
248.831859883536
 20
-179.9989843125659
 30
0.0
 10
248.9271301482045
 20
-179.9969886633828
 30
0.0
 10
249.0667450597646
 20
-179.981306483534
 30
0.0
 10
249.1999414414733
 20
-179.9576649224722
 30
0.0
 10
249.3262929452899
 20
-179.926299011657
 30
0.0
 10
249.4455054447514
 20
-179.8885376827074
 30
0.0
 10
249.5574031052489
 20
-179.845385969599
 30
0.0
 10
249.6619148794424
 20
-179.7978720543184
 30
0.0
 10
249.7590609973442
 20
-179.7469508376541
 30
0.0
 10
249.8489399099449
 20
-179.6935218353669
 30
0.0
 10
249.9317156158083
 20
-179.6384207039079
 30
0.0
 10
250.0076062221077
 20
-179.5824186773482
 30
0.0
 10
250.0768713933608
 20
-179.5262238690665
 30
0.0
 10
250.1398071327682
 20
-179.4704759617534
 30
0.0
 10
250.2447192574762
 20
-179.3696295770607
 30
0.0
 10
250.3812835710684
 20
-179.212990274971
 30
0.0
 10
250.5292456298551
 20
-178.9877087523965
 30
0.0
 10
250.6440744446797
 20
-178.7490645172048
 30
0.0
 10
250.7246293243176
 20
-178.5020687938364
 30
0.0
 10
250.7742805027193
 20
-178.2514428533962
 30
0.0
 10
250.780361941351
 20
-178.0832837007484
 30
0.0
 10
250.7833738780024
 20
-178.0
 30
0.0
  0
SPLINE
  5
296
330
241
100
AcDbEntity
  8
0
  6
Continuous
 62
     7
370
    25
100
AcDbSpline
210
0.0
220
0.0
230
1.0
 70
     8
 71
     3
 72
    15
 73
    11
 74
     0
 42
0.000000001
 43
0.00000001
 40
0.0
 40
0.0
 40
0.0
 40
0.0
 40
0.0828408473597802
 40
0.2238429149995227
 40
0.3651345242200215
 40
0.5064983715223222
 40
0.6476965988751608
 40
0.7886457596976225
 40
0.9297824024937319
 40
1.0
 40
1.0
 40
1.0
 40
1.0
 10
9.250439397994999
 20
-58.47949741315526
 30
0.0
 10
8.914789857879658
 20
-58.51984470245073
 30
0.0
 10
8.007836659400612
 20
-58.62886646087145
 30
0.0
 10
5.869579572410097
 20
-58.75853071004386
 30
0.0
 10
3.090343530792752
 20
-58.85858523706831
 30
0.0
 10
0.0707058982759157
 20
-58.89279154654141
 30
0.0
 10
-2.952349908486857
 20
-58.86168910115368
 30
0.0
 10
-5.740286845965934
 20
-58.76438776673587
 30
0.0
 10
-7.833824106973598
 20
-58.6423094855255
 30
0.0
 10
-8.709857721107348
 20
-58.54058882803438
 30
0.0
 10
-9.000899791667182
 20
-58.50679447323191
 30
0.0
  0
SPLINE
  5
297
330
241
100
AcDbEntity
  8
0
  6
Continuous
 62
     7
370
    25
100
AcDbSpline
210
0.0
220
0.0
230
1.0
 70
     8
 71
     3
 72
    53
 73
    49
 74
     0
 42
0.000000001
 43
0.00000001
 40
0.0
 40
0.0
 40
0.0
 40
0.0
 40
0.0312500000000001
 40
0.0312500000000001
 40
0.0625000000000001
 40
0.0625000000000001
 40
0.0937500000000002
 40
0.0937500000000002
 40
0.1250000000000003
 40
0.1250000000000003
 40
0.1875000000000003
 40
0.1875000000000003
 40
0.2187500000000002
 40
0.2187500000000002
 40
0.2500000000000002
 40
0.2500000000000002
 40
0.3125000000000002
 40
0.3125000000000002
 40
0.3437500000000002
 40
0.3437500000000002
 40
0.3750000000000002
 40
0.4062500000000001
 40
0.4062500000000001
 40
0.4375000000000001
 40
0.4375000000000001
 40
0.5000000000000001
 40
0.5000000000000001
 40
0.5312500000000001
 40
0.5312500000000001
 40
0.5625
 40
0.5625
 40
0.625
 40
0.625
 40
0.6562500000000001
 40
0.6562500000000001
 40
0.6875000000000002
 40
0.6875000000000002
 40
0.7500000000000001
 40
0.7500000000000001
 40
0.8125
 40
0.8125
 40
0.84375
 40
0.84375
 40
0.8749999999999999
 40
0.8749999999999999
 40
0.9375
 40
0.9375
 40
1.0
 40
1.0
 40
1.0
 40
1.0
 10
-11.49973989198942
 20
-57.9300326302544
 30
0.0
 10
-11.5022839476361
 20
-57.89851198844421
 30
0.0
 10
-11.48606198448606
 20
-57.86698953961101
 30
0.0
 10
-11.41732577764692
 20
-57.8046927592622
 30
0.0
 10
-11.36482959846126
 20
-57.77380052615441
 30
0.0
 10
-11.22387166717516
 20
-57.71252426807809
 30
0.0
 10
-11.13541101326793
 20
-57.68214022759184
 30
0.0
 10
-10.92177307881695
 20
-57.6218909674525
 30
0.0
 10
-10.79598850974059
 20
-57.59194224670322
 30
0.0
 10
-10.37095589876941
 20
-57.50475922768692
 30
0.0
 10
-10.0228277035305
 20
-57.4495616774772
 30
0.0
 10
-9.404208565585275
 20
-57.3711189587801
 30
0.0
 10
-9.181012968037622
 20
-57.34562016811579
 30
0.0
 10
-8.70452045525851
 20
-57.2965077038881
 30
0.0
 10
-8.453552730236357
 20
-57.27311647154299
 30
0.0
 10
-7.663636628137002
 20
-57.2063323243052
 30
0.0
 10
-7.088027243087417
 20
-57.16629673135711
 30
0.0
 10
-6.149198435512998
 20
-57.11314963125893
 30
0.0
 10
-5.823782847245842
 20
-57.09663051785258
 30
0.0
 10
-5.161914779463574
 20
-57.06664438571701
 30
0.0
 10
-4.485558488722218
 20
-57.03950423871568
 30
0.0
 10
-3.780630433394032
 20
-57.01797656865542
 30
0.0
 10
-3.061203853500183
 20
-56.999296907319
 30
0.0
 10
-2.692183822568851
 20
-56.99134949685802
 30
0.0
 10
-1.579129423505052
 20
-56.9722344580138
 30
0.0
 10
-0.8323861875287124
 20
-56.96571888716161
 30
0.0
 10
0.2946150843593099
 20
-56.9650569452558
 30
0.0
 10
0.6714381653213425
 20
-56.96636578789312
 30
0.0
 10
1.427469503982456
 20
-56.97213929871372
 30
0.0
 10
1.803568080002906
 20
-56.97659335237319
 30
0.0
 10
2.912336893444599
 20
-56.99437406928011
 30
0.0
 10
3.631477228673897
 20
-57.01211837597571
 30
0.0
 10
4.679918541098689
 20
-57.04763256800009
 30
0.0
 10
5.026041516528993
 20
-57.06105021657108
 30
0.0
 10
5.694605358374005
 20
-57.09040284093789
 30
0.0
 10
6.018071817495261
 20
-57.10635389422429
 30
0.0
 10
6.95679599281678
 20
-57.15794038352689
 30
0.0
 10
7.540688306554846
 20
-57.1972726351264
 30
0.0
 10
8.621305914653677
 20
-57.28621089126027
 30
0.0
 10
9.100607815743352
 20
-57.33439458875297
 30
0.0
 10
9.730438282248336
 20
-57.41185898620321
 30
0.0
 10
9.925512103724195
 20
-57.43855956608439
 30
0.0
 10
10.28529669950733
 20
-57.49375582866681
 30
0.0
 10
10.45039947335577
 20
-57.52236563438941
 30
0.0
 10
10.88924737104773
 20
-57.60910551929471
 30
0.0
 10
11.1109034853318
 20
-57.66863248946643
 30
0.0
 10
11.41414676602742
 20
-57.7910452412978
 30
0.0
 10
11.49467665482622
 20
-57.85431195773739
 30
0.0
 10
11.49974069080984
 20
-57.917151521318
 30
0.0
  0
SPLINE
  5
29B
330
241
100
AcDbEntity
  8
0
  6
Continuous
 62
     7
370
    25
100
AcDbSpline
210
0.0
220
0.0
230
1.0
 70
     8
 71
     3
 72
    29
 73
    25
 74
     0
 42
0.000000001
 43
0.00000001
 40
0.0
 40
0.0
 40
0.0
 40
0.0
 40
0.0163958388802398
 40
0.0336906998783865
 40
0.0518346213435269
 40
0.0707882620459061
 40
0.090530492515131
 40
0.1110512554022805
 40
0.1323419435682909
 40
0.1544096524232471
 40
0.1772720777163679
 40
0.2009394179747184
 40
0.2254313305033337
 40
0.2507738483190322
 40
0.3806293800226832
 40
0.5001558210827536
 40
0.6409135311881937
 40
0.7493683082560464
 40
0.8045015136854294
 40
0.874763897464704
 40
0.905240328404227
 40
0.9372360344771632
 40
0.9522287033228098
 40
1.0
 40
1.0
 40
1.0
 40
1.0
 10
149.2085893503335
 20
-36.05226066864036
 30
0.0
 10
149.1951279915758
 20
-36.18233838257538
 30
0.0
 10
149.1674671563373
 20
-36.44962627513532
 30
0.0
 10
149.112418491711
 20
-36.85941476721644
 30
0.0
 10
149.0443120182695
 20
-37.28787439668159
 30
0.0
 10
148.9606770454425
 20
-37.73346162231913
 30
0.0
 10
148.8604099330376
 20
-38.19500830973086
 30
0.0
 10
148.7421217447097
 20
-38.67149327195421
 30
0.0
 10
148.604192511164
 20
-39.16195725505812
 30
0.0
 10
148.4451702323773
 20
-39.66560468845508
 30
0.0
 10
148.2637418767628
 20
-40.18175743981566
 30
0.0
 10
148.0579243206669
 20
-40.70947923128188
 30
0.0
 10
147.8258399029527
 20
-41.24783953601114
 30
0.0
 10
147.2110515125856
 20
-42.5421380030771
 30
0.0
 10
146.0451730490888
 20
-44.41513358098258
 30
0.0
 10
143.9298734176587
 20
-46.71599309461847
 30
0.0
 10
141.5393558520902
 20
-48.46573129527751
 30
0.0
 10
139.3437664144781
 20
-49.52367594744137
 30
0.0
 10
137.5781921692312
 20
-50.13094830268224
 30
0.0
 10
136.3677173592713
 20
-50.42749251160986
 30
0.0
 10
135.3228692689255
 20
-50.60296235021217
 30
0.0
 10
134.708922563212
 20
-50.67786283851041
 30
0.0
 10
133.9555788148027
 20
-50.74494087168986
 30
0.0
 10
133.454489080517
 20
-50.75583611328481
 30
0.0
 10
133.0730965703552
 20
-50.76412876678855
 30
0.0
  0
SPLINE
  5
29C
330
241
100
AcDbEntity
  8
0
  6
Continuous
 62
     7
370
    25
100
AcDbSpline
210
0.0
220
0.0
230
1.0
 70
     8
 71
     3
 72
     8
 73
     4
 74
     0
 42
0.000000001
 43
0.00000001
 40
0.0
 40
0.0
 40
0.0
 40
0.0
 40
1.0
 40
1.0
 40
1.0
 40
1.0
 10
149.2797629750785
 20
-34.35281345914724
 30
0.0
 10
149.2865808099856
 20
-34.97001766973913
 30
0.0
 10
149.2588421610044
 20
-35.52788460270085
 30
0.0
 10
149.2085893503335
 20
-36.05226066864036
 30
0.0
  0
SPLINE
  5
29F
330
241
100
AcDbEntity
  8
0
  6
Continuous
 62
     7
370
    25
100
AcDbSpline
210
0.0
220
0.0
230
1.0
 70
     8
 71
     3
 72
    26
 73
    22
 74
     0
 42
0.000000001
 43
0.00000001
 40
0.0
 40
0.0
 40
0.0
 40
0.0
 40
0.0141282875310037
 40
0.0273916074820931
 40
0.0398780004031669
 40
0.051665848481481
 40
0.0628245301689705
 40
0.091513352213725
 40
0.1254902730458476
 40
0.1864116249378661
 40
0.2508013942549804
 40
0.3828582970257607
 40
0.5002992646013895
 40
0.6184228081448894
 40
0.7494475470062435
 40
0.8142377202524795
 40
0.8747323148744475
 40
0.9093269261253024
 40
0.9372395151196545
 40
0.9654175836295702
 40
1.0
 40
1.0
 40
1.0
 40
1.0
 10
132.9734152296254
 20
113.8936609374092
 30
0.0
 10
133.0932979243156
 20
113.8918896548756
 30
0.0
 10
133.3257238081774
 20
113.8884555319648
 30
0.0
 10
133.6638689388005
 20
113.8741458239762
 30
0.0
 10
133.9818366884634
 20
113.8545014137354
 30
0.0
 10
134.2815599403753
 20
113.8298996039905
 30
0.0
 10
134.7176071744445
 20
113.7859714314005
 30
0.0
 10
135.339067562957
 20
113.7039694037506
 30
0.0
 10
136.3719412383792
 20
113.5180816780445
 30
0.0
 10
137.6835381763417
 20
113.1799097707271
 30
0.0
 10
139.7399945280224
 20
112.433546391822
 30
0.0
 10
142.099064150861
 20
111.1503909207217
 30
0.0
 10
144.5165349821863
 20
109.14909713394
 30
0.0
 10
146.5204037819414
 20
106.7451265516328
 30
0.0
 10
147.8093702942823
 20
104.3898588495314
 30
0.0
 10
148.5572530651923
 20
102.3442761415496
 30
0.0
 10
148.8992439165642
 20
101.0291283930008
 30
0.0
 10
149.0862804161558
 20
100.0019010199937
 30
0.0
 10
149.1876214904899
 20
99.23903687673692
 30
0.0
 10
149.2583619261448
 20
98.47275810718733
 30
0.0
 10
149.2721599554901
 20
97.94048228942637
 30
0.0
 10
149.2797629750784
 20
97.6471865319316
 30
0.0
  0
SPLINE
  5
2A5
330
241
100
AcDbEntity
  8
0
  6
Continuous
 62
     7
370
    25
100
AcDbSpline
210
0.0
220
0.0
230
1.0
 70
     8
 71
     3
 72
    26
 73
    22
 74
     0
 42
0.000000001
 43
0.00000001
 40
0.0
 40
0.0
 40
0.0
 40
0.0
 40
0.0147343007832881
 40
0.0282794261137029
 40
0.0407546657316972
 40
0.0522609549609423
 40
0.0628829574510049
 40
0.0909539121323031
 40
0.1257181481233408
 40
0.18611453103559
 40
0.2508124223122102
 40
0.382015448321405
 40
0.5003186328001477
 40
0.6178348818013359
 40
0.75002201561368
 40
0.8143114917785176
 40
0.8751410966819594
 40
0.9088660740553456
 40
0.9373321682703001
 40
0.9663499528635812
 40
1.0
 40
1.0
 40
1.0
 40
1.0
 10
-176.2797629750785
 20
97.64718653193162
 30
0.0
 10
-176.2776159068783
 20
97.77214453463726
 30
0.0
 10
-176.2734950559862
 20
98.01197543376196
 30
0.0
 10
-176.2576283998229
 20
98.35731986106356
 30
0.0
 10
-176.2367698672362
 20
98.67494757491485
 30
0.0
 10
-176.2116897167389
 20
98.96741062102696
 30
0.0
 10
-176.1677750606246
 20
99.39098816114439
 30
0.0
 10
-176.0851153778794
 20
100.0089272781466
 30
0.0
 10
-175.8973389258395
 20
101.0379613371447
 30
0.0
 10
-175.5545010757104
 20
102.3527227946941
 30
0.0
 10
-174.8057625473616
 20
104.3978506320511
 30
0.0
 10
-173.5144172700734
 20
106.7544822202568
 30
0.0
 10
-171.5061814070326
 20
109.1596886755204
 30
0.0
 10
-169.0841383431149
 20
111.1606340411478
 30
0.0
 10
-166.7227643581115
 20
112.4414848342053
 30
0.0
 10
-164.6659494482908
 20
113.1853048411029
 30
0.0
 10
-163.3576697793121
 20
113.5210780172377
 30
0.0
 10
-162.3293853326961
 20
113.7054964381083
 30
0.0
 10
-161.561581510155
 20
113.8060296793977
 30
0.0
 10
-160.790745714822
 20
113.874605536658
 30
0.0
 10
-160.2589614820625
 20
113.8870036569434
 30
0.0
 10
-159.9734152296256
 20
113.8936609374092
 30
0.0
  0
SPLINE
  5
2A8
330
241
100
AcDbEntity
  8
0
  6
Continuous
 62
     7
370
    25
100
AcDbSpline
210
0.0
220
0.0
230
1.0
 70
     8
 71
     3
 72
     8
 73
     4
 74
     0
 42
0.000000001
 43
0.00000001
 40
0.0
 40
0.0
 40
0.0
 40
0.0
 40
1.0
 40
1.0
 40
1.0
 40
1.0
 10
-176.2085893507137
 20
-36.05226066469571
 30
0.0
 10
-176.258842161145
 20
-35.52788459990309
 30
0.0
 10
-176.2865808099692
 20
-34.97001766819147
 30
0.0
 10
-176.2797629750785
 20
-34.35281345914718
 30
0.0
  0
SPLINE
  5
2A9
330
241
100
AcDbEntity
  8
0
  6
Continuous
 62
     7
370
    25
100
AcDbSpline
210
0.0
220
0.0
230
1.0
 70
     8
 71
     3
 72
    29
 73
    25
 74
     0
 42
0.000000001
 43
0.00000001
 40
0.0
 40
0.0
 40
0.0
 40
0.0
 40
0.0174322830930654
 40
0.0316608666821218
 40
0.0430037979428031
 40
0.051685170921489
 40
0.0578574228988089
 40
0.0616183371020576
 40
0.0630230335239907
 40
0.095160285133162
 40
0.1258906336956262
 40
0.1773209052469501
 40
0.2505812814103617
 40
0.3591931623445009
 40
0.5003386402251275
 40
0.6194783432685715
 40
0.7498570058283142
 40
0.7926509773103213
 40
0.8330124627999982
 40
0.8710335692045058
 40
0.9067824331436477
 40
0.9402589050414591
 40
0.9713924188937196
 40
1.0
 40
1.0
 40
1.0
 40
1.0
 10
-160.0730965703557
 20
-50.76412876678855
 30
0.0
 10
-160.2122347241693
 20
-50.76271042666934
 30
0.0
 10
-160.4649402656507
 20
-50.76013440853193
 30
0.0
 10
-160.8079128193615
 20
-50.74615172283166
 30
0.0
 10
-161.0808098919883
 20
-50.73007730140009
 30
0.0
 10
-161.2892913248701
 20
-50.71446216881562
 30
0.0
 10
-161.4372891378929
 20
-50.7016786746066
 30
0.0
 10
-161.5273681076179
 20
-50.69320319948232
 30
0.0
 10
-161.8236234710942
 20
-50.66415427233376
 30
0.0
 10
-162.3329119803707
 20
-50.60133867127816
 30
0.0
 10
-163.2326727987565
 20
-50.44986619610019
 30
0.0
 10
-164.442099859701
 20
-50.17008245449731
 30
0.0
 10
-166.2130362479415
 20
-49.58674192427918
 30
0.0
 10
-168.5429425568009
 20
-48.46402358827514
 30
0.0
 10
-170.9339441839851
 20
-46.7124134197372
 30
0.0
 10
-173.0509938235002
 20
-44.40760237967492
 30
0.0
 10
-174.2903648558312
 20
-42.41426431652449
 30
0.0
 10
-175.0000815676615
 20
-40.8658220950124
 30
0.0
 10
-175.3487788339987
 20
-39.96401058107741
 30
0.0
 10
-175.6286592041259
 20
-39.09755271789097
 30
0.0
 10
-175.8475710033343
 20
-38.2703721221385
 30
0.0
 10
-176.0122530459609
 20
-37.48688039019966
 30
0.0
 10
-176.1325177070993
 20
-36.75286264276985
 30
0.0
 10
-176.1839571115957
 20
-36.27911780397272
 30
0.0
 10
-176.2085893507137
 20
-36.05226066469571
 30
0.0
  0
SPLINE
  5
2B5
330
241
100
AcDbEntity
  8
0
  6
Continuous
 62
     7
370
    25
100
AcDbSpline
210
0.0
220
0.0
230
1.0
 70
     8
 71
     3
 72
    26
 73
    22
 74
     0
 42
0.000000001
 43
0.00000001
 40
0.0
 40
0.0
 40
0.0
 40
0.0
 40
0.0625000000000025
 40
0.0625000000000025
 40
0.1250000000000049
 40
0.1250000000000049
 40
0.2500000000000013
 40
0.2500000000000013
 40
0.3749999999999977
 40
0.3749999999999977
 40
0.4374999999999959
 40
0.4374999999999959
 40
0.4999999999999941
 40
0.4999999999999941
 40
0.6249999999999956
 40
0.6249999999999956
 40
0.749999999999997
 40
0.749999999999997
 40
0.8749999999999986
 40
0.8749999999999986
 40
1.0
 40
1.0
 40
1.0
 40
1.0
 10
132.499999998649
 20
-40.79867118433975
 30
0.0
 10
132.7094945599586
 20
-40.7986711843397
 30
0.0
 10
132.9191557893207
 20
-40.80017610820515
 30
0.0
 10
133.3377611828029
 20
-40.79671123819029
 30
0.0
 10
133.5458519624741
 20
-40.784035836626
 30
0.0
 10
134.1664488796583
 20
-40.71282252766699
 30
0.0
 10
134.5783096620935
 20
-40.62726684602749
 30
0.0
 10
135.3829610297341
 20
-40.37591217019354
 30
0.0
 10
135.7680185356234
 20
-40.21571918734779
 30
0.0
 10
136.3194007474985
 20
-39.92305304750701
 30
0.0
 10
136.4988814368335
 20
-39.81687607832012
 30
0.0
 10
136.8486623831771
 20
-39.58617228602746
 30
0.0
 10
137.0199532367731
 20
-39.4607594071435
 30
0.0
 10
137.5096293497321
 20
-39.06247478096245
 30
0.0
 10
137.8044594249097
 20
-38.76799926788174
 30
0.0
 10
138.3320702014458
 20
-38.12223476275516
 30
0.0
 10
138.5667709783861
 20
-37.76674379603454
 30
0.0
 10
138.9596733672054
 20
-37.02585458505454
 30
0.0
 10
139.1191478287197
 20
-36.6396641988931
 30
0.0
 10
139.3671110980731
 20
-35.83705564693203
 30
0.0
 10
139.4525173170856
 20
-35.42054219801282
 30
0.0
 10
139.4980886038668
 20
-35.0000000001126
 30
0.0
  0
SPLINE
  5
2B8
330
241
100
AcDbEntity
  8
0
  6
Continuous
 62
     7
370
    25
100
AcDbSpline
210
0.0
220
0.0
230
1.0
 70
     8
 71
     3
 72
    28
 73
    24
 74
     0
 42
0.000000001
 43
0.00000001
 40
0.0
 40
0.0
 40
0.0
 40
0.0
 40
0.1249999999999993
 40
0.1249999999999993
 40
0.1874999999999989
 40
0.1874999999999989
 40
0.2499999999999986
 40
0.2499999999999986
 40
0.3749999999999997
 40
0.3749999999999997
 40
0.5000000000000008
 40
0.5000000000000008
 40
0.6250000000000019
 40
0.6250000000000019
 40
0.687500000000003
 40
0.687500000000003
 40
0.7500000000000041
 40
0.7500000000000041
 40
0.8750000000000061
 40
0.8750000000000061
 40
0.9375000000000031
 40
0.9375000000000031
 40
1.0
 40
1.0
 40
1.0
 40
1.0
 10
-166.4980886040345
 20
-34.9999999985646
 30
0.0
 10
-166.452566384969
 20
-35.42008938939491
 30
0.0
 10
-166.3687497436495
 20
-35.8293200092277
 30
0.0
 10
-166.1852751315631
 20
-36.42679044122062
 30
0.0
 10
-166.1149324566776
 20
-36.62334290222075
 30
0.0
 10
-165.9552766631815
 20
-37.01106856290662
 30
0.0
 10
-165.8653361351216
 20
-37.20314614164128
 30
0.0
 10
-165.5710365411836
 20
-37.75986139097425
 30
0.0
 10
-165.3422890374901
 20
-38.10781594913308
 30
0.0
 10
-164.8165135865157
 20
-38.75507807701938
 30
0.0
 10
-164.515364437965
 20
-39.05689405663031
 30
0.0
 10
-163.8672570123921
 20
-39.58585025396309
 30
0.0
 10
-163.5194137197936
 20
-39.81575683954399
 30
0.0
 10
-162.9642583037072
 20
-40.11209298070877
 30
0.0
 10
-162.7726294641077
 20
-40.20291112550743
 30
0.0
 10
-162.3850719180321
 20
-40.36480191504008
 30
0.0
 10
-162.1885957755071
 20
-40.43631618311408
 30
0.0
 10
-161.5914206588216
 20
-40.62377333711842
 30
0.0
 10
-161.1820922216814
 20
-40.71038719919114
 30
0.0
 10
-160.5526022726776
 20
-40.78357036317401
 30
0.0
 10
-160.3424039654901
 20
-40.79656291462398
 30
0.0
 10
-159.921287573796
 20
-40.80026660444246
 30
0.0
 10
-159.7106180177245
 20
-40.79867118433974
 30
0.0
 10
-159.5
 20
-40.79867118433975
 30
0.0
  0
SPLINE
  5
2BC
330
241
100
AcDbEntity
  8
0
  6
Continuous
 62
     7
370
    25
100
AcDbSpline
210
0.0
220
0.0
230
1.0
 70
     8
 71
     3
 72
    18
 73
    14
 74
     0
 42
0.000000001
 43
0.00000001
 40
0.0
 40
0.0
 40
0.0
 40
0.0
 40
0.5
 40
0.75
 40
0.875
 40
0.9375
 40
0.96875
 40
0.984375
 40
0.9921875
 40
0.9921875
 40
0.99609375
 40
0.99609375
 40
1.0
 40
1.0
 40
1.0
 40
1.0
 10
-166.532439789796
 20
97.0000000001126
 30
0.0
 10
-166.532439789796
 20
74.99999385447914
 30
0.0
 10
-166.5324397897955
 20
41.99998463602896
 30
0.0
 10
-166.5324397897959
 20
3.499973881170229
 30
0.0
 10
-166.5324397897957
 20
-15.7500314962591
 30
0.0
 10
-166.5324397897958
 20
-25.37503418497382
 30
0.0
 10
-166.5324397897954
 20
-30.18753552933102
 30
0.0
 10
-166.532439789796
 20
-32.59378620150986
 30
0.0
 10
-166.532439789796
 20
-33.62503648958636
 30
0.0
 10
-166.5324397897959
 20
-34.14066163362462
 30
0.0
 10
-166.534593207483
 20
-34.31253899327625
 30
0.0
 10
-166.527679472072
 20
-34.65628166758273
 30
0.0
 10
-166.5167113631925
 20
-34.82814494160992
 30
0.0
 10
-166.4980886040345
 20
-34.9999999985646
 30
0.0
  0
SPLINE
  5
2BD
330
241
100
AcDbEntity
  8
0
  6
Continuous
 62
     7
370
    25
100
AcDbSpline
210
0.0
220
0.0
230
1.0
 70
     8
 71
     3
 72
    18
 73
    14
 74
     0
 42
0.000000001
 43
0.00000001
 40
0.0
 40
0.0
 40
0.0
 40
0.0
 40
0.0039062499999998
 40
0.0039062499999998
 40
0.0078124999999997
 40
0.0078124999999997
 40
0.0156249999999995
 40
0.0312499999999994
 40
0.0624999999999994
 40
0.1249999999999994
 40
0.2499999999999994
 40
0.4999999999999996
 40
1.0
 40
1.0
 40
1.0
 40
1.0
 10
139.4980886038668
 20
-35.0000000001126
 30
0.0
 10
139.516707080621
 20
-34.82818446254836
 30
0.0
 10
139.5276762872151
 20
-34.65634443643236
 30
0.0
 10
139.534593574297
 20
-34.31261629521349
 30
0.0
 10
139.5324397897956
 20
-34.1407342568445
 30
0.0
 10
139.5324397897956
 20
-33.6251088272688
 30
0.0
 10
139.5324397897958
 20
-32.59385796811743
 30
0.0
 10
139.5324397897956
 20
-30.18760596343098
 30
0.0
 10
139.5324397897956
 20
-25.37510195405804
 30
0.0
 10
139.5324397897958
 20
-15.75009393531213
 30
0.0
 10
139.5324397897959
 20
3.499922102179564
 30
0.0
 10
139.5324397897956
 20
41.99995417716307
 30
0.0
 10
139.532439789796
 20
74.99998167000605
 30
0.0
 10
139.5324397897956
 20
96.99999999856809
 30
0.0
  0
SPLINE
  5
2C0
330
241
100
AcDbEntity
  8
0
  6
Continuous
 62
     7
370
    25
100
AcDbSpline
210
0.0
220
0.0
230
1.0
 70
     8
 71
     3
 72
    32
 73
    28
 74
     0
 42
0.000000001
 43
0.00000001
 40
0.0
 40
0.0
 40
0.0
 40
0.0
 40
0.0312500000000035
 40
0.0312500000000035
 40
0.0625000000000071
 40
0.0625000000000071
 40
0.1250000000000069
 40
0.1250000000000069
 40
0.2500000000000058
 40
0.2500000000000058
 40
0.3750000000000048
 40
0.3750000000000048
 40
0.5000000000000038
 40
0.5000000000000038
 40
0.6250000000000028
 40
0.6250000000000028
 40
0.6875000000000023
 40
0.6875000000000023
 40
0.7500000000000018
 40
0.7500000000000018
 40
0.8125000000000013
 40
0.8125000000000013
 40
0.8750000000000009
 40
0.8750000000000009
 40
0.9375000000000004
 40
0.9375000000000004
 40
1.0
 40
1.0
 40
1.0
 40
1.0
 10
-159.499999999344
 20
104.192235935956
 30
0.0
 10
-159.6188121385135
 20
104.192235935956
 30
0.0
 10
-159.737624277683
 20
104.192235935956
 30
0.0
 10
-159.9752485560225
 20
104.192235935956
 30
0.0
 10
-160.0940714861875
 20
104.192307349723
 30
0.0
 10
-160.4485020403229
 20
104.1790327386332
 30
0.0
 10
-160.68249297333
 20
104.154987608306
 30
0.0
 10
-161.3793899344321
 20
104.0492608096384
 30
0.0
 10
-161.8378300073971
 20
103.928680380724
 30
0.0
 10
-162.734036428931
 20
103.5892977155242
 30
0.0
 10
-163.1571220995014
 20
103.3758083431712
 30
0.0
 10
-163.9537044725014
 20
102.8620145246844
 30
0.0
 10
-164.330071152475
 20
102.5567373465634
 30
0.0
 10
-164.993597049361
 20
101.8800772607876
 30
0.0
 10
-165.2849777803811
 20
101.5072758609828
 30
0.0
 10
-165.662062119144
 20
100.896867436585
 30
0.0
 10
-165.77693293331
 20
100.686129962027
 30
0.0
 10
-165.9817719511751
 20
100.2574638942756
 30
0.0
 10
-166.072370073128
 20
100.0385143072358
 30
0.0
 10
-166.2307567303725
 20
99.59170740772153
 30
0.0
 10
-166.29865727372
 20
99.36389383725029
 30
0.0
 10
-166.4097796264545
 20
98.89862902117189
 30
0.0
 10
-166.4524585434335
 20
98.6623285239531
 30
0.0
 10
-166.5127977305975
 20
98.19011654244815
 30
0.0
 10
-166.5296903724439
 20
97.95304046829503
 30
0.0
 10
-166.534509393572
 20
97.47677189364991
 30
0.0
 10
-166.5324397897954
 20
97.23831033885439
 30
0.0
 10
-166.532439789796
 20
97.0000000001126
 30
0.0
  0
SPLINE
  5
2C1
330
241
100
AcDbEntity
  8
0
  6
Continuous
 62
     7
370
    25
100
AcDbSpline
210
0.0
220
0.0
230
1.0
 70
     8
 71
     3
 72
    30
 73
    26
 74
     0
 42
0.000000001
 43
0.00000001
 40
0.0
 40
0.0
 40
0.0
 40
0.0
 40
0.0625
 40
0.0625
 40
0.125
 40
0.125
 40
0.1875
 40
0.1875
 40
0.25
 40
0.25
 40
0.375
 40
0.375
 40
0.5
 40
0.5
 40
0.625
 40
0.625
 40
0.75
 40
0.75
 40
0.875
 40
0.875
 40
0.9375
 40
0.9375
 40
0.96875
 40
0.96875
 40
1.0
 40
1.0
 40
1.0
 40
1.0
 10
139.5324397897956
 20
96.99999999856809
 30
0.0
 10
139.5324397897956
 20
97.23748504594316
 30
0.0
 10
139.534434969747
 20
97.47518016346636
 30
0.0
 10
139.5298141253118
 20
97.94966373494745
 30
0.0
 10
139.5131820660426
 20
98.18539761238954
 30
0.0
 10
139.4537217547576
 20
98.65410720098728
 30
0.0
 10
139.4120341461779
 20
98.88720300914659
 30
0.0
 10
139.3022780516901
 20
99.35061701396108
 30
0.0
 10
139.2339580662745
 20
99.5816418093341
 30
0.0
 10
138.9967014575976
 20
100.2539804172912
 30
0.0
 10
138.7942946513822
 20
100.6800479051418
 30
0.0
 10
138.2991751557327
 20
101.4869474967424
 30
0.0
 10
138.0020447594553
 20
101.8699752865988
 30
0.0
 10
137.3407347859765
 20
102.5473073597496
 30
0.0
 10
136.9743244870965
 20
102.8469175395196
 30
0.0
 10
136.1706855115322
 20
103.3687823326482
 30
0.0
 10
135.7457759391024
 20
103.5835078469034
 30
0.0
 10
134.8596450065392
 20
103.9217136433018
 30
0.0
 10
134.3925483437792
 20
104.0466891805902
 30
0.0
 10
133.6880482524414
 20
104.1544251252396
 30
0.0
 10
133.4520852421552
 20
104.178801817968
 30
0.0
 10
133.0958805469024
 20
104.192287223807
 30
0.0
 10
132.9767004189737
 20
104.192235935956
 30
0.0
 10
132.7383502083161
 20
104.192235935956
 30
0.0
 10
132.6191751029872
 20
104.192235935956
 30
0.0
 10
132.4999999976582
 20
104.192235935956
 30
0.0
  0
SPLINE
  5
2CE
330
241
100
AcDbEntity
  8
0
  6
Continuous
 62
     8
370
    25
100
AcDbSpline
210
0.0
220
0.0
230
1.0
 70
     8
 71
     3
 72
    10
 73
     6
 74
     0
 42
0.000000001
 43
0.00000001
 40
0.0
 40
0.0
 40
0.0
 40
0.0
 40
0.4149891379852454
 40
0.8293176691758454
 40
0.9999999999999999
 40
0.9999999999999999
 40
0.9999999999999999
 40
0.9999999999999999
 10
11.49974069080984
 20
-57.917151521318
 30
0.0
 10
11.42300632945321
 20
-58.00042870915931
 30
0.0
 10
11.26965975750452
 20
-58.1668505187791
 30
0.0
 10
10.40007809829415
 20
-58.36087588611551
 30
0.0
 10
9.510099025516006
 20
-58.45270532489388
 30
0.0
 10
9.250439397994997
 20
-58.47949741315525
 30
0.0
  0
SPLINE
  5
2CF
330
241
100
AcDbEntity
  8
0
  6
Continuous
 62
     8
370
    25
100
AcDbSpline
210
0.0
220
0.0
230
1.0
 70
     8
 71
     3
 72
    10
 73
     6
 74
     0
 42
0.000000001
 43
0.00000001
 40
0.0
 40
0.0
 40
0.0
 40
0.0
 40
0.2013754255415508
 40
0.6013723575352753
 40
1.0
 40
1.0
 40
1.0
 40
1.0
 10
-9.000899791667182
 20
-58.50679447323191
 30
0.0
 10
-9.324894809366604
 20
-58.4744946743067
 30
0.0
 10
-10.29244905338424
 20
-58.37803699494816
 30
0.0
 10
-11.23440288902407
 20
-58.17874609110395
 30
0.0
 10
-11.41139537906586
 20
-58.01284229988483
 30
0.0
 10
-11.49973989198942
 20
-57.9300326302544
 30
0.0
  0
SPLINE
  5
2D1
330
241
100
AcDbEntity
  8
0
  6
Continuous
 62
     8
370
    25
100
AcDbSpline
210
0.0
220
0.0
230
1.0
 70
     8
 71
     3
 72
    21
 73
    17
 74
     0
 42
0.000000001
 43
0.00000001
 40
0.0
 40
0.0
 40
0.0
 40
0.0
 40
0.0656522089894219
 40
0.1481061080326198
 40
0.236684140056363
 40
0.3214498960503576
 40
0.4086132391944413
 40
0.4946491093770508
 40
0.5806250625239233
 40
0.6677756205970429
 40
0.7524079039109492
 40
0.8409044130917903
 40
0.8810405586053174
 40
0.9233199290920627
 40
0.9677433821435001
 40
1.0
 40
1.0
 40
1.0
 40
1.0
 10
9.392214497510373
 20
-58.50085916987402
 30
0.0
 10
9.159920818097591
 20
-58.45848846473575
 30
0.0
 10
8.635884943174513
 20
-58.36290355861874
 30
0.0
 10
7.396166710915383
 20
-58.232468588616
 30
0.0
 10
5.824230044836107
 20
-58.11528982398313
 30
0.0
 10
3.986809857429217
 20
-58.0269797795884
 30
0.0
 10
2.01776370947182
 20
-57.97349044017711
 30
0.0
 10
-0.0387712277265261
 20
-57.95565896761143
 30
0.0
 10
-2.093437900957622
 20
-57.97487408243003
 30
0.0
 10
-4.057317118856125
 20
-58.0295965927301
 30
0.0
 10
-5.883386493210675
 20
-58.11911180137511
 30
0.0
 10
-7.195250261365995
 20
-58.21730590989315
 30
0.0
 10
-8.105162893158594
 20
-58.30873956305585
 30
0.0
 10
-8.705437188924632
 20
-58.38214762603669
 30
0.0
 10
-9.204238155461868
 20
-58.45499316903355
 30
0.0
 10
-9.454251833963395
 20
-58.5052865816535
 30
0.0
 10
-9.559423824427569
 20
-58.52644325733693
 30
0.0
  0
LINE
  5
2D2
330
241
100
AcDbEntity
  8
0
  6
Continuous
 62
     7
370
    25
100
AcDbLine
 10
140.1727947852
 20
-69.1948645184
 30
0.0
 11
140.0
 21
-59.231825458
 31
0.0
  0
LINE
  5
2D3
330
241
100
AcDbEntity
  8
0
  6
Continuous
 62
     7
370
    25
100
AcDbLine
 10
-167.1727947847
 20
-69.1948645184
 30
0.0
 11
-166.9999999997
 21
-59.231825458
 31
0.0
  0
LINE
  5
2D4
330
241
100
AcDbEntity
  8
0
  6
Continuous
 62
     7
370
    25
100
AcDbLine
 10
-200.2202370249
 20
-24.9999999999
 30
0.0
 11
-200.2202370249
 21
-25.6471865312
 31
0.0
  0
LINE
  5
2D5
330
241
100
AcDbEntity
  8
0
  6
Continuous
 62
     7
370
    25
100
AcDbLine
 10
-200.2202370249
 20
-24.9999999999
 30
0.0
 11
-209.9675602102
 21
-24.9999999999
 31
0.0
  0
LINE
  5
2D6
330
241
100
AcDbEntity
  8
0
  6
Continuous
 62
     7
370
    25
100
AcDbLine
 10
182.9675602102
 20
-24.9999999999
 30
0.0
 11
173.2202370249
 21
-24.9999999999
 31
0.0
  0
LINE
  5
2D7
330
241
100
AcDbEntity
  8
0
  6
Continuous
 62
     7
370
    25
100
AcDbLine
 10
-240.2620294927
 20
175.2551771664
 30
0.0
 11
-240.2620294927
 21
180.2483248402
 31
0.0
  0
LINE
  5
2D8
330
241
100
AcDbEntity
  8
0
  6
Continuous
 62
     7
370
    25
100
AcDbLine
 10
-247.3194097735
 20
177.3194097735
 30
0.0
 11
-243.7935466536
 21
173.7935466536
 31
0.0
  0
LINE
  5
2D9
330
241
100
AcDbEntity
  8
0
  6
Continuous
 62
     7
370
    25
100
AcDbLine
 10
240.2620294927
 20
175.2551771664
 30
0.0
 11
240.2620294927
 21
180.2483248402
 31
0.0
  0
LINE
  5
2DA
330
241
100
AcDbEntity
  8
0
  6
Continuous
 62
     7
370
    25
100
AcDbLine
 10
247.3194097735
 20
177.3194097735
 30
0.0
 11
243.7935466536
 21
173.7935466536
 31
0.0
  0
LINE
  5
2DB
330
241
100
AcDbEntity
  8
0
  6
Continuous
 62
     7
370
    25
100
AcDbLine
 10
245.2551771664
 20
170.2620294927
 30
0.0
 11
250.2483248402
 21
170.2620294927
 31
0.0
  0
LINE
  5
2DC
330
241
100
AcDbEntity
  8
0
  6
Continuous
 62
     7
370
    25
100
AcDbLine
 10
-245.2551771664
 20
170.2620294927
 30
0.0
 11
-250.2483248402
 21
170.2620294927
 31
0.0
  0
LINE
  5
2DD
330
241
100
AcDbEntity
  8
0
  6
Continuous
 62
     7
370
    25
100
AcDbLine
 10
139.9999999946
 20
140.105014085
 30
0.0
 11
140.1372653565
 21
149.8034451428
 31
0.0
  0
LINE
  5
2DE
330
241
100
AcDbEntity
  8
0
  6
Continuous
 62
     7
370
    25
100
AcDbLine
 10
182.9595074601
 20
107.188021171
 30
0.0
 11
173.2174249816
 21
107.0
 31
0.0
  0
LINE
  5
2DF
330
241
100
AcDbEntity
  8
0
  6
Continuous
 62
     7
370
    25
100
AcDbLine
 10
-167.0
 20
140.1050140849
 30
0.0
 11
-167.1372653634
 21
149.8034451427
 31
0.0
  0
LINE
  5
2E0
330
241
100
AcDbEntity
  8
0
  6
Continuous
 62
     7
370
    25
100
AcDbLine
 10
173.2202370249
 20
-24.9999999999
 30
0.0
 11
173.2202370249
 21
106.3528134584
 31
0.0
  0
LINE
  5
2E1
330
241
100
AcDbEntity
  8
0
  6
Continuous
 62
     7
370
    25
100
AcDbLine
 10
-200.2174249817
 20
106.9999999998
 30
0.0
 11
-209.9595074601
 21
107.1880211706
 31
0.0
  0
LINE
  5
2E2
330
241
100
AcDbEntity
  8
0
  6
Continuous
 62
     7
370
    25
100
AcDbLine
 10
240.2620294927
 20
175.2551771664
 30
0.0
 11
-240.2620294927
 21
175.2551771664
 31
0.0
  0
LINE
  5
2E3
330
241
100
AcDbEntity
  8
0
  6
Continuous
 62
     7
370
    25
100
AcDbLine
 10
-240.2620294927
 20
180.2483248402
 30
0.0
 11
240.2620294927
 21
180.2483248402
 31
0.0
  0
LINE
  5
2E4
330
241
100
AcDbEntity
  8
0
  6
Continuous
 62
     7
370
    25
100
AcDbLine
 10
250.2483248402
 20
170.2620294927
 30
0.0
 11
250.2483248402
 21
-178.0
 31
0.0
  0
LINE
  5
2E5
330
241
100
AcDbEntity
  8
0
  6
Continuous
 62
     7
370
    25
100
AcDbLine
 10
245.2551771664
 20
-180.0
 30
0.0
 11
245.2551771664
 21
170.2620294927
 31
0.0
  0
LINE
  5
2E6
330
241
100
AcDbEntity
  8
0
  6
Continuous
 62
     7
370
    25
100
AcDbLine
 10
-245.2551771664
 20
170.2620294927
 30
0.0
 11
-245.2551771664
 21
-180.0
 31
0.0
  0
LINE
  5
2E7
330
241
100
AcDbEntity
  8
0
  6
Continuous
 62
     7
370
    25
100
AcDbLine
 10
-250.7847443432
 20
-178.0
 30
0.0
 11
250.7847443432
 21
-178.0
 31
0.0
  0
LINE
  5
2E8
330
241
100
AcDbEntity
  8
0
  6
Continuous
 62
     7
370
    25
100
AcDbLine
 10
-250.2483248402
 20
-178.0
 30
0.0
 11
-250.2483248402
 21
170.2620294927
 31
0.0
  0
LINE
  5
2E9
330
241
100
AcDbEntity
  8
0
  6
Continuous
 62
     7
370
    25
100
AcDbLine
 10
248.7833719973
 20
-180.0
 30
0.0
 11
-248.7833719973
 21
-180.0
 31
0.0
  0
LINE
  5
2EA
330
241
100
AcDbEntity
  8
0
  6
Continuous
 62
     7
370
    25
100
AcDbLine
 10
-250.2483248402
 20
170.2620294927
 30
0.0
 11
-250.783373878
 21
170.7970785305
 31
0.0
  0
LINE
  5
2EB
330
241
100
AcDbEntity
  8
0
  6
Continuous
 62
     7
370
    25
100
AcDbLine
 10
-240.7970785305
 20
180.783373878
 30
0.0
 11
-240.2620294927
 21
180.2483248402
 31
0.0
  0
LINE
  5
2EC
330
241
100
AcDbEntity
  8
0
  6
Continuous
 62
     7
370
    25
100
AcDbLine
 10
240.2620294927
 20
180.2483248402
 30
0.0
 11
240.7970785305
 21
180.783373878
 31
0.0
  0
LINE
  5
2ED
330
241
100
AcDbEntity
  8
0
  6
Continuous
 62
     7
370
    25
100
AcDbLine
 10
250.783373878
 20
170.7970785305
 30
0.0
 11
250.2483248402
 21
170.2620294927
 31
0.0
  0
LINE
  5
2EE
330
241
100
AcDbEntity
  8
0
  6
Continuous
 62
     7
370
    25
100
AcDbLine
 10
240.7970785305
 20
180.783373878
 30
0.0
 11
-240.7970785305
 21
180.783373878
 31
0.0
  0
LINE
  5
2EF
330
241
100
AcDbEntity
  8
0
  6
Continuous
 62
     7
370
    25
100
AcDbLine
 10
250.783373878
 20
-178.0
 30
0.0
 11
250.783373878
 21
170.7970785305
 31
0.0
  0
LINE
  5
2F0
330
241
100
AcDbEntity
  8
0
  6
Continuous
 62
     7
370
    25
100
AcDbLine
 10
-250.783373878
 20
170.7970785305
 30
0.0
 11
-250.783373878
 21
-178.0
 31
0.0
  0
LINE
  5
2F1
330
241
100
AcDbEntity
  8
0
  6
Continuous
 62
     7
370
    25
100
AcDbLine
 10
133.0730965704
 20
-50.7641287668
 30
0.0
 11
-160.0730965704
 21
-50.7641287668
 31
0.0
  0
LINE
  5
2F2
330
241
100
AcDbEntity
  8
0
  6
Continuous
 62
     7
370
    25
100
AcDbLine
 10
149.2797629751
 20
97.6471865319
 30
0.0
 11
149.2797629751
 21
-34.3528134591
 31
0.0
  0
LINE
  5
2F3
330
241
100
AcDbEntity
  8
0
  6
Continuous
 62
     7
370
    25
100
AcDbLine
 10
139.5265847603
 20
140.1063390626
 30
0.0
 11
132.9734152296
 21
113.8936609374
 31
0.0
  0
LINE
  5
2F4
330
241
100
AcDbEntity
  8
0
  6
Continuous
 62
     7
370
    25
100
AcDbLine
 10
-166.4269034196
 20
-59.2358712332
 30
0.0
 11
-160.0730965704
 21
-50.7641287668
 31
0.0
  0
LINE
  5
2F5
330
241
100
AcDbEntity
  8
0
  6
Continuous
 62
     7
370
    25
100
AcDbLine
 10
-159.9734152296
 20
113.8936609374
 30
0.0
 11
132.9734152296
 21
113.8936609374
 31
0.0
  0
LINE
  5
2F6
330
241
100
AcDbEntity
  8
0
  6
Continuous
 62
     7
370
    25
100
AcDbLine
 10
-176.2797629751
 20
-34.3528134591
 30
0.0
 11
-176.2797629751
 21
97.6471865319
 31
0.0
  0
LINE
  5
2F7
330
241
100
AcDbEntity
  8
0
  6
Continuous
 62
     7
370
    25
100
AcDbLine
 10
250.7847443432
 20
170.7970785305
 30
0.0
 11
250.783373878
 21
170.7970785305
 31
0.0
  0
LINE
  5
2F8
330
241
100
AcDbEntity
  8
0
  6
Continuous
 62
     7
370
    25
100
AcDbLine
 10
240.7970785305
 20
180.7847443432
 30
0.0
 11
240.7970785305
 21
180.783373878
 31
0.0
  0
LINE
  5
2F9
330
241
100
AcDbEntity
  8
0
  6
Continuous
 62
     7
370
    25
100
AcDbLine
 10
-240.7970785305
 20
180.7847443432
 30
0.0
 11
-240.7970785305
 21
180.783373878
 31
0.0
  0
LINE
  5
2FA
330
241
100
AcDbEntity
  8
0
  6
Continuous
 62
     7
370
    25
100
AcDbLine
 10
-250.7847443432
 20
170.7970785305
 30
0.0
 11
-250.783373878
 21
170.7970785305
 31
0.0
  0
LINE
  5
2FB
330
241
100
AcDbEntity
  8
0
  6
Continuous
 62
     7
370
    25
100
AcDbLine
 10
-240.7970785305
 20
180.7847443432
 30
0.0
 11
240.7970785305
 21
180.7847443432
 31
0.0
  0
LINE
  5
2FC
330
241
100
AcDbEntity
  8
0
  6
Continuous
 62
     7
370
    25
100
AcDbLine
 10
-250.7847443432
 20
-178.0
 30
0.0
 11
-250.7847443432
 21
170.7970785305
 31
0.0
  0
LINE
  5
2FD
330
241
100
AcDbEntity
  8
0
  6
Continuous
 62
     7
370
    25
100
AcDbLine
 10
250.7847443432
 20
170.7970785305
 30
0.0
 11
250.7847443432
 21
-178.0
 31
0.0
  0
LINE
  5
2FE
330
241
100
AcDbEntity
  8
0
  6
Continuous
 62
     7
370
    25
100
AcDbLine
 10
132.4999999986
 20
-50.7641287668
 30
0.0
 11
132.4999999986
 21
-40.7986711843
 31
0.0
  0
LINE
  5
2FF
330
241
100
AcDbEntity
  8
0
  6
Continuous
 62
     7
370
    25
100
AcDbLine
 10
149.2085893503
 20
-36.0522606686
 30
0.0
 11
139.4980886039
 21
-35.0000000001
 31
0.0
  0
LINE
  5
300
330
241
100
AcDbEntity
  8
0
  6
Continuous
 62
     7
370
    25
100
AcDbLine
 10
-166.498088604
 20
-34.9999999986
 30
0.0
 11
-176.2085893507
 21
-36.0522606647
 31
0.0
  0
LINE
  5
301
330
241
100
AcDbEntity
  8
0
  6
Continuous
 62
     7
370
    25
100
AcDbLine
 10
-159.5
 20
-50.7641287668
 30
0.0
 11
-159.5
 21
-40.7986711843
 31
0.0
  0
LINE
  5
302
330
241
100
AcDbEntity
  8
0
  6
Continuous
 62
     7
370
    25
100
AcDbLine
 10
-159.5
 20
-40.7986711843
 30
0.0
 11
132.4999999986
 21
-40.7986711843
 31
0.0
  0
LINE
  5
303
330
241
100
AcDbEntity
  8
0
  6
Continuous
 62
     7
370
    25
100
AcDbLine
 10
-166.5324397898
 20
97.0000000001
 30
0.0
 11
-176.2797629751
 21
97.0000000001
 31
0.0
  0
LINE
  5
304
330
241
100
AcDbEntity
  8
0
  6
Continuous
 62
     7
370
    25
100
AcDbLine
 10
149.2797629751
 20
96.9999999986
 30
0.0
 11
139.5324397898
 21
96.9999999986
 31
0.0
  0
LINE
  5
305
330
241
100
AcDbEntity
  8
0
  6
Continuous
 62
     7
370
    25
100
AcDbLine
 10
-159.4999999993
 20
104.192235936
 30
0.0
 11
-159.4999999993
 21
113.8936609374
 31
0.0
  0
LINE
  5
306
330
241
100
AcDbEntity
  8
0
  6
Continuous
 62
     7
370
    25
100
AcDbLine
 10
132.4999999977
 20
104.192235936
 30
0.0
 11
132.4999999977
 21
113.8936609374
 31
0.0
  0
LINE
  5
307
330
241
100
AcDbEntity
  8
0
  6
Continuous
 62
     7
370
    25
100
AcDbLine
 10
132.4999999977
 20
104.192235936
 30
0.0
 11
-159.4999999993
 21
104.192235936
 31
0.0
  0
LINE
  5
308
330
241
100
AcDbEntity
  8
0
  6
Continuous
 62
     7
370
    25
100
AcDbLine
 10
0.0
 20
-12.0
 30
0.0
 11
0.0
 21
-22.8284271247
 31
0.0
  0
LINE
  5
309
330
241
100
AcDbEntity
  8
0
  6
Continuous
 62
     7
370
    25
100
AcDbLine
 10
0.0
 20
36.0
 30
0.0
 11
0.0
 21
46.8284271247
 31
0.0
  0
ARC
  5
30A
330
241
100
AcDbEntity
  8
0
  6
Continuous
 62
     7
370
    25
100
AcDbCircle
 10
248.2496943651
 20
-178.0013695262
 30
0.0
 40
1.998630944352348
100
AcDbArc
 50
270.0393147922
 51
0.0392609127
  0
ARC
  5
30B
330
241
100
AcDbEntity
  8
0
  6
Continuous
 62
     7
370
    25
100
AcDbCircle
 10
-248.2496943651
 20
-178.0013695262
 30
0.0
 40
1.998630944352348
100
AcDbArc
 50
179.9607390873
 51
269.9606852078
  0
ARC
  5
30C
330
241
100
AcDbEntity
  8
0
  6
Continuous
 62
     7
370
    25
100
AcDbCircle
 10
11.4986789823
 20
-58.9160695168
 30
0.0
 40
0.9989185596605513
100
AcDbArc
 50
89.9391027146
 51
179.8639335453
  0
ARC
  5
30D
330
241
100
AcDbEntity
  8
0
  6
Continuous
 62
     7
370
    25
100
AcDbCircle
 10
0.0
 20
12.0
 30
0.0
 40
33.41421356237318
100
AcDbArc
 50
270.0
 51
90.0
  0
ARC
  5
30E
330
241
100
AcDbEntity
  8
0
  6
Continuous
 62
     7
370
    25
100
AcDbCircle
 10
0.0
 20
12.0
 30
0.0
 40
34.82842712474628
100
AcDbArc
 50
270.0
 51
90.0
  0
ARC
  5
30F
330
241
100
AcDbEntity
  8
0
  6
Continuous
 62
     7
370
    25
100
AcDbCircle
 10
0.0
 20
12.0
 30
0.0
 40
24.00000000000001
100
AcDbArc
 50
90.0
 51
270.0
  0
ARC
  5
310
330
241
100
AcDbEntity
  8
0
  6
Continuous
 62
     8
370
    25
100
AcDbCircle
 10
-11.4978074775
 20
-58.9287216981
 30
0.0
 40
0.9986909374431555
100
AcDbArc
 50
21.2461972415
 51
90.1108643925
  0
VIEWPORT
  5
315
330
241
100
AcDbEntity
  8
0
100
AcDbViewport
 10
0.0
 20
0.0
 30
0.0
 40
205.6
 41
156.0
 68
     1
 69
     1
 12
0.0
 22
-68.5
 13
0.0
 23
0.0
 14
10.0
 24
10.0
 15
10.0
 25
10.0
 16
0.0
 26
0.0
 36
1.0
 17
0.0
 27
0.0
 37
0.0
 42
50.0
 43
0.0
 44
0.0
 45
388.1796548629
 50
0.0
 51
0.0
 72
   100
 90
   557152
  1

281
     0
 71
     1
 74
     0
110
0.0
120
0.0
130
0.0
111
1.0
121
0.0
131
0.0
112
0.0
122
1.0
132
0.0
 79
     0
146
0.0
  0
ENDBLK
  5
244
330
241
100
AcDbEntity
  8
0
100
AcDbBlockEnd
  0
ENDSEC
  0
SECTION
  2
ENTITIES
  0
SPLINE
  5
73
330
1F
100
AcDbEntity
  8
0
  6
Continuous
 62
     7
370
    25
100
AcDbSpline
210
0.0
220
0.0
230
1.0
 70
     8
 71
     3
 72
    12
 73
     8
 74
     0
 42
0.000000001
 43
0.00000001
 40
0.0
 40
0.0
 40
0.0
 40
0.0
 40
0.1661616048794347
 40
0.3054617135262001
 40
0.5637806678411824
 40
0.8190147201401753
 40
0.9999999999999999
 40
0.9999999999999999
 40
0.9999999999999999
 40
0.9999999999999999
 10
210.4054729646247
 20
1.974578251721842
 30
0.0
 10
210.508987908327
 20
2.193112124582133
 30
0.0
 10
210.6992836875585
 20
2.594851932739728
 30
0.0
 10
211.2484240134684
 20
3.354016661081261
 30
0.0
 10
212.0776724672912
 20
4.084515427041691
 30
0.0
 10
213.1006305622563
 20
4.650612376372668
 30
0.0
 10
213.7606418383292
 20
4.830958518688838
 30
0.0
 10
214.0344773075633
 20
4.905783256229007
 30
0.0
  0
SPLINE
  5
7C
330
1F
100
AcDbEntity
  8
0
  6
Continuous
 62
     7
370
    25
100
AcDbSpline
210
0.0
220
0.0
230
1.0
 70
     8
 71
     3
 72
     9
 73
     5
 74
     0
 42
0.000000001
 43
0.00000001
 40
0.0
 40
0.0
 40
0.0
 40
0.0
 40
0.9607931442981816
 40
1.0
 40
1.0
 40
1.0
 40
1.0
 10
-209.999843312947
 20
0.088508411265828
 30
0.0
 10
-210.0455353210103
 20
0.722704983586217
 30
0.0
 10
-210.093091871902
 20
1.38278106352499
 30
0.0
 10
-210.3996287896053
 20
1.949077500809943
 30
0.0
 10
-210.411647138305
 20
1.971280203511033
 30
0.0
  0
SPLINE
  5
7D
330
1F
100
AcDbEntity
  8
0
  6
Continuous
 62
     7
370
    25
100
AcDbSpline
210
0.0
220
0.0
230
1.0
 70
     8
 71
     3
 72
     8
 73
     4
 74
     0
 42
0.000000001
 43
0.00000001
 40
0.0
 40
0.0
 40
0.0
 40
0.0
 40
1.0
 40
1.0
 40
1.0
 40
1.0
 10
-213.1766664637326
 20
4.656058659938525
 30
0.0
 10
-213.7860137090817
 20
4.894558749357055
 30
0.0
 10
-214.4150429217881
 20
5.000000000000004
 30
0.0
 10
-214.9990598776834
 20
5.000000000000004
 30
0.0
  0
SPLINE
  5
7E
330
1F
100
AcDbEntity
  8
0
  6
Continuous
 62
     7
370
    25
100
AcDbSpline
210
0.0
220
0.0
230
1.0
 70
     8
 71
     3
 72
    24
 73
    20
 74
     0
 42
0.000000001
 43
0.00000001
 40
0.0
 40
0.0
 40
0.0
 40
0.0
 40
0.0145673088525171
 40
0.0291375216189637
 40
0.0437114915731494
 40
0.0582751818417002
 40
0.0729592785887676
 40
0.0879121232756697
 40
0.1149188986398693
 40
0.1443326349099768
 40
0.1779909298217865
 40
0.2171383198499184
 40
0.2756759209821446
 40
0.3465651885035866
 40
0.4302100529848512
 40
0.5268546725915785
 40
0.6713605956206986
 40
0.8290131569096748
 40
1.0
 40
1.0
 40
1.0
 40
1.0
 10
-214.9990598776835
 20
5.000000000000004
 30
0.0
 10
-214.9991364763221
 20
5.00064272130138
 30
0.0
 10
-214.9992896888687
 20
5.001928292027127
 30
0.0
 10
-215.0000173603592
 20
5.012312240310512
 30
0.0
 10
-215.0025063354199
 20
5.028791866698162
 30
0.0
 10
-215.001200193326
 20
5.051997160153935
 30
0.0
 10
-214.9899218311251
 20
5.081545426044443
 30
0.0
 10
-214.9670228699127
 20
5.126632023330663
 30
0.0
 10
-214.9112071008433
 20
5.193266561137181
 30
0.0
 10
-214.7985997512875
 20
5.276346518437281
 30
0.0
 10
-214.6437203288647
 20
5.36004471044517
 30
0.0
 10
-214.4239478017637
 20
5.449502324404984
 30
0.0
 10
-214.1264832706001
 20
5.541247231780858
 30
0.0
 10
-213.7411672601455
 20
5.634444800275862
 30
0.0
 10
-213.2805169528233
 20
5.721902905922629
 30
0.0
 10
-212.680276227145
 20
5.811743744745204
 30
0.0
 10
-211.9393094363239
 20
5.894913966425011
 30
0.0
 10
-211.0572722635786
 20
5.963404225969763
 30
0.0
 10
-210.4433536667886
 20
5.987475846388035
 30
0.0
 10
-210.1239397396066
 20
6.000000000000005
 30
0.0
  0
SPLINE
  5
7F
330
1F
100
AcDbEntity
  8
0
  6
Continuous
 62
     7
370
    25
100
AcDbSpline
210
0.0
220
0.0
230
1.0
 70
     8
 71
     3
 72
    33
 73
    29
 74
     0
 42
0.000000001
 43
0.00000001
 40
0.0
 40
0.0
 40
0.0
 40
0.0
 40
0.0275277570887274
 40
0.0575772694443787
 40
0.09017965071044
 40
0.1253592417335307
 40
0.1954609370177791
 40
0.2507829425640588
 40
0.2919893117248724
 40
0.3241176256989492
 40
0.3502365146188671
 40
0.3756897709567056
 40
0.3914124672544117
 40
0.412267462446306
 40
0.4384705022535831
 40
0.472095644340209
 40
0.4929807324888832
 40
0.5011257936239207
 40
0.5512402511011846
 40
0.6008519439959056
 40
0.6503128270970585
 40
0.6999780614571024
 40
0.7501984727711948
 40
0.800552743007822
 40
0.8503734171177454
 40
0.8999957911146949
 40
0.9497591694972047
 40
1.0
 40
1.0
 40
1.0
 40
1.0
 10
-210.1239397396068
 20
6.000000000000005
 30
0.0
 10
-210.1911847843095
 20
5.974324456843857
 30
0.0
 10
-210.331835039438
 20
5.920621292373626
 30
0.0
 10
-210.5480454945303
 20
5.826400576248114
 30
0.0
 10
-210.7797888553458
 20
5.718100435143286
 30
0.0
 10
-211.1024463188469
 20
5.557256093767837
 30
0.0
 10
-211.4717374761475
 20
5.356938774220554
 30
0.0
 10
-211.8378272569443
 20
5.119217000331425
 30
0.0
 10
-212.0931217237274
 20
4.897987996327402
 30
0.0
 10
-212.2496831362787
 20
4.685894590356537
 30
0.0
 10
-212.3051717762002
 20
4.465420058305774
 30
0.0
 10
-212.2508052785335
 20
4.289472532646013
 30
0.0
 10
-212.1541097533324
 20
4.158759505149948
 30
0.0
 10
-212.0420877684279
 20
4.038412063290448
 30
0.0
 10
-211.8863010158481
 20
3.896052976012768
 30
0.0
 10
-211.7274159023638
 20
3.757195916543943
 30
0.0
 10
-211.6049287483921
 20
3.648417911027102
 30
0.0
 10
-211.4498674998662
 20
3.511395237516104
 30
0.0
 10
-211.2503777899385
 20
3.311386254901433
 30
0.0
 10
-210.9966026888851
 20
3.01469392222406
 30
0.0
 10
-210.7701393883325
 20
2.697935943530613
 30
0.0
 10
-210.5703664169139
 20
2.361913839114507
 30
0.0
 10
-210.3984474121786
 20
2.008234389775918
 30
0.0
 10
-210.2550682121518
 20
1.641660273162149
 30
0.0
 10
-210.1422217482191
 20
1.26612156456031
 30
0.0
 10
-210.0617595523669
 20
0.8840448254691796
 30
0.0
 10
-210.0108584405365
 20
0.4955015207355612
 30
0.0
 10
-210.003732420331
 20
0.2339915911482859
 30
0.0
 10
-210.0001523992771
 20
0.1026123602775042
 30
0.0
  0
SPLINE
  5
80
330
1F
100
AcDbEntity
  8
0
  6
Continuous
 62
     7
370
    25
100
AcDbSpline
210
0.0
220
0.0
230
1.0
 70
     8
 71
     3
 72
    33
 73
    29
 74
     0
 42
0.000000001
 43
0.00000001
 40
0.0
 40
0.0
 40
0.0
 40
0.0
 40
0.0279196423159013
 40
0.0556477320007691
 40
0.0832404143914762
 40
0.1107546637702017
 40
0.1382479420333208
 40
0.1657778423936546
 40
0.1934017290040603
 40
0.2211763836823362
 40
0.249157670410225
 40
0.3312972033127679
 40
0.4137645874712859
 40
0.4981331556782476
 40
0.5160255079385206
 40
0.5609194448187556
 40
0.5870110662064559
 40
0.607814634717375
 40
0.6235319978777877
 40
0.6492506779400146
 40
0.6754331760957474
 40
0.7075381009990003
 40
0.7487334828305641
 40
0.803722455332922
 40
0.8743842060731774
 40
0.9210143370023817
 40
0.9628650558385266
 40
1.0
 40
1.0
 40
1.0
 40
1.0
 10
210.000153871904
 20
0.1025899497020533
 30
0.0
 10
210.0014186575637
 20
0.1755812344291369
 30
0.0
 10
210.0039395513713
 20
0.3210630212273774
 30
0.0
 10
210.0199990460061
 20
0.5381953114996368
 30
0.0
 10
210.045067722901
 20
0.7533536856386414
 30
0.0
 10
210.0800100804613
 20
0.9665316297651633
 30
0.0
 10
210.1245950567444
 20
1.177727371390672
 30
0.0
 10
210.178886917968
 20
1.386937646326178
 30
0.0
 10
210.2428550641029
 20
1.594160811310683
 30
0.0
 10
210.3165512913792
 20
1.799391245741536
 30
0.0
 10
210.4531962483758
 20
2.13305199243298
 30
0.0
 10
210.6861313966601
 20
2.58159375603964
 30
0.0
 10
211.06686217398
 20
3.111669337095155
 30
0.0
 10
211.3975857595326
 20
3.466184436864944
 30
0.0
 10
211.6859183094786
 20
3.720894512623418
 30
0.0
 10
211.8606459863146
 20
3.874020592689778
 30
0.0
 10
212.0380543342505
 20
4.035724959871118
 30
0.0
 10
212.1500347063509
 20
4.155494854934147
 30
0.0
 10
212.2478435352689
 20
4.285934504098463
 30
0.0
 10
212.3051337352176
 20
4.461791158277814
 30
0.0
 10
212.252236940409
 20
4.683937460360902
 30
0.0
 10
212.096621677641
 20
4.897008807788275
 30
0.0
 10
211.842457646858
 20
5.118086859910304
 30
0.0
 10
211.475446378699
 20
5.355417994647907
 30
0.0
 10
211.0790818560364
 20
5.569792770088677
 30
0.0
 10
210.7058518658444
 20
5.753648336811468
 30
0.0
 10
210.4070216856682
 20
5.890205376428495
 30
0.0
 10
210.2144683074229
 20
5.964888082181901
 30
0.0
 10
210.123939739606
 20
6.000000000000005
 30
0.0
  0
SPLINE
  5
81
330
1F
100
AcDbEntity
  8
0
  6
Continuous
 62
     7
370
    25
100
AcDbSpline
210
0.0
220
0.0
230
1.0
 70
     8
 71
     3
 72
    22
 73
    18
 74
     0
 42
0.000000001
 43
0.00000001
 40
0.0
 40
0.0
 40
0.0
 40
0.0
 40
0.1038947174991326
 40
0.2030183895289432
 40
0.2974055266453651
 40
0.387096098218547
 40
0.4721366845251577
 40
0.5686036049123866
 40
0.6521872675910131
 40
0.7231274678118508
 40
0.7818191230915971
 40
0.8333069153199549
 40
0.8755088476764935
 40
0.9121121699341646
 40
0.9342549957354087
 40
0.9634656358406415
 40
1.0
 40
1.0
 40
1.0
 40
1.0
 10
210.1239397396065
 20
6.000000000000005
 30
0.0
 10
210.3179519095264
 20
5.992950502466843
 30
0.0
 10
210.6970668369672
 20
5.979175233900527
 30
0.0
 10
211.2518937298404
 20
5.94681368833401
 30
0.0
 10
211.779553808916
 20
5.906365081500206
 30
0.0
 10
212.2800285522837
 20
5.857188332259996
 30
0.0
 10
212.7830459495928
 20
5.796233210244791
 30
0.0
 10
213.2727937974168
 20
5.723200854922034
 30
0.0
 10
213.7329730073915
 20
5.636184997863586
 30
0.0
 10
214.1185551248552
 20
5.54333795330117
 30
0.0
 10
214.4382086880097
 20
5.445470152258728
 30
0.0
 10
214.6921657824822
 20
5.339485485410606
 30
0.0
 10
214.8786544829487
 20
5.224982748691264
 30
0.0
 10
214.9707102673004
 20
5.12770268286239
 30
0.0
 10
214.9961147179441
 20
5.059633837547095
 30
0.0
 10
215.0047718897335
 20
5.011200682070838
 30
0.0
 10
215.001100218092
 20
5.004000902664091
 30
0.0
 10
214.999059877684
 20
5.000000000000004
 30
0.0
  0
SPLINE
  5
82
330
1F
100
AcDbEntity
  8
0
  6
Continuous
 62
     7
370
    25
100
AcDbSpline
210
0.0
220
0.0
230
1.0
 70
     8
 71
     3
 72
    14
 73
    10
 74
     0
 42
0.000000001
 43
0.00000001
 40
0.0
 40
0.0
 40
0.0
 40
0.0
 40
0.2500000000000001
 40
0.2500000000000001
 40
0.5000000000000001
 40
0.5000000000000001
 40
0.75
 40
0.75
 40
1.0
 40
1.0
 40
1.0
 40
1.0
 10
209.9998433129475
 20
0.0885084112661055
 30
0.0
 10
210.01130044194
 20
0.7356409066338748
 30
0.0
 10
210.1499142077693
 20
1.380055669504485
 30
0.0
 10
210.6610317214849
 20
2.56910083395065
 30
0.0
 10
211.0333412740871
 20
3.113172551604468
 30
0.0
 10
211.9565750105369
 20
4.020205618145215
 30
0.0
 10
212.5071519845982
 20
4.382825849991557
 30
0.0
 10
213.7050584808826
 20
4.872815178524434
 30
0.0
 10
214.3518259691435
 20
5.000000000000004
 30
0.0
 10
214.9990598776835
 20
5.000000000000004
 30
0.0
  0
SPLINE
  5
9D
330
1F
100
AcDbEntity
  8
0
  6
Continuous
 62
     7
370
    25
100
AcDbSpline
210
0.0
220
0.0
230
1.0
 70
    24
 71
     3
 72
    14
 73
    10
 74
     0
 42
0.000000001
 43
0.00000001
 40
0.0
 40
0.0
 40
0.0
 40
0.0
 40
0.25
 40
0.25
 40
0.5
 40
0.5
 40
0.75
 40
0.75
 40
1.0
 40
1.0
 40
1.0
 40
1.0
 10
-248.78337199725
 20
0.0
 30
0.0
 10
-248.9013848599746
 20
0.0
 30
0.0
 10
-249.0287059781223
 20
0.0
 30
0.0
 10
-249.2752377421045
 20
0.0
 30
0.0
 10
-249.3936841170478
 20
0.0
 30
0.0
 10
-249.5892142301477
 20
0.0
 30
0.0
 10
-249.6656364509593
 20
0.0
 30
0.0
 10
-249.7632361281729
 20
0.0
 30
0.0
 10
-249.7847443432476
 20
0.0
 30
0.0
 10
-249.7847443432475
 20
0.0
 30
0.0
  0
SPLINE
  5
A0
330
1F
100
AcDbEntity
  8
0
  6
Continuous
 62
     7
370
    25
100
AcDbSpline
210
0.0
220
0.0
230
1.0
 70
     8
 71
     3
 72
    25
 73
    21
 74
     0
 42
0.000000001
 43
0.00000001
 40
0.0
 40
0.0
 40
0.0
 40
0.0
 40
0.0431910276106999
 40
0.086835026243043
 40
0.1309321352795657
 40
0.1754824896241882
 40
0.220486219879068
 40
0.2659434525127781
 40
0.3118543100203394
 40
0.3582189110754835
 40
0.4050373706756163
 40
0.4523098002800266
 40
0.5000363079414579
 40
0.5519196212883325
 40
0.6103189588524655
 40
0.675232919758403
 40
0.746659897495426
 40
0.8245980917128898
 40
0.909045515485891
 40
1.0
 40
1.0
 40
1.0
 40
1.0
 10
-250.7833738780024
 20
1.052335956242947
 30
0.0
 10
-250.7824869882327
 20
1.052314198690646
 30
0.0
 10
-250.7807039073319
 20
1.052270455401128
 30
0.0
 10
-250.7661888143886
 20
1.051906897446955
 30
0.0
 10
-250.7427403965826
 20
1.051310439880202
 30
0.0
 10
-250.7093243532329
 20
1.050450748307175
 30
0.0
 10
-250.6660470808413
 20
1.049326899433892
 30
0.0
 10
-250.6127741709648
 20
1.047933635631118
 30
0.0
 10
-250.5495114906063
 20
1.046270713880262
 30
0.0
 10
-250.4763063636982
 20
1.044341012496841
 30
0.0
 10
-250.393279264416
 20
1.04214979994785
 30
0.0
 10
-250.300618588866
 20
1.039710785871187
 30
0.0
 10
-250.1959504399347
 20
1.036953851913949
 30
0.0
 10
-250.0741930491527
 20
1.033816953164318
 30
0.0
 10
-249.9288944496604
 20
1.030111302543796
 30
0.0
 10
-249.7560232146744
 20
1.025658965143325
 30
0.0
 10
-249.5540520431703
 20
1.020385134472071
 30
0.0
 10
-249.3225075859889
 20
1.014266768533445
 30
0.0
 10
-249.0623844047186
 20
1.00734462555234
 30
0.0
 10
-248.8786482150552
 20
1.002508018013132
 30
0.0
 10
-248.7833719972499
 20
0.9999999999999731
 30
0.0
  0
SPLINE
  5
A2
330
1F
100
AcDbEntity
  8
0
  6
Continuous
 62
     7
370
    25
100
AcDbSpline
210
0.0
220
0.0
230
1.0
 70
    24
 71
     3
 72
    14
 73
    10
 74
     0
 42
0.000000001
 43
0.00000001
 40
0.0
 40
0.0
 40
0.0
 40
0.0
 40
0.25
 40
0.25
 40
0.5
 40
0.5
 40
0.75
 40
0.75
 40
1.0
 40
1.0
 40
1.0
 40
1.0
 10
249.7847443432475
 20
0.0
 30
0.0
 10
249.7847443432476
 20
0.0
 30
0.0
 10
249.7632361281729
 20
0.0
 30
0.0
 10
249.6656364509592
 20
0.0
 30
0.0
 10
249.5892142301477
 20
0.0
 30
0.0
 10
249.3936841170477
 20
0.0
 30
0.0
 10
249.2752377421045
 20
0.0
 30
0.0
 10
249.0287059781222
 20
0.0
 30
0.0
 10
248.9013848599746
 20
0.0
 30
0.0
 10
248.78337199725
 20
0.0
 30
0.0
  0
SPLINE
  5
A4
330
1F
100
AcDbEntity
  8
0
  6
Continuous
 62
     7
370
    25
100
AcDbSpline
210
0.0
220
0.0
230
1.0
 70
     8
 71
     3
 72
    27
 73
    23
 74
     0
 42
0.000000001
 43
0.00000001
 40
0.0
 40
0.0
 40
0.0
 40
0.0
 40
0.0463201251548534
 40
0.0910109910121478
 40
0.1340725289053698
 40
0.1755046733542181
 40
0.2153073621502308
 40
0.2534805364607203
 40
0.2900241409558764
 40
0.3249381239654339
 40
0.3582224376737554
 40
0.3898770383651006
 40
0.4199018867353706
 40
0.4482969482933588
 40
0.475062193884198
 40
0.5001976003823309
 40
0.5873011718396904
 40
0.6728826212142526
 40
0.7569425558242615
 40
0.8394816254801329
 40
0.9205005254984011
 40
0.9999999999999999
 40
0.9999999999999999
 40
0.9999999999999999
 40
0.9999999999999999
 10
248.78337199725
 20
0.999999999999987
 30
0.0
 10
248.831859883536
 20
1.001272702454176
 30
0.0
 10
248.9271301482045
 20
1.003773341457889
 30
0.0
 10
249.0667450597646
 20
1.007471847090449
 30
0.0
 10
249.1999414414733
 20
1.011007387734006
 30
0.0
 10
249.3262929452899
 20
1.014361035839906
 30
0.0
 10
249.4455054447514
 20
1.017516501175653
 30
0.0
 10
249.5574031052489
 20
1.020464777819099
 30
0.0
 10
249.6619148794424
 20
1.023202073935053
 30
0.0
 10
249.7590609973442
 20
1.025729453338814
 30
0.0
 10
249.8489399099449
 20
1.028052040870211
 30
0.0
 10
249.9317156158083
 20
1.030178460271105
 30
0.0
 10
250.0076062221077
 20
1.032119947665513
 30
0.0
 10
250.0768713933608
 20
1.033890660616987
 30
0.0
 10
250.1398071327682
 20
1.035504085992789
 30
0.0
 10
250.2447192574762
 20
1.038230262286222
 30
0.0
 10
250.3812835710684
 20
1.041835071208946
 30
0.0
 10
250.5292456298551
 20
1.045737779918385
 30
0.0
 10
250.6440744446797
 20
1.048756599877951
 30
0.0
 10
250.7246293243176
 20
1.050849674585228
 30
0.0
 10
250.7742805027193
 20
1.052112549057529
 30
0.0
 10
250.780361941351
 20
1.052261958605194
 30
0.0
 10
250.7833738780024
 20
1.05233595624292
 30
0.0
  0
LWPOLYLINE
  5
C2
330
1F
100
AcDbEntity
  8
0
  6
Continuous
 62
     7
370
    25
100
AcDbPolyline
 90
        9
 70
   128
 43
0.0
 10
-30.0
 20
-122.3412044417
 10
-29.903926402
 20
-122.5105898362
 10
-29.6193976626
 20
-122.6734658449
 10
-29.1573480615
 20
-122.8235732343
 10
-28.5355339059
 20
-122.9551434615
 10
-27.7778511651
 20
-123.0631203565
 10
-26.9134171618
 20
-123.1433544277
 10
-25.9754516101
 20
-123.1927623248
 10
-25.0
 20
-123.20944533
  0
LWPOLYLINE
  5
C3
330
1F
100
AcDbEntity
  8
0
  6
Continuous
 62
     7
370
    25
100
AcDbPolyline
 90
        9
 70
   128
 43
0.0
 10
25.0
 20
-123.20944533
 10
25.9754516101
 20
-123.1927623248
 10
26.9134171618
 20
-123.1433544277
 10
27.7778511651
 20
-123.0631203565
 10
28.5355339059
 20
-122.9551434615
 10
29.1573480615
 20
-122.8235732343
 10
29.6193976626
 20
-122.6734658449
 10
29.903926402
 20
-122.5105898362
 10
30.0
 20
-122.3412044417
  0
LWPOLYLINE
  5
C5
330
1F
100
AcDbEntity
  8
0
  6
Continuous
 62
     7
370
    25
100
AcDbPolyline
 90
        9
 70
   128
 43
0.0
 10
-35.0
 20
-101.4729635533
 10
-34.0245483899
 20
-101.4896465586
 10
-33.0865828382
 20
-101.5390544557
 10
-32.2221488349
 20
-101.6192885269
 10
-31.4644660941
 20
-101.7272654218
 10
-30.8426519385
 20
-101.858835649
 10
-30.3806023374
 20
-102.0089430384
 10
-30.096073598
 20
-102.1718190472
 10
-30.0
 20
-102.3412044417
  0
LWPOLYLINE
  5
CD
330
1F
100
AcDbEntity
  8
0
  6
Continuous
 62
     7
370
    25
100
AcDbPolyline
 90
        9
 70
   128
 43
0.0
 10
35.0
 20
-101.4729635533
 10
34.0245483899
 20
-101.4896465586
 10
33.0865828382
 20
-101.5390544557
 10
32.2221488349
 20
-101.6192885269
 10
31.4644660941
 20
-101.7272654218
 10
30.8426519385
 20
-101.858835649
 10
30.3806023374
 20
-102.0089430384
 10
30.096073598
 20
-102.1718190472
 10
30.0
 20
-102.3412044417
  0
LWPOLYLINE
  5
D6
330
1F
100
AcDbEntity
  8
0
  6
Continuous
 62
     7
370
    25
100
AcDbPolyline
 90
        9
 70
   128
 43
0.0
 10
-24.375
 20
-149.0
 10
-24.3870091997
 20
-148.804909678
 10
-24.4225752922
 20
-148.6173165676
 10
-24.4803314923
 20
-148.444429767
 10
-24.5580582618
 20
-148.2928932188
 10
-24.6527686044
 20
-148.1685303877
 10
-24.7608228548
 20
-148.0761204675
 10
-24.8780685487
 20
-148.0192147196
 10
-25.0
 20
-148.0
  0
LWPOLYLINE
  5
D7
330
1F
100
AcDbEntity
  8
0
  6
Continuous
 62
     7
370
    25
100
AcDbPolyline
 90
        9
 70
   128
 43
0.0
 10
24.375
 20
-149.0
 10
24.3870091997
 20
-148.804909678
 10
24.4225752922
 20
-148.6173165676
 10
24.4803314923
 20
-148.444429767
 10
24.5580582618
 20
-148.2928932188
 10
24.6527686044
 20
-148.1685303877
 10
24.7608228548
 20
-148.0761204675
 10
24.8780685487
 20
-148.0192147196
 10
25.0
 20
-148.0
  0
SPLINE
  5
D8
330
1F
100
AcDbEntity
  8
0
  6
Continuous
 62
     7
370
    25
100
AcDbSpline
210
0.0
220
0.0
230
1.0
 70
     8
 71
     3
 72
    28
 73
    24
 74
     0
 42
0.000000001
 43
0.00000001
 40
0.0
 40
0.0
 40
0.0
 40
0.0
 40
0.0177557096481178
 40
0.0355084065936495
 40
0.0533036975836658
 40
0.0711868634843891
 40
0.0892025225663611
 40
0.1073943182327027
 40
0.125804641269547
 40
0.1870277040523994
 40
0.2511031241157516
 40
0.312324463191451
 40
0.3762959608715722
 40
0.5014859593607827
 40
0.5629672088369098
 40
0.6255245045677091
 40
0.6878001702742371
 40
0.7503994560874344
 40
0.8011438458834611
 40
0.8513202482673581
 40
0.9010827189071942
 40
0.950589177877091
 40
1.0
 40
1.0
 40
1.0
 40
1.0
 10
30.22500000000003
 20
-143.0
 30
0.0
 10
30.2243898215334
 20
-143.0661402641343
 30
0.0
 10
30.22316956813224
 20
-143.198409570044
 30
0.0
 10
30.21327006924478
 20
-143.3964562130613
 30
0.0
 10
30.19745056311236
 20
-143.5939544388858
 30
0.0
 10
30.17511815978348
 20
-143.7909012520433
 30
0.0
 10
30.14641004469431
 20
-143.9872912767479
 30
0.0
 10
30.11125359437517
 20
-144.1831296690532
 30
0.0
 10
30.03761653675204
 20
-144.5287092970814
 30
0.0
 10
29.89652633249588
 20
-145.0186765324739
 30
0.0
 10
29.65573808381014
 20
-145.6070307012805
 30
0.0
 10
29.36353214138371
 20
-146.1538913871665
 30
0.0
 10
28.92298859823942
 20
-146.8098145402456
 30
0.0
 10
28.41240583331789
 20
-147.369472794947
 30
0.0
 10
27.85403826706909
 20
-147.8341040435881
 30
0.0
 10
27.41302769329986
 20
-148.137023989121
 30
0.0
 10
26.94820960113039
 20
-148.3975942036846
 30
0.0
 10
26.49441623427083
 20
-148.5994617846669
 30
0.0
 10
26.05828710831848
 20
-148.752107354209
 30
0.0
 10
25.64612314488307
 20
-148.8630079787273
 30
0.0
 10
25.22815841987582
 20
-148.9416235720657
 30
0.0
 10
24.80491666227202
 20
-148.990877361767
 30
0.0
 10
24.51821315561023
 20
-148.9969610812433
 30
0.0
 10
24.37500000000005
 20
-149.0
 30
0.0
  0
SPLINE
  5
DC
330
1F
100
AcDbEntity
  8
0
  6
Continuous
 62
     7
370
    25
100
AcDbSpline
210
0.0
220
0.0
230
1.0
 70
     8
 71
     3
 72
    26
 73
    22
 74
     0
 42
0.000000001
 43
0.00000001
 40
0.0
 40
0.0
 40
0.0
 40
0.0
 40
0.0248036386596489
 40
0.0496936656586812
 40
0.0746910878411776
 40
0.0998166426813895
 40
0.1250907522559631
 40
0.1875521127123637
 40
0.250306693099529
 40
0.3126824135581575
 40
0.3747431369049545
 40
0.4992051536637172
 40
0.6241728168031659
 40
0.688155554773495
 40
0.7493938008581673
 40
0.8135602376331171
 40
0.8748826372489485
 40
0.906771006389863
 40
0.9380981572148742
 40
0.969095037406249
 40
1.0
 40
1.0
 40
1.0
 40
1.0
 10
-24.375
 20
-149.0
 30
0.0
 10
-24.44699284262304
 20
-148.999216018494
 30
0.0
 10
-24.59122927100429
 20
-148.9976453249607
 30
0.0
 10
-24.80625729870135
 20
-148.9849820532895
 30
0.0
 10
-25.0206704947692
 20
-148.9647817933356
 30
0.0
 10
-25.23433787721086
 20
-148.936296729982
 30
0.0
 10
-25.55118155913283
 20
-148.8818849822051
 30
0.0
 10
-25.96632896347813
 20
-148.7823860576659
 30
0.0
 10
-26.46819684288883
 20
-148.6114343282691
 30
0.0
 10
-26.95164163920177
 20
-148.3957745612641
 30
0.0
 10
-27.56862364066362
 20
-148.049579719174
 30
0.0
 10
-28.28868826286871
 20
-147.5059543592554
 30
0.0
 10
-28.92616819357186
 20
-146.8057105179846
 30
0.0
 10
-29.36599011939219
 20
-146.1498212099161
 30
0.0
 10
-29.65798058949369
 20
-145.6022937959457
 30
0.0
 10
-29.89858469822804
 20
-145.0128957976933
 30
0.0
 10
-30.05247681808255
 20
-144.4761003697057
 30
0.0
 10
-30.14103987744569
 20
-144.0331949410558
 30
0.0
 10
-30.18928732639255
 20
-143.6903404954551
 30
0.0
 10
-30.21943784514461
 20
-143.3457427100273
 30
0.0
 10
-30.22314778466896
 20
-143.115133426658
 30
0.0
 10
-30.22499999999999
 20
-143.0000000000001
 30
0.0
  0
LINE
  5
112
330
1F
100
AcDbEntity
  8
0
  6
Continuous
 62
     7
370
    25
100
AcDbLine
 10
-210.1964655515
 20
1.3910771278
 30
0.0
 11
-209.9998433129
 21
0.088508411
 31
0.0
  0
LINE
  5
113
330
1F
100
AcDbEntity
  8
0
  6
Continuous
 62
     7
370
    25
100
AcDbLine
 10
209.9998433129
 20
0.0885084114
 30
0.0
 11
210.1964661079
 21
1.3910790489
 31
0.0
  0
LINE
  5
114
330
1F
100
AcDbEntity
  8
0
  6
Continuous
 62
     7
370
    25
100
AcDbLine
 10
39.0
 20
-152.0
 30
0.0
 11
39.0
 21
-123.0
 31
0.0
  0
LINE
  5
115
330
1F
100
AcDbEntity
  8
0
  6
Continuous
 62
     7
370
    25
100
AcDbLine
 10
-39.0
 20
-123.0
 30
0.0
 11
-39.0
 21
-152.0
 31
0.0
  0
LINE
  5
116
330
1F
100
AcDbEntity
  8
0
  6
Continuous
 62
     7
370
    25
100
AcDbLine
 10
-235.8385244685
 20
2.0
 30
0.0
 11
-235.8385244685
 21
3.0
 31
0.0
  0
LINE
  5
117
330
1F
100
AcDbEntity
  8
0
  6
Continuous
 62
     7
370
    25
100
AcDbLine
 10
-248.7833719973
 20
1.0
 30
0.0
 11
-236.8385244685
 21
1.0
 31
0.0
  0
LINE
  5
118
330
1F
100
AcDbEntity
  8
0
  6
Continuous
 62
     7
370
    25
100
AcDbLine
 10
-248.2510657707
 20
11.1570078687
 30
0.0
 11
-248.7833719973
 21
1.0
 31
0.0
  0
LINE
  5
119
330
1F
100
AcDbEntity
  8
0
  6
Continuous
 62
     7
370
    25
100
AcDbLine
 10
245.2551771664
 20
14.0
 30
0.0
 11
-245.2551771664
 21
14.0
 31
0.0
  0
LINE
  5
11A
330
1F
100
AcDbEntity
  8
0
  6
Continuous
 62
     7
370
    25
100
AcDbLine
 10
248.7833719973
 20
1.0
 30
0.0
 11
248.2510657707
 21
11.1570078687
 31
0.0
  0
LINE
  5
11B
330
1F
100
AcDbEntity
  8
0
  6
Continuous
 62
     7
370
    25
100
AcDbLine
 10
236.8385244685
 20
1.0
 30
0.0
 11
248.7833719973
 21
1.0
 31
0.0
  0
LINE
  5
11C
330
1F
100
AcDbEntity
  8
0
  6
Continuous
 62
     7
370
    25
100
AcDbLine
 10
235.8385244685
 20
3.0
 30
0.0
 11
235.8385244685
 21
2.0
 31
0.0
  0
LINE
  5
11D
330
1F
100
AcDbEntity
  8
0
  6
Continuous
 62
     7
370
    25
100
AcDbLine
 10
210.1239397396
 20
6.0
 30
0.0
 11
232.8385244685
 21
6.0
 31
0.0
  0
LINE
  5
11E
330
1F
100
AcDbEntity
  8
0
  6
Continuous
 62
     7
370
    25
100
AcDbLine
 10
209.9776904963
 20
-0.103840599
 30
0.0
 11
182.5
 21
-128.0
 31
0.0
  0
LINE
  5
11F
330
1F
100
AcDbEntity
  8
0
  6
Continuous
 62
     7
370
    25
100
AcDbLine
 10
182.5
 20
-128.0
 30
0.0
 11
39.0
 21
-128.0
 31
0.0
  0
LINE
  5
120
330
1F
100
AcDbEntity
  8
0
  6
Continuous
 62
     7
370
    25
100
AcDbLine
 10
-39.0
 20
-128.0
 30
0.0
 11
-182.5
 21
-128.0
 31
0.0
  0
LINE
  5
121
330
1F
100
AcDbEntity
  8
0
  6
Continuous
 62
     7
370
    25
100
AcDbLine
 10
-182.5
 20
-128.0
 30
0.0
 11
-209.9776904963
 21
-0.103840599
 31
0.0
  0
LINE
  5
122
330
1F
100
AcDbEntity
  8
0
  6
Continuous
 62
     7
370
    25
100
AcDbLine
 10
-232.8385244685
 20
6.0
 30
0.0
 11
-210.1239397396
 21
6.0
 31
0.0
  0
LINE
  5
123
330
1F
100
AcDbEntity
  8
0
  6
Continuous
 62
     7
370
    25
100
AcDbLine
 10
-214.9990590523
 20
5.0
 30
0.0
 11
-232.8385244685
 21
5.0
 31
0.0
  0
LINE
  5
124
330
1F
100
AcDbEntity
  8
0
  6
Continuous
 62
     7
370
    25
100
AcDbLine
 10
232.8385244685
 20
5.0
 30
0.0
 11
214.9990592891
 21
5.0
 31
0.0
  0
LINE
  5
125
330
1F
100
AcDbEntity
  8
0
  6
Continuous
 62
     7
370
    25
100
AcDbLine
 10
-248.7833719973
 20
0.0
 30
0.0
 11
-248.7833719973
 21
1.0
 31
0.0
  0
LINE
  5
126
330
1F
100
AcDbEntity
  8
0
  6
Continuous
 62
     7
370
    25
100
AcDbLine
 10
248.7833719973
 20
0.0
 30
0.0
 11
248.7833719973
 21
1.0
 31
0.0
  0
LINE
  5
127
330
1F
100
AcDbEntity
  8
0
  6
Continuous
 62
     7
370
    25
100
AcDbLine
 10
-209.9943437112
 20
0.0
 30
0.0
 11
-248.7833719973
 21
0.0
 31
0.0
  0
LINE
  5
128
330
1F
100
AcDbEntity
  8
0
  6
Continuous
 62
     7
370
    25
100
AcDbLine
 10
-236.8385244685
 20
0.0
 30
0.0
 11
-236.8385244685
 21
1.0
 31
0.0
  0
LINE
  5
129
330
1F
100
AcDbEntity
  8
0
  6
Continuous
 62
     7
370
    25
100
AcDbLine
 10
248.7833719973
 20
0.0
 30
0.0
 11
209.9943437112
 21
0.0
 31
0.0
  0
LINE
  5
12A
330
1F
100
AcDbEntity
  8
0
  6
Continuous
 62
     7
370
    25
100
AcDbLine
 10
236.8385244685
 20
0.0
 30
0.0
 11
236.8385244685
 21
1.0
 31
0.0
  0
LINE
  5
12B
330
1F
100
AcDbEntity
  8
0
  6
Continuous
 62
     7
370
    25
100
AcDbLine
 10
248.2510657707
 20
11.1570078687
 30
0.0
 11
250.2483248402
 21
11.2616797812
 31
0.0
  0
LINE
  5
12C
330
1F
100
AcDbEntity
  8
0
  6
Continuous
 62
     7
370
    25
100
AcDbLine
 10
250.2483248402
 20
11.2616797812
 30
0.0
 11
250.783373878
 21
1.0523359562
 31
0.0
  0
LINE
  5
12D
330
1F
100
AcDbEntity
  8
0
  6
Continuous
 62
     7
370
    25
100
AcDbLine
 10
-248.2510657707
 20
11.1570078687
 30
0.0
 11
-250.2483248402
 21
11.2616797812
 31
0.0
  0
LINE
  5
12E
330
1F
100
AcDbEntity
  8
0
  6
Continuous
 62
     7
370
    25
100
AcDbLine
 10
-250.783373878
 20
1.0523359562
 30
0.0
 11
-250.2483248402
 21
11.2616797812
 31
0.0
  0
LINE
  5
12F
330
1F
100
AcDbEntity
  8
0
  6
Continuous
 62
     7
370
    25
100
AcDbLine
 10
-234.8385244685
 20
3.0
 30
0.0
 11
-234.8385244685
 21
2.0
 31
0.0
  0
LINE
  5
130
330
1F
100
AcDbEntity
  8
0
  6
Continuous
 62
     7
370
    25
100
AcDbLine
 10
-235.8385244685
 20
2.0
 30
0.0
 11
-210.4269883448
 21
2.0
 31
0.0
  0
LINE
  5
131
330
1F
100
AcDbEntity
  8
0
  6
Continuous
 62
     7
370
    25
100
AcDbLine
 10
-211.0250115328
 20
3.0
 30
0.0
 11
-235.8385244685
 21
3.0
 31
0.0
  0
LINE
  5
132
330
1F
100
AcDbEntity
  8
0
  6
Continuous
 62
     7
370
    25
100
AcDbLine
 10
235.8385244685
 20
3.0
 30
0.0
 11
211.1071714723
 21
3.0
 31
0.0
  0
LINE
  5
133
330
1F
100
AcDbEntity
  8
0
  6
Continuous
 62
     7
370
    25
100
AcDbLine
 10
245.2551771664
 20
14.0
 30
0.0
 11
245.2551771664
 21
16.0
 31
0.0
  0
LINE
  5
134
330
1F
100
AcDbEntity
  8
0
  6
Continuous
 62
     7
370
    25
100
AcDbLine
 10
234.8385244685
 20
2.0
 30
0.0
 11
234.8385244685
 21
3.0
 31
0.0
  0
LINE
  5
135
330
1F
100
AcDbEntity
  8
0
  6
Continuous
 62
     7
370
    25
100
AcDbLine
 10
210.4228691266
 20
2.0
 30
0.0
 11
235.8385244685
 21
2.0
 31
0.0
  0
LINE
  5
136
330
1F
100
AcDbEntity
  8
0
  6
Continuous
 62
     7
370
    25
100
AcDbLine
 10
-245.2551771664
 20
14.0
 30
0.0
 11
-245.2551771664
 21
16.0
 31
0.0
  0
LINE
  5
137
330
1F
100
AcDbEntity
  8
0
  6
Continuous
 62
     7
370
    25
100
AcDbLine
 10
-245.2551771664
 20
16.0
 30
0.0
 11
245.2551771664
 21
16.0
 31
0.0
  0
LINE
  5
138
330
1F
100
AcDbEntity
  8
0
  6
Continuous
 62
     7
370
    25
100
AcDbLine
 10
-25.0
 20
-123.20944533
 30
0.0
 11
25.0
 21
-123.20944533
 31
0.0
  0
LINE
  5
139
330
1F
100
AcDbEntity
  8
0
  6
Continuous
 62
     7
370
    25
100
AcDbLine
 10
-30.0
 20
-143.0
 30
0.0
 11
-30.0
 21
-75.0064126322
 31
0.0
  0
LINE
  5
13A
330
1F
100
AcDbEntity
  8
0
  6
Continuous
 62
     7
370
    25
100
AcDbLine
 10
30.0
 20
-75.0064126322
 30
0.0
 11
30.0
 21
-143.0
 31
0.0
  0
LINE
  5
13B
330
1F
100
AcDbEntity
  8
0
  6
Continuous
 62
     7
370
    25
100
AcDbLine
 10
-25.0
 20
-74.391434449
 30
0.0
 11
-25.0
 21
-148.0
 31
0.0
  0
LINE
  5
13C
330
1F
100
AcDbEntity
  8
0
  6
Continuous
 62
     7
370
    25
100
AcDbLine
 10
25.0
 20
-148.0
 30
0.0
 11
25.0
 21
-74.391434449
 31
0.0
  0
LINE
  5
13D
330
1F
100
AcDbEntity
  8
0
  6
Continuous
 62
     7
370
    25
100
AcDbLine
 10
25.0
 20
-148.0
 30
0.0
 11
-25.0
 21
-148.0
 31
0.0
  0
LINE
  5
13E
330
1F
100
AcDbEntity
  8
0
  6
Continuous
 62
     7
370
    25
100
AcDbLine
 10
35.0
 20
-75.7353959753
 30
0.0
 11
35.0
 21
-118.0
 31
0.0
  0
LINE
  5
13F
330
1F
100
AcDbEntity
  8
0
  6
Continuous
 62
     7
370
    25
100
AcDbLine
 10
-35.0
 20
-118.0
 30
0.0
 11
-35.0
 21
-75.7353959753
 31
0.0
  0
LINE
  5
140
330
1F
100
AcDbEntity
  8
0
  6
Continuous
 62
     7
370
    25
100
AcDbLine
 10
-35.0
 20
-118.0
 30
0.0
 11
-135.09466378
 21
-118.0
 31
0.0
  0
LINE
  5
141
330
1F
100
AcDbEntity
  8
0
  6
Continuous
 62
     7
370
    25
100
AcDbLine
 10
135.09466378
 20
-118.0
 30
0.0
 11
35.0
 21
-118.0
 31
0.0
  0
LINE
  5
142
330
1F
100
AcDbEntity
  8
0
  6
Continuous
 62
     7
370
    25
100
AcDbLine
 10
24.375
 20
-149.0
 30
0.0
 11
-24.375
 21
-149.0
 31
0.0
  0
LINE
  5
143
330
1F
100
AcDbEntity
  8
0
  6
Continuous
 62
     7
370
    25
100
AcDbLine
 10
30.225
 20
-123.0
 30
0.0
 11
30.225
 21
-143.0
 31
0.0
  0
LINE
  5
144
330
1F
100
AcDbEntity
  8
0
  6
Continuous
 62
     7
370
    25
100
AcDbLine
 10
0.0
 20
-149.0
 30
0.0
 11
0.0
 21
-153.0
 31
0.0
  0
LINE
  5
145
330
1F
100
AcDbEntity
  8
0
  6
Continuous
 62
     7
370
    25
100
AcDbLine
 10
-30.225
 20
-143.0
 30
0.0
 11
-30.225
 21
-123.0
 31
0.0
  0
LINE
  5
146
330
1F
100
AcDbEntity
  8
0
  6
Continuous
 62
     7
370
    25
100
AcDbLine
 10
38.0
 20
-153.0
 30
0.0
 11
-38.0
 21
-153.0
 31
0.0
  0
LINE
  5
147
330
1F
100
AcDbEntity
  8
0
  6
Continuous
 62
     7
370
    25
100
AcDbLine
 10
-30.225
 20
-143.0
 30
0.0
 11
-30.0
 21
-143.0
 31
0.0
  0
LINE
  5
148
330
1F
100
AcDbEntity
  8
0
  6
Continuous
 62
     7
370
    25
100
AcDbLine
 10
30.225
 20
-143.0
 30
0.0
 11
30.0
 21
-143.0
 31
0.0
  0
LINE
  5
149
330
1F
100
AcDbEntity
  8
0
  6
Continuous
 62
     7
370
    25
100
AcDbLine
 10
39.0
 20
-123.0
 30
0.0
 11
30.0
 21
-123.0
 31
0.0
  0
LINE
  5
14A
330
1F
100
AcDbEntity
  8
0
  6
Continuous
 62
     7
370
    25
100
AcDbLine
 10
-30.0
 20
-123.0
 30
0.0
 11
-39.0
 21
-123.0
 31
0.0
  0
LINE
  5
14B
330
1F
100
AcDbEntity
  8
0
  6
Continuous
 62
     7
370
    25
100
AcDbLine
 10
-127.5
 20
-128.0
 30
0.0
 11
-127.5
 21
-118.0
 31
0.0
  0
LINE
  5
14C
330
1F
100
AcDbEntity
  8
0
  6
Continuous
 62
     7
370
    25
100
AcDbLine
 10
127.5
 20
-128.0
 30
0.0
 11
127.5
 21
-118.0
 31
0.0
  0
LINE
  5
14D
330
1F
100
AcDbEntity
  8
0
  6
Continuous
 62
     7
370
    25
100
AcDbLine
 10
232.8385244685
 20
0.0
 30
0.0
 11
232.8385244685
 21
6.0
 31
0.0
  0
LINE
  5
14E
330
1F
100
AcDbEntity
  8
0
  6
Continuous
 62
     7
370
    25
100
AcDbLine
 10
-232.8385244685
 20
0.0
 30
0.0
 11
-232.8385244685
 21
6.0
 31
0.0
  0
LINE
  5
14F
330
1F
100
AcDbEntity
  8
0
  6
Continuous
 62
     8
370
    25
100
AcDbLine
 10
-109.6280154235
 20
-101.4729635533
 30
0.0
 11
-35.0
 21
-101.4729635533
 31
0.0
  0
LINE
  5
150
330
1F
100
AcDbEntity
  8
0
  6
Continuous
 62
     8
370
    25
100
AcDbLine
 10
35.0
 20
-101.4729635533
 30
0.0
 11
109.6280154235
 21
-101.4729635533
 31
0.0
  0
LINE
  5
151
330
1F
100
AcDbEntity
  8
0
  6
Continuous
 62
     8
370
    25
100
AcDbLine
 10
-39.0
 20
-152.0
 30
0.0
 11
39.0
 21
-152.0
 31
0.0
  0
LINE
  5
152
330
1F
100
AcDbEntity
  8
0
  6
Continuous
 62
     8
370
    25
100
AcDbLine
 10
-39.0
 20
-126.2635182233
 30
0.0
 11
-145.4711111857
 21
-126.2635182233
 31
0.0
  0
LINE
  5
153
330
1F
100
AcDbEntity
  8
0
  6
Continuous
 62
     8
370
    25
100
AcDbLine
 10
-145.5701215748
 20
-126.3472963553
 30
0.0
 11
-39.0
 21
-126.3472963553
 31
0.0
  0
LINE
  5
154
330
1F
100
AcDbEntity
  8
0
  6
Continuous
 62
     8
370
    25
100
AcDbLine
 10
145.4711111857
 20
-126.2635182233
 30
0.0
 11
39.0
 21
-126.2635182233
 31
0.0
  0
LINE
  5
155
330
1F
100
AcDbEntity
  8
0
  6
Continuous
 62
     8
370
    25
100
AcDbLine
 10
39.0
 20
-126.3472963553
 30
0.0
 11
145.5701215748
 21
-126.3472963553
 31
0.0
  0
ARC
  5
156
330
1F
100
AcDbEntity
  8
0
  6
Continuous
 62
     7
370
    25
100
AcDbCircle
 10
38.0
 20
-152.0
 30
0.0
 40
1.0
100
AcDbArc
 50
270.0
 51
0.0
  0
ARC
  5
157
330
1F
100
AcDbEntity
  8
0
  6
Continuous
 62
     7
370
    25
100
AcDbCircle
 10
-38.0
 20
-152.0
 30
0.0
 40
1.000000000000007
100
AcDbArc
 50
180.0
 51
270.0
  0
ARC
  5
158
330
1F
100
AcDbEntity
  8
0
  6
Continuous
 62
     7
370
    25
100
AcDbCircle
 10
44.0
 20
-123.0
 30
0.0
 40
5.000000000000014
100
AcDbArc
 50
90.0
 51
180.0
  0
ARC
  5
159
330
1F
100
AcDbEntity
  8
0
  6
Continuous
 62
     7
370
    25
100
AcDbCircle
 10
-44.0
 20
-123.0
 30
0.0
 40
5.0
100
AcDbArc
 50
0.0
 51
90.0
  0
ARC
  5
15A
330
1F
100
AcDbEntity
  8
0
  6
Continuous
 62
     7
370
    25
100
AcDbCircle
 10
-232.8385244685
 20
3.0
 30
0.0
 40
3.000000000000004
100
AcDbArc
 50
90.0
 51
180.0
  0
ARC
  5
15B
330
1F
100
AcDbEntity
  8
0
  6
Continuous
 62
     7
370
    25
100
AcDbCircle
 10
-236.8385244685
 20
2.0
 30
0.0
 40
1.000000000000028
100
AcDbArc
 50
270.0
 51
0.0
  0
ARC
  5
15C
330
1F
100
AcDbEntity
  8
0
  6
Continuous
 62
     7
370
    25
100
AcDbCircle
 10
-245.2551771664
 20
11.0
 30
0.0
 40
3.000000000000647
100
AcDbArc
 50
90.0
 51
177.0
  0
ARC
  5
15D
330
1F
100
AcDbEntity
  8
0
  6
Continuous
 62
     7
370
    25
100
AcDbCircle
 10
245.2551771664
 20
11.0
 30
0.0
 40
2.999999999999719
100
AcDbArc
 50
3.0
 51
90.0
  0
ARC
  5
15E
330
1F
100
AcDbEntity
  8
0
  6
Continuous
 62
     7
370
    25
100
AcDbCircle
 10
236.8385244685
 20
2.0
 30
0.0
 40
1.000000000000057
100
AcDbArc
 50
180.0
 51
270.0
  0
ARC
  5
15F
330
1F
100
AcDbEntity
  8
0
  6
Continuous
 62
     7
370
    25
100
AcDbCircle
 10
232.8385244685
 20
3.0
 30
0.0
 40
3.0
100
AcDbArc
 50
0.0
 51
90.0
  0
ARC
  5
160
330
1F
100
AcDbEntity
  8
0
  6
Continuous
 62
     7
370
    25
100
AcDbCircle
 10
209.0
 20
0.1062100935
 30
0.0
 40
1.000000000013567
100
AcDbArc
 50
347.874677026
 51
359.7926138546
  0
ARC
  5
161
330
1F
100
AcDbEntity
  8
0
  6
Continuous
 62
     7
370
    25
100
AcDbCircle
 10
0.0
 20
-298.2840909091
 30
0.0
 40
225.2840909090909
100
AcDbArc
 50
49.1009047784
 51
130.8990952216
  0
ARC
  5
162
330
1F
100
AcDbEntity
  8
0
  6
Continuous
 62
     7
370
    25
100
AcDbCircle
 10
-209.0
 20
0.1062100935
 30
0.0
 40
1.000000000025934
100
AcDbArc
 50
180.2061026317
 51
192.1253229739
  0
ARC
  5
163
330
1F
100
AcDbEntity
  8
0
  6
Continuous
 62
     7
370
    25
100
AcDbCircle
 10
-249.7847443433
 20
1.0
 30
0.0
 40
0.9999999999999432
100
AcDbArc
 50
176.9999999998
 51
270.0
  0
ARC
  5
164
330
1F
100
AcDbEntity
  8
0
  6
Continuous
 62
     7
370
    25
100
AcDbCircle
 10
249.7847443432
 20
1.0
 30
0.0
 40
0.9999999999999432
100
AcDbArc
 50
270.0
 51
3.0000000002
  0
ARC
  5
165
330
1F
100
AcDbEntity
  8
0
  6
Continuous
 62
     7
370
    25
100
AcDbCircle
 10
232.8385244685
 20
3.0
 30
0.0
 40
1.999999999999978
100
AcDbArc
 50
0.0
 51
90.0
  0
ARC
  5
166
330
1F
100
AcDbEntity
  8
0
  6
Continuous
 62
     7
370
    25
100
AcDbCircle
 10
245.2551771664
 20
11.0
 30
0.0
 40
5.00000000000035
100
AcDbArc
 50
3.0
 51
90.0
  0
ARC
  5
167
330
1F
100
AcDbEntity
  8
0
  6
Continuous
 62
     7
370
    25
100
AcDbCircle
 10
-236.8385244685
 20
2.0
 30
0.0
 40
2.0
100
AcDbArc
 50
270.0
 51
0.0
  0
ARC
  5
168
330
1F
100
AcDbEntity
  8
0
  6
Continuous
 62
     7
370
    25
100
AcDbCircle
 10
-232.8385244685
 20
3.0
 30
0.0
 40
2.000000000000057
100
AcDbArc
 50
90.0
 51
180.0
  0
ARC
  5
169
330
1F
100
AcDbEntity
  8
0
  6
Continuous
 62
     7
370
    25
100
AcDbCircle
 10
-245.2551771664
 20
11.0
 30
0.0
 40
4.999999999999771
100
AcDbArc
 50
90.0
 51
177.0
  0
ARC
  5
16A
330
1F
100
AcDbEntity
  8
0
  6
Continuous
 62
     7
370
    25
100
AcDbCircle
 10
236.8385244685
 20
2.0
 30
0.0
 40
2.000000000000086
100
AcDbArc
 50
180.0
 51
270.0
  0
ARC
  5
16B
330
1F
100
AcDbEntity
  8
0
  6
Continuous
 62
     7
370
    25
100
AcDbCircle
 10
-25.0
 20
-143.0
 30
0.0
 40
5.000000000000039
100
AcDbArc
 50
180.0
 51
270.0
  0
ARC
  5
16C
330
1F
100
AcDbEntity
  8
0
  6
Continuous
 62
     7
370
    25
100
AcDbCircle
 10
25.0
 20
-143.0
 30
0.0
 40
4.999999999999982
100
AcDbArc
 50
270.0
 51
0.0
  0
ARC
  5
16D
330
1F
100
AcDbEntity
  8
0
  6
Continuous
 62
     7
370
    25
100
AcDbCircle
 10
35.0
 20
-123.0
 30
0.0
 40
5.0
100
AcDbArc
 50
90.0
 51
180.0
  0
ARC
  5
16E
330
1F
100
AcDbEntity
  8
0
  6
Continuous
 62
     7
370
    25
100
AcDbCircle
 10
-35.0
 20
-123.0
 30
0.0
 40
5.0
100
AcDbArc
 50
0.0
 51
90.0
  0
SPLINE
  5
16F
330
1B
100
AcDbEntity
 67
     1
  8
0
  6
Continuous
 62
     7
370
    25
100
AcDbSpline
210
0.0
220
0.0
230
1.0
 70
     8
 71
     3
 72
    11
 73
     7
 74
     0
 42
0.000000001
 43
0.00000001
 40
0.0
 40
0.0
 40
0.0
 40
0.0
 40
0.2352320948789634
 40
0.4867319056094543
 40
0.7453062453184175
 40
1.0
 40
1.0
 40
1.0
 40
1.0
 10
250.1986617975626
 20
11.28595071108457
 30
0.0
 10
250.1460534969436
 20
11.7311163145709
 30
0.0
 10
250.037198714928
 20
12.6522334036661
 30
0.0
 10
249.3757234708239
 20
13.92921750289601
 30
0.0
 10
248.3751964929749
 20
15.02457474009546
 30
0.0
 10
247.4840264828934
 20
15.45587681795199
 30
0.0
 10
247.0418103420346
 20
15.66989741812526
 30
0.0
  0
SPLINE
  5
170
330
1B
100
AcDbEntity
 67
     1
  8
0
  6
Continuous
 62
     7
370
    25
100
AcDbSpline
210
0.0
220
0.0
230
1.0
 70
     8
 71
     3
 72
    11
 73
     7
 74
     0
 42
0.000000001
 43
0.00000001
 40
0.0
 40
0.0
 40
0.0
 40
0.0
 40
0.2546937546830072
 40
0.5132680943917578
 40
0.764767905121463
 40
1.0
 40
1.0
 40
1.0
 40
1.0
 10
-247.0418103423016
 20
15.6698974180231
 30
0.0
 10
-247.4840264831291
 20
15.4558768178355
 30
0.0
 10
-248.375196493145
 20
15.02457473995146
 30
0.0
 10
-249.3757234709021
 20
13.92921750277067
 30
0.0
 10
-250.0371987149419
 20
12.65223340359448
 30
0.0
 10
-250.1460534969485
 20
11.7311163145478
 30
0.0
 10
-250.1986617975631
 20
11.28595071108462
 30
0.0
  0
SPLINE
  5
175
330
1B
100
AcDbEntity
 67
     1
  8
0
  6
Continuous
 62
     7
370
    25
100
AcDbSpline
210
0.0
220
0.0
230
1.0
 70
     8
 71
     3
 72
    30
 73
    26
 74
     0
 42
0.000000001
 43
0.00000001
 40
0.0
 40
0.0
 40
0.0
 40
0.0
 40
0.0411920285229683
 40
0.0825905321787902
 40
0.1241957203657722
 40
0.1660077993715814
 40
0.2080269724314283
 40
0.2502534397849336
 40
0.2926873987317822
 40
0.3353290436861721
 40
0.3781785662300221
 40
0.4212361551650843
 40
0.4645019965639086
 40
0.5079762738196714
 40
0.5516591676949745
 40
0.5955508563695789
 40
0.639651515487107
 40
0.6839613182007439
 40
0.7284804352179918
 40
0.7732090348444305
 40
0.818147283026585
 40
0.8632953433938573
 40
0.9086533772996077
 40
0.9542215438613216
 40
1.0
 40
1.0
 40
1.0
 40
1.0
 10
-247.858982044153
 20
1.073913062467083
 30
0.0
 10
-247.7821178323788
 20
1.073909814663543
 30
0.0
 10
-247.6280041268012
 20
1.073903302776846
 30
0.0
 10
-247.3870523273305
 20
1.073839752051789
 30
0.0
 10
-247.1384105640784
 20
1.073723479784627
 30
0.0
 10
-246.8815608038577
 20
1.073541795328412
 30
0.0
 10
-246.6168640518809
 20
1.073286807751123
 30
0.0
 10
-246.3444629367979
 20
1.072950461622896
 30
0.0
 10
-246.0645781378406
 20
1.072525927390475
 30
0.0
 10
-245.7774285158239
 20
1.072007275913125
 30
0.0
 10
-245.4832527917492
 20
1.071389615634674
 30
0.0
 10
-245.1823037824097
 20
1.070669104210664
 30
0.0
 10
-244.8748500102689
 20
1.069842993230028
 30
0.0
 10
-244.5611752881605
 20
1.068909663086037
 30
0.0
 10
-244.2415788144682
 20
1.067868659427165
 30
0.0
 10
-243.9163750930253
 20
1.066720728061257
 30
0.0
 10
-243.5858938613969
 20
1.065467848649998
 30
0.0
 10
-243.2504799769253
 20
1.064113268331432
 30
0.0
 10
-242.9104932718945
 20
1.062661529653022
 30
0.0
 10
-242.5663083773574
 20
1.061118513587728
 30
0.0
 10
-242.2183145000872
 20
1.059491418936256
 30
0.0
 10
-241.8669152100916
 20
1.057788973329532
 30
0.0
 10
-241.5125280177175
 20
1.056020765758267
 30
0.0
 10
-241.1555845671027
 20
1.054199871861047
 30
0.0
 10
-240.9167638062135
 20
1.052958214258007
 30
0.0
 10
-240.7970785304564
 20
1.052335956242989
 30
0.0
  0
SPLINE
  5
178
330
1B
100
AcDbEntity
 67
     1
  8
0
  6
Continuous
 62
     7
370
    25
100
AcDbSpline
210
0.0
220
0.0
230
1.0
 70
    24
 71
     3
 72
    14
 73
    10
 74
     0
 42
0.000000001
 43
0.00000001
 40
0.0
 40
0.0
 40
0.0
 40
0.0
 40
0.25
 40
0.25
 40
0.5
 40
0.5
 40
0.75
 40
0.75
 40
1.0
 40
1.0
 40
1.0
 40
1.0
 10
-240.7970785304565
 20
0.0
 30
0.0
 10
-241.3709388913725
 20
0.0
 30
0.0
 10
-241.9557401350945
 20
0.0
 30
0.0
 10
-243.114257096923
 20
0.0
 30
0.0
 10
-243.6877561942725
 20
0.0
 30
0.0
 10
-244.7889800110617
 20
0.0
 30
0.0
 10
-245.3164949318581
 20
0.0
 30
0.0
 10
-246.2963577236098
 20
0.0
 30
0.0
 10
-246.7485834555809
 20
0.0
 30
0.0
 10
-247.153809420182
 20
0.0
 30
0.0
  0
SPLINE
  5
17C
330
1B
100
AcDbEntity
 67
     1
  8
0
  6
Continuous
 62
     7
370
    25
100
AcDbSpline
210
0.0
220
0.0
230
1.0
 70
     8
 71
     3
 72
    33
 73
    29
 74
     0
 42
0.000000001
 43
0.00000001
 40
0.0
 40
0.0
 40
0.0
 40
0.0
 40
0.0405071054937105
 40
0.080849632144111
 40
0.1210276883608445
 40
0.1610413838929635
 40
0.2008908298501178
 40
0.2405761387241392
 40
0.280097424411037
 40
0.3194548022334223
 40
0.3586483889633523
 40
0.397678302845599
 40
0.4365446636213875
 40
0.4752475925525756
 40
0.5137872124462978
 40
0.5521636476800885
 40
0.5903770242274946
 40
0.6284274696841868
 40
0.6663151132945606
 40
0.7040400859788751
 40
0.7416025203609212
 40
0.7790025507962135
 40
0.816240313400755
 40
0.8533159460803572
 40
0.8902295885605419
 40
0.9269813824170254
 40
0.963571471106838
 40
1.0
 40
1.0
 40
1.0
 40
1.0
 10
240.7970785304564
 20
1.052335956242947
 30
0.0
 10
240.9029820662261
 20
1.052886738990885
 30
0.0
 10
241.1143588556902
 20
1.053986066677212
 30
0.0
 10
241.4304572183405
 20
1.055603767536981
 30
0.0
 10
241.7446345919914
 20
1.057182483945693
 30
0.0
 10
242.0565894529128
 20
1.058712728770048
 30
0.0
 10
242.3660289260234
 20
1.060187505495844
 30
0.0
 10
242.67266856681
 20
1.061600258034506
 30
0.0
 10
242.9762326332732
 20
1.062945400502086
 30
0.0
 10
243.2764542048598
 20
1.064218158790653
 30
0.0
 10
243.5730753200591
 20
1.065414594331238
 30
0.0
 10
243.8658470873885
 20
1.066531578327645
 30
0.0
 10
244.1545297823214
 20
1.067566778232345
 30
0.0
 10
244.4388929272527
 20
1.068518640079716
 30
0.0
 10
244.7187153559841
 20
1.069386371104472
 30
0.0
 10
244.9937852621594
 20
1.070169921526074
 30
0.0
 10
245.263900234962
 20
1.070869965870858
 30
0.0
 10
245.5288672720691
 20
1.071487883749986
 30
0.0
 10
245.788502809003
 20
1.072025740338198
 30
0.0
 10
246.0426326219154
 20
1.072486265940475
 30
0.0
 10
246.2910921360911
 20
1.072872837116115
 30
0.0
 10
246.5337251686919
 20
1.073189450418857
 30
0.0
 10
246.7703884180106
 20
1.073440722112809
 30
0.0
 10
247.0009345889757
 20
1.073631790373106
 30
0.0
 10
247.2252746746576
 20
1.073768578038786
 30
0.0
 10
247.4431467046448
 20
1.073856717756477
 30
0.0
 10
247.6549727292661
 20
1.073905435733033
 30
0.0
 10
247.791079321596
 20
1.073910523975097
 30
0.0
 10
247.8589820441532
 20
1.073913062467055
 30
0.0
  0
SPLINE
  5
17E
330
1B
100
AcDbEntity
 67
     1
  8
0
  6
Continuous
 62
     7
370
    25
100
AcDbSpline
210
0.0
220
0.0
230
1.0
 70
    24
 71
     3
 72
    14
 73
    10
 74
     0
 42
0.000000001
 43
0.00000001
 40
0.0
 40
0.0
 40
0.0
 40
0.0
 40
0.25
 40
0.25
 40
0.5
 40
0.5
 40
0.75
 40
0.75
 40
1.0
 40
1.0
 40
1.0
 40
1.0
 10
247.153809420182
 20
0.0
 30
0.0
 10
246.7485834555809
 20
0.0
 30
0.0
 10
246.2963577236098
 20
0.0
 30
0.0
 10
245.316494931858
 20
0.0
 30
0.0
 10
244.7889800110617
 20
0.0
 30
0.0
 10
243.6877561942725
 20
0.0
 30
0.0
 10
243.114257096923
 20
0.0
 30
0.0
 10
241.9557401350944
 20
0.0
 30
0.0
 10
241.3709388913724
 20
0.0
 30
0.0
 10
240.7970785304565
 20
0.0
 30
0.0
  0
SPLINE
  5
17F
330
1B
100
AcDbEntity
 67
     1
  8
0
  6
Continuous
 62
     7
370
    25
100
AcDbSpline
210
0.0
220
0.0
230
1.0
 70
     8
 71
     3
 72
    30
 73
    26
 74
     0
 42
0.000000001
 43
0.00000001
 40
0.0
 40
0.0
 40
0.0
 40
0.0
 40
0.0412034049556834
 40
0.0826131950665297
 40
0.1242294347930003
 40
0.1660521876356023
 40
0.2080815161534515
 40
0.250317481982367
 40
0.2927601458525694
 40
0.3354095676059279
 40
0.3782658062128607
 40
0.421328919788751
 40
0.4645989656100943
 40
0.5080760001301821
 40
0.5517600789944507
 40
0.5956512570555235
 40
0.6397495883878203
 40
0.6840551263019381
 40
0.7285679233586178
 40
0.7732880313824506
 40
0.8182155014752497
 40
0.863350384029148
 40
0.9086927287393732
 40
0.9542425846167645
 40
1.0
 40
1.0
 40
1.0
 40
1.0
 10
-247.319409773467
 20
11.36956531233528
 30
0.0
 10
-247.3948508792171
 20
11.3695304964981
 30
0.0
 10
-247.546110970272
 20
11.36946069043347
 30
0.0
 10
-247.7639050401074
 20
11.36888817154597
 30
0.0
 10
-247.9753381958407
 20
11.3679603779763
 30
0.0
 10
-248.1793860351207
 20
11.36663446145916
 30
0.0
 10
-248.3758879979877
 20
11.36491067206138
 30
0.0
 10
-248.5644529926353
 20
11.36277875666587
 30
0.0
 10
-248.7447555998576
 20
11.36023247884557
 30
0.0
 10
-248.916456917966
 20
11.35726574925311
 30
0.0
 10
-249.0792267508952
 20
11.35387371945741
 30
0.0
 10
-249.2327384605067
 20
11.35005253535394
 30
0.0
 10
-249.3766712144799
 20
11.34579945156351
 30
0.0
 10
-249.5107102590648
 20
11.34111284756711
 30
0.0
 10
-249.6345477262427
 20
11.33599226895246
 30
0.0
 10
-249.7478833662746
 20
11.33043846200611
 30
0.0
 10
-249.8504251072035
 20
11.32445340380205
 30
0.0
 10
-249.9418904490945
 20
11.31804035066768
 30
0.0
 10
-250.0220047262939
 20
11.31120380998317
 30
0.0
 10
-250.0905111867448
 20
11.30394979425565
 30
0.0
 10
-250.1471366883123
 20
11.29628500731701
 30
0.0
 10
-250.1917242126053
 20
11.28822003619828
 30
0.0
 10
-250.2237385065121
 20
11.27975748187268
 30
0.0
 10
-250.2441274054529
 20
11.2709366783485
 30
0.0
 10
-250.2469235765331
 20
11.26477008622094
 30
0.0
 10
-250.2483248401983
 20
11.26167978121474
 30
0.0
  0
SPLINE
  5
180
330
1B
100
AcDbEntity
 67
     1
  8
0
  6
Continuous
 62
     7
370
    25
100
AcDbSpline
210
0.0
220
0.0
230
1.0
 70
     8
 71
     3
 72
    33
 73
    29
 74
     0
 42
0.000000001
 43
0.00000001
 40
0.0
 40
0.0
 40
0.0
 40
0.0
 40
0.0404883517816245
 40
0.0808142708051899
 40
0.1209777904973141
 40
0.1609789446943403
 40
0.2008177676489304
 40
0.2404942940367658
 40
0.2800085589633975
 40
0.3193605979712321
 40
0.3585504470466778
 40
0.3975781426273863
 40
0.4364437216096881
 40
0.4751472213561586
 40
0.5136886797033443
 40
0.5520681349696362
 40
0.5902856259633326
 40
0.6283411919908324
 40
0.6662348728650278
 40
0.703966708913857
 40
0.7415367409890387
 40
0.7789450104749842
 40
0.8161915592979206
 40
0.8532764299351752
 40
0.89019966542467
 40
0.9269613093746374
 40
0.9635614059734929
 40
1.0
 40
1.0
 40
1.0
 40
1.0
 10
-240.2620294926526
 20
11.26167978121478
 30
0.0
 10
-240.3678195855387
 20
11.26441725810319
 30
0.0
 10
-240.578975358466
 20
11.26988122956281
 30
0.0
 10
-240.8947452857231
 20
11.27774264406488
 30
0.0
 10
-241.2086079365913
 20
11.28532597979355
 30
0.0
 10
-241.5202613554119
 20
11.29260116846566
 30
0.0
 10
-241.8294127832264
 20
11.29956669506278
 30
0.0
 10
-242.1357777456976
 20
11.30621454373966
 30
0.0
 10
-242.4390805098919
 20
11.31253951747028
 30
0.0
 10
-242.7390541539822
 20
11.31853673868526
 30
0.0
 10
-243.0354407179526
 20
11.32420229646178
 30
0.0
 10
-243.3279913110931
 20
11.32953305473286
 30
0.0
 10
-243.6164662098538
 20
11.33452668297634
 30
0.0
 10
-243.9006349375634
 20
11.33918162677258
 30
0.0
 10
-244.1802763289775
 20
11.34349709356404
 30
0.0
 10
-244.4551785786976
 20
11.34747303358342
 30
0.0
 10
-244.7251392768657
 20
11.3511101214757
 30
0.0
 10
-244.9899654221352
 20
11.3544097367299
 30
0.0
 10
-245.2494734509579
 20
11.35737394523652
 30
0.0
 10
-245.5034891405913
 20
11.36000547490823
 30
0.0
 10
-245.7518479167878
 20
11.36230771142176
 30
0.0
 10
-245.9943935995113
 20
11.36428461775703
 30
0.0
 10
-246.2309828812872
 20
11.36594093488774
 30
0.0
 10
-246.4614684927483
 20
11.36728133879371
 30
0.0
 10
-246.6857613368527
 20
11.36831346620004
 30
0.0
 10
-246.9035997798647
 20
11.36903659548166
 30
0.0
 10
-247.1154046334167
 20
11.36948351162508
 30
0.0
 10
-247.2515083772892
 20
11.36953808565642
 30
0.0
 10
-247.319409773467
 20
11.36956531233528
 30
0.0
  0
SPLINE
  5
182
330
1B
100
AcDbEntity
 67
     1
  8
0
  6
Continuous
 62
     7
370
    25
100
AcDbSpline
210
0.0
220
0.0
230
1.0
 70
     8
 71
     3
 72
    33
 73
    29
 74
     0
 42
0.000000001
 43
0.00000001
 40
0.0
 40
0.0
 40
0.0
 40
0.0
 40
0.0405071054937077
 40
0.0808496321441053
 40
0.1210276883608394
 40
0.161041383892956
 40
0.2008908298501074
 40
0.2405761387241255
 40
0.2800974244110246
 40
0.3194548022334124
 40
0.3586483889633406
 40
0.3976783028455859
 40
0.4365446636213762
 40
0.4752475925525642
 40
0.5137872124462857
 40
0.5521636476800756
 40
0.5903770242274792
 40
0.6284274696841705
 40
0.6663151132945466
 40
0.70404008597886
 40
0.7416025203609117
 40
0.7790025507962046
 40
0.8162403134007467
 40
0.8533159460803496
 40
0.8902295885605349
 40
0.9269813824170241
 40
0.9635714711068348
 40
1.0
 40
1.0
 40
1.0
 40
1.0
 10
-250.7833738780022
 20
1.052335956242989
 30
0.0
 10
-250.7823747291503
 20
1.052886738990927
 30
0.0
 10
-250.7803804909506
 20
1.05398606667724
 30
0.0
 10
-250.7646824779292
 20
1.055603767537008
 30
0.0
 10
-250.7398388198569
 20
1.057182483945707
 30
0.0
 10
-250.7050834039495
 20
1.058712728770103
 30
0.0
 10
-250.6608117185796
 20
1.060187505495871
 30
0.0
 10
-250.6071202337473
 20
1.061600258034534
 30
0.0
 10
-250.544194851926
 20
1.062945400502113
 30
0.0
 10
-250.4722069405217
 20
1.064218158790695
 30
0.0
 10
-250.3913404971802
 20
1.065414594331265
 30
0.0
 10
-250.3017843973857
 20
1.066531578327673
 30
0.0
 10
-250.2037339433676
 20
1.067566778232373
 30
0.0
 10
-250.0973899400053
 20
1.068518640079744
 30
0.0
 10
-249.982958433918
 20
1.0693863711045
 30
0.0
 10
-249.8606502806066
 20
1.070169921526101
 30
0.0
 10
-249.7306807652733
 20
1.070869965870885
 30
0.0
 10
-249.5932692081598
 20
1.071487883750013
 30
0.0
 10
-249.4486386092862
 20
1.072025740338239
 30
0.0
 10
-249.297015185397
 20
1.072486265940503
 30
0.0
 10
-249.1386283324208
 20
1.072872837116157
 30
0.0
 10
-248.9737090416048
 20
1.073189450418885
 30
0.0
 10
-248.8024940813821
 20
1.073440722112837
 30
0.0
 10
-248.6252088350697
 20
1.073631790373133
 30
0.0
 10
-248.4421293119535
 20
1.073768578038814
 30
0.0
 10
-248.2533506498278
 20
1.073856717756505
 30
0.0
 10
-248.059643850226
 20
1.073905435733061
 30
0.0
 10
-247.9257705775743
 20
1.073910523975125
 30
0.0
 10
-247.858982044153
 20
1.073913062467083
 30
0.0
  0
SPLINE
  5
184
330
1B
100
AcDbEntity
 67
     1
  8
0
  6
Continuous
 62
     7
370
    25
100
AcDbSpline
210
0.0
220
0.0
230
1.0
 70
     8
 71
     3
 72
    30
 73
    26
 74
     0
 42
0.000000001
 43
0.00000001
 40
0.0
 40
0.0
 40
0.0
 40
0.0
 40
0.0412034049556835
 40
0.0826131950665249
 40
0.1242294347929906
 40
0.1660521876355926
 40
0.2080815161534391
 40
0.2503174819823499
 40
0.2927601458525523
 40
0.3354095676059139
 40
0.3782658062128388
 40
0.4213289197887309
 40
0.4645989656100743
 40
0.5080760001301607
 40
0.5517600789944319
 40
0.5956512570555025
 40
0.6397495883878014
 40
0.6840551263019229
 40
0.7285679233586068
 40
0.7732880313824363
 40
0.8182155014752382
 40
0.8633503840291408
 40
0.9086927287393697
 40
0.9542425846167607
 40
1.0
 40
1.0
 40
1.0
 40
1.0
 10
247.3194097734671
 20
11.36956531233524
 30
0.0
 10
247.2425472632588
 20
11.36953049649804
 30
0.0
 10
247.0884372435657
 20
11.36946069043342
 30
0.0
 10
246.8475125579598
 20
11.36888817154592
 30
0.0
 10
246.5989137744257
 20
11.36796037797624
 30
0.0
 10
246.3421244466479
 20
11.36663446145914
 30
0.0
 10
246.077505147
 20
11.36491067206134
 30
0.0
 10
245.8051986195726
 20
11.36277875666583
 30
0.0
 10
245.5254255098843
 20
11.36023247884552
 30
0.0
 10
245.2384046856813
 20
11.35726574925307
 30
0.0
 10
244.9443748637932
 20
11.35387371945737
 30
0.0
 10
244.6435888598787
 20
11.3500525353539
 30
0.0
 10
244.3363151944362
 20
11.34579945156348
 30
0.0
 10
244.0228376785701
 20
11.34111284756709
 30
0.0
 10
243.7034555088749
 20
11.33599226895242
 30
0.0
 10
243.378483187441
 20
11.33043846200607
 30
0.0
 10
243.0482504500334
 20
11.32445340380202
 30
0.0
 10
242.7131021524614
 20
11.31804035066764
 30
0.0
 10
242.3733981245615
 20
11.31120380998316
 30
0.0
 10
242.0295129984711
 20
11.30394979425563
 30
0.0
 10
241.681835968889
 20
11.29628500731698
 30
0.0
 10
241.3307706433236
 20
11.28822003619827
 30
0.0
 10
240.9767343834759
 20
11.27975748187265
 30
0.0
 10
240.6201593844589
 20
11.27093667834847
 30
0.0
 10
240.3815868974211
 20
11.26477008622093
 30
0.0
 10
240.2620294926527
 20
11.26167978121472
 30
0.0
  0
SPLINE
  5
187
330
1B
100
AcDbEntity
 67
     1
  8
0
  6
Continuous
 62
     7
370
    25
100
AcDbSpline
210
0.0
220
0.0
230
1.0
 70
     8
 71
     3
 72
    30
 73
    26
 74
     0
 42
0.000000001
 43
0.00000001
 40
0.0
 40
0.0
 40
0.0
 40
0.0
 40
0.0411920285229685
 40
0.0825905321787905
 40
0.1241957203657677
 40
0.1660077993715798
 40
0.208026972431424
 40
0.2502534397849286
 40
0.2926873987317784
 40
0.3353290436861654
 40
0.3781785662300124
 40
0.421236155165078
 40
0.4645019965639025
 40
0.5079762738196634
 40
0.5516591676949655
 40
0.5955508563695723
 40
0.6396515154870992
 40
0.6839613182007386
 40
0.7284804352179867
 40
0.7732090348444262
 40
0.818147283026581
 40
0.8632953433938569
 40
0.9086533772996039
 40
0.9542215438613216
 40
1.0
 40
1.0
 40
1.0
 40
1.0
 10
247.8589820441532
 20
1.073913062467055
 30
0.0
 10
247.9344215388233
 20
1.073909814663515
 30
0.0
 10
248.0856786687954
 20
1.073903302776819
 30
0.0
 10
248.3034464195323
 20
1.073839752051775
 30
0.0
 10
248.5148373699984
 20
1.0737234797846
 30
0.0
 10
248.7188255281696
 20
1.07354179532837
 30
0.0
 10
248.9152507650658
 20
1.073286807751109
 30
0.0
 10
249.1037218713991
 20
1.072950461622868
 30
0.0
 10
249.283913459761
 20
1.072525927390447
 30
0.0
 10
249.4554866196638
 20
1.072007275913098
 30
0.0
 10
249.6181111574165
 20
1.071389615634646
 30
0.0
 10
249.77146043429
 20
1.070669104210636
 30
0.0
 10
249.9152136182755
 20
1.06984299323
 30
0.0
 10
250.0490559557795
 20
1.06890966308601
 30
0.0
 10
250.1726795790728
 20
1.067868659427124
 30
0.0
 10
250.285784238775
 20
1.06672072806123
 30
0.0
 10
250.3880778633012
 20
1.06546784864997
 30
0.0
 10
250.479277953442
 20
1.064113268331418
 30
0.0
 10
250.5591098431456
 20
1.062661529653008
 30
0.0
 10
250.6273167850533
 20
1.0611185135877
 30
0.0
 10
250.6836256208831
 20
1.059491418936256
 30
0.0
 10
250.727879402745
 20
1.057788973329504
 30
0.0
 10
250.7595425916421
 20
1.056020765758253
 30
0.0
 10
250.7795641979254
 20
1.054199871860992
 30
0.0
 10
250.7821020371853
 20
1.052958214257965
 30
0.0
 10
250.7833738780023
 20
1.052335956242961
 30
0.0
  0
SPLINE
  5
190
330
1B
100
AcDbEntity
 67
     1
  8
0
  6
Continuous
 62
     7
370
    25
100
AcDbSpline
210
0.0
220
0.0
230
1.0
 70
    24
 71
     3
 72
    10
 73
     6
 74
     0
 42
0.000000001
 43
0.00000001
 40
0.0
 40
0.0
 40
0.0
 40
0.0
 40
0.5
 40
0.5
 40
1.0
 40
1.0
 40
1.0
 40
1.0
 10
240.262029492653
 20
16.0
 30
0.0
 10
240.8996521158928
 20
16.00000000000001
 30
0.0
 10
241.5620660234426
 20
16.00000000000003
 30
0.0
 10
242.7856480420972
 20
16.00000000000001
 30
0.0
 10
243.3432955818326
 20
16.00000000000001
 30
0.0
 10
243.7935466536115
 20
16.0
 30
0.0
  0
LWPOLYLINE
  5
191
330
1B
100
AcDbEntity
 67
     1
  8
0
  6
Continuous
 62
     7
370
    25
100
AcDbPolyline
 90
        9
 70
   128
 43
0.0
 10
247.3194097735
 20
11.3695653123
 10
247.2092652807
 20
12.290632605
 10
246.9798946407
 20
13.1666501819
 10
246.6393040683
 20
13.9670405244
 10
246.1993819264
 20
14.6638658929
 10
245.67548376
 20
15.2328034983
 10
245.0858963098
 20
15.6539944921
 10
244.45119921
 20
15.9127371424
 10
243.7935466536
 20
16.0
  0
SPLINE
  5
192
330
1B
100
AcDbEntity
 67
     1
  8
0
  6
Continuous
 62
     7
370
    25
100
AcDbSpline
210
0.0
220
0.0
230
1.0
 70
    24
 71
     3
 72
    10
 73
     6
 74
     0
 42
0.000000001
 43
0.00000001
 40
0.0
 40
0.0
 40
0.0
 40
0.0
 40
0.5
 40
0.5
 40
1.0
 40
1.0
 40
1.0
 40
1.0
 10
-243.7935466536115
 20
16.0
 30
0.0
 10
-243.3432955818323
 20
16.0
 30
0.0
 10
-242.7856480420971
 20
16.00000000000001
 30
0.0
 10
-241.5620660234425
 20
16.00000000000001
 30
0.0
 10
-240.8996521158929
 20
16.0
 30
0.0
 10
-240.262029492653
 20
16.0
 30
0.0
  0
LWPOLYLINE
  5
193
330
1B
100
AcDbEntity
 67
     1
  8
0
  6
Continuous
 62
     7
370
    25
100
AcDbPolyline
 90
        9
 70
   128
 43
0.0
 10
-247.3194097735
 20
11.3695653123
 10
-247.2092652807
 20
12.290632605
 10
-246.9798946407
 20
13.1666501819
 10
-246.6393040683
 20
13.9670405244
 10
-246.1993819264
 20
14.6638658929
 10
-245.67548376
 20
15.2328034983
 10
-245.0858963098
 20
15.6539944921
 10
-244.45119921
 20
15.9127371424
 10
-243.7935466536
 20
16.0
  0
SPLINE
  5
196
330
1B
100
AcDbEntity
 67
     1
  8
0
  6
Continuous
 62
     7
370
    25
100
AcDbSpline
210
0.0
220
0.0
230
1.0
 70
    24
 71
     3
 72
    14
 73
    10
 74
     0
 42
0.000000001
 43
0.00000001
 40
0.0
 40
0.0
 40
0.0
 40
0.0
 40
0.25
 40
0.25
 40
0.5
 40
0.5
 40
0.75
 40
0.75
 40
1.0
 40
1.0
 40
1.0
 40
1.0
 10
-247.153809420182
 20
0.0
 30
0.0
 10
-247.5590353847831
 20
0.0
 30
0.0
 10
-247.9329271546981
 20
0.0
 30
0.0
 10
-248.5900970015475
 20
0.0
 30
0.0
 10
-248.8731914560915
 20
0.0
 30
0.0
 10
-249.3289678996695
 20
0.0
 30
0.0
 10
-249.5015630568737
 20
0.0
 30
0.0
 10
-249.7294295707051
 20
0.0
 30
0.0
 10
-249.7847443432476
 20
0.0
 30
0.0
 10
-249.7847443432475
 20
0.0
 30
0.0
  0
SPLINE
  5
199
330
1B
100
AcDbEntity
 67
     1
  8
0
  6
Continuous
 62
     7
370
    25
100
AcDbSpline
210
0.0
220
0.0
230
1.0
 70
    24
 71
     3
 72
    14
 73
    10
 74
     0
 42
0.000000001
 43
0.00000001
 40
0.0
 40
0.0
 40
0.0
 40
0.0
 40
0.25
 40
0.25
 40
0.5
 40
0.5
 40
0.75
 40
0.75
 40
1.0
 40
1.0
 40
1.0
 40
1.0
 10
249.784744343248
 20
0.0
 30
0.0
 10
249.784744343248
 20
0.0
 30
0.0
 10
249.7294295707053
 20
0.0
 30
0.0
 10
249.5015630568738
 20
0.0
 30
0.0
 10
249.3289678996697
 20
0.0
 30
0.0
 10
248.8731914560915
 20
0.0
 30
0.0
 10
248.5900970015476
 20
0.0
 30
0.0
 10
247.9329271546982
 20
0.0
 30
0.0
 10
247.5590353847832
 20
0.0
 30
0.0
 10
247.153809420182
 20
0.0
 30
0.0
  0
SPLINE
  5
19A
330
1B
100
AcDbEntity
 67
     1
  8
0
  6
Continuous
 62
     7
370
    25
100
AcDbSpline
210
0.0
220
0.0
230
1.0
 70
    24
 71
     3
 72
    10
 73
     6
 74
     0
 42
0.000000001
 43
0.00000001
 40
0.0
 40
0.0
 40
0.0
 40
0.0
 40
0.5
 40
0.5
 40
1.0
 40
1.0
 40
1.0
 40
1.0
 10
243.7935466536115
 20
16.0
 30
0.0
 10
244.2437977253906
 20
16.00000000000001
 30
0.0
 10
244.6221543281229
 20
16.00000000000003
 30
0.0
 10
245.1285725987652
 20
16.00000000000001
 30
0.0
 10
245.2551771664257
 20
16.00000000000001
 30
0.0
 10
245.2551771664255
 20
16.0
 30
0.0
  0
SPLINE
  5
19D
330
1B
100
AcDbEntity
 67
     1
  8
0
  6
Continuous
 62
     7
370
    25
100
AcDbSpline
210
0.0
220
0.0
230
1.0
 70
    24
 71
     3
 72
    10
 73
     6
 74
     0
 42
0.000000001
 43
0.00000001
 40
0.0
 40
0.0
 40
0.0
 40
0.0
 40
0.5
 40
0.5
 40
1.0
 40
1.0
 40
1.0
 40
1.0
 10
-245.2551771664255
 20
16.0
 30
0.0
 10
-245.2551771664257
 20
16.00000000000001
 30
0.0
 10
-245.1285725987653
 20
16.00000000000003
 30
0.0
 10
-244.6221543281228
 20
16.00000000000001
 30
0.0
 10
-244.2437977253906
 20
16.00000000000001
 30
0.0
 10
-243.7935466536115
 20
16.0
 30
0.0
  0
SPLINE
  5
19E
330
1B
100
AcDbEntity
 67
     1
  8
0
  6
Continuous
 62
     7
370
    25
100
AcDbSpline
210
0.0
220
0.0
230
1.0
 70
     8
 71
     3
 72
    23
 73
    19
 74
     0
 42
0.000000001
 43
0.00000001
 40
0.0
 40
0.0
 40
0.0
 40
0.0
 40
0.0078124999999999
 40
0.0078124999999999
 40
0.0156249999999998
 40
0.0312499999999999
 40
0.0624999999999998
 40
0.1249999999999997
 40
0.2499999999999997
 40
0.4999999999999997
 40
0.7499999999999996
 40
0.8749999999999996
 40
0.9374999999999996
 40
0.9687499999999997
 40
0.9843749999999997
 40
0.9921874999999999
 40
0.9921874999999999
 40
1.0
 40
1.0
 40
1.0
 40
1.0
 10
175.00072811374
 20
-0.1195386595952419
 30
0.0
 10
174.0892659923179
 20
-0.1171182834221601
 30
0.0
 10
173.1778038628071
 20
-0.1194299994187464
 30
0.0
 10
171.3548796116989
 20
-0.1194299994186493
 30
0.0
 10
168.6204932350364
 20
-0.1194299994187048
 30
0.0
 10
162.240258356157
 20
-0.119429999418677
 30
0.0
 10
149.479788598399
 20
-0.1194299994186077
 30
0.0
 10
123.9588490828826
 20
-0.1194299994183856
 30
0.0
 10
72.91697005185031
 20
-0.1194299994183995
 30
0.0
 10
0.0000000075182106
 20
-0.1194299994191489
 30
0.0
 10
-72.91697003681426
 20
-0.1194299994183856
 30
0.0
 10
-123.9588490678466
 20
-0.1194299994187603
 30
0.0
 10
-149.479788583363
 20
-0.1194299994184272
 30
0.0
 10
-162.2402583411208
 20
-0.1194299994188713
 30
0.0
 10
-168.6204932200004
 20
-0.1194299994186077
 30
0.0
 10
-171.354879596663
 20
-0.1194299994186493
 30
0.0
 10
-173.177803847771
 20
-0.1194299994187187
 30
0.0
 10
-174.0892659787574
 20
-0.1171182823961475
 30
0.0
 10
-175.0007280986385
 20
-0.119538659019966
 30
0.0
  0
SPLINE
  5
19F
330
1B
100
AcDbEntity
 67
     1
  8
0
  6
Continuous
 62
     7
370
    25
100
AcDbSpline
210
0.0
220
0.0
230
1.0
 70
     8
 71
     3
 72
    76
 73
    72
 74
     0
 42
0.000000001
 43
0.00000001
 40
0.0
 40
0.0
 40
0.0
 40
0.0
 40
0.0109009630948383
 40
0.0217860210125193
 40
0.0326564463262048
 40
0.0435134733001817
 40
0.05435829685774
 40
0.0651920716284156
 40
0.0760159110766636
 40
0.0868308867138379
 40
0.0976380273949935
 40
0.108438318701864
 40
0.119232702413104
 40
0.1300220761814346
 40
0.1408073414538129
 40
0.1515894842415644
 40
0.1623694800483436
 40
0.173148275366129
 40
0.1839267875563118
 40
0.1947059048022878
 40
0.2054864861341598
 40
0.2162693615260523
 40
0.2270553320664351
 40
0.2378451702018236
 40
0.2486396200540196
 40
0.2594394070495493
 40
0.2702453816074537
 40
0.2810585024305962
 40
0.2918797231384321
 40
0.3027099892886866
 40
0.3135502388797862
 40
0.3244014029050739
 40
0.3352644059588781
 40
0.3461401668944503
 40
0.3570295995337236
 40
0.3679336134287913
 40
0.3788531146734182
 40
0.3897890066370434
 40
0.4007421907260234
 40
0.4117135675029903
 40
0.4227040377211632
 40
0.4337145033888429
 40
0.4447458688835906
 40
0.4557990421154401
 40
0.466874935738506
 40
0.4779744684101728
 40
0.4890985660970759
 40
0.5002481632134805
 40
0.5225071856794549
 40
0.5446687890760658
 40
0.566739755101755
 40
0.5887268945119709
 40
0.6106370788826598
 40
0.6324772683405645
 40
0.6542545371310394
 40
0.6759760909600573
 40
0.6976492798137306
 40
0.7192816090313039
 40
0.7408807465384155
 40
0.7624541697913805
 40
0.7840078900946389
 40
0.8055479070655432
 40
0.8270807802326962
 40
0.8486136165274881
 40
0.870154052395507
 40
0.891709908375609
 40
0.9132885351116679
 40
0.9348978371319779
 40
0.9565464821665554
 40
0.9782438540224462
 40
1.0
 40
1.0
 40
1.0
 40
1.0
 10
209.9776520209436
 20
-0.1039723436096623
 30
0.0
 10
209.9763806401808
 20
-0.1046093117729047
 30
0.0
 10
209.9738397336783
 20
-0.1058823187235769
 30
0.0
 10
209.9571026966247
 20
-0.1077458584032437
 30
0.0
 10
209.9309401692346
 20
-0.1095738319970979
 30
0.0
 10
209.8944596657383
 20
-0.1113630643750918
 30
0.0
 10
209.8479440763029
 20
-0.1131144047148425
 30
0.0
 10
209.7913635840927
 20
-0.1148276259878428
 30
0.0
 10
209.7247736508496
 20
-0.1165027890485948
 30
0.0
 10
209.648208575717
 20
-0.1181398777651138
 30
0.0
 10
209.5617099681745
 20
-0.1197388966075741
 30
0.0
 10
209.4653191918061
 20
-0.1212998446218361
 30
0.0
 10
209.3590792046865
 20
-0.1228227220760325
 30
0.0
 10
209.2430346202584
 20
-0.1243075321039483
 30
0.0
 10
209.1172283426366
 20
-0.1257542817516416
 30
0.0
 10
208.9816899134789
 20
-0.1271629622998371
 30
0.0
 10
208.836450985101
 20
-0.1285335735519283
 30
0.0
 10
208.681543902983
 20
-0.1298661155000741
 30
0.0
 10
208.5170022660703
 20
-0.1311605883157763
 30
0.0
 10
208.3428608058694
 20
-0.1324169921335383
 30
0.0
 10
208.1591554250083
 20
-0.1336353271019913
 30
0.0
 10
207.9659232079195
 20
-0.1348155933906664
 30
0.0
 10
207.7632023837388
 20
-0.135957791106367
 30
0.0
 10
207.5510325084722
 20
-0.1370619206159523
 30
0.0
 10
207.3294537544118
 20
-0.1381279816368292
 30
0.0
 10
207.0985082624516
 20
-0.139155982543035
 30
0.0
 10
206.8582269431053
 20
-0.1401459213313527
 30
0.0
 10
206.6086329528758
 20
-0.1410977917153805
 30
0.0
 10
206.3497511754142
 20
-0.1420115942983025
 30
0.0
 10
206.0816069965083
 20
-0.142887328972649
 30
0.0
 10
205.8042268881485
 20
-0.1437249958500669
 30
0.0
 10
205.517638266195
 20
-0.1445245949830837
 30
0.0
 10
205.2218695360517
 20
-0.1452861264391037
 30
0.0
 10
204.9169500881282
 20
-0.146009590279883
 30
0.0
 10
204.6029103060405
 20
-0.1466949865662898
 30
0.0
 10
204.2797815742807
 20
-0.1473423153567355
 30
0.0
 10
203.9475962767229
 20
-0.1479515767028733
 30
0.0
 10
203.6063878419351
 20
-0.1485227706521375
 30
0.0
 10
203.2561907943893
 20
-0.1490558972598727
 30
0.0
 10
202.89704067505
 20
-0.1495509565666159
 30
0.0
 10
202.5289740591029
 20
-0.1500079486241035
 30
0.0
 10
202.152028561949
 20
-0.1504268734198455
 30
0.0
 10
201.7662428302166
 20
-0.150807731155847
 30
0.0
 10
201.3716566071547
 20
-0.1511505212042352
 30
0.0
 10
200.9683105150154
 20
-0.1514552460145646
 30
0.0
 10
200.5562468982494
 20
-0.1517218964844497
 30
0.0
 10
200.135506697436
 20
-0.151950506730697
 30
0.0
 10
199.5638784884979
 20
-0.1522040486816451
 30
0.0
 10
198.8317487009663
 20
-0.1524258360269953
 30
0.0
 10
197.9269072843958
 20
-0.1525394771498961
 30
0.0
 10
196.9982133177394
 20
-0.1524999766595592
 30
0.0
 10
196.0467951153548
 20
-0.1523073970215588
 30
0.0
 10
195.0737491765418
 20
-0.1519617196003714
 30
0.0
 10
194.0801508441233
 20
-0.1514629469668155
 30
0.0
 10
193.0670521619847
 20
-0.1508110757919706
 30
0.0
 10
192.0354827372996
 20
-0.1500061042645218
 30
0.0
 10
190.9864495674455
 20
-0.1490480298709795
 30
0.0
 10
189.9209376853535
 20
-0.1479368511050627
 30
0.0
 10
188.8399154990103
 20
-0.1466725703344746
 30
0.0
 10
187.7443663179131
 20
-0.1452552493219489
 30
0.0
 10
186.6352294161275
 20
-0.143684835745575
 30
0.0
 10
185.5134603805627
 20
-0.1419613084244625
 30
0.0
 10
184.3800025400661
 20
-0.1400846617238549
 30
0.0
 10
183.2357760542119
 20
-0.1380548949244803
 30
0.0
 10
182.0816852865542
 20
-0.1358719992344826
 30
0.0
 10
180.9186324515842
 20
-0.1335360904260452
 30
0.0
 10
179.7474945528738
 20
-0.1310468513627955
 30
0.0
 10
178.5691559360003
 20
-0.1284051910260264
 30
0.0
 10
177.3844799208983
 20
-0.125607657527893
 30
0.0
 10
176.1943135161107
 20
-0.1226671572826937
 30
0.0
 10
175.3989485113477
 20
-0.120582432073163
 30
0.0
 10
175.0007281137405
 20
-0.1195386595952697
 30
0.0
  0
SPLINE
  5
1A0
330
1B
100
AcDbEntity
 67
     1
  8
0
  6
Continuous
 62
     7
370
    25
100
AcDbSpline
210
0.0
220
0.0
230
1.0
 70
     8
 71
     3
 72
    76
 73
    72
 74
     0
 42
0.000000001
 43
0.00000001
 40
0.0
 40
0.0
 40
0.0
 40
0.0
 40
0.0108962975410086
 40
0.02177658620711
 40
0.032642183287954
 40
0.0434943680489418
 40
0.0543343798847728
 40
0.0651634165471399
 40
0.075982632450812
 40
0.0867931370621577
 40
0.0975959933735757
 40
0.108392216467234
 40
0.1191827721709263
 40
0.1299685758086945
 40
0.1407505178050358
 40
0.1515295875004758
 40
0.1623067897368375
 40
0.1730830975704446
 40
0.1838594514834385
 40
0.1946367587058998
 40
0.2054158926158749
 40
0.2161976922190814
 40
0.2269829617098377
 40
0.2377724701148068
 40
0.2485669510206942
 40
0.2593671026459702
 40
0.2701736787204115
 40
0.2809876332168776
 40
0.2918099425877437
 40
0.3026415728538736
 40
0.3134834796849659
 40
0.3243366085381731
 40
0.3352018948560311
 40
0.34608026432469
 40
0.3569726331933021
 40
0.3678799086554337
 40
0.3788029892931877
 40
0.3897427655280208
 40
0.4007001197964264
 40
0.4116759273514624
 40
0.4226710571417002
 40
0.4336863725792529
 40
0.4447227323730583
 40
0.4557809914286275
 40
0.4668620018143583
 40
0.4779666137946189
 40
0.4890956769295619
 40
0.5002500412417119
 40
0.5224990385642868
 40
0.5446501939552614
 40
0.566710863917026
 40
0.5886883100224765
 40
0.6105897380587
 40
0.6324223342527362
 40
0.6541932991819286
 40
0.6759098770066807
 40
0.6975793802503761
 40
0.7192092130649151
 40
0.7408068913236838
 40
0.7623799217902555
 40
0.7839347003749643
 40
0.8054772902530354
 40
0.8270142027787125
 40
0.8485524122221842
 40
0.8700993577060334
 40
0.8916627494983768
 40
0.9132498903732169
 40
0.9348684726023216
 40
0.9565268778415684
 40
0.9782341562294697
 40
1.0
 40
1.0
 40
1.0
 40
1.0
 10
-175.0007280986393
 20
-0.1195386590199521
 30
0.0
 10
-175.2001659758343
 20
-0.1200648284783445
 30
0.0
 10
-175.5987487154626
 20
-0.1211163943452831
 30
0.0
 10
-176.1960161345802
 20
-0.1226470546962094
 30
0.0
 10
-176.7921170167904
 20
-0.1241419372954439
 30
0.0
 10
-177.3869482903019
 20
-0.1255977973969036
 30
0.0
 10
-177.980407096517
 20
-0.1270155027521119
 30
0.0
 10
-178.5723887104697
 20
-0.1283948213323671
 30
0.0
 10
-179.1627870850861
 20
-0.1297358153048156
 30
0.0
 10
-179.7514946928996
 20
-0.1310384681595111
 30
0.0
 10
-180.3384025583604
 20
-0.1323027844723629
 30
0.0
 10
-180.9234002288884
 20
-0.1335287631765575
 30
0.0
 10
-181.506375800259
 20
-0.1347164048395161
 30
0.0
 10
-182.0872162659201
 20
-0.1358657101970806
 30
0.0
 10
-182.6658106593405
 20
-0.1369766875763678
 30
0.0
 10
-183.2420463556588
 20
-0.1380493306431391
 30
0.0
 10
-183.8158120233213
 20
-0.1390836374690896
 30
0.0
 10
-184.386995887437
 20
-0.1400796082902389
 30
0.0
 10
-184.9554847284363
 20
-0.1410372432073259
 30
0.0
 10
-185.5211639156711
 20
-0.1419565423722291
 30
0.0
 10
-186.0839173862531
 20
-0.1428375059349951
 30
0.0
 10
-186.643627641344
 20
-0.1436801340628235
 30
0.0
 10
-187.2001757277878
 20
-0.1444844269117701
 30
0.0
 10
-187.7534412607282
 20
-0.1452503847151621
 30
0.0
 10
-188.3033023010383
 20
-0.1459780074582334
 30
0.0
 10
-188.8496373241137
 20
-0.1466672980485612
 30
0.0
 10
-189.3923274190173
 20
-0.1473182617537233
 30
0.0
 10
-189.9312499675368
 20
-0.1479308908089449
 30
0.0
 10
-190.4662858977163
 20
-0.1485051850971808
 30
0.0
 10
-190.9973151165053
 20
-0.1490411445529832
 30
0.0
 10
-191.5242162144479
 20
-0.1495387692777156
 30
0.0
 10
-192.0468663866181
 20
-0.1499980593306083
 30
0.0
 10
-192.565141443418
 20
-0.1504190147839646
 30
0.0
 10
-193.0789157971855
 20
-0.1508016357075759
 30
0.0
 10
-193.5880624554493
 20
-0.1511459221721634
 30
0.0
 10
-194.0924530116826
 20
-0.151451874247574
 30
0.0
 10
-194.591957638407
 20
-0.1517194920023085
 30
0.0
 10
-195.0864450638947
 20
-0.1519487754988447
 30
0.0
 10
-195.5757826195232
 20
-0.1521397248055723
 30
0.0
 10
-196.0598361940627
 20
-0.1522923399899095
 30
0.0
 10
-196.5384702164554
 20
-0.1524066210966679
 30
0.0
 10
-197.0115476501575
 20
-0.1524825682301389
 30
0.0
 10
-197.4789299978899
 20
-0.1525201812521138
 30
0.0
 10
-197.9404772398574
 20
-0.1525194609082459
 30
0.0
 10
-198.3960480255409
 20
-0.1524804046095785
 30
0.0
 10
-198.8454989148572
 20
-0.1524030222224831
 30
0.0
 10
-199.2886871787432
 20
-0.1522872769471328
 30
0.0
 10
-199.8699266321636
 20
-0.1520823797439563
 30
0.0
 10
-200.5762950877414
 20
-0.1517316995751361
 30
0.0
 10
-201.3904036964232
 20
-0.1511580813967073
 30
0.0
 10
-202.169533801415
 20
-0.1504324827222014
 30
0.0
 10
-202.9133581047565
 20
-0.1495548338669023
 30
0.0
 10
-203.6215743511488
 20
-0.148525152232043
 30
0.0
 10
-204.293894417739
 20
-0.1473434315636402
 30
0.0
 10
-204.9300473077793
 20
-0.1460096715353437
 30
0.0
 10
-205.5297785530857
 20
-0.1445238701658774
 30
0.0
 10
-206.0928491839095
 20
-0.1428860251331543
 30
0.0
 10
-206.6190370258763
 20
-0.1410961360228391
 30
0.0
 10
-207.1081301266471
 20
-0.1391541986890676
 30
0.0
 10
-207.5599381409755
 20
-0.1370602847736574
 30
0.0
 10
-207.9741755633545
 20
-0.1348143553643322
 30
0.0
 10
-208.3505203145877
 20
-0.1324163668394579
 30
0.0
 10
-208.688672113337
 20
-0.1298663159829683
 30
0.0
 10
-208.9883490574122
 20
-0.1271642023895764
 30
0.0
 10
-209.2492793891911
 20
-0.1243100111562173
 30
0.0
 10
-209.4712368554058
 20
-0.1213038704988983
 30
0.0
 10
-209.653804509637
 20
-0.1181454687452788
 30
0.0
 10
-209.7969050563233
 20
-0.114835685107742
 30
0.0
 10
-209.8992358741837
 20
-0.1113711423881281
 30
0.0
 10
-209.9641847943274
 20
-0.1077644691422491
 30
0.0
 10
-209.973158915533
 20
-0.1052375201743283
 30
0.0
 10
-209.9776520209379
 20
-0.1039723435842521
 30
0.0
  0
SPLINE
  5
1A1
330
1B
100
AcDbEntity
 67
     1
  8
0
  6
Continuous
 62
     7
370
    25
100
AcDbSpline
210
0.0
220
0.0
230
1.0
 70
    24
 71
     3
 72
    37
 73
    33
 74
     0
 42
0.000000001
 43
0.00000001
 40
0.0
 40
0.0
 40
0.0
 40
0.0
 40
0.0104446963508592
 40
0.0208755518009454
 40
0.0312953466467241
 40
0.0417068700455463
 40
0.0521129178058111
 40
0.0625162901504972
 40
0.072919789462942
 40
0.0833262180239073
 40
0.093738375749062
 40
0.1041590579359969
 40
0.1145910530298076
 40
0.1250371404161002
 40
0.187526729137135
 40
0.2500254481321647
 40
0.3125150368535253
 40
0.375013755848314
 40
0.437503344571526
 40
0.5000020635643946
 40
0.5624916522872585
 40
0.6249903712805223
 40
0.6874799600046779
 40
0.7499786789966191
 40
0.8124682677191956
 40
0.8749669867127187
 40
0.8958418653583887
 40
0.9166724928678585
 40
0.9374812133983698
 40
0.9582904416759234
 40
0.9791225907875625
 40
1.0
 40
1.0
 40
1.0
 40
1.0
 10
182.5
 20
-128.0
 30
0.0
 10
182.4991025735183
 20
-128.0
 30
0.0
 10
182.4973089097892
 20
-128.0
 30
0.0
 10
182.4827746970823
 20
-128.0
 30
0.0
 10
182.4595657272267
 20
-127.9999999999999
 30
0.0
 10
182.4268349761571
 20
-128.0
 30
0.0
 10
182.3848090579856
 20
-128.0
 30
0.0
 10
182.3334273210265
 20
-128.0
 30
0.0
 10
182.272705988771
 20
-128.0
 30
0.0
 10
182.2026408306089
 20
-128.0
 30
0.0
 10
182.1232326486332
 20
-128.0
 30
0.0
 10
182.0344826142993
 20
-128.0
 30
0.0
 10
181.9363854257773
 20
-128.0
 30
0.0
 10
181.6506356867831
 20
-128.0
 30
0.0
 10
181.0475260159684
 20
-128.0
 30
0.0
 10
179.8874682680369
 20
-128.0
 30
0.0
 10
178.4176229264634
 20
-128.0
 30
0.0
 10
176.6479791675631
 20
-128.0000000000001
 30
0.0
 10
174.5995438324137
 20
-128.0
 30
0.0
 10
172.2883572033872
 20
-128.0
 30
0.0
 10
169.7400430400571
 20
-128.0
 30
0.0
 10
166.9761306489796
 20
-128.0
 30
0.0
 10
164.0258789887195
 20
-128.0
 30
0.0
 10
160.915412745482
 20
-128.0
 30
0.0
 10
157.6767638208136
 20
-128.0
 30
0.0
 10
155.0796278633542
 20
-127.9999999999999
 30
0.0
 10
153.2012387865819
 20
-128.0
 30
0.0
 10
152.0681504792637
 20
-128.0
 30
0.0
 10
150.9313717243521
 20
-128.0
 30
0.0
 10
149.7908744887461
 20
-128.0
 30
0.0
 10
148.6466709947734
 20
-128.0
 30
0.0
 10
147.8825000720837
 20
-128.0
 30
0.0
 10
147.5000000001031
 20
-128.0
 30
0.0
  0
SPLINE
  5
1A3
330
1B
100
AcDbEntity
 67
     1
  8
0
  6
Continuous
 62
     7
370
    25
100
AcDbSpline
210
0.0
220
0.0
230
1.0
 70
    24
 71
     3
 72
    36
 73
    32
 74
     0
 42
0.000000001
 43
0.00000001
 40
0.0
 40
0.0
 40
0.0
 40
0.0
 40
0.0104446704738342
 40
0.0208755127629163
 40
0.0312953071806652
 40
0.041706842891233
 40
0.0521129156995714
 40
0.062516325814927
 40
0.0729198755966092
 40
0.0833263672910933
 40
0.0937386007695813
 40
0.1041593712751436
 40
0.1145914671884478
 40
0.1250376678209732
 40
0.1875270650713342
 40
0.2500265056607539
 40
0.3125159029133847
 40
0.3750153435005158
 40
0.4375047407549602
 40
0.5000041813402883
 40
0.5624935785957557
 40
0.6249930191800442
 40
0.6874824164339994
 40
0.7499818570197941
 40
0.8124712542757114
 40
0.8749706948595852
 40
0.9062221392337816
 40
0.9374835997481258
 40
0.9583238991928013
 40
0.9791552506831387
 40
1.0
 40
1.0
 40
1.0
 40
1.0
 10
-147.5000000003135
 20
-128.0
 30
0.0
 10
-147.691352055166
 20
-128.0
 30
0.0
 10
-148.0738028249905
 20
-128.0
 30
0.0
 10
-148.6469979031934
 20
-128.0
 30
0.0
 10
-149.2192809646005
 20
-128.0
 30
0.0
 10
-149.7906519056437
 20
-128.0
 30
0.0
 10
-150.3611106006873
 20
-128.0
 30
0.0
 10
-150.9306569135242
 20
-128.0
 30
0.0
 10
-151.4992907692062
 20
-128.0
 30
0.0
 10
-152.0670118592279
 20
-128.0000000000001
 30
0.0
 10
-152.6338207535331
 20
-128.0
 30
0.0
 10
-153.1997147475755
 20
-128.0
 30
0.0
 10
-153.7647033855427
 20
-128.0
 30
0.0
 10
-155.2650622176066
 20
-128.0
 30
0.0
 10
-157.6766269873477
 20
-128.0
 30
0.0
 10
-160.9150796563679
 20
-128.0
 30
0.0
 10
-164.025724894504
 20
-128.0
 30
0.0
 10
-166.9758381787294
 20
-128.0
 30
0.0
 10
-169.739906065516
 20
-128.0
 30
0.0
 10
-172.2881089962476
 20
-128.0000000000001
 30
0.0
 10
-174.5994311976495
 20
-128.0
 30
0.0
 10
-176.6477845416404
 20
-128.0
 30
0.0
 10
-178.4175378880304
 20
-128.0
 30
0.0
 10
-179.8873392134157
 20
-128.0
 30
0.0
 10
-181.0474548802592
 20
-128.0
 30
0.0
 10
-181.7433122353186
 20
-128.0
 30
0.0
 10
-182.1350710486564
 20
-128.0
 30
0.0
 10
-182.3222429467116
 20
-128.0
 30
0.0
 10
-182.4308860680621
 20
-128.0
 30
0.0
 10
-182.4892002633019
 20
-128.0
 30
0.0
 10
-182.4963993163287
 20
-128.0
 30
0.0
 10
-182.5
 20
-128.0
 30
0.0
  0
LWPOLYLINE
  5
1A5
330
1B
100
AcDbEntity
 67
     1
  8
0
  6
Continuous
 62
     7
370
    25
100
AcDbPolyline
 90
        2
 70
   128
 43
0.0
 10
-209.9776904963
 20
-0.103840599
 10
-209.9776904963
 20
-0.103840599
  0
LWPOLYLINE
  5
1A6
330
1B
100
AcDbEntity
 67
     1
  8
0
  6
Continuous
 62
     7
370
    25
100
AcDbPolyline
 90
        2
 70
   128
 43
0.0
 10
209.9776904963
 20
-0.103840599
 10
209.9776904963
 20
-0.103840599
  0
SPLINE
  5
1AB
330
1B
100
AcDbEntity
 67
     1
  8
0
  6
Continuous
 62
     8
370
    25
100
AcDbSpline
210
0.0
220
0.0
230
1.0
 70
     8
 71
     3
 72
    11
 73
     7
 74
     0
 42
0.000000001
 43
0.00000001
 40
0.0
 40
0.0
 40
0.0
 40
0.0
 40
0.1547145492439293
 40
0.4442694991599874
 40
0.7260277499342036
 40
1.0
 40
1.0
 40
1.0
 40
1.0
 10
250.1474868704628
 20
11.28456028639577
 30
0.0
 10
250.1217549262664
 20
11.29315931878042
 30
0.0
 10
250.0478645389925
 20
11.31785181104737
 30
0.0
 10
249.4935732909587
 20
11.34498628166476
 30
0.0
 10
248.5909513679519
 20
11.36604623467047
 30
0.0
 10
247.7392795537141
 20
11.36840329422102
 30
0.0
 10
247.319409773467
 20
11.36956531233524
 30
0.0
  0
LINE
  5
1B3
330
1B
100
AcDbEntity
 67
     1
  8
0
  6
Continuous
 62
     7
370
    25
100
AcDbLine
 10
39.0
 20
-152.0
 30
0.0
 11
39.0
 21
-128.0
 31
0.0
  0
LINE
  5
1B4
330
1B
100
AcDbEntity
 67
     1
  8
0
  6
Continuous
 62
     7
370
    25
100
AcDbLine
 10
-39.0
 20
-128.0
 30
0.0
 11
-39.0
 21
-152.0
 31
0.0
  0
LINE
  5
1B5
330
1B
100
AcDbEntity
 67
     1
  8
0
  6
Continuous
 62
     7
370
    25
100
AcDbLine
 10
-240.7970785305
 20
0.0
 30
0.0
 11
-240.7970785305
 21
1.0523359562
 31
0.0
  0
LINE
  5
1B6
330
1B
100
AcDbEntity
 67
     1
  8
0
  6
Continuous
 62
     7
370
    25
100
AcDbLine
 10
240.7970785305
 20
0.0
 30
0.0
 11
240.7970785305
 21
1.0523359562
 31
0.0
  0
LINE
  5
1B7
330
1B
100
AcDbEntity
 67
     1
  8
0
  6
Continuous
 62
     7
370
    25
100
AcDbLine
 10
-240.2620294927
 20
11.2616797812
 30
0.0
 11
-240.7970785305
 21
1.0523359562
 31
0.0
  0
LINE
  5
1B8
330
1B
100
AcDbEntity
 67
     1
  8
0
  6
Continuous
 62
     7
370
    25
100
AcDbLine
 10
-250.783373878
 20
1.0523359562
 30
0.0
 11
-250.2483248402
 21
11.2616797812
 31
0.0
  0
LINE
  5
1B9
330
1B
100
AcDbEntity
 67
     1
  8
0
  6
Continuous
 62
     7
370
    25
100
AcDbLine
 10
250.2483248402
 20
11.2616797812
 30
0.0
 11
250.1474868705
 21
11.2845602864
 31
0.0
  0
LINE
  5
1BA
330
1B
100
AcDbEntity
 67
     1
  8
0
  6
Continuous
 62
     7
370
    25
100
AcDbLine
 10
250.2483248402
 20
11.2616797812
 30
0.0
 11
250.783373878
 21
1.0523359562
 31
0.0
  0
LINE
  5
1BB
330
1B
100
AcDbEntity
 67
     1
  8
0
  6
Continuous
 62
     7
370
    25
100
AcDbLine
 10
240.7970785305
 20
1.0523359562
 30
0.0
 11
240.2620294927
 21
11.2616797812
 31
0.0
  0
LINE
  5
1BC
330
1B
100
AcDbEntity
 67
     1
  8
0
  6
Continuous
 62
     7
370
    25
100
AcDbLine
 10
-240.7970785305
 20
1.0523359562
 30
0.0
 11
240.7970785305
 21
1.0523359562
 31
0.0
  0
LINE
  5
1BD
330
1B
100
AcDbEntity
 67
     1
  8
0
  6
Continuous
 62
     7
370
    25
100
AcDbLine
 10
240.7970785305
 20
1.0
 30
0.0
 11
-240.7970785305
 21
1.0
 31
0.0
  0
LINE
  5
1BE
330
1B
100
AcDbEntity
 67
     1
  8
0
  6
Continuous
 62
     7
370
    25
100
AcDbLine
 10
240.2620294927
 20
11.2616797812
 30
0.0
 11
-240.2620294927
 21
11.2616797812
 31
0.0
  0
LINE
  5
1BF
330
1B
100
AcDbEntity
 67
     1
  8
0
  6
Continuous
 62
     7
370
    25
100
AcDbLine
 10
240.7970785305
 20
0.0
 30
0.0
 11
-240.7970785305
 21
0.0
 31
0.0
  0
LINE
  5
1C0
330
1B
100
AcDbEntity
 67
     1
  8
0
  6
Continuous
 62
     7
370
    25
100
AcDbLine
 10
-240.2620294927
 20
16.0
 30
0.0
 11
240.2620294927
 21
16.0
 31
0.0
  0
LINE
  5
1C1
330
1B
100
AcDbEntity
 67
     1
  8
0
  6
Continuous
 62
     7
370
    25
100
AcDbLine
 10
240.2620294927
 20
16.0
 30
0.0
 11
240.2620294927
 21
11.2616797812
 31
0.0
  0
LINE
  5
1C2
330
1B
100
AcDbEntity
 67
     1
  8
0
  6
Continuous
 62
     7
370
    25
100
AcDbLine
 10
-240.2620294927
 20
16.0
 30
0.0
 11
-240.2620294927
 21
11.2616797812
 31
0.0
  0
LINE
  5
1C3
330
1B
100
AcDbEntity
 67
     1
  8
0
  6
Continuous
 62
     7
370
    25
100
AcDbLine
 10
147.5000000001
 20
-128.0
 30
0.0
 11
-147.5000000003
 21
-128.0
 31
0.0
  0
LINE
  5
1C4
330
1B
100
AcDbEntity
 67
     1
  8
0
  6
Continuous
 62
     7
370
    25
100
AcDbLine
 10
-209.9776904963
 20
-0.103840599
 30
0.0
 11
-182.5
 21
-128.0
 31
0.0
  0
LINE
  5
1C5
330
1B
100
AcDbEntity
 67
     1
  8
0
  6
Continuous
 62
     7
370
    25
100
AcDbLine
 10
182.5
 20
-128.0
 30
0.0
 11
209.9776904963
 21
-0.103840599
 31
0.0
  0
LINE
  5
1C6
330
1B
100
AcDbEntity
 67
     1
  8
0
  6
Continuous
 62
     7
370
    25
100
AcDbLine
 10
0.0
 20
-128.0
 30
0.0
 11
0.0
 21
-153.0
 31
0.0
  0
LINE
  5
1C7
330
1B
100
AcDbEntity
 67
     1
  8
0
  6
Continuous
 62
     7
370
    25
100
AcDbLine
 10
38.0
 20
-153.0
 30
0.0
 11
-38.0
 21
-153.0
 31
0.0
  0
LINE
  5
1C8
330
1B
100
AcDbEntity
 67
     1
  8
0
  6
Continuous
 62
     8
370
    25
100
AcDbLine
 10
-175.0003694507
 20
0.0
 30
0.0
 11
-175.0007280986
 21
-0.119538659
 31
0.0
  0
LINE
  5
1C9
330
1B
100
AcDbEntity
 67
     1
  8
0
  6
Continuous
 62
     8
370
    25
100
AcDbLine
 10
175.0003694656
 20
0.0
 30
0.0
 11
175.0007281137
 21
-0.1195386596
 31
0.0
  0
LINE
  5
1CA
330
1B
100
AcDbEntity
 67
     1
  8
0
  6
Continuous
 62
     8
370
    25
100
AcDbLine
 10
-39.0
 20
-152.0
 30
0.0
 11
39.0
 21
-152.0
 31
0.0
  0
ARC
  5
1CB
330
1B
100
AcDbEntity
 67
     1
  8
0
  6
Continuous
 62
     7
370
    25
100
AcDbCircle
 10
-38.0
 20
-152.0
 30
0.0
 40
1.000000000000007
100
AcDbArc
 50
180.0
 51
270.0
  0
ARC
  5
1CC
330
1B
100
AcDbEntity
 67
     1
  8
0
  6
Continuous
 62
     7
370
    25
100
AcDbCircle
 10
38.0
 20
-152.0
 30
0.0
 40
1.0
100
AcDbArc
 50
270.0
 51
0.0
  0
ARC
  5
1CD
330
1B
100
AcDbEntity
 67
     1
  8
0
  6
Continuous
 62
     7
370
    25
100
AcDbCircle
 10
-246.9594313988
 20
0.896114351
 30
0.0
 40
0.9169535131568713
100
AcDbArc
 50
168.8194373997
 51
257.7614477466
  0
ARC
  5
1CE
330
1B
100
AcDbEntity
 67
     1
  8
0
  6
Continuous
 62
     7
370
    25
100
AcDbCircle
 10
246.9594313988
 20
0.896114351
 30
0.0
 40
0.916953513156866
100
AcDbArc
 50
282.2385522534
 51
11.1805626003
  0
ARC
  5
1CF
330
1B
100
AcDbEntity
 67
     1
  8
0
  6
Continuous
 62
     7
370
    25
100
AcDbCircle
 10
-249.7847443424
 20
1.0
 30
0.0
 40
1.000000000820648
100
AcDbArc
 50
177.0000000017
 51
270.0
  0
ARC
  5
1D0
330
1B
100
AcDbEntity
 67
     1
  8
0
  6
Continuous
 62
     7
370
    25
100
AcDbCircle
 10
249.7847443432
 20
1.0
 30
0.0
 40
1.000000000820648
100
AcDbArc
 50
270.0
 51
2.9999999983
  0
ARC
  5
1D1
330
1B
100
AcDbEntity
 67
     1
  8
0
  6
Continuous
 62
     7
370
    25
100
AcDbCircle
 10
245.2551771664
 20
11.0
 30
0.0
 40
5.00000000000035
100
AcDbArc
 50
3.0
 51
90.0
  0
ARC
  5
1D2
330
1B
100
AcDbEntity
 67
     1
  8
0
  6
Continuous
 62
     7
370
    25
100
AcDbCircle
 10
-245.2551771664
 20
11.0
 30
0.0
 40
5.00000000000035
100
AcDbArc
 50
90.0
 51
177.0
  0
ARC
  5
1D3
330
1B
100
AcDbEntity
 67
     1
  8
0
  6
Continuous
 62
     8
370
    25
100
AcDbCircle
 10
209.0000120458
 20
0.1062560862
 30
0.0
 40
0.9999879567888508
100
AcDbArc
 50
347.8641124722
 51
353.9003863814
  0
ARC
  5
1D4
330
1B
100
AcDbEntity
 67
     1
  8
0
  6
Continuous
 62
     8
370
    25
100
AcDbCircle
 10
-209.0000120462
 20
0.1062560863
 30
0.0
 40
0.9999879563832477
100
AcDbArc
 50
186.0996136244
 51
192.1358875347
  0
VIEWPORT
  5
311
330
1B
100
AcDbEntity
 67
     1
  8
0
100
AcDbViewport
 10
0.0
 20
0.0
 30
0.0
 40
205.6
 41
156.0
 68
     1
 69
     1
 12
0.0
 22
-68.5
 13
0.0
 23
0.0
 14
10.0
 24
10.0
 15
10.0
 25
10.0
 16
0.0
 26
0.0
 36
1.0
 17
0.0
 27
0.0
 37
0.0
 42
50.0
 43
0.0
 44
0.0
 45
388.1796548629
 50
0.0
 51
0.0
 72
   100
 90
   557152
  1

281
     0
 71
     1
 74
     0
110
0.0
120
0.0
130
0.0
111
1.0
121
0.0
131
0.0
112
0.0
122
1.0
132
0.0
 79
     0
146
0.0
  0
ENDSEC
  0
SECTION
  2
OBJECTS
  0
DICTIONARY
  5
C
330
0
100
AcDbDictionary
281
     1
  3
ACAD_GROUP
350
D
  3
ACAD_LAYOUT
350
1A
  3
ACAD_MLINESTYLE
350
17
  3
ACAD_PLOTSETTINGS
350
19
  3
ACAD_PLOTSTYLENAME
350
E
  3
ACAD_SCALELIST
350
47
  0
DICTIONARY
  5
D
102
{ACAD_REACTORS
330
C
102
}
330
C
100
AcDbDictionary
281
     1
  0
DICTIONARY
  5
1A
102
{ACAD_REACTORS
330
C
102
}
330
C
100
AcDbDictionary
281
     1
  3
_Back
350
1E
  3
_Left
350
26
  3
_Top
350
242
  3
Model
350
22
  0
DICTIONARY
  5
17
102
{ACAD_REACTORS
330
C
102
}
330
C
100
AcDbDictionary
281
     1
  3
Standard
350
18
  0
DICTIONARY
  5
19
102
{ACAD_REACTORS
330
C
102
}
330
C
100
AcDbDictionary
281
     1
  0
ACDBDICTIONARYWDFLT
  5
E
102
{ACAD_REACTORS
330
C
102
}
330
C
100
AcDbDictionary
281
     1
  3
Normal
350
F
100
AcDbDictionaryWithDefault
340
F
  0
DICTIONARY
  5
47
102
{ACAD_REACTORS
330
C
102
}
330
C
100
AcDbDictionary
281
     1
  3
A0
350
48
  3
A1
350
49
  3
A2
350
4A
  3
A3
350
4B
  3
A4
350
4C
  3
A5
350
4D
  3
A6
350
4E
  3
A7
350
4F
  3
A8
350
50
  3
A9
350
51
  3
B0
350
52
  3
B1
350
53
  3
B2
350
54
  3
B3
350
55
  3
B4
350
56
  3
B5
350
57
  3
B6
350
58
  3
B7
350
59
  3
B8
350
5A
  3
B9
350
5B
  3
C0
350
5C
  3
C1
350
5D
  3
C2
350
5E
  3
C3
350
5F
  3
C4
350
60
  3
C5
350
61
  3
C6
350
62
  3
C7
350
63
  3
C8
350
64
  3
C9
350
65
  3
D0
350
66
  3
D1
350
67
  3
D2
350
68
  0
LAYOUT
  5
1E
102
{ACAD_REACTORS
330
1A
102
}
330
1A
100
AcDbPlotSettings
  1

  2
none_device
  4
ISO_A4_(210.00_x_297.00_MM)
  6

 40
7.5
 41
20.0
 42
7.5
 43
20.0
 44
210.0
 45
297.0
 46
0.0
 47
0.0
 48
0.0
 49
0.0
140
0.0
141
0.0
142
1.0
143
1.9516322517
 70
   688
 72
     1
 73
     1
 74
     1
  7

 75
     0
147
0.5123916143
148
250.7847443432
149
153.0
100
AcDbLayout
  1
_Back
 70
     1
 71
     1
 10
-289.8173893773
 20
-167.6372418878
 11
289.8173893781
 21
242.2055309696
 12
0.0
 22
0.0
 32
0.0
 14
-250.7847443432
 24
-153.0
 34
0.0
 15
250.7847443441
 25
16.0
 35
0.0
146
0.0
 13
0.0
 23
0.0
 33
0.0
 16
1.0
 26
0.0
 36
0.0
 17
0.0
 27
1.0
 37
0.0
 76
     0
330
1B
331
311
  0
LAYOUT
  5
26
102
{ACAD_REACTORS
330
1A
102
}
330
1A
100
AcDbPlotSettings
  1

  2
none_device
  4
ISO_A4_(210.00_x_297.00_MM)
  6

 40
7.5
 41
20.0
 42
7.5
 43
20.0
 44
210.0
 45
297.0
 46
0.0
 47
0.0
 48
0.0
 49
0.0
140
0.0
141
0.0
142
1.0
143
1.9516322517
 70
   688
 72
     1
 73
     1
 74
     1
  7

 75
     0
147
0.5123916143
148
250.7847443432
149
153.0
100
AcDbLayout
  1
_Left
 70
     1
 71
     2
 10
0.0
 20
0.0
 11
0.0
 21
0.0
 12
0.0
 22
0.0
 32
0.0
 14
0.0
 24
0.0
 34
0.0
 15
0.0
 25
0.0
 35
0.0
146
0.0
 13
0.0
 23
0.0
 33
0.0
 16
1.0
 26
0.0
 36
0.0
 17
0.0
 27
1.0
 37
0.0
 76
     0
330
23
331
313
  0
LAYOUT
  5
242
102
{ACAD_REACTORS
330
1A
102
}
330
1A
100
AcDbPlotSettings
  1

  2
none_device
  4
ISO_A4_(210.00_x_297.00_MM)
  6

 40
7.5
 41
20.0
 42
7.5
 43
20.0
 44
210.0
 45
297.0
 46
0.0
 47
0.0
 48
0.0
 49
0.0
140
0.0
141
0.0
142
1.0
143
1.9516322517
 70
   688
 72
     1
 73
     1
 74
     1
  7

 75
     0
147
0.5123916143
148
250.7847443432
149
153.0
100
AcDbLayout
  1
_Top
 70
     1
 71
     3
 10
0.0
 20
0.0
 11
0.0
 21
0.0
 12
0.0
 22
0.0
 32
0.0
 14
0.0
 24
0.0
 34
0.0
 15
0.0
 25
0.0
 35
0.0
146
0.0
 13
0.0
 23
0.0
 33
0.0
 16
1.0
 26
0.0
 36
0.0
 17
0.0
 27
1.0
 37
0.0
 76
     0
330
241
331
315
  0
LAYOUT
  5
22
102
{ACAD_REACTORS
330
1A
102
}
330
1A
100
AcDbPlotSettings
  1

  2
none_device
  4
ANSI_A_(11.00_x_8.50_Inches)
  6

 40
6.35
 41
19.05
 42
6.35000508
 43
19.05000254
 44
279.4
 45
215.9
 46
133.34999746
 47
126.6764413314
 48
0.0
 49
0.0
140
0.0
141
0.0
142
0.021711847
143
1.0
 70
  1696
 72
     0
 73
     0
 74
     0
  7

 75
     0
147
0.0179189148
148
-1300.4909072572
149
0.0
100
AcDbLayout
  1
Model
 70
     1
 71
     0
 10
0.0
 20
0.0
 11
420.0
 21
297.0
 12
0.0
 22
0.0
 32
0.0
 14
-250.7847443433
 24
-153.0
 34
0.0
 15
250.7847443432
 25
16.0
 35
0.0
146
0.0
 13
0.0
 23
0.0
 33
0.0
 16
1.0
 26
0.0
 36
0.0
 17
0.0
 27
1.0
 37
0.0
 76
     0
330
1F
331
29
  0
MLINESTYLE
  5
18
102
{ACAD_REACTORS
330
17
102
}
330
17
100
AcDbMlineStyle
  2
Standard
 70
     0
  3

 62
   256
 51
90.0
 52
90.0
 71
     2
 49
0.5
 62
   256
  6
BYLAYER
 49
-0.5
 62
   256
  6
BYLAYER
  0
ACDBPLACEHOLDER
  5
F
102
{ACAD_REACTORS
330
E
102
}
330
E
  0
SCALE
  5
48
102
{ACAD_REACTORS
330
47
102
}
330
47
100
AcDbScale
 70
     0
300
1:1
140
1.0
141
1.0
290
     1
  0
SCALE
  5
49
102
{ACAD_REACTORS
330
47
102
}
330
47
100
AcDbScale
 70
     0
300
1:2
140
1.0
141
2.0
290
     0
  0
SCALE
  5
4A
102
{ACAD_REACTORS
330
47
102
}
330
47
100
AcDbScale
 70
     0
300
1:4
140
1.0
141
4.0
290
     0
  0
SCALE
  5
4B
102
{ACAD_REACTORS
330
47
102
}
330
47
100
AcDbScale
 70
     0
300
1:5
140
1.0
141
5.0
290
     0
  0
SCALE
  5
4C
102
{ACAD_REACTORS
330
47
102
}
330
47
100
AcDbScale
 70
     0
300
1:8
140
1.0
141
8.0
290
     0
  0
SCALE
  5
4D
102
{ACAD_REACTORS
330
47
102
}
330
47
100
AcDbScale
 70
     0
300
1:10
140
1.0
141
10.0
290
     0
  0
SCALE
  5
4E
102
{ACAD_REACTORS
330
47
102
}
330
47
100
AcDbScale
 70
     0
300
1:16
140
1.0
141
16.0
290
     0
  0
SCALE
  5
4F
102
{ACAD_REACTORS
330
47
102
}
330
47
100
AcDbScale
 70
     0
300
1:20
140
1.0
141
20.0
290
     0
  0
SCALE
  5
50
102
{ACAD_REACTORS
330
47
102
}
330
47
100
AcDbScale
 70
     0
300
1:30
140
1.0
141
30.0
290
     0
  0
SCALE
  5
51
102
{ACAD_REACTORS
330
47
102
}
330
47
100
AcDbScale
 70
     0
300
1:40
140
1.0
141
40.0
290
     0
  0
SCALE
  5
52
102
{ACAD_REACTORS
330
47
102
}
330
47
100
AcDbScale
 70
     0
300
1:50
140
1.0
141
50.0
290
     0
  0
SCALE
  5
53
102
{ACAD_REACTORS
330
47
102
}
330
47
100
AcDbScale
 70
     0
300
1:100
140
1.0
141
100.0
290
     0
  0
SCALE
  5
54
102
{ACAD_REACTORS
330
47
102
}
330
47
100
AcDbScale
 70
     0
300
2:1
140
2.0
141
1.0
290
     0
  0
SCALE
  5
55
102
{ACAD_REACTORS
330
47
102
}
330
47
100
AcDbScale
 70
     0
300
4:1
140
4.0
141
1.0
290
     0
  0
SCALE
  5
56
102
{ACAD_REACTORS
330
47
102
}
330
47
100
AcDbScale
 70
     0
300
8:1
140
8.0
141
1.0
290
     0
  0
SCALE
  5
57
102
{ACAD_REACTORS
330
47
102
}
330
47
100
AcDbScale
 70
     0
300
10:1
140
10.0
141
1.0
290
     0
  0
SCALE
  5
58
102
{ACAD_REACTORS
330
47
102
}
330
47
100
AcDbScale
 70
     0
300
100:1
140
100.0
141
1.0
290
     0
  0
SCALE
  5
59
102
{ACAD_REACTORS
330
47
102
}
330
47
100
AcDbScale
 70
     0
300
1/128" = 1'-0"
140
0.0078125
141
12.0
290
     0
  0
SCALE
  5
5A
102
{ACAD_REACTORS
330
47
102
}
330
47
100
AcDbScale
 70
     0
300
1/64" = 1'-0"
140
0.015625
141
12.0
290
     0
  0
SCALE
  5
5B
102
{ACAD_REACTORS
330
47
102
}
330
47
100
AcDbScale
 70
     0
300
1/32" = 1'-0"
140
0.03125
141
12.0
290
     0
  0
SCALE
  5
5C
102
{ACAD_REACTORS
330
47
102
}
330
47
100
AcDbScale
 70
     0
300
1/16" = 1'-0"
140
0.0625
141
12.0
290
     0
  0
SCALE
  5
5D
102
{ACAD_REACTORS
330
47
102
}
330
47
100
AcDbScale
 70
     0
300
3/32" = 1'-0"
140
0.09375
141
12.0
290
     0
  0
SCALE
  5
5E
102
{ACAD_REACTORS
330
47
102
}
330
47
100
AcDbScale
 70
     0
300
1/8" = 1'-0"
140
0.125
141
12.0
290
     0
  0
SCALE
  5
5F
102
{ACAD_REACTORS
330
47
102
}
330
47
100
AcDbScale
 70
     0
300
3/16" = 1'-0"
140
0.1875
141
12.0
290
     0
  0
SCALE
  5
60
102
{ACAD_REACTORS
330
47
102
}
330
47
100
AcDbScale
 70
     0
300
1/4" = 1'-0"
140
0.25
141
12.0
290
     0
  0
SCALE
  5
61
102
{ACAD_REACTORS
330
47
102
}
330
47
100
AcDbScale
 70
     0
300
3/8" = 1'-0"
140
0.375
141
12.0
290
     0
  0
SCALE
  5
62
102
{ACAD_REACTORS
330
47
102
}
330
47
100
AcDbScale
 70
     0
300
1/2" = 1'-0"
140
0.5
141
12.0
290
     0
  0
SCALE
  5
63
102
{ACAD_REACTORS
330
47
102
}
330
47
100
AcDbScale
 70
     0
300
3/4" = 1'-0"
140
0.75
141
12.0
290
     0
  0
SCALE
  5
64
102
{ACAD_REACTORS
330
47
102
}
330
47
100
AcDbScale
 70
     0
300
1" = 1'-0"
140
1.0
141
12.0
290
     0
  0
SCALE
  5
65
102
{ACAD_REACTORS
330
47
102
}
330
47
100
AcDbScale
 70
     0
300
1-1/2" = 1'-0"
140
1.5
141
12.0
290
     0
  0
SCALE
  5
66
102
{ACAD_REACTORS
330
47
102
}
330
47
100
AcDbScale
 70
     0
300
3" = 1'-0"
140
3.0
141
12.0
290
     0
  0
SCALE
  5
67
102
{ACAD_REACTORS
330
47
102
}
330
47
100
AcDbScale
 70
     0
300
6" = 1'-0"
140
6.0
141
12.0
290
     0
  0
SCALE
  5
68
102
{ACAD_REACTORS
330
47
102
}
330
47
100
AcDbScale
 70
     0
300
1'-0" = 1'-0"
140
12.0
141
12.0
290
     0
  0
ENDSEC
  0
EOF
