  0
SECTION
  2
HEADER
  9
$ACADVER
  1
AC1015
  9
$ACADMAINTVER
 70
     6
  9
$DWGCODEPAGE
  3
ANSI_1252
  9
$INSBASE
 10
0.0
 20
0.0
 30
0.0
  9
$EXTMIN
 10
-355.0
 20
-12.0
 30
0.0
  9
$EXTMAX
 10
70.0
 20
1007.5
 30
0.0
  9
$LIMMIN
 10
0.0
 20
0.0
  9
$LIMMAX
 10
420.0
 20
297.0
  9
$ORTHOMODE
 70
     0
  9
$REGENMODE
 70
     1
  9
$FILLMODE
 70
     1
  9
$QTEXTMODE
 70
     0
  9
$MIRRTEXT
 70
     1
  9
$LTSCALE
 40
1.0
  9
$ATTMODE
 70
     1
  9
$TEXTSIZE
 40
3.5
  9
$TRACEWID
 40
1.0
  9
$TEXTSTYLE
  7
Standard
  9
$CLAYER
  8
0
  9
$CELTYPE
  6
ByLayer
  9
$CECOLOR
 62
   256
  9
$CELTSCALE
 40
1.0
  9
$DISPSILH
 70
     0
  9
$DIMSCALE
 40
1.0
  9
$DIMASZ
 40
3.302
  9
$DIMEXO
 40
1.0
  9
$DIMDLI
 40
3.75
  9
$DIMRND
 40
0.0
  9
$DIMDLE
 40
0.0
  9
$DIMEXE
 40
1.0
  9
$DIMTP
 40
0.0
  9
$DIMTM
 40
0.0
  9
$DIMTXT
 40
3.5
  9
$DIMCEN
 40
2.5
  9
$DIMTSZ
 40
0.0
  9
$DIMTOL
 70
     0
  9
$DIMLIM
 70
     0
  9
$DIMTIH
 70
     1
  9
$DIMTOH
 70
     1
  9
$DIMSE1
 70
     0
  9
$DIMSE2
 70
     0
  9
$DIMTAD
 70
     1
  9
$DIMZIN
 70
     1
  9
$DIMBLK
  1

  9
$DIMASO
 70
     1
  9
$DIMSHO
 70
     1
  9
$DIMPOST
  1

  9
$DIMAPOST
  1

  9
$DIMALT
 70
     0
  9
$DIMALTD
 70
     3
  9
$DIMALTF
 40
0.0393700787
  9
$DIMLFAC
 40
1.0
  9
$DIMTOFL
 70
     1
  9
$DIMTVP
 40
0.0
  9
$DIMTIX
 70
     0
  9
$DIMSOXD
 70
     0
  9
$DIMSAH
 70
     0
  9
$DIMBLK1
  1

  9
$DIMBLK2
  1

  9
$DIMSTYLE
  2
ISO-25
  9
$DIMCLRD
 70
     0
  9
$DIMCLRE
 70
     0
  9
$DIMCLRT
 70
     0
  9
$DIMTFAC
 40
1.0
  9
$DIMGAP
 40
1.524
  9
$DIMJUST
 70
     0
  9
$DIMSD1
 70
     0
  9
$DIMSD2
 70
     0
  9
$DIMTOLJ
 70
     0
  9
$DIMTZIN
 70
     1
  9
$DIMALTZ
 70
     0
  9
$DIMALTTZ
 70
     0
  9
$DIMUPT
 70
     0
  9
$DIMDEC
 70
     2
  9
$DIMTDEC
 70
     2
  9
$DIMALTU
 70
     2
  9
$DIMALTTD
 70
     3
  9
$DIMTXSTY
  7
Standard
  9
$DIMAUNIT
 70
     0
  9
$DIMADEC
 70
     2
  9
$DIMALTRND
 40
0.0
  9
$DIMAZIN
 70
     0
  9
$DIMDSEP
 70
    44
  9
$DIMATFIT
 70
     3
  9
$DIMFRAC
 70
     0
  9
$DIMLDRBLK
  1

  9
$DIMLUNIT
 70
     2
  9
$DIMLWD
 70
    -2
  9
$DIMLWE
 70
    -2
  9
$DIMTMOVE
 70
     0
  9
$LUNITS
 70
     2
  9
$LUPREC
 70
     2
  9
$SKETCHINC
 40
1.0
  9
$FILLETRAD
 40
10.0
  9
$AUNITS
 70
     0
  9
$AUPREC
 70
     2
  9
$MENU
  1
.
  9
$ELEVATION
 40
0.0
  9
$PELEVATION
 40
0.0
  9
$THICKNESS
 40
0.0
  9
$LIMCHECK
 70
     0
  9
$CHAMFERA
 40
0.0
  9
$CHAMFERB
 40
0.0
  9
$CHAMFERC
 40
0.0
  9
$CHAMFERD
 40
0.0
  9
$SKPOLY
 70
     0
  9
$TDCREATE
 40
2459326.480349387
  9
$TDUCREATE
 40
2459326.43868272
  9
$TDUPDATE
 40
2459326.480428114
  9
$TDUUPDATE
 40
2459326.438761447
  9
$TDINDWG
 40
0.0000000116
  9
$TDUSRTIMER
 40
0.0000000116
  9
$USRTIMER
 70
     1
  9
$ANGBASE
 50
0.0
  9
$ANGDIR
 70
     0
  9
$PDMODE
 70
     0
  9
$PDSIZE
 40
-1.0
  9
$PLINEWID
 40
0.0
  9
$SPLFRAME
 70
     0
  9
$SPLINETYPE
 70
     6
  9
$SPLINESEGS
 70
     8
  9
$HANDSEED
  5
2F6
  9
$SURFTAB1
 70
     6
  9
$SURFTAB2
 70
     6
  9
$SURFTYPE
 70
     6
  9
$SURFU
 70
     6
  9
$SURFV
 70
     6
  9
$UCSBASE
  2

  9
$UCSNAME
  2

  9
$UCSORG
 10
0.0
 20
0.0
 30
0.0
  9
$UCSXDIR
 10
1.0
 20
0.0
 30
0.0
  9
$UCSYDIR
 10
0.0
 20
1.0
 30
0.0
  9
$UCSORTHOREF
  2

  9
$UCSORTHOVIEW
 70
     0
  9
$UCSORGTOP
 10
0.0
 20
0.0
 30
0.0
  9
$UCSORGBOTTOM
 10
0.0
 20
0.0
 30
0.0
  9
$UCSORGLEFT
 10
0.0
 20
0.0
 30
0.0
  9
$UCSORGRIGHT
 10
0.0
 20
0.0
 30
0.0
  9
$UCSORGFRONT
 10
0.0
 20
0.0
 30
0.0
  9
$UCSORGBACK
 10
0.0
 20
0.0
 30
0.0
  9
$PUCSBASE
  2

  9
$PUCSNAME
  2

  9
$PUCSORG
 10
0.0
 20
0.0
 30
0.0
  9
$PUCSXDIR
 10
1.0
 20
0.0
 30
0.0
  9
$PUCSYDIR
 10
0.0
 20
1.0
 30
0.0
  9
$PUCSORTHOREF
  2

  9
$PUCSORTHOVIEW
 70
     0
  9
$PUCSORGTOP
 10
0.0
 20
0.0
 30
0.0
  9
$PUCSORGBOTTOM
 10
0.0
 20
0.0
 30
0.0
  9
$PUCSORGLEFT
 10
0.0
 20
0.0
 30
0.0
  9
$PUCSORGRIGHT
 10
0.0
 20
0.0
 30
0.0
  9
$PUCSORGFRONT
 10
0.0
 20
0.0
 30
0.0
  9
$PUCSORGBACK
 10
0.0
 20
0.0
 30
0.0
  9
$USERI1
 70
     0
  9
$USERI2
 70
     0
  9
$USERI3
 70
     0
  9
$USERI4
 70
     0
  9
$USERI5
 70
     0
  9
$USERR1
 40
0.0
  9
$USERR2
 40
0.0
  9
$USERR3
 40
0.0
  9
$USERR4
 40
0.0
  9
$USERR5
 40
0.0
  9
$WORLDVIEW
 70
     1
  9
$SHADEDGE
 70
     3
  9
$SHADEDIF
 70
    70
  9
$TILEMODE
 70
     0
  9
$MAXACTVP
 70
    64
  9
$PINSBASE
 10
0.0
 20
0.0
 30
0.0
  9
$PLIMCHECK
 70
     0
  9
$PEXTMIN
 10
-355.0
 20
-12.0
 30
0.0
  9
$PEXTMAX
 10
70.0
 20
1007.5
 30
0.0
  9
$PLIMMIN
 10
0.0
 20
0.0
  9
$PLIMMAX
 10
0.0
 20
0.0
  9
$UNITMODE
 70
     0
  9
$VISRETAIN
 70
     1
  9
$PLINEGEN
 70
     0
  9
$PSLTSCALE
 70
     1
  9
$TREEDEPTH
 70
  3020
  9
$CMLSTYLE
  2
Standard
  9
$CMLJUST
 70
     0
  9
$CMLSCALE
 40
20.0
  9
$PROXYGRAPHICS
 70
     1
  9
$MEASUREMENT
 70
     1
  9
$CELWEIGHT
370
    -1
  9
$ENDCAPS
280
     0
  9
$JOINSTYLE
280
     0
  9
$LWDISPLAY
290
     1
  9
$INSUNITS
 70
     4
  9
$HYPERLINKBASE
  1

  9
$STYLESHEET
  1

  9
$XEDIT
290
     1
  9
$CEPSNTYPE
380
     0
  9
$PSTYLEMODE
290
     1
  9
$FINGERPRINTGUID
  2
{5dbad3d4-f088-4746-bb6a-5a779d898fcd}
  9
$VERSIONGUID
  2
{FAEB1C32-E019-11D5-929B-00C0DF256EC4}
  9
$EXTNAMES
290
     1
  9
$PSVPSCALE
 40
0.0
  9
$OLESTARTUP
290
     0
  0
ENDSEC
  0
SECTION
  2
CLASSES
  0
CLASS
  1
ACDBDICTIONARYWDFLT
  2
AcDbDictionaryWithDefault
  3
ObjectDBX Classes
 90
        0
280
     0
281
     0
  0
CLASS
  1
VISUALSTYLE
  2
AcDbVisualStyle
  3
ObjectDBX Classes
 90
     4095
280
     0
281
     0
  0
CLASS
  1
MATERIAL
  2
AcDbMaterial
  3
ObjectDBX Classes
 90
     1153
280
     0
281
     0
  0
CLASS
  1
SCALE
  2
AcDbScale
  3
ObjectDBX Classes
 90
     1153
280
     0
281
     0
  0
CLASS
  1
TABLESTYLE
  2
AcDbTableStyle
  3
ObjectDBX Classes
 90
     4095
280
     0
281
     0
  0
CLASS
  1
MLEADERSTYLE
  2
AcDbMLeaderStyle
  3
ACDB_MLEADERSTYLE_CLASS
 90
     4095
280
     0
281
     0
  0
CLASS
  1
SUN
  2
AcDbSun
  3
SCENEOE
 90
     1153
280
     0
281
     0
  0
CLASS
  1
ACDBPLACEHOLDER
  2
AcDbPlaceHolder
  3
ObjectDBX Classes
 90
        0
280
     0
281
     0
  0
CLASS
  1
LAYOUT
  2
AcDbLayout
  3
ObjectDBX Classes
 90
        0
280
     0
281
     0
  0
ENDSEC
  0
SECTION
  2
TABLES
  0
TABLE
  2
VPORT
  5
8
330
0
100
AcDbSymbolTable
 70
     1
  0
VPORT
  5
29
330
8
100
AcDbSymbolTableRecord
100
AcDbViewportTableRecord
  2
*Active
 70
     0
 10
0.0
 20
0.0
 11
1.0
 21
1.0
 12
-142.5
 22
497.75
 13
0.0
 23
0.0
 14
10.0
 24
10.0
 15
10.0
 25
10.0
 16
0.0
 26
0.0
 36
1.0
 17
0.0
 27
0.0
 37
0.0
 40
1039.89
 41
0.4168710152
 42
50.0
 43
0.0
 44
0.0
 50
0.0
 51
0.0
 71
     0
 72
   100
 73
     1
 74
     3
 75
     0
 76
     0
 77
     0
 78
     0
281
     0
 65
     1
110
0.0
120
0.0
130
0.0
111
1.0
121
0.0
131
0.0
112
0.0
122
1.0
132
0.0
 79
     0
146
0.0
  0
ENDTAB
  0
TABLE
  2
LTYPE
  5
5
330
0
100
AcDbSymbolTable
 70
     6
  0
LTYPE
  5
14
330
5
100
AcDbSymbolTableRecord
100
AcDbLinetypeTableRecord
  2
ByBlock
 70
     0
  3

 72
    65
 73
     0
 40
0.0
  0
LTYPE
  5
15
330
5
100
AcDbSymbolTableRecord
100
AcDbLinetypeTableRecord
  2
ByLayer
 70
     0
  3

 72
    65
 73
     0
 40
0.0
  0
LTYPE
  5
16
330
5
100
AcDbSymbolTableRecord
100
AcDbLinetypeTableRecord
  2
Continuous
 70
     0
  3
Solid line
 72
    65
 73
     0
 40
0.0
  0
LTYPE
  5
6E
330
5
100
AcDbSymbolTableRecord
100
AcDbLinetypeTableRecord
  2
HIDDEN
 70
     0
  3
Hidden __ __ __ __ __ __ __ __ __ __ __ __ __ __
 72
    65
 73
     2
 40
1.905
 49
1.27
 74
     0
 49
-0.635
 74
     0
  0
LTYPE
  5
6F
330
5
100
AcDbSymbolTableRecord
100
AcDbLinetypeTableRecord
  2
PHANTOM
 70
     0
  3
Phantom ______  __  __  ______  __  __  ______
 72
    65
 73
     6
 40
12.7
 49
6.35
 74
     0
 49
-1.27
 74
     0
 49
1.27
 74
     0
 49
-1.27
 74
     0
 49
1.27
 74
     0
 49
-1.27
 74
     0
  0
LTYPE
  5
70
330
5
100
AcDbSymbolTableRecord
100
AcDbLinetypeTableRecord
  2
CENTER
 70
     0
  3
Center ____ _ ____ _ ____ _ ____ _ ____ _ ____
 72
    65
 73
     4
 40
10.16
 49
6.35
 74
     0
 49
-1.27
 74
     0
 49
1.27
 74
     0
 49
-1.27
 74
     0
  0
LTYPE
  5
71
330
5
100
AcDbSymbolTableRecord
100
AcDbLinetypeTableRecord
  2
CENTERX2
 70
     0
  3
Center (2x) ________  __  ________  __  _____
 72
    65
 73
     4
 40
20.32
 49
12.7
 74
     0
 49
-2.54
 74
     0
 49
2.54
 74
     0
 49
-2.54
 74
     0
  0
LTYPE
  5
72
330
5
100
AcDbSymbolTableRecord
100
AcDbLinetypeTableRecord
  2
DOT2
 70
     0
  3
Dot (.5x) ........................................
 72
    65
 73
     2
 40
0.635
 49
0.0
 74
     0
 49
-0.635
 74
     0
  0
ENDTAB
  0
TABLE
  2
LAYER
  5
2
330
0
100
AcDbSymbolTable
 70
     1
  0
LAYER
  5
10
330
2
100
AcDbSymbolTableRecord
100
AcDbLayerTableRecord
  2
0
 70
     0
 62
     7
  6
Continuous
370
    -3
390
F
  0
ENDTAB
  0
TABLE
  2
STYLE
  5
3
330
0
100
AcDbSymbolTable
 70
     1
  0
STYLE
  5
11
330
3
100
AcDbSymbolTableRecord
100
AcDbTextStyleTableRecord
  2
Standard
 70
     0
 40
0.0
 41
1.0
 50
0.0
 71
     0
 42
3.5
  3
txt
  4

  0
ENDTAB
  0
TABLE
  2
VIEW
  5
6
330
0
100
AcDbSymbolTable
 70
     0
  0
ENDTAB
  0
TABLE
  2
UCS
  5
7
330
0
100
AcDbSymbolTable
 70
     0
  0
ENDTAB
  0
TABLE
  2
APPID
  5
9
330
0
100
AcDbSymbolTable
 70
     1
  0
APPID
  5
12
330
9
100
AcDbSymbolTableRecord
100
AcDbRegAppTableRecord
  2
ACAD
 70
     0
  0
ENDTAB
  0
TABLE
  2
DIMSTYLE
  5
A
330
0
100
AcDbSymbolTable
 70
     1
100
AcDbDimStyleTable
  0
DIMSTYLE
105
27
330
A
100
AcDbSymbolTableRecord
100
AcDbDimStyleTableRecord
  2
ISO-25
 70
     0
 41
2.5
 42
0.625
 43
3.75
 44
1.25
 73
     0
 74
     0
 77
     1
 78
     8
140
2.5
141
2.5
143
0.0393700787
147
0.625
171
     3
172
     1
178
     0
271
     2
272
     2
274
     3
278
    44
283
     0
284
     8
340
11
  0
ENDTAB
  0
TABLE
  2
BLOCK_RECORD
  5
1
330
0
100
AcDbSymbolTable
 70
     1
  0
BLOCK_RECORD
  5
1F
330
1
100
AcDbSymbolTableRecord
100
AcDbBlockTableRecord
  2
*Model_Space
340
22
  0
BLOCK_RECORD
  5
23
330
1
100
AcDbSymbolTableRecord
100
AcDbBlockTableRecord
  2
*Paper_Space
340
26
  0
BLOCK_RECORD
  5
1B
330
1
100
AcDbSymbolTableRecord
100
AcDbBlockTableRecord
  2
*Paper_Space0
340
1E
  0
ENDTAB
  0
ENDSEC
  0
SECTION
  2
BLOCKS
  0
BLOCK
  5
20
330
1F
100
AcDbEntity
  8
0
100
AcDbBlockBegin
  2
*Model_Space
 70
     0
 10
0.0
 20
0.0
 30
0.0
  3
*Model_Space
  1

  0
ENDBLK
  5
21
330
1F
100
AcDbEntity
  8
0
100
AcDbBlockEnd
  0
BLOCK
  5
24
330
23
100
AcDbEntity
 67
     1
  8
0
100
AcDbBlockBegin
  2
*Paper_Space
 70
     0
 10
0.0
 20
0.0
 30
0.0
  3
*Paper_Space
  1

  0
ENDBLK
  5
25
330
23
100
AcDbEntity
 67
     1
  8
0
100
AcDbBlockEnd
  0
BLOCK
  5
1C
330
1B
100
AcDbEntity
  8
0
100
AcDbBlockBegin
  2
*Paper_Space0
 70
     0
 10
0.0
 20
0.0
 30
0.0
  3
*Paper_Space0
  1

  0
LWPOLYLINE
  5
1AE
330
1B
100
AcDbEntity
  8
0
  6
Continuous
 62
     7
370
    25
100
AcDbPolyline
 90
       27
 70
   128
 43
0.0
 10
50.1317279836
 20
5.9135032335
 10
48.5327445874
 20
7.2006829246
 10
46.7197472627
 20
8.1883747024
 10
44.7521301393
 20
8.8442216004
 10
42.6943527204
 20
9.1467379522
 10
40.6138281771
 20
9.0860132657
 10
38.5787148807
 20
8.6640368931
 10
36.6556835215
 20
7.8946328588
 10
34.9077329648
 20
6.8030069821
 10
33.392126396
 20
5.42492113
 10
32.1585153685
 20
3.8055216515
 10
31.2473132091
 20
1.9978603747
 10
30.6883710701
 20
0.0611566197
 10
30.5
 20
-1.9411428383
 10
30.6883710701
 20
-3.9434422962
 10
31.2473132091
 20
-5.8801460513
 10
32.1585153685
 20
-7.687807328
 10
33.392126396
 20
-9.3072068066
 10
34.9077329648
 20
-10.6852926587
 10
36.6556835215
 20
-11.7769185353
 10
38.5787148807
 20
-12.5463225696
 10
40.6138281771
 20
-12.9682989423
 10
42.6943527204
 20
-13.0290236287
 10
44.7521301393
 20
-12.7265072769
 10
46.7197472627
 20
-12.0706603789
 10
48.5327445874
 20
-11.0829686012
 10
50.1317279836
 20
-9.79578891
  0
LWPOLYLINE
  5
1B0
330
1B
100
AcDbEntity
  8
0
  6
Continuous
 62
     7
370
    25
100
AcDbPolyline
 90
       32
 70
   128
 43
0.0
 10
52.9601551084
 20
-12.5278397176
 10
51.1740942252
 20
-14.0088773423
 10
49.1764479836
 20
-15.2115925662
 10
47.0132888008
 20
-16.1082467456
 10
44.734506377
 20
-16.67816003
 10
42.3926570719
 20
-16.9081883091
 10
40.0417517787
 20
-16.79302636
 10
37.7360102523
 20
-16.3353302031
 10
35.5286106196
 20
-15.5456558457
 10
33.4704629138
 20
-14.442215825
 10
31.6090349187
 20
-13.0504591658
 10
29.987257402
 20
-11.4024844409
 10
28.6425339885
 20
-9.5362994705
 10
27.6058785066
 20
-7.4949447341
 10
26.9011997061
 20
-5.3255007133
 10
26.5447498416
 20
-3.0780020578
 10
26.5447498416
 20
-0.8042836187
 10
26.9011997061
 20
1.4432150368
 10
27.6058785066
 20
3.6126590576
 10
28.6425339885
 20
5.6540137939
 10
29.987257402
 20
7.5201987644
 10
31.6090349187
 20
9.1681734892
 10
33.4704629138
 20
10.5599301484
 10
35.5286106196
 20
11.6633701692
 10
37.7360102523
 20
12.4530445266
 10
40.0417517787
 20
12.9107406835
 10
42.3926570719
 20
13.0259026326
 10
44.734506377
 20
12.7958743534
 10
47.0132888008
 20
12.225961069
 10
49.1764479836
 20
11.3293068897
 10
51.1740942252
 20
10.1265916658
 10
52.9601551084
 20
8.6455540411
  0
SPLINE
  5
1B1
330
1B
100
AcDbEntity
  8
0
  6
Continuous
 62
     7
370
    25
100
AcDbSpline
210
0.0
220
0.0
230
1.0
 70
     8
 71
     3
 72
    14
 73
    10
 74
     0
 42
0.000000001
 43
0.00000001
 40
0.0
 40
0.0
 40
0.0
 40
0.0
 40
0.0867012313771719
 40
0.2644179600269452
 40
0.4381672259842685
 40
0.6184683958368775
 40
0.8058520717055949
 40
0.9901047351042731
 40
1.0
 40
1.0
 40
1.0
 40
1.0
 10
27.25081360185811
 20
4.927209439717029
 30
0.0
 10
27.27783669842584
 20
4.943103897998736
 30
0.0
 10
27.36025066134828
 20
4.991578183401901
 30
0.0
 10
27.30893983153551
 20
4.482362988921739
 30
0.0
 10
27.114877590619
 20
3.515978576408951
 30
0.0
 10
26.824724910086
 20
2.135505919328567
 30
0.0
 10
26.58771150271148
 20
0.5127680941937607
 30
0.0
 10
26.47453824154343
 20
-0.7190014561695435
 30
0.0
 10
26.50293209715785
 20
-1.262609990670321
 30
0.0
 10
26.50437926543403
 20
-1.290316443660677
 30
0.0
  0
LWPOLYLINE
  5
1BA
330
1B
100
AcDbEntity
  8
0
  6
Continuous
 62
     8
370
    25
100
AcDbPolyline
 90
        3
 70
   128
 43
0.0
 10
-5.0
 20
12.0
 10
-6.1873161095
 20
11.4331587657
 10
-6.9282032303
 20
11.0
  0
LWPOLYLINE
  5
1BB
330
1B
100
AcDbEntity
  8
0
  6
Continuous
 62
     8
370
    25
100
AcDbPolyline
 90
        3
 70
   128
 43
0.0
 10
6.9282032303
 20
11.0
 10
6.1873161095
 20
11.4331587657
 10
5.0
 20
12.0
  0
LINE
  5
1BC
330
1B
100
AcDbEntity
  8
0
  6
Continuous
 62
     7
370
    25
100
AcDbLine
 10
26.5
 20
-1.2905104955
 30
0.0
 11
26.5
 21
-1.9411428383
 31
0.0
  0
LINE
  5
1BD
330
1B
100
AcDbEntity
  8
0
  6
Continuous
 62
     7
370
    25
100
AcDbLine
 10
19.0
 20
-5.0
 30
0.0
 11
26.8269443191
 21
-5.0
 31
0.0
  0
LINE
  5
1BE
330
1B
100
AcDbEntity
  8
0
  6
Continuous
 62
     7
370
    25
100
AcDbLine
 10
27.2508136019
 20
5.0
 30
0.0
 11
19.0
 21
5.0
 31
0.0
  0
LINE
  5
1BF
330
1B
100
AcDbEntity
  8
0
  6
Continuous
 62
     7
370
    25
100
AcDbLine
 10
14.8
 20
-355.0
 30
0.0
 11
-14.8
 21
-355.0
 31
0.0
  0
LINE
  5
1C0
330
1B
100
AcDbEntity
  8
0
  6
Continuous
 62
     7
370
    25
100
AcDbLine
 10
-15.0
 20
-354.8
 30
0.0
 11
15.0
 21
-354.8
 31
0.0
  0
LINE
  5
1C1
330
1B
100
AcDbEntity
  8
0
  6
Continuous
 62
     7
370
    25
100
AcDbLine
 10
14.8
 20
-355.0
 30
0.0
 11
14.8
 21
7.5
 31
0.0
  0
LINE
  5
1C2
330
1B
100
AcDbEntity
  8
0
  6
Continuous
 62
     7
370
    25
100
AcDbLine
 10
15.0
 20
-40.0
 30
0.0
 11
-15.0
 21
-40.0
 31
0.0
  0
LINE
  5
1C3
330
1B
100
AcDbEntity
  8
0
  6
Continuous
 62
     7
370
    25
100
AcDbLine
 10
-14.8
 20
7.5
 30
0.0
 11
-14.8
 21
-355.0
 31
0.0
  0
LINE
  5
1C4
330
1B
100
AcDbEntity
  8
0
  6
Continuous
 62
     7
370
    25
100
AcDbLine
 10
14.8
 20
7.5
 30
0.0
 11
-14.8
 21
7.5
 31
0.0
  0
LINE
  5
1C5
330
1B
100
AcDbEntity
  8
0
  6
Continuous
 62
     7
370
    25
100
AcDbLine
 10
15.0
 20
7.3
 30
0.0
 11
15.0
 21
-354.8
 31
0.0
  0
LINE
  5
1C6
330
1B
100
AcDbEntity
  8
0
  6
Continuous
 62
     7
370
    25
100
AcDbLine
 10
-15.0
 20
-354.8
 30
0.0
 11
-15.0
 21
7.3
 31
0.0
  0
LINE
  5
1C7
330
1B
100
AcDbEntity
  8
0
  6
Continuous
 62
     7
370
    25
100
AcDbLine
 10
20.0
 20
70.0
 30
0.0
 11
-20.0
 21
70.0
 31
0.0
  0
LINE
  5
1C8
330
1B
100
AcDbEntity
  8
0
  6
Continuous
 62
     7
370
    25
100
AcDbLine
 10
17.0
 20
60.0
 30
0.0
 11
17.0
 21
70.0
 31
0.0
  0
LINE
  5
1C9
330
1B
100
AcDbEntity
  8
0
  6
Continuous
 62
     7
370
    25
100
AcDbLine
 10
-20.0
 20
60.2
 30
0.0
 11
20.0
 21
60.2
 31
0.0
  0
LINE
  5
1CA
330
1B
100
AcDbEntity
  8
0
  6
Continuous
 62
     7
370
    25
100
AcDbLine
 10
-17.0
 20
60.0
 30
0.0
 11
-17.0
 21
70.0
 31
0.0
  0
LINE
  5
1CB
330
1B
100
AcDbEntity
  8
0
  6
Continuous
 62
     7
370
    25
100
AcDbLine
 10
-20.0
 20
60.2
 30
0.0
 11
-20.0
 21
70.0
 31
0.0
  0
LINE
  5
1CC
330
1B
100
AcDbEntity
  8
0
  6
Continuous
 62
     7
370
    25
100
AcDbLine
 10
19.8
 20
60.0
 30
0.0
 11
-19.8
 21
60.0
 31
0.0
  0
LINE
  5
1CD
330
1B
100
AcDbEntity
  8
0
  6
Continuous
 62
     7
370
    25
100
AcDbLine
 10
20.0
 20
60.2
 30
0.0
 11
20.0
 21
70.0
 31
0.0
  0
LINE
  5
1CE
330
1B
100
AcDbEntity
  8
0
  6
Continuous
 62
     7
370
    25
100
AcDbLine
 10
4.8
 20
7.5
 30
0.0
 11
4.8
 21
60.0
 31
0.0
  0
LINE
  5
1CF
330
1B
100
AcDbEntity
  8
0
  6
Continuous
 62
     7
370
    25
100
AcDbLine
 10
5.0
 20
59.8
 30
0.0
 11
-5.0
 21
59.8
 31
0.0
  0
LINE
  5
1D0
330
1B
100
AcDbEntity
  8
0
  6
Continuous
 62
     7
370
    25
100
AcDbLine
 10
-4.8
 20
60.0
 30
0.0
 11
-4.8
 21
7.5
 31
0.0
  0
LINE
  5
1D1
330
1B
100
AcDbEntity
  8
0
  6
Continuous
 62
     7
370
    25
100
AcDbLine
 10
5.0
 20
59.8
 30
0.0
 11
5.0
 21
7.5
 31
0.0
  0
LINE
  5
1D2
330
1B
100
AcDbEntity
  8
0
  6
Continuous
 62
     7
370
    25
100
AcDbLine
 10
-5.0
 20
7.5
 30
0.0
 11
-5.0
 21
59.8
 31
0.0
  0
LINE
  5
1D3
330
1B
100
AcDbEntity
  8
0
  6
Continuous
 62
     7
370
    25
100
AcDbLine
 10
-19.0
 20
11.0
 30
0.0
 11
-5.0
 21
11.0
 31
0.0
  0
LINE
  5
1D4
330
1B
100
AcDbEntity
  8
0
  6
Continuous
 62
     7
370
    25
100
AcDbLine
 10
5.0
 20
11.0
 30
0.0
 11
19.0
 21
11.0
 31
0.0
  0
LINE
  5
1D5
330
1B
100
AcDbEntity
  8
0
  6
Continuous
 62
     7
370
    25
100
AcDbLine
 10
19.0
 20
11.0
 30
0.0
 11
19.0
 21
-11.0
 31
0.0
  0
LINE
  5
1D6
330
1B
100
AcDbEntity
  8
0
  6
Continuous
 62
     7
370
    25
100
AcDbLine
 10
19.0
 20
-11.0
 30
0.0
 11
15.0
 21
-11.0
 31
0.0
  0
LINE
  5
1D7
330
1B
100
AcDbEntity
  8
0
  6
Continuous
 62
     7
370
    25
100
AcDbLine
 10
-15.0
 20
-11.0
 30
0.0
 11
-19.0
 21
-11.0
 31
0.0
  0
LINE
  5
1D8
330
1B
100
AcDbEntity
  8
0
  6
Continuous
 62
     7
370
    25
100
AcDbLine
 10
-19.0
 20
-11.0
 30
0.0
 11
-19.0
 21
11.0
 31
0.0
  0
LINE
  5
1D9
330
1B
100
AcDbEntity
  8
0
  6
Continuous
 62
     7
370
    25
100
AcDbLine
 10
52.9601551084
 20
8.6455540411
 30
0.0
 11
50.1317279836
 21
5.9135032335
 31
0.0
  0
LINE
  5
1DA
330
1B
100
AcDbEntity
  8
0
  6
Continuous
 62
     7
370
    25
100
AcDbLine
 10
50.1317279836
 20
-9.79578891
 30
0.0
 11
52.9601551084
 21
-12.5278397176
 31
0.0
  0
LINE
  5
1DB
330
1B
100
AcDbEntity
  8
0
  6
Continuous
 62
     7
370
    25
100
AcDbLine
 10
52.9601551084
 20
-8.6455540411
 30
0.0
 11
52.9601551084
 21
-12.5278397176
 31
0.0
  0
LINE
  5
1DC
330
1B
100
AcDbEntity
  8
0
  6
Continuous
 62
     7
370
    25
100
AcDbLine
 10
52.9601551084
 20
12.5278397176
 30
0.0
 11
52.9601551084
 21
8.6455540411
 31
0.0
  0
LINE
  5
1DD
330
1B
100
AcDbEntity
  8
0
  6
Continuous
 62
     7
370
    25
100
AcDbLine
 10
50.1317279836
 20
-5.9135032335
 30
0.0
 11
50.1317279836
 21
-9.79578891
 31
0.0
  0
LINE
  5
1DE
330
1B
100
AcDbEntity
  8
0
  6
Continuous
 62
     7
370
    25
100
AcDbLine
 10
50.1317279836
 20
-5.9135032335
 30
0.0
 11
52.9601551084
 21
-8.6455540411
 31
0.0
  0
ARC
  5
1DF
330
1B
100
AcDbEntity
  8
0
  6
Continuous
 62
     7
370
    25
100
AcDbCircle
 10
-14.8
 20
7.3
 30
0.0
 40
0.1999999999999984
100
AcDbArc
 50
90.0
 51
180.0
  0
ARC
  5
1E0
330
1B
100
AcDbEntity
  8
0
  6
Continuous
 62
     7
370
    25
100
AcDbCircle
 10
14.8
 20
-354.8
 30
0.0
 40
0.2000000000000082
100
AcDbArc
 50
270.0
 51
0.0
  0
ARC
  5
1E1
330
1B
100
AcDbEntity
  8
0
  6
Continuous
 62
     7
370
    25
100
AcDbCircle
 10
14.8
 20
7.3
 30
0.0
 40
0.2000000000000668
100
AcDbArc
 50
0.0
 51
90.0
  0
ARC
  5
1E2
330
1B
100
AcDbEntity
  8
0
  6
Continuous
 62
     7
370
    25
100
AcDbCircle
 10
-14.8
 20
-354.8
 30
0.0
 40
0.2000000000000455
100
AcDbArc
 50
180.0
 51
270.0
  0
ARC
  5
1E3
330
1B
100
AcDbEntity
  8
0
  6
Continuous
 62
     7
370
    25
100
AcDbCircle
 10
19.8
 20
60.2
 30
0.0
 40
0.2000000000000171
100
AcDbArc
 50
270.0
 51
360.0
  0
ARC
  5
1E4
330
1B
100
AcDbEntity
  8
0
  6
Continuous
 62
     7
370
    25
100
AcDbCircle
 10
-19.8
 20
60.2
 30
0.0
 40
0.2000000000000171
100
AcDbArc
 50
180.0
 51
270.0
  0
ARC
  5
1E5
330
1B
100
AcDbEntity
  8
0
  6
Continuous
 62
     7
370
    25
100
AcDbCircle
 10
5.2
 20
59.8
 30
0.0
 40
0.1999999999999531
100
AcDbArc
 50
90.0
 51
180.0
  0
ARC
  5
1E6
330
1B
100
AcDbEntity
  8
0
  6
Continuous
 62
     7
370
    25
100
AcDbCircle
 10
-5.2
 20
59.8
 30
0.0
 40
0.1999999999999815
100
AcDbArc
 50
0.0
 51
90.0
  0
ARC
  5
1E7
330
1B
100
AcDbEntity
  8
0
  6
Continuous
 62
     7
370
    25
100
AcDbCircle
 10
42.039534252
 20
1.3140446763
 30
0.0
 40
15.65276841701909
100
AcDbArc
 50
45.7588481822
 51
166.3799251988
  0
ARC
  5
1E8
330
1B
100
AcDbEntity
  8
0
  6
Continuous
 62
     7
370
    25
100
AcDbCircle
 10
42.0257931534
 20
2.3776524828
 30
0.0
 40
11.59523361487429
100
AcDbArc
 50
191.8326775881
 51
314.3528166671
  0
ARC
  5
1E9
330
1B
100
AcDbEntity
  8
0
  6
Continuous
 62
     7
370
    25
100
AcDbCircle
 10
0.0
 20
0.0
 30
0.0
 40
14.00000000000056
100
AcDbArc
 50
51.7867892983
 51
69.0751675724
  0
ARC
  5
1EA
330
1B
100
AcDbEntity
  8
0
  6
Continuous
 62
     7
370
    25
100
AcDbCircle
 10
0.0
 20
0.0
 30
0.0
 40
13.99999999999871
100
AcDbArc
 50
110.9248324276
 51
128.2132107017
  0
VIEWPORT
  5
2F2
330
1B
100
AcDbEntity
  8
0
100
AcDbViewport
 10
0.0
 20
0.0
 30
0.0
 40
205.6
 41
156.0
 68
     1
 69
     1
 12
-142.5
 22
497.75
 13
0.0
 23
0.0
 14
10.0
 24
10.0
 15
10.0
 25
10.0
 16
0.0
 26
0.0
 36
1.0
 17
0.0
 27
0.0
 37
0.0
 42
50.0
 43
0.0
 44
0.0
 45
1039.89
 50
0.0
 51
0.0
 72
   100
 90
   557152
  1

281
     0
 71
     1
 74
     0
110
0.0
120
0.0
130
0.0
111
1.0
121
0.0
131
0.0
112
0.0
122
1.0
132
0.0
 79
     0
146
0.0
  0
ENDBLK
  5
1D
330
1B
100
AcDbEntity
  8
0
100
AcDbBlockEnd
  0
ENDSEC
  0
SECTION
  2
ENTITIES
  0
SPLINE
  5
77
330
1F
100
AcDbEntity
  8
0
  6
Continuous
 62
     7
370
    25
100
AcDbSpline
210
0.0
220
0.0
230
1.0
 70
     8
 71
     3
 72
     9
 73
     5
 74
     0
 42
0.000000001
 43
0.00000001
 40
0.0
 40
0.0
 40
0.0
 40
0.0
 40
0.5023165362963354
 40
0.9999999999999999
 40
0.9999999999999999
 40
0.9999999999999999
 40
0.9999999999999999
 10
-324.5076936661582
 20
982.5337314160787
 30
0.0
 10
-324.643214982156
 20
982.6120302272013
 30
0.0
 10
-324.913007645159
 20
982.7679056672181
 30
0.0
 10
-325.1827946601073
 20
982.9237992882338
 30
0.0
 10
-325.317063196169
 20
983.0013849655102
 30
0.0
  0
SPLINE
  5
78
330
1F
100
AcDbEntity
  8
0
  6
Continuous
 62
     7
370
    25
100
AcDbSpline
210
0.0
220
0.0
230
1.0
 70
     8
 71
     3
 72
     9
 73
     5
 74
     0
 42
0.000000001
 43
0.00000001
 40
0.0
 40
0.0
 40
0.0
 40
0.0
 40
0.5026667358157586
 40
1.0
 40
1.0
 40
1.0
 40
1.0
 10
-324.5076936661582
 20
984.0337314160787
 30
0.0
 10
-324.6433072976278
 20
984.1120806998399
 30
0.0
 10
-324.9130956520322
 20
984.267947953785
 30
0.0
 10
-325.1828760018768
 20
984.4238434151075
 30
0.0
 10
-325.3170467438778
 20
984.5013754137588
 30
0.0
  0
SPLINE
  5
79
330
1F
100
AcDbEntity
  8
0
  6
Continuous
 62
     7
370
    25
100
AcDbSpline
210
0.0
220
0.0
230
1.0
 70
     8
 71
     3
 72
     9
 73
     5
 74
     0
 42
0.000000001
 43
0.00000001
 40
0.0
 40
0.0
 40
0.0
 40
0.0
 40
0.503020078806212
 40
1.0
 40
1.0
 40
1.0
 40
1.0
 10
-324.5076936661582
 20
985.5337314160787
 30
0.0
 10
-324.6434014388714
 20
985.6121309337649
 30
0.0
 10
-324.9131874343638
 20
985.7679885644827
 30
0.0
 10
-325.1829594247268
 20
985.9238874525569
 30
0.0
 10
-325.3170306872378
 20
986.0013660696661
 30
0.0
  0
SPLINE
  5
7A
330
1F
100
AcDbEntity
  8
0
  6
Continuous
 62
     7
370
    25
100
AcDbSpline
210
0.0
220
0.0
230
1.0
 70
     8
 71
     3
 72
     9
 73
     5
 74
     0
 42
0.000000001
 43
0.00000001
 40
0.0
 40
0.0
 40
0.0
 40
0.0
 40
0.5033761334356939
 40
1.0
 40
1.0
 40
1.0
 40
1.0
 10
-324.5076936661582
 20
987.0337314160788
 30
0.0
 10
-324.6434974671252
 20
987.11218096205
 30
0.0
 10
-324.9132834024257
 20
987.2680277349907
 30
0.0
 10
-325.1830449841027
 20
987.4239314337963
 30
0.0
 10
-325.3170150238457
 20
987.501356931509
 30
0.0
  0
SPLINE
  5
7B
330
1F
100
AcDbEntity
  8
0
  6
Continuous
 62
     7
370
    25
100
AcDbSpline
210
0.0
220
0.0
230
1.0
 70
     8
 71
     3
 72
     9
 73
     5
 74
     0
 42
0.000000001
 43
0.00000001
 40
0.0
 40
0.0
 40
0.0
 40
0.0
 40
0.5037344626674977
 40
1.0
 40
1.0
 40
1.0
 40
1.0
 10
-324.5076936661582
 20
988.5337314160787
 30
0.0
 10
-324.6435954446874
 20
988.6122308183599
 30
0.0
 10
-324.9133839713837
 20
988.7680657037981
 30
0.0
 10
-325.1831327358163
 20
988.9239753922742
 30
0.0
 10
-325.3169997513423
 20
989.0013479976011
 30
0.0
  0
SPLINE
  5
7C
330
1F
100
AcDbEntity
  8
0
  6
Continuous
 62
     7
370
    25
100
AcDbSpline
210
0.0
220
0.0
230
1.0
 70
     8
 71
     3
 72
     9
 73
     5
 74
     0
 42
0.000000001
 43
0.00000001
 40
0.0
 40
0.0
 40
0.0
 40
0.0
 40
0.4996531200850911
 40
0.9999999999999999
 40
0.9999999999999999
 40
0.9999999999999999
 40
0.9999999999999999
 10
-344.6797496740385
 20
982.2532265673184
 30
0.0
 10
-344.8150802219412
 20
982.1750272048996
 30
0.0
 10
-345.0859292219025
 20
982.0185199015817
 30
0.0
 10
-345.3567839477342
 20
981.8620308406543
 30
0.0
 10
-345.4923052647142
 20
981.7837320272781
 30
0.0
  0
SPLINE
  5
7D
330
1F
100
AcDbEntity
  8
0
  6
Continuous
 62
     7
370
    25
100
AcDbSpline
210
0.0
220
0.0
230
1.0
 70
     8
 71
     3
 72
     9
 73
     5
 74
     0
 42
0.000000001
 43
0.00000001
 40
0.0
 40
0.0
 40
0.0
 40
0.0
 40
0.4993144867754912
 40
1.0
 40
1.0
 40
1.0
 40
1.0
 10
-344.6797496740385
 20
983.7532265673185
 30
0.0
 10
-344.8149878995339
 20
983.675077690469
 30
0.0
 10
-345.0858356900091
 20
983.5185653542176
 30
0.0
 10
-345.3566916229299
 20
983.362081317509
 30
0.0
 10
-345.4923052647142
 20
983.2837320272781
 30
0.0
  0
SPLINE
  5
7E
330
1F
100
AcDbEntity
  8
0
  6
Continuous
 62
     7
370
    25
100
AcDbSpline
210
0.0
220
0.0
230
1.0
 70
     8
 71
     3
 72
     9
 73
     5
 74
     0
 42
0.000000001
 43
0.00000001
 40
0.0
 40
0.0
 40
0.0
 40
0.0
 40
0.498972500733783
 40
0.9999999999999999
 40
0.9999999999999999
 40
0.9999999999999999
 40
0.9999999999999999
 10
-344.6797496740386
 20
985.2532265673185
 30
0.0
 10
-344.814893756192
 20
985.1751279450833
 30
0.0
 10
-345.0857385060625
 20
985.0186090545226
 30
0.0
 10
-345.35659747357
 20
984.8621315567025
 30
0.0
 10
-345.4923052647142
 20
984.7837320272781
 30
0.0
  0
SPLINE
  5
7F
330
1F
100
AcDbEntity
  8
0
  6
Continuous
 62
     7
370
    25
100
AcDbSpline
210
0.0
220
0.0
230
1.0
 70
     8
 71
     3
 72
     9
 73
     5
 74
     0
 42
0.000000001
 43
0.00000001
 40
0.0
 40
0.0
 40
0.0
 40
0.0
 40
0.4986275951366671
 40
1.0
 40
1.0
 40
1.0
 40
1.0
 10
-344.6797496740385
 20
986.7532265673185
 30
0.0
 10
-344.8147977341217
 20
986.6751780034735
 30
0.0
 10
-345.0856372572454
 20
986.5186512396
 30
0.0
 10
-345.356501438678
 20
986.3621815911899
 30
0.0
 10
-345.4923052647142
 20
986.2837320272781
 30
0.0
  0
SPLINE
  5
80
330
1F
100
AcDbEntity
  8
0
  6
Continuous
 62
     7
370
    25
100
AcDbSpline
210
0.0
220
0.0
230
1.0
 70
     8
 71
     3
 72
     9
 73
     5
 74
     0
 42
0.000000001
 43
0.00000001
 40
0.0
 40
0.0
 40
0.0
 40
0.0
 40
0.4982802083392628
 40
1.0
 40
1.0
 40
1.0
 40
1.0
 10
-344.6797496740385
 20
988.2532265673184
 30
0.0
 10
-344.8146997751738
 20
988.1752279005923
 30
0.0
 10
-345.0855315258166
 20
988.0186921493805
 30
0.0
 10
-345.3564034562235
 20
987.8622314545111
 30
0.0
 10
-345.4923052647142
 20
987.7837320272781
 30
0.0
  0
SPLINE
  5
82
330
1F
100
AcDbEntity
  8
0
  6
Continuous
 62
     7
370
    25
100
AcDbSpline
210
0.0
220
0.0
230
1.0
 70
     8
 71
     3
 72
     9
 73
     5
 74
     0
 42
0.000000001
 43
0.00000001
 40
0.0
 40
0.0
 40
0.0
 40
0.0
 40
0.5019699050573462
 40
0.9999999999999999
 40
0.9999999999999999
 40
0.9999999999999999
 40
0.9999999999999999
 10
-324.5076936661582
 20
981.0337314160787
 30
0.0
 10
-324.6431244325192
 20
981.1119794834974
 30
0.0
 10
-324.9129230100764
 20
981.2678614728961
 30
0.0
 10
-325.182715344588
 20
981.4237550391038
 30
0.0
 10
-325.3170800465598
 20
981.5013947266833
 30
0.0
  0
SPLINE
  5
83
330
1F
100
AcDbEntity
  8
0
  6
Continuous
 62
     7
370
    25
100
AcDbSpline
210
0.0
220
0.0
230
1.0
 70
     8
 71
     3
 72
     9
 73
     5
 74
     0
 42
0.000000001
 43
0.00000001
 40
0.0
 40
0.0
 40
0.0
 40
0.0
 40
0.5003124458773912
 40
1.0
 40
1.0
 40
1.0
 40
1.0
 10
-325.3197793519874
 20
981.8595466507893
 30
0.0
 10
-325.1842778922953
 20
981.9378448578362
 30
0.0
 10
-324.9134442146432
 20
982.094343477233
 30
0.0
 10
-324.6425974126969
 20
982.2508276557684
 30
0.0
 10
-324.5072586366906
 20
982.3290208521998
 30
0.0
  0
SPLINE
  5
84
330
1F
100
AcDbEntity
  8
0
  6
Continuous
 62
     7
370
    25
100
AcDbSpline
210
0.0
220
0.0
230
1.0
 70
     8
 71
     3
 72
     9
 73
     5
 74
     0
 42
0.000000001
 43
0.00000001
 40
0.0
 40
0.0
 40
0.0
 40
0.0
 40
0.5006316873639735
 40
1.0
 40
1.0
 40
1.0
 40
1.0
 10
-325.3197793519874
 20
983.3595466507894
 30
0.0
 10
-325.1841936577824
 20
983.4378967280893
 30
0.0
 10
-324.9133644281766
 20
983.5943991614705
 30
0.0
 10
-324.6425131716417
 20
983.7508795197336
 30
0.0
 10
-324.5072586366905
 20
983.8290208521998
 30
0.0
  0
SPLINE
  5
85
330
1F
100
AcDbEntity
  8
0
  6
Continuous
 62
     7
370
    25
100
AcDbSpline
210
0.0
220
0.0
230
1.0
 70
     8
 71
     3
 72
     9
 73
     5
 74
     0
 42
0.000000001
 43
0.00000001
 40
0.0
 40
0.0
 40
0.0
 40
0.0
 40
0.5009459484801113
 40
0.9999999999999999
 40
0.9999999999999999
 40
0.9999999999999999
 40
0.9999999999999999
 10
-325.3197793519874
 20
984.8595466507893
 30
0.0
 10
-325.1841110236564
 20
984.9379489627594
 30
0.0
 10
-324.9132867386363
 20
985.0944574886946
 30
0.0
 10
-324.6424305266577
 20
985.2509317420862
 30
0.0
 10
-324.5072586366905
 20
985.3290208521997
 30
0.0
  0
SPLINE
  5
86
330
1F
100
AcDbEntity
  8
0
  6
Continuous
 62
     7
370
    25
100
AcDbSpline
210
0.0
220
0.0
230
1.0
 70
     8
 71
     3
 72
     9
 73
     5
 74
     0
 42
0.000000001
 43
0.00000001
 40
0.0
 40
0.0
 40
0.0
 40
0.0
 40
0.5012548567271552
 40
1.0
 40
1.0
 40
1.0
 40
1.0
 10
-325.3197793519874
 20
986.3595466507894
 30
0.0
 10
-325.1840299387496
 20
986.4380015924718
 30
0.0
 10
-324.9132107907334
 20
986.5945186628387
 30
0.0
 10
-324.6423494265681
 20
986.7509843504264
 30
0.0
 10
-324.5072586366905
 20
986.8290208521998
 30
0.0
  0
SPLINE
  5
87
330
1F
100
AcDbEntity
  8
0
  6
Continuous
 62
     7
370
    25
100
AcDbSpline
210
0.0
220
0.0
230
1.0
 70
     8
 71
     3
 72
     9
 73
     5
 74
     0
 42
0.000000001
 43
0.00000001
 40
0.0
 40
0.0
 40
0.0
 40
0.0
 40
0.5015580547500739
 40
1.0
 40
1.0
 40
1.0
 40
1.0
 10
-325.3197793519874
 20
987.8595466507893
 30
0.0
 10
-325.1839503536915
 20
987.9380546467489
 30
0.0
 10
-324.9131362435212
 20
988.094582879555
 30
0.0
 10
-324.6422698224915
 20
988.2510373710937
 30
0.0
 10
-324.5072586366905
 20
988.3290208521997
 30
0.0
  0
SPLINE
  5
88
330
1F
100
AcDbEntity
  8
0
  6
Continuous
 62
     7
370
    25
100
AcDbSpline
210
0.0
220
0.0
230
1.0
 70
     8
 71
     3
 72
     9
 73
     5
 74
     0
 42
0.000000001
 43
0.00000001
 40
0.0
 40
0.0
 40
0.0
 40
0.0
 40
0.5018552016914507
 40
1.0
 40
1.0
 40
1.0
 40
1.0
 10
-325.3197793519874
 20
989.3595466507894
 30
0.0
 10
-325.1838722211185
 20
989.4381081538861
 30
0.0
 10
-324.9130627716778
 20
989.5946503254767
 30
0.0
 10
-324.6421916679998
 20
989.7510908290835
 30
0.0
 10
-324.5072586366905
 20
989.8290208521998
 30
0.0
  0
SPLINE
  5
89
330
1F
100
AcDbEntity
  8
0
  6
Continuous
 62
     7
370
    25
100
AcDbSpline
210
0.0
220
0.0
230
1.0
 70
     8
 71
     3
 72
     9
 73
     5
 74
     0
 42
0.000000001
 43
0.00000001
 40
0.0
 40
0.0
 40
0.0
 40
0.0
 40
0.5045805030054106
 40
0.9999999999999999
 40
0.9999999999999999
 40
0.9999999999999999
 40
0.9999999999999999
 10
-345.4927399453733
 20
983.0790200180163
 30
0.0
 10
-345.3574011133778
 20
983.0008267996099
 30
0.0
 10
-345.0891806189484
 20
982.8458600144469
 30
0.0
 10
-344.8209731597573
 20
982.6908789781495
 30
0.0
 10
-344.6880979552348
 20
982.6140983511034
 30
0.0
  0
SPLINE
  5
8A
330
1F
100
AcDbEntity
  8
0
  6
Continuous
 62
     7
370
    25
100
AcDbSpline
210
0.0
220
0.0
230
1.0
 70
     8
 71
     3
 72
     9
 73
     5
 74
     0
 42
0.000000001
 43
0.00000001
 40
0.0
 40
0.0
 40
0.0
 40
0.0
 40
0.5042581131215941
 40
0.9999999999999999
 40
0.9999999999999999
 40
0.9999999999999999
 40
0.9999999999999999
 10
-345.4927399453733
 20
984.5790200180163
 30
0.0
 10
-345.3574853527273
 20
984.5008786652364
 30
0.0
 10
-345.0892604315478
 20
984.3459156596906
 30
0.0
 10
-344.821057404079
 20
984.1909308977108
 30
0.0
 10
-344.6880979291752
 20
984.1140984593694
 30
0.0
  0
SPLINE
  5
8B
330
1F
100
AcDbEntity
  8
0
  6
Continuous
 62
     7
370
    25
100
AcDbSpline
210
0.0
220
0.0
230
1.0
 70
     8
 71
     3
 72
     9
 73
     5
 74
     0
 42
0.000000001
 43
0.00000001
 40
0.0
 40
0.0
 40
0.0
 40
0.0
 40
0.503940694496803
 40
1.0
 40
1.0
 40
1.0
 40
1.0
 10
-345.4927399453733
 20
986.0790200180163
 30
0.0
 10
-345.3575679952377
 20
986.0009308929676
 30
0.0
 10
-345.0893381189608
 20
985.8459739190588
 30
0.0
 10
-344.8211399823733
 20
985.6909831643576
 30
0.0
 10
-344.6880978010005
 20
985.6140985582208
 30
0.0
  0
SPLINE
  5
8C
330
1F
100
AcDbEntity
  8
0
  6
Continuous
 62
     7
370
    25
100
AcDbSpline
210
0.0
220
0.0
230
1.0
 70
     8
 71
     3
 72
     9
 73
     5
 74
     0
 42
0.000000001
 43
0.00000001
 40
0.0
 40
0.0
 40
0.0
 40
0.0
 40
0.5036286195892903
 40
1.0
 40
1.0
 40
1.0
 40
1.0
 10
-345.4927399453733
 20
987.5790200180163
 30
0.0
 10
-345.3576490925923
 20
987.5009835106782
 30
0.0
 10
-345.0894140330136
 20
987.3460349944445
 30
0.0
 10
-344.8212209441604
 20
987.1910358076796
 30
0.0
 10
-344.6880975704296
 20
987.1140986473823
 30
0.0
  0
SPLINE
  5
8D
330
1F
100
AcDbEntity
  8
0
  6
Continuous
 62
     7
370
    25
100
AcDbSpline
210
0.0
220
0.0
230
1.0
 70
     8
 71
     3
 72
     9
 73
     5
 74
     0
 42
0.000000001
 43
0.00000001
 40
0.0
 40
0.0
 40
0.0
 40
0.0
 40
0.5033222457269501
 40
1.0
 40
1.0
 40
1.0
 40
1.0
 10
-345.4927399453733
 20
989.0790200180163
 30
0.0
 10
-345.3577286941562
 20
989.0010365449702
 30
0.0
 10
-345.0894885113244
 20
988.8460990795438
 30
0.0
 10
-344.8213003372176
 20
988.6910888561979
 30
0.0
 10
-344.6880972371795
 20
988.6140987265768
 30
0.0
  0
SPLINE
  5
8E
330
1F
100
AcDbEntity
  8
0
  6
Continuous
 62
     7
370
    25
100
AcDbSpline
210
0.0
220
0.0
230
1.0
 70
     8
 71
     3
 72
     9
 73
     5
 74
     0
 42
0.000000001
 43
0.00000001
 40
0.0
 40
0.0
 40
0.0
 40
0.0
 40
0.5049074780044533
 40
1.0
 40
1.0
 40
1.0
 40
1.0
 10
-345.4927399453733
 20
981.5790200180163
 30
0.0
 10
-345.3573152233633
 20
981.5007752670372
 30
0.0
 10
-345.089098316485
 20
981.3458067740197
 30
0.0
 10
-344.8208871983416
 20
981.1908273751335
 30
0.0
 10
-344.6880978794327
 20
981.1140982336817
 30
0.0
  0
SPLINE
  5
8F
330
1F
100
AcDbEntity
  8
0
  6
Continuous
 62
     7
370
    25
100
AcDbSpline
210
0.0
220
0.0
230
1.0
 70
     8
 71
     3
 72
     9
 73
     5
 74
     0
 42
0.000000001
 43
0.00000001
 40
0.0
 40
0.0
 40
0.0
 40
0.0
 40
0.3422318790340554
 40
1.0
 40
1.0
 40
1.0
 40
1.0
 10
-325.1249087203074
 20
980.4721462881663
 30
0.0
 10
-325.0544497116505
 20
980.5128591547568
 30
0.0
 10
-324.8485688075813
 20
980.631821966478
 30
0.0
 10
-324.6426834569257
 20
980.7507764108468
 30
0.0
 10
-324.5072586366906
 20
980.8290208522
 30
0.0
  0
SPLINE
  5
9D
330
1F
100
AcDbEntity
  8
0
  6
Continuous
 62
     7
370
    25
100
AcDbSpline
210
0.0
220
0.0
230
1.0
 70
     8
 71
     3
 72
     9
 73
     5
 74
     0
 42
0.000000001
 43
0.00000001
 40
0.0
 40
0.0
 40
0.0
 40
0.0
 40
0.5004081379494048
 40
1.0
 40
1.0
 40
1.0
 40
1.0
 10
-325.3170800465598
 20
982.9862986768087
 30
0.0
 10
-325.3169751913326
 20
983.0488497853835
 30
0.0
 10
-325.3167656519203
 20
983.1738499678971
 30
0.0
 10
-325.3169753053917
 20
983.298849785284
 30
0.0
 10
-325.3170800465598
 20
983.3612986768085
 30
0.0
  0
SPLINE
  5
9E
330
1F
100
AcDbEntity
  8
0
  6
Continuous
 62
     7
370
    25
100
AcDbSpline
210
0.0
220
0.0
230
1.0
 70
     8
 71
     3
 72
     9
 73
     5
 74
     0
 42
0.000000001
 43
0.00000001
 40
0.0
 40
0.0
 40
0.0
 40
0.0
 40
0.5008132171737734
 40
1.0
 40
1.0
 40
1.0
 40
1.0
 10
-325.3170800465598
 20
984.4862986768087
 30
0.0
 10
-325.316872400505
 20
984.5489010571741
 30
0.0
 10
-325.3164577827441
 20
984.673902511247
 30
0.0
 10
-325.3168728503146
 20
984.7989010555964
 30
0.0
 10
-325.3170800465598
 20
984.8612986768085
 30
0.0
  0
SPLINE
  5
9F
330
1F
100
AcDbEntity
  8
0
  6
Continuous
 62
     7
370
    25
100
AcDbSpline
210
0.0
220
0.0
230
1.0
 70
     8
 71
     3
 72
     9
 73
     5
 74
     0
 42
0.000000001
 43
0.00000001
 40
0.0
 40
0.0
 40
0.0
 40
0.0
 40
0.5012124033077819
 40
1.0
 40
1.0
 40
1.0
 40
1.0
 10
-325.3170800465598
 20
985.9862986768087
 30
0.0
 10
-325.3167716790448
 20
986.0489526710193
 30
0.0
 10
-325.3161564358605
 20
986.1739575467903
 30
0.0
 10
-325.3167726744131
 20
986.2989526631308
 30
0.0
 10
-325.3170800465598
 20
986.3612986768085
 30
0.0
  0
SPLINE
  5
A0
330
1F
100
AcDbEntity
  8
0
  6
Continuous
 62
     7
370
    25
100
AcDbSpline
210
0.0
220
0.0
230
1.0
 70
     8
 71
     3
 72
     9
 73
     5
 74
     0
 42
0.000000001
 43
0.00000001
 40
0.0
 40
0.0
 40
0.0
 40
0.0
 40
0.5016029990823565
 40
1.0
 40
1.0
 40
1.0
 40
1.0
 10
-325.3170800465598
 20
987.4862986768087
 30
0.0
 10
-325.3166730333085
 20
987.5490047982099
 30
0.0
 10
-325.3158616082331
 20
987.674016254513
 30
0.0
 10
-325.3166747694487
 20
987.7990047736976
 30
0.0
 10
-325.3170800465598
 20
987.8612986768085
 30
0.0
  0
SPLINE
  5
A1
330
1F
100
AcDbEntity
  8
0
  6
Continuous
 62
     7
370
    25
100
AcDbSpline
210
0.0
220
0.0
230
1.0
 70
     8
 71
     3
 72
     9
 73
     5
 74
     0
 42
0.000000001
 43
0.00000001
 40
0.0
 40
0.0
 40
0.0
 40
0.0
 40
0.5019825027148936
 40
1.0
 40
1.0
 40
1.0
 40
1.0
 10
-325.3170800465598
 20
988.9862986768087
 30
0.0
 10
-325.3165764708412
 20
989.049057598654
 30
0.0
 10
-325.3155732969938
 20
989.1740797289195
 30
0.0
 10
-325.316579126077
 20
989.2990575400788
 30
0.0
 10
-325.3170800465598
 20
989.3612986768085
 30
0.0
  0
SPLINE
  5
A2
330
1F
100
AcDbEntity
  8
0
  6
Continuous
 62
     7
370
    25
100
AcDbSpline
210
0.0
220
0.0
230
1.0
 70
     8
 71
     3
 72
     9
 73
     5
 74
     0
 42
0.000000001
 43
0.00000001
 40
0.0
 40
0.0
 40
0.0
 40
0.0
 40
0.5061315693657156
 40
1.0
 40
1.0
 40
1.0
 40
1.0
 10
-344.6880978794327
 20
982.6185629279807
 30
0.0
 10
-344.6880994759669
 20
982.5561130913887
 30
0.0
 10
-344.6881026303527
 20
982.4327265247883
 30
0.0
 10
-344.6880995049909
 20
982.3093396087013
 30
0.0
 10
-344.6880979614734
 20
982.2484027060926
 30
0.0
  0
SPLINE
  5
A3
330
1F
100
AcDbEntity
  8
0
  6
Continuous
 62
     7
370
    25
100
AcDbSpline
210
0.0
220
0.0
230
1.0
 70
     8
 71
     3
 72
     9
 73
     5
 74
     0
 42
0.000000001
 43
0.00000001
 40
0.0
 40
0.0
 40
0.0
 40
0.0
 40
0.5057284791710734
 40
1.0
 40
1.0
 40
1.0
 40
1.0
 10
-344.6880978794327
 20
984.1185629279809
 30
0.0
 10
-344.6880989257282
 20
984.0561634238634
 30
0.0
 10
-344.6881009946162
 20
983.9327780368671
 30
0.0
 10
-344.6880989458364
 20
983.8093898642062
 30
0.0
 10
-344.6880979331829
 20
983.7484026044528
 30
0.0
  0
SPLINE
  5
A4
330
1F
100
AcDbEntity
  8
0
  6
Continuous
 62
     7
370
    25
100
AcDbSpline
210
0.0
220
0.0
230
1.0
 70
     8
 71
     3
 72
     9
 73
     5
 74
     0
 42
0.000000001
 43
0.00000001
 40
0.0
 40
0.0
 40
0.0
 40
0.0
 40
0.5053308214510397
 40
1.0
 40
1.0
 40
1.0
 40
1.0
 10
-344.6880978794327
 20
985.6185629279807
 30
0.0
 10
-344.6880962318254
 20
985.5562141261154
 30
0.0
 10
-344.6880929713727
 20
985.4328319787796
 30
0.0
 10
-344.6880961984706
 20
985.3094404830621
 30
0.0
 10
-344.6880977948167
 20
985.2484025132362
 30
0.0
  0
SPLINE
  5
A5
330
1F
100
AcDbEntity
  8
0
  6
Continuous
 62
     7
370
    25
100
AcDbSpline
210
0.0
220
0.0
230
1.0
 70
     8
 71
     3
 72
     9
 73
     5
 74
     0
 42
0.000000001
 43
0.00000001
 40
0.0
 40
0.0
 40
0.0
 40
0.0
 40
0.5049412170795908
 40
0.9999999999999999
 40
0.9999999999999999
 40
0.9999999999999999
 40
0.9999999999999999
 10
-344.6880978794327
 20
987.1185629279809
 30
0.0
 10
-344.6880913967156
 20
987.0562653632609
 30
0.0
 10
-344.6880785581576
 20
986.9328894877871
 30
0.0
 10
-344.6880912589581
 20
986.8094916269747
 30
0.0
 10
-344.6880975466009
 20
986.7484024321863
 30
0.0
  0
SPLINE
  5
A6
330
1F
100
AcDbEntity
  8
0
  6
Continuous
 62
     7
370
    25
100
AcDbSpline
210
0.0
220
0.0
230
1.0
 70
     8
 71
     3
 72
     9
 73
     5
 74
     0
 42
0.000000001
 43
0.00000001
 40
0.0
 40
0.0
 40
0.0
 40
0.0
 40
0.5045621156234426
 40
1.0
 40
1.0
 40
1.0
 40
1.0
 10
-344.6880978794327
 20
988.6185629279807
 30
0.0
 10
-344.688084422659
 20
988.5563172869191
 30
0.0
 10
-344.6880577524567
 20
988.4329516216536
 30
0.0
 10
-344.688084123531
 20
988.30954344634
 30
0.0
 10
-344.6880971887602
 20
988.2484023610477
 30
0.0
  0
SPLINE
  5
F2
330
1F
100
AcDbEntity
  8
0
  6
Continuous
 62
     7
370
    25
100
AcDbSpline
210
0.0
220
0.0
230
1.0
 70
     8
 71
     3
 72
    17
 73
    13
 74
     0
 42
0.000000001
 43
0.00000001
 40
0.0
 40
0.0
 40
0.0
 40
0.0
 40
0.0499301073106309
 40
0.1577124227900514
 40
0.2634797111966023
 40
0.3705709429972901
 40
0.4776584693712549
 40
0.583428857896616
 40
0.6912104221489077
 40
0.7966580095470427
 40
0.9042095676801665
 40
1.0
 40
1.0
 40
1.0
 40
1.0
 10
-344.5537776164135
 20
980.7535874428859
 30
0.0
 10
-344.5595958523038
 20
980.7653676996159
 30
0.0
 10
-344.5779737034247
 20
980.8025775701742
 30
0.0
 10
-343.5082091928232
 20
980.8707732892783
 30
0.0
 10
-341.5099424808585
 20
980.9454851861805
 30
0.0
 10
-338.770431591671
 20
981.0250559267563
 30
0.0
 10
-335.6434566230784
 20
981.1046012951656
 30
0.0
 10
-332.4413288601484
 20
981.1793577293995
 30
0.0
 10
-329.5179075425751
 20
981.261796843603
 30
0.0
 10
-327.1886746661481
 20
981.3353449164772
 30
0.0
 10
-325.6535717181702
 20
981.4141187872245
 30
0.0
 10
-325.4559365053054
 20
981.4630366337555
 30
0.0
 10
-325.3628344242264
 20
981.4860808739388
 30
0.0
  0
SPLINE
  5
F3
330
1F
100
AcDbEntity
  8
0
  6
Continuous
 62
     7
370
    25
100
AcDbSpline
210
0.0
220
0.0
230
1.0
 70
     8
 71
     3
 72
    17
 73
    13
 74
     0
 42
0.000000001
 43
0.00000001
 40
0.0
 40
0.0
 40
0.0
 40
0.0
 40
0.0499126599798339
 40
0.1576858738086793
 40
0.2634442307231104
 40
0.3705264192316108
 40
0.4776049026262921
 40
0.5833663593977447
 40
0.6911388220628985
 40
0.7965775049659851
 40
0.9041199809347799
 40
1.0
 40
1.0
 40
1.0
 40
1.0
 10
-344.5537647454506
 20
982.2535969045383
 30
0.0
 10
-344.5595776423836
 20
982.2653740601628
 30
0.0
 10
-344.5779419558183
 20
982.3025808745535
 30
0.0
 10
-343.5082017220263
 20
982.3707733302036
 30
0.0
 10
-341.5099445339233
 20
982.4454851750066
 30
0.0
 10
-338.7704308885814
 20
982.5250559303121
 30
0.0
 10
-335.6434573650715
 20
982.6046012922044
 30
0.0
 10
-332.4413265989378
 20
982.6793577376899
 30
0.0
 10
-329.517915947943
 20
982.761796813034
 30
0.0
 10
-327.1886438475551
 20
982.8353450284939
 30
0.0
 10
-325.653198340609
 20
982.9141432989763
 30
0.0
 10
-325.4555323403648
 20
982.9630844121075
 30
0.0
 10
-325.3623655553011
 20
982.9861520421612
 30
0.0
  0
SPLINE
  5
F4
330
1F
100
AcDbEntity
  8
0
  6
Continuous
 62
     7
370
    25
100
AcDbSpline
210
0.0
220
0.0
230
1.0
 70
     8
 71
     3
 72
    17
 73
    13
 74
     0
 42
0.000000001
 43
0.00000001
 40
0.0
 40
0.0
 40
0.0
 40
0.0
 40
0.0499084317051175
 40
0.1577010990010344
 40
0.2634785456933488
 40
0.370580062936273
 40
0.4776778743965912
 40
0.5834584215054629
 40
0.6912503375021003
 40
0.7967080524807189
 40
0.9042699402675407
 40
1.0
 40
1.0
 40
1.0
 40
1.0
 10
-344.5537518702935
 20
983.7536063692737
 30
0.0
 10
-344.5595594270492
 20
983.7653804227779
 30
0.0
 10
-344.5779101956788
 20
983.8025841800159
 30
0.0
 10
-343.5081942795682
 20
983.8707733710334
 30
0.0
 10
-341.5099464722101
 20
983.9454851642479
 30
0.0
 10
-338.7704306230622
 20
984.0250559322776
 30
0.0
 10
-335.6434564823968
 20
984.1046012951484
 30
0.0
 10
-332.4413303661667
 20
984.1793577240695
 30
0.0
 10
-329.51790157921
 20
984.2617968652389
 30
0.0
 10
-327.1886966256083
 20
984.3353448366752
 30
0.0
 10
-325.6538376062705
 20
984.4141013311474
 30
0.0
 10
-325.4562243147179
 20
984.4630026083091
 30
0.0
 10
-325.3631683307741
 20
984.4860301912549
 30
0.0
  0
SPLINE
  5
F5
330
1F
100
AcDbEntity
  8
0
  6
Continuous
 62
     7
370
    25
100
AcDbSpline
210
0.0
220
0.0
230
1.0
 70
     8
 71
     3
 72
    17
 73
    13
 74
     0
 42
0.000000001
 43
0.00000001
 40
0.0
 40
0.0
 40
0.0
 40
0.0
 40
0.0498957956724262
 40
0.1576897729695668
 40
0.2634685051721862
 40
0.3705713240168072
 40
0.4776704370337859
 40
0.5834522696906418
 40
0.6912454956793724
 40
0.7967044922826055
 40
0.9042676872659944
 40
1.0
 40
1.0
 40
1.0
 40
1.0
 10
-344.5537389905539
 20
985.2536158373778
 30
0.0
 10
-344.5595412070484
 20
985.2653867876483
 30
0.0
 10
-344.5778784274378
 20
985.3025874866408
 30
0.0
 10
-343.5081868126424
 20
985.3707734119594
 30
0.0
 10
-341.5099484851778
 20
985.4454851532153
 30
0.0
 10
-338.7704300790017
 20
985.5250559352565
 30
0.0
 10
-335.6434566323087
 20
985.6046012943389
 30
0.0
 10
-332.4413303023396
 20
985.6793577243735
 30
0.0
 10
-329.5179016832334
 20
985.7617968648417
 30
0.0
 10
-327.1886962787013
 20
985.8353448379412
 30
0.0
 10
-325.6538334429056
 20
985.9141016045246
 30
0.0
 10
-325.4562198076302
 20
985.9630031411832
 30
0.0
 10
-325.3631631014339
 20
985.986030985001
 30
0.0
  0
SPLINE
  5
F6
330
1F
100
AcDbEntity
  8
0
  6
Continuous
 62
     7
370
    25
100
AcDbSpline
210
0.0
220
0.0
230
1.0
 70
     8
 71
     3
 72
    17
 73
    13
 74
     0
 42
0.000000001
 43
0.00000001
 40
0.0
 40
0.0
 40
0.0
 40
0.0
 40
0.0498831297144903
 40
0.1576783640868332
 40
0.2634583298632062
 40
0.370562397722856
 40
0.4776627597116469
 40
0.5834458259784133
 40
0.6912403090335846
 40
0.7967005354818686
 40
0.9042649848491153
 40
1.0
 40
1.0
 40
1.0
 40
1.0
 10
-344.5537261058429
 20
986.7536253091365
 30
0.0
 10
-344.559522981331
 20
986.7653931549683
 30
0.0
 10
-344.5778466480502
 20
986.8025907945356
 30
0.0
 10
-343.5081793413914
 20
986.8707734529088
 30
0.0
 10
-341.5099504995125
 20
986.9454851421764
 30
0.0
 10
-338.7704295338104
 20
987.0250559382399
 30
0.0
 10
-335.643456785349
 20
987.104601293518
 30
0.0
 10
-332.4413302271857
 20
987.1793577247192
 30
0.0
 10
-329.5179018299697
 20
987.2617968642896
 30
0.0
 10
-327.1886957750288
 20
987.3353448397768
 30
0.0
 10
-325.6538273825528
 20
987.4141020024464
 30
0.0
 10
-325.4562132471534
 20
987.4630039168192
 30
0.0
 10
-325.3631554897642
 20
987.4860321403538
 30
0.0
  0
SPLINE
  5
F7
330
1F
100
AcDbEntity
  8
0
  6
Continuous
 62
     7
370
    25
100
AcDbSpline
210
0.0
220
0.0
230
1.0
 70
     8
 71
     3
 72
    17
 73
    13
 74
     0
 42
0.000000001
 43
0.00000001
 40
0.0
 40
0.0
 40
0.0
 40
0.0
 40
0.0498704333128823
 40
0.1576668715377202
 40
0.2634480186601559
 40
0.3705532826533832
 40
0.4776548407343644
 40
0.5834390883818198
 40
0.6912347752810954
 40
0.7966961795046074
 40
0.904261830146952
 40
1.0
 40
1.0
 40
1.0
 40
1.0
 10
-344.5537132157712
 20
988.253634784836
 30
0.0
 10
-344.5595047493483
 20
988.2653995249307
 30
0.0
 10
-344.5778148565573
 20
988.3025941038015
 30
0.0
 10
-343.5081718655872
 20
988.3707734938828
 30
0.0
 10
-341.5099525152763
 20
988.4454851311297
 30
0.0
 10
-338.7704289874666
 20
988.5250559412277
 30
0.0
 10
-335.6434569415416
 20
988.604601292686
 30
0.0
 10
-332.441330140633
 20
988.6793577251058
 30
0.0
 10
-329.5179020196852
 20
988.7617968635807
 30
0.0
 10
-327.1886951136136
 20
988.8353448421861
 30
0.0
 10
-325.6538194132887
 20
988.9141025256939
 30
0.0
 10
-325.4562046203804
 20
988.963004936742
 30
0.0
 10
-325.3631454807989
 20
988.9860336595848
 30
0.0
  0
SPLINE
  5
F8
330
1F
100
AcDbEntity
  8
0
  6
Continuous
 62
     7
370
    25
100
AcDbSpline
210
0.0
220
0.0
230
1.0
 70
     8
 71
     3
 72
    15
 73
    11
 74
     0
 42
0.000000001
 43
0.00000001
 40
0.0
 40
0.0
 40
0.0
 40
0.0
 40
0.1040103582963815
 40
0.2510371397810509
 40
0.3962558766455875
 40
0.5442353630319091
 40
0.6890109875390382
 40
0.8366747453395219
 40
0.9827608638369068
 40
1.0
 40
1.0
 40
1.0
 40
1.0
 10
-341.1382075992714
 20
980.4999999999999
 30
0.0
 10
-340.4474549924207
 20
980.5187521180866
 30
0.0
 10
-338.7802695162783
 20
980.5640118226627
 30
0.0
 10
-335.6902627651464
 20
980.6358772287667
 30
0.0
 10
-332.2264861046324
 20
980.7105993796945
 30
0.0
 10
-329.0675516873914
 20
980.793053449678
 30
0.0
 10
-326.4988579214369
 20
980.8665775762015
 30
0.0
 10
-324.9474577231774
 20
980.9481393701586
 30
0.0
 10
-324.3149777178932
 20
981.00224933628
 30
0.0
 10
-324.5416191616714
 20
981.0311597342662
 30
0.0
 10
-324.5655413818915
 20
981.0342112543045
 30
0.0
  0
SPLINE
  5
F9
330
1F
100
AcDbEntity
  8
0
  6
Continuous
 62
     7
370
    25
100
AcDbSpline
210
0.0
220
0.0
230
1.0
 70
     8
 71
     3
 72
    19
 73
    15
 74
     0
 42
0.000000001
 43
0.00000001
 40
0.0
 40
0.0
 40
0.0
 40
0.0
 40
0.028920906062057
 40
0.1339023134897941
 40
0.2377597178800251
 40
0.2890337248206775
 40
0.3629792775972589
 40
0.4675071035553756
 40
0.5707495108199093
 40
0.6759546567271112
 40
0.7788820358661072
 40
0.883862716391307
 40
0.9877217835285663
 40
1.0
 40
1.0
 40
1.0
 40
1.0
 10
-345.3814889757197
 20
981.7838082373228
 30
0.0
 10
-345.4015770560315
 20
981.7908321546236
 30
0.0
 10
-345.4945838387904
 20
981.8233525319004
 30
0.0
 10
-344.5344451378282
 20
981.8854346314043
 30
0.0
 10
-342.8997874451641
 20
981.9501445233742
 30
0.0
 10
-340.9733230290115
 20
982.005048785423
 30
0.0
 10
-338.7591599892673
 20
982.0643271575043
 30
0.0
 10
-335.6966260224145
 20
982.1357821721784
 30
0.0
 10
-332.2247533128543
 20
982.2106252720592
 30
0.0
 10
-329.0680064944399
 20
982.2930466259658
 30
0.0
 10
-326.4987404146813
 20
982.3665794408915
 30
0.0
 10
-324.9474663567401
 20
982.4481388255318
 30
0.0
 10
-324.3149743639117
 20
982.5022548230525
 30
0.0
 10
-324.541691012249
 20
982.5311707543099
 30
0.0
 10
-324.5656598532574
 20
982.5342277920882
 30
0.0
  0
SPLINE
  5
FA
330
1F
100
AcDbEntity
  8
0
  6
Continuous
 62
     7
370
    25
100
AcDbSpline
210
0.0
220
0.0
230
1.0
 70
     8
 71
     3
 72
    19
 73
    15
 74
     0
 42
0.000000001
 43
0.00000001
 40
0.0
 40
0.0
 40
0.0
 40
0.0
 40
0.0288795512985946
 40
0.133863029266709
 40
0.2377224820286902
 40
0.2889975002427127
 40
0.362944511441852
 40
0.467474398994393
 40
0.570718842501135
 40
0.6759260633614913
 40
0.7788554725294196
 40
0.8838382235806601
 40
0.987699339122464
 40
1.0
 40
1.0
 40
1.0
 40
1.0
 10
-345.3815334797989
 20
983.28383894859
 30
0.0
 10
-345.4015816249183
 20
983.2908527255702
 30
0.0
 10
-345.494509157244
 20
983.3233631140971
 30
0.0
 10
-344.5344081369768
 20
983.3854347740487
 30
0.0
 10
-342.8997918634288
 20
983.4501445063497
 30
0.0
 10
-340.9733217815271
 20
983.5050487902145
 30
0.0
 10
-338.7591605744172
 20
983.5643271553687
 30
0.0
 10
-335.6966257173106
 20
983.6357821727087
 30
0.0
 10
-332.2247538587276
 20
983.7106252723231
 30
0.0
 10
-329.0680045954734
 20
983.7930466243488
 30
0.0
 10
-326.4987473436341
 20
983.8665794469842
 30
0.0
 10
-324.9474400355664
 20
983.9481388023335
 30
0.0
 10
-324.3149717505332
 20
984.0022603103602
 30
0.0
 10
-324.5417630797152
 20
984.0311817970644
 30
0.0
 10
-324.5657785804782
 20
984.0342443655874
 30
0.0
  0
SPLINE
  5
FB
330
1F
100
AcDbEntity
  8
0
  6
Continuous
 62
     7
370
    25
100
AcDbSpline
210
0.0
220
0.0
230
1.0
 70
     8
 71
     3
 72
    19
 73
    15
 74
     0
 42
0.000000001
 43
0.00000001
 40
0.0
 40
0.0
 40
0.0
 40
0.0
 40
0.0288382412949618
 40
0.1338237797381761
 40
0.2376852709143957
 40
0.2889612954858023
 40
0.3629097580178393
 40
0.4674416971430149
 40
0.5706881669934175
 40
0.6758974527201995
 40
0.7788288820487163
 40
0.8838136935607896
 40
0.9876768475494668
 40
1.0
 40
1.0
 40
1.0
 40
1.0
 10
-345.3815779316757
 20
984.7838696238332
 30
0.0
 10
-345.4015862122197
 20
984.7908732722962
 30
0.0
 10
-345.4944345832793
 20
984.8233736838032
 30
0.0
 10
-344.5343711535822
 20
984.8854349166254
 30
0.0
 10
-342.8997962796129
 20
984.9501444893338
 30
0.0
 10
-340.9733205346236
 20
985.005048795004
 30
0.0
 10
-338.7591611593458
 20
985.0643271532334
 30
0.0
 10
-335.6966254120543
 20
985.1357821732386
 30
0.0
 10
-332.2247544054304
 20
985.2106252725873
 30
0.0
 10
-329.0680026932995
 20
985.2930466227292
 30
0.0
 10
-326.4987542843784
 20
985.3665794530868
 30
0.0
 10
-324.9474136695745
 20
985.4481387790952
 30
0.0
 10
-324.3149691226228
 20
985.5022658093927
 30
0.0
 10
-324.5418352907009
 20
985.5311928634209
 30
0.0
 10
-324.5658975615551
 20
985.5342609745232
 30
0.0
  0
SPLINE
  5
FC
330
1F
100
AcDbEntity
  8
0
  6
Continuous
 62
     7
370
    25
100
AcDbSpline
210
0.0
220
0.0
230
1.0
 70
     8
 71
     3
 72
    19
 73
    15
 74
     0
 42
0.000000001
 43
0.00000001
 40
0.0
 40
0.0
 40
0.0
 40
0.0
 40
0.0287969768021439
 40
0.1337845656150172
 40
0.2376480852082302
 40
0.2889251112014191
 40
0.3628750179484037
 40
0.4674089985844345
 40
0.5706574848404518
 40
0.6758688253066816
 40
0.7788022648880654
 40
0.8837891267556008
 40
0.9876543091937462
 40
1.0
 40
1.0
 40
1.0
 40
1.0
 10
-345.381622330557
 20
986.2839002625054
 30
0.0
 10
-345.4015908177946
 20
986.2908937944342
 30
0.0
 10
-345.4943601181775
 20
986.323384240832
 30
0.0
 10
-344.534334188369
 20
986.3854350591324
 30
0.0
 10
-342.8998006936296
 20
986.4501444723248
 30
0.0
 10
-340.9733192883248
 20
986.5050487997911
 30
0.0
 10
-338.7591617440422
 20
986.5643271511002
 30
0.0
 10
-335.6966251066512
 20
986.6357821737677
 30
0.0
 10
-332.2247549529521
 20
986.7106252728527
 30
0.0
 10
-329.0680007879553
 20
986.793046621107
 30
0.0
 10
-326.4987612367798
 20
986.8665794592
 30
0.0
 10
-324.9473872592757
 20
986.9481387558183
 30
0.0
 10
-324.3149664801732
 20
987.002271320058
 30
0.0
 10
-324.541907643926
 20
987.0312039531921
 30
0.0
 10
-324.5660167944786
 20
987.0342776186152
 30
0.0
  0
SPLINE
  5
FD
330
1F
100
AcDbEntity
  8
0
  6
Continuous
 62
     7
370
    25
100
AcDbSpline
210
0.0
220
0.0
230
1.0
 70
     8
 71
     3
 72
    19
 73
    15
 74
     0
 42
0.000000001
 43
0.00000001
 40
0.0
 40
0.0
 40
0.0
 40
0.0
 40
0.0287557585706804
 40
0.1337453876078838
 40
0.2376109255813843
 40
0.2888889480412716
 40
0.3628402918571579
 40
0.4673763039025489
 40
0.5706267965869077
 40
0.6758401816256348
 40
0.7787756215130565
 40
0.8837645235907952
 40
0.987631724441542
 40
1.0
 40
1.0
 40
1.0
 40
1.0
 10
-345.3816666756506
 20
987.7839308640604
 30
0.0
 10
-345.4015954415001
 20
987.7909142916196
 30
0.0
 10
-345.4942857632161
 20
987.823394784994
 30
0.0
 10
-344.5342972420633
 20
987.8854352015666
 30
0.0
 10
-342.8998051053923
 20
987.950144455325
 30
0.0
 10
-340.9733180426556
 20
988.0050488045761
 30
0.0
 10
-338.7591623284942
 20
988.0643271489668
 30
0.0
 10
-335.6966248011079
 20
988.135782174297
 30
0.0
 10
-332.2247555012822
 20
988.2106252731185
 30
0.0
 10
-329.0679988794778
 20
988.2930466194821
 30
0.0
 10
-326.4987682007034
 20
988.3665794653233
 30
0.0
 10
-324.947360805182
 20
988.448138732502
 30
0.0
 10
-324.3149638231791
 20
988.5022768422614
 30
0.0
 10
-324.5419801381041
 20
988.5312150661897
 30
0.0
 10
-324.5661362772279
 20
988.534294297581
 30
0.0
  0
SPLINE
  5
FE
330
1F
100
AcDbEntity
  8
0
  6
Continuous
 62
     7
370
    25
100
AcDbSpline
210
0.0
220
0.0
230
1.0
 70
    24
 71
     3
 72
    11
 73
     7
 74
     0
 42
0.000000001
 43
0.00000001
 40
0.0
 40
0.0
 40
0.0
 40
0.0
 40
0.2145984232423722
 40
0.5842974642934947
 40
0.953970220344205
 40
1.0
 40
1.0
 40
1.0
 40
1.0
 10
-341.1382075992715
 20
980.4999999999999
 30
0.0
 10
-341.6438370920916
 20
980.4999999999999
 30
0.0
 10
-343.0205388686613
 20
980.4999999999999
 30
0.0
 10
-344.4901697126712
 20
980.5000000000001
 30
0.0
 10
-345.2636530879118
 20
980.4999999999995
 30
0.0
 10
-345.0742844845592
 20
980.4999999999999
 30
0.0
 10
-345.0533161373942
 20
980.5
 30
0.0
  0
SPLINE
  5
FF
330
1F
100
AcDbEntity
  8
0
  6
Continuous
 62
     7
370
    25
100
AcDbSpline
210
0.0
220
0.0
230
1.0
 70
     8
 71
     3
 72
    12
 73
     8
 74
     0
 42
0.000000001
 43
0.00000001
 40
0.0
 40
0.0
 40
0.0
 40
0.0
 40
0.195450330151918
 40
0.3897426485968754
 40
0.5810599688424554
 40
0.8153788138753464
 40
1.0
 40
1.0
 40
1.0
 40
1.0
 10
-333.3165649441323
 20
980.5
 30
0.0
 10
-332.3777192068548
 20
980.5223228628447
 30
0.0
 10
-330.5055902419871
 20
980.5668363291695
 30
0.0
 10
-328.0770751977852
 20
980.633207251807
 30
0.0
 10
-326.0489998688089
 20
980.6989674011088
 30
0.0
 10
-324.6972585896688
 20
980.7715090978254
 30
0.0
 10
-324.6207703286768
 20
980.8171182147187
 30
0.0
 10
-324.5870629901111
 20
980.8372175335536
 30
0.0
  0
SPLINE
  5
100
330
1F
100
AcDbEntity
  8
0
  6
Continuous
 62
     7
370
    25
100
AcDbSpline
210
0.0
220
0.0
230
1.0
 70
     8
 71
     3
 72
    18
 73
    14
 74
     0
 42
0.000000001
 43
0.00000001
 40
0.0
 40
0.0
 40
0.0
 40
0.0
 40
0.0619537482368351
 40
0.1671318583093451
 40
0.2703439905011684
 40
0.3748478414243831
 40
0.4639741426271579
 40
0.5511335554738384
 40
0.6388646502505942
 40
0.726075952429727
 40
0.8119518777446334
 40
0.9171297446000238
 40
1.0
 40
1.0
 40
1.0
 40
1.0
 10
-345.3687120922729
 20
981.5876432160641
 30
0.0
 10
-345.3816336001824
 20
981.6025978180785
 30
0.0
 10
-345.4164917918257
 20
981.6429406624752
 30
0.0
 10
-344.2286692603603
 20
981.7144720912664
 30
0.0
 10
-342.0539029882223
 20
981.789293033714
 30
0.0
 10
-339.2314780971404
 20
981.8647164650866
 30
0.0
 10
-336.2173423398291
 20
981.9369511548226
 30
0.0
 10
-333.2886410415113
 20
981.9990801419895
 30
0.0
 10
-330.5114109569406
 20
982.0671206957151
 30
0.0
 10
-328.0755560267386
 20
982.1331330338759
 30
0.0
 10
-326.0495080223783
 20
982.1989922265599
 30
0.0
 10
-324.6971542887007
 20
982.2715040022817
 30
0.0
 10
-324.6207384244261
 20
982.3171166560611
 30
0.0
 10
-324.5870629901111
 20
982.3372175335536
 30
0.0
  0
SPLINE
  5
101
330
1F
100
AcDbEntity
  8
0
  6
Continuous
 62
     7
370
    25
100
AcDbSpline
210
0.0
220
0.0
230
1.0
 70
     8
 71
     3
 72
    18
 73
    14
 74
     0
 42
0.000000001
 43
0.00000001
 40
0.0
 40
0.0
 40
0.0
 40
0.0
 40
0.0619537482368357
 40
0.1671318583093456
 40
0.2703439905011689
 40
0.3748478414243836
 40
0.4639741426271583
 40
0.5511335554738388
 40
0.6388646502505946
 40
0.7260759524297273
 40
0.8119518777446337
 40
0.917129744600024
 40
1.0
 40
1.0
 40
1.0
 40
1.0
 10
-345.3687120922729
 20
983.0876432160641
 30
0.0
 10
-345.3816336001823
 20
983.1025978180784
 30
0.0
 10
-345.4164917918258
 20
983.1429406624754
 30
0.0
 10
-344.2286692603604
 20
983.2144720912665
 30
0.0
 10
-342.0539029882224
 20
983.289293033714
 30
0.0
 10
-339.2314780971403
 20
983.3647164650868
 30
0.0
 10
-336.2173423398292
 20
983.4369511548226
 30
0.0
 10
-333.2886410415114
 20
983.4990801419896
 30
0.0
 10
-330.5114109569406
 20
983.5671206957155
 30
0.0
 10
-328.0755560267386
 20
983.6331330338759
 30
0.0
 10
-326.0495080223782
 20
983.6989922265595
 30
0.0
 10
-324.6971542887008
 20
983.7715040022821
 30
0.0
 10
-324.6207384244261
 20
983.8171166560611
 30
0.0
 10
-324.5870629901112
 20
983.8372175335537
 30
0.0
  0
SPLINE
  5
102
330
1F
100
AcDbEntity
  8
0
  6
Continuous
 62
     7
370
    25
100
AcDbSpline
210
0.0
220
0.0
230
1.0
 70
     8
 71
     3
 72
    18
 73
    14
 74
     0
 42
0.000000001
 43
0.00000001
 40
0.0
 40
0.0
 40
0.0
 40
0.0
 40
0.0619537482368352
 40
0.1671318583093452
 40
0.2703439905011686
 40
0.3748478414243833
 40
0.4639741426271581
 40
0.5511335554738386
 40
0.6388646502505944
 40
0.7260759524297272
 40
0.8119518777446336
 40
0.917129744600024
 40
1.0
 40
1.0
 40
1.0
 40
1.0
 10
-345.3687120922728
 20
984.587643216064
 30
0.0
 10
-345.3816336001823
 20
984.6025978180782
 30
0.0
 10
-345.4164917918257
 20
984.6429406624751
 30
0.0
 10
-344.2286692603604
 20
984.7144720912667
 30
0.0
 10
-342.0539029882225
 20
984.7892930337143
 30
0.0
 10
-339.2314780971405
 20
984.8647164650866
 30
0.0
 10
-336.2173423398291
 20
984.9369511548226
 30
0.0
 10
-333.2886410415114
 20
984.9990801419893
 30
0.0
 10
-330.5114109569406
 20
985.0671206957154
 30
0.0
 10
-328.0755560267385
 20
985.1331330338755
 30
0.0
 10
-326.0495080223784
 20
985.1989922265599
 30
0.0
 10
-324.6971542887008
 20
985.271504002282
 30
0.0
 10
-324.6207384244261
 20
985.317116656061
 30
0.0
 10
-324.5870629901112
 20
985.3372175335536
 30
0.0
  0
SPLINE
  5
103
330
1F
100
AcDbEntity
  8
0
  6
Continuous
 62
     7
370
    25
100
AcDbSpline
210
0.0
220
0.0
230
1.0
 70
     8
 71
     3
 72
    18
 73
    14
 74
     0
 42
0.000000001
 43
0.00000001
 40
0.0
 40
0.0
 40
0.0
 40
0.0
 40
0.0619537482368361
 40
0.1671318583093461
 40
0.2703439905011694
 40
0.374847841424384
 40
0.4639741426271587
 40
0.5511335554738394
 40
0.6388646502505951
 40
0.7260759524297278
 40
0.8119518777446343
 40
0.9171297446000245
 40
1.0
 40
1.0
 40
1.0
 40
1.0
 10
-345.3687120922728
 20
986.087643216064
 30
0.0
 10
-345.3816336001823
 20
986.1025978180779
 30
0.0
 10
-345.4164917918257
 20
986.1429406624753
 30
0.0
 10
-344.2286692603603
 20
986.214472091266
 30
0.0
 10
-342.0539029882225
 20
986.2892930337141
 30
0.0
 10
-339.2314780971403
 20
986.3647164650866
 30
0.0
 10
-336.2173423398292
 20
986.4369511548227
 30
0.0
 10
-333.2886410415113
 20
986.4990801419893
 30
0.0
 10
-330.5114109569406
 20
986.5671206957156
 30
0.0
 10
-328.0755560267386
 20
986.6331330338758
 30
0.0
 10
-326.0495080223783
 20
986.6989922265595
 30
0.0
 10
-324.6971542887008
 20
986.7715040022821
 30
0.0
 10
-324.620738424426
 20
986.8171166560611
 30
0.0
 10
-324.5870629901111
 20
986.8372175335536
 30
0.0
  0
SPLINE
  5
104
330
1F
100
AcDbEntity
  8
0
  6
Continuous
 62
     7
370
    25
100
AcDbSpline
210
0.0
220
0.0
230
1.0
 70
     8
 71
     3
 72
    18
 73
    14
 74
     0
 42
0.000000001
 43
0.00000001
 40
0.0
 40
0.0
 40
0.0
 40
0.0
 40
0.0619537482368353
 40
0.1671318583093453
 40
0.2703439905011688
 40
0.3748478414243835
 40
0.4639741426271583
 40
0.5511335554738389
 40
0.6388646502505947
 40
0.7260759524297276
 40
0.8119518777446341
 40
0.9171297446000244
 40
1.0
 40
1.0
 40
1.0
 40
1.0
 10
-345.3687120922728
 20
987.587643216064
 30
0.0
 10
-345.3816336001823
 20
987.6025978180782
 30
0.0
 10
-345.4164917918256
 20
987.6429406624752
 30
0.0
 10
-344.2286692603603
 20
987.7144720912662
 30
0.0
 10
-342.0539029882225
 20
987.7892930337142
 30
0.0
 10
-339.2314780971404
 20
987.8647164650868
 30
0.0
 10
-336.2173423398291
 20
987.9369511548227
 30
0.0
 10
-333.2886410415114
 20
987.9990801419896
 30
0.0
 10
-330.5114109569405
 20
988.0671206957151
 30
0.0
 10
-328.0755560267385
 20
988.1331330338755
 30
0.0
 10
-326.0495080223783
 20
988.1989922265599
 30
0.0
 10
-324.6971542887008
 20
988.2715040022821
 30
0.0
 10
-324.620738424426
 20
988.3171166560608
 30
0.0
 10
-324.5870629901111
 20
988.3372175335536
 30
0.0
  0
SPLINE
  5
105
330
1F
100
AcDbEntity
  8
0
  6
Continuous
 62
     7
370
    25
100
AcDbSpline
210
0.0
220
0.0
230
1.0
 70
     8
 71
     3
 72
    18
 73
    14
 74
     0
 42
0.000000001
 43
0.00000001
 40
0.0
 40
0.0
 40
0.0
 40
0.0
 40
0.0619537482368361
 40
0.1671318583093461
 40
0.2703439905011694
 40
0.374847841424384
 40
0.4639741426271587
 40
0.5511335554738394
 40
0.6388646502505951
 40
0.7260759524297278
 40
0.8119518777446343
 40
0.9171297446000245
 40
1.0
 40
1.0
 40
1.0
 40
1.0
 10
-345.3687120922728
 20
989.087643216064
 30
0.0
 10
-345.3816336001823
 20
989.102597818078
 30
0.0
 10
-345.4164917918257
 20
989.1429406624751
 30
0.0
 10
-344.2286692603603
 20
989.2144720912662
 30
0.0
 10
-342.0539029882225
 20
989.289293033714
 30
0.0
 10
-339.2314780971403
 20
989.3647164650869
 30
0.0
 10
-336.2173423398292
 20
989.4369511548226
 30
0.0
 10
-333.2886410415113
 20
989.4990801419895
 30
0.0
 10
-330.5114109569406
 20
989.5671206957154
 30
0.0
 10
-328.0755560267386
 20
989.6331330338758
 30
0.0
 10
-326.0495080223783
 20
989.6989922265598
 30
0.0
 10
-324.6971542887008
 20
989.7715040022821
 30
0.0
 10
-324.620738424426
 20
989.8171166560611
 30
0.0
 10
-324.5870629901111
 20
989.8372175335536
 30
0.0
  0
SPLINE
  5
106
330
1F
100
AcDbEntity
  8
0
  6
Continuous
 62
     7
370
    25
100
AcDbSpline
210
0.0
220
0.0
230
1.0
 70
     8
 71
     3
 72
    17
 73
    13
 74
     0
 42
0.000000001
 43
0.00000001
 40
0.0
 40
0.0
 40
0.0
 40
0.0
 40
0.0630725935781449
 40
0.1696100360481364
 40
0.274155725078249
 40
0.3800100655345687
 40
0.4858607440365471
 40
0.5904094968145595
 40
0.6969461968710008
 40
0.8011758772515759
 40
0.9074852273990828
 40
0.9999999999999999
 40
0.9999999999999999
 40
0.9999999999999999
 40
0.9999999999999999
 10
-344.5672782784665
 20
981.1186628822164
 30
0.0
 10
-344.5793550940022
 20
981.1336923544457
 30
0.0
 10
-344.6118311505926
 20
981.1741084715261
 30
0.0
 10
-343.5153413112641
 20
981.2457341909824
 30
0.0
 10
-341.5080196123333
 20
981.3204957169387
 30
0.0
 10
-338.7709535364955
 20
981.4000530647268
 30
0.0
 10
-335.6433066117236
 20
981.479602085306
 30
0.0
 10
-332.4414170733934
 20
981.5543573307274
 30
0.0
 10
-329.5177071757145
 20
981.6367975803659
 30
0.0
 10
-327.1893784525527
 20
981.7103423436171
 30
0.0
 10
-325.6619530684878
 20
981.7885681037021
 30
0.0
 10
-325.4650085632822
 20
981.8369632288632
 30
0.0
 10
-325.3733683947643
 20
981.85948194509
 30
0.0
  0
SPLINE
  5
107
330
1F
100
AcDbEntity
  8
0
  6
Continuous
 62
     7
370
    25
100
AcDbSpline
210
0.0
220
0.0
230
1.0
 70
     8
 71
     3
 72
    17
 73
    13
 74
     0
 42
0.000000001
 43
0.00000001
 40
0.0
 40
0.0
 40
0.0
 40
0.0
 40
0.0630028003914261
 40
0.1695446821403325
 40
0.2740947274555425
 40
0.3799534787267903
 40
0.4858085678911076
 40
0.59036167708188
 40
0.6969028163863007
 40
0.8011368398842973
 40
0.9074506198064038
 40
1.0
 40
1.0
 40
1.0
 40
1.0
 10
-344.5672070136561
 20
982.6187152701768
 30
0.0
 10
-344.5792476444091
 20
982.633727608282
 30
0.0
 10
-344.6116497741734
 20
982.6741267981025
 30
0.0
 10
-343.5153069733275
 20
982.7457343791809
 30
0.0
 10
-341.5080288801631
 20
982.820495666168
 30
0.0
 10
-338.7709509904266
 20
982.9000530785843
 30
0.0
 10
-335.6433074656277
 20
982.9796020809869
 30
0.0
 10
-332.4414161692648
 20
983.0543573343448
 30
0.0
 10
-329.5177099608836
 20
983.1367975701557
 30
0.0
 10
-327.1893683896826
 20
983.2103423802143
 30
0.0
 10
-325.6618343458434
 20
983.2885759095708
 30
0.0
 10
-325.464880068808
 20
983.336978444623
 30
0.0
 10
-325.3732190680702
 20
983.3595046109389
 30
0.0
  0
SPLINE
  5
108
330
1F
100
AcDbEntity
  8
0
  6
Continuous
 62
     7
370
    25
100
AcDbSpline
210
0.0
220
0.0
230
1.0
 70
     8
 71
     3
 72
    17
 73
    13
 74
     0
 42
0.000000001
 43
0.00000001
 40
0.0
 40
0.0
 40
0.0
 40
0.0
 40
0.0629331476398403
 40
0.1694794405797643
 40
0.2740338146172872
 40
0.379896948795661
 40
0.485756420715481
 40
0.590313858755421
 40
0.6968594092201196
 40
0.8010977483560666
 40
0.9074159300250105
 40
0.9999999999999999
 40
0.9999999999999999
 40
0.9999999999999999
 40
0.9999999999999999
 10
-344.5671359092958
 20
984.1187675401882
 30
0.0
 10
-344.5791404671212
 20
984.1337627825794
 30
0.0
 10
-344.611468831758
 20
984.1741450832768
 30
0.0
 10
-343.5152726807215
 20
984.2457345671315
 30
0.0
 10
-341.5080381358141
 20
984.3204956154635
 30
0.0
 10
-338.7709484474904
 20
984.400053092425
 30
0.0
 10
-335.643308319257
 20
984.4796020766696
 30
0.0
 10
-332.4414152631642
 20
984.5543573379689
 30
0.0
 10
-329.5177127543348
 20
984.6367975599157
 30
0.0
 10
-327.1893582961999
 20
984.7103424169231
 30
0.0
 10
-325.6617152188733
 20
984.7885837418539
 30
0.0
 10
-325.4647511364594
 20
984.8369937118657
 30
0.0
 10
-325.3730692362394
 20
984.8595273534612
 30
0.0
  0
SPLINE
  5
109
330
1F
100
AcDbEntity
  8
0
  6
Continuous
 62
     7
370
    25
100
AcDbSpline
210
0.0
220
0.0
230
1.0
 70
     8
 71
     3
 72
    17
 73
    13
 74
     0
 42
0.000000001
 43
0.00000001
 40
0.0
 40
0.0
 40
0.0
 40
0.0
 40
0.062863618645776
 40
0.1694142964388418
 40
0.2739729733531973
 40
0.379840464269696
 40
0.4857042927769226
 40
0.5902660338197925
 40
0.6968159691070769
 40
0.8010585981136167
 40
0.9073811552479106
 40
1.0
 40
1.0
 40
1.0
 40
1.0
 10
-344.5670649478837
 20
985.6188197051155
 30
0.0
 10
-344.579033535605
 20
985.6337978859959
 30
0.0
 10
-344.6112882786797
 20
985.6741633315501
 30
0.0
 10
-343.5152384251656
 20
985.7457347548785
 30
0.0
 10
-341.5080473815191
 20
985.8204955648139
 30
0.0
 10
-338.7709459070829
 20
985.9000531062511
 30
0.0
 10
-335.6433091727786
 20
985.9796020723545
 30
0.0
 10
-332.4414143550202
 20
986.0543573415997
 30
0.0
 10
-329.5177155561861
 20
986.1367975496454
 30
0.0
 10
-327.1893481717098
 20
986.2103424537443
 30
0.0
 10
-325.6615956825443
 20
986.2885916008825
 30
0.0
 10
-325.4646217607856
 20
986.3370090312337
 30
0.0
 10
-325.3729188929732
 20
986.3595501736124
 30
0.0
  0
SPLINE
  5
10A
330
1F
100
AcDbEntity
  8
0
  6
Continuous
 62
     7
370
    25
100
AcDbSpline
210
0.0
220
0.0
230
1.0
 70
     8
 71
     3
 72
    17
 73
    13
 74
     0
 42
0.000000001
 43
0.00000001
 40
0.0
 40
0.0
 40
0.0
 40
0.0
 40
0.0627942084747507
 40
0.1693492451963449
 40
0.2739121995475889
 40
0.3797840214438236
 40
0.4856521807809591
 40
0.5902181993860692
 40
0.6967724935715065
 40
0.801019387085592
 40
0.9073462938161259
 40
1.0
 40
1.0
 40
1.0
 40
1.0
 10
-344.5669941242547
 20
987.1188717687562
 30
0.0
 10
-344.5789268419401
 20
987.1338329210878
 30
0.0
 10
-344.6111081016811
 20
987.174181544252
 30
0.0
 10
-343.5152042043112
 20
987.2457349424355
 30
0.0
 10
-341.5080566179115
 20
987.3204955142156
 30
0.0
 10
-338.770943369032
 20
987.4000531200636
 30
0.0
 10
-335.6433100262446
 20
987.4796020680405
 30
0.0
 10
-332.4414134447922
 20
987.5543573452384
 30
0.0
 10
-329.5177183665479
 20
987.636797539344
 30
0.0
 10
-327.1893380158172
 20
987.7103424906797
 30
0.0
 10
-325.6614757317743
 20
987.788599486988
 30
0.0
 10
-325.4644919362834
 20
987.8370244033745
 30
0.0
 10
-325.3727680319134
 20
987.8595730723582
 30
0.0
  0
SPLINE
  5
10B
330
1F
100
AcDbEntity
  8
0
  6
Continuous
 62
     7
370
    25
100
AcDbSpline
210
0.0
220
0.0
230
1.0
 70
     8
 71
     3
 72
    17
 73
    13
 74
     0
 42
0.000000001
 43
0.00000001
 40
0.0
 40
0.0
 40
0.0
 40
0.0
 40
0.0627249127172854
 40
0.1692842827948947
 40
0.2738514894886007
 40
0.3797276169560251
 40
0.4856000817154023
 40
0.5901703527875909
 40
0.6967289802988459
 40
0.8009801133019031
 40
0.9073113441109134
 40
1.0
 40
1.0
 40
1.0
 40
1.0
 10
-344.566923433798
 20
988.6189237344996
 30
0.0
 10
-344.5788203790489
 20
988.6338678901367
 30
0.0
 10
-344.6109282889212
 20
988.6741997225683
 30
0.0
 10
-343.5151700160689
 20
988.7457351298137
 30
0.0
 10
-341.5080658455546
 20
988.8204954636647
 30
0.0
 10
-338.7709408331838
 20
988.9000531338642
 30
0.0
 10
-335.6433108797035
 20
988.9796020637281
 30
0.0
 10
-332.4414125324404
 20
989.0543573488839
 30
0.0
 10
-329.5177211855319
 20
989.1367975290118
 30
0.0
 10
-327.1893278281235
 20
989.2103425277306
 30
0.0
 10
-325.6613553614326
 20
989.2886074005061
 30
0.0
 10
-325.464361657397
 20
989.3370398289419
 30
0.0
 10
-325.3726166466416
 20
989.3595960506725
 30
0.0
  0
SPLINE
  5
10C
330
1F
100
AcDbEntity
  8
0
  6
Continuous
 62
     7
370
    25
100
AcDbSpline
210
0.0
220
0.0
230
1.0
 70
    24
 71
     3
 72
    12
 73
     8
 74
     0
 42
0.000000001
 43
0.00000001
 40
0.0
 40
0.0
 40
0.0
 40
0.0
 40
0.2014886058954619
 40
0.4437572737544736
 40
0.6860984812758857
 40
0.933175928570701
 40
1.0
 40
1.0
 40
1.0
 40
1.0
 10
-325.1410008714568
 20
980.5000000000003
 30
0.0
 10
-325.1914685796385
 20
980.5000000000005
 30
0.0
 10
-325.3026183515864
 20
980.4999999999998
 30
0.0
 10
-326.7960704983788
 20
980.5000000000007
 30
0.0
 10
-329.2214622306672
 20
980.4999999999995
 30
0.0
 10
-331.5923328356897
 20
980.4999999999998
 30
0.0
 10
-333.0139317286217
 20
980.4999999999999
 30
0.0
 10
-333.3165649441322
 20
980.5000000000001
 30
0.0
  0
LINE
  5
11E
330
1F
100
AcDbEntity
  8
0
  6
Continuous
 62
     7
370
    25
100
AcDbLine
 10
-16.9129931457
 20
651.2327484981
 30
0.0
 11
-13.0307074692
 21
636.7438611037
 31
0.0
  0
LINE
  5
11F
330
1F
100
AcDbEntity
  8
0
  6
Continuous
 62
     7
370
    25
100
AcDbLine
 10
16.9129931457
 20
644.7672515019
 30
0.0
 11
13.0307074692
 21
659.2561388963
 31
0.0
  0
LINE
  5
120
330
1F
100
AcDbEntity
  8
0
  6
Continuous
 62
     7
370
    25
100
AcDbLine
 10
-344.679749674
 20
980.7532265673
 30
0.0
 11
-345.0695076537
 21
980.5280171322
 31
0.0
  0
LINE
  5
121
330
1F
100
AcDbEntity
  8
0
  6
Continuous
 62
     7
370
    25
100
AcDbLine
 10
-345.5
 20
981.7748590274
 30
0.0
 11
-345.5
 21
981.5876432161
 31
0.0
  0
LINE
  5
122
330
1F
100
AcDbEntity
  8
0
  6
Continuous
 62
     7
370
    25
100
AcDbLine
 10
-345.5
 20
983.2748590274
 30
0.0
 11
-345.5
 21
983.0876432161
 31
0.0
  0
LINE
  5
123
330
1F
100
AcDbEntity
  8
0
  6
Continuous
 62
     7
370
    25
100
AcDbLine
 10
-345.5
 20
984.7748590274
 30
0.0
 11
-345.5
 21
984.5876432161
 31
0.0
  0
LINE
  5
124
330
1F
100
AcDbEntity
  8
0
  6
Continuous
 62
     7
370
    25
100
AcDbLine
 10
-345.5
 20
986.2748590274
 30
0.0
 11
-345.5
 21
986.0876432161
 31
0.0
  0
LINE
  5
125
330
1F
100
AcDbEntity
  8
0
  6
Continuous
 62
     7
370
    25
100
AcDbLine
 10
-345.5
 20
987.7748590274
 30
0.0
 11
-345.5
 21
987.5876432161
 31
0.0
  0
LINE
  5
126
330
1F
100
AcDbEntity
  8
0
  6
Continuous
 62
     7
370
    25
100
AcDbLine
 10
-345.5
 20
992.3
 30
0.0
 11
-345.5
 21
989.0876432161
 31
0.0
  0
LINE
  5
127
330
1F
100
AcDbEntity
  8
0
  6
Continuous
 62
     7
370
    25
100
AcDbLine
 10
-324.5
 20
989.8372175336
 30
0.0
 11
-324.5
 21
992.3
 31
0.0
  0
LINE
  5
128
330
1F
100
AcDbEntity
  8
0
  6
Continuous
 62
     7
370
    25
100
AcDbLine
 10
-324.5
 20
988.3372175336
 30
0.0
 11
-324.5
 21
988.5249975184
 31
0.0
  0
LINE
  5
129
330
1F
100
AcDbEntity
  8
0
  6
Continuous
 62
     7
370
    25
100
AcDbLine
 10
-324.5
 20
986.8372175336
 30
0.0
 11
-324.5
 21
987.0249975184
 31
0.0
  0
LINE
  5
12A
330
1F
100
AcDbEntity
  8
0
  6
Continuous
 62
     7
370
    25
100
AcDbLine
 10
-324.5
 20
985.3372175336
 30
0.0
 11
-324.5
 21
985.5249975184
 31
0.0
  0
LINE
  5
12B
330
1F
100
AcDbEntity
  8
0
  6
Continuous
 62
     7
370
    25
100
AcDbLine
 10
-324.5
 20
983.8372175336
 30
0.0
 11
-324.5
 21
984.0249975184
 31
0.0
  0
LINE
  5
12C
330
1F
100
AcDbEntity
  8
0
  6
Continuous
 62
     7
370
    25
100
AcDbLine
 10
-324.5
 20
982.3372175336
 30
0.0
 11
-324.5
 21
982.5249975184
 31
0.0
  0
LINE
  5
12D
330
1F
100
AcDbEntity
  8
0
  6
Continuous
 62
     7
370
    25
100
AcDbLine
 10
-324.5
 20
980.8372175336
 30
0.0
 11
-324.5
 21
981.0249975184
 31
0.0
  0
LINE
  5
12E
330
1F
100
AcDbEntity
  8
0
  6
Continuous
 62
     7
370
    25
100
AcDbLine
 10
-344.6880978794
 20
981.118562928
 30
0.0
 11
-344.6880978794
 21
980.7484028184
 31
0.0
  0
LINE
  5
12F
330
1F
100
AcDbEntity
  8
0
  6
Continuous
 62
     7
370
    25
100
AcDbLine
 10
-325.3170800466
 20
981.4862986768
 30
0.0
 11
-325.3170800466
 21
981.8612986768
 31
0.0
  0
LINE
  5
130
330
1F
100
AcDbEntity
  8
0
  6
Continuous
 62
     7
370
    25
100
AcDbLine
 10
-14.0
 20
-1.0
 30
0.0
 11
-14.0
 21
-12.0
 31
0.0
  0
LINE
  5
131
330
1F
100
AcDbEntity
  8
0
  6
Continuous
 62
     7
370
    25
100
AcDbLine
 10
14.0
 20
-12.0
 30
0.0
 11
14.0
 21
-1.0
 31
0.0
  0
LINE
  5
132
330
1F
100
AcDbEntity
  8
0
  6
Continuous
 62
     7
370
    25
100
AcDbLine
 10
-5.9135032335
 20
638.6509102311
 30
0.0
 11
-9.79578891
 21
653.1397976254
 31
0.0
  0
LINE
  5
133
330
1F
100
AcDbEntity
  8
0
  6
Continuous
 62
     7
370
    25
100
AcDbLine
 10
-8.6455540411
 20
637.9188594235
 30
0.0
 11
-12.5278397176
 21
652.4077468178
 31
0.0
  0
LINE
  5
134
330
1F
100
AcDbEntity
  8
0
  6
Continuous
 62
     7
370
    25
100
AcDbLine
 10
12.5278397176
 20
643.5922531822
 30
0.0
 11
8.6455540411
 21
658.0811405765
 31
0.0
  0
LINE
  5
135
330
1F
100
AcDbEntity
  8
0
  6
Continuous
 62
     7
370
    25
100
AcDbLine
 10
13.0307074692
 20
659.2561388963
 30
0.0
 11
-16.9129931457
 21
651.2327484981
 31
0.0
  0
LINE
  5
136
330
1F
100
AcDbEntity
  8
0
  6
Continuous
 62
     7
370
    25
100
AcDbLine
 10
16.9129931457
 20
644.7672515019
 30
0.0
 11
-13.0307074692
 21
636.7438611037
 31
0.0
  0
LINE
  5
137
330
1F
100
AcDbEntity
  8
0
  6
Continuous
 62
     7
370
    25
100
AcDbLine
 10
9.79578891
 20
642.8602023746
 30
0.0
 11
5.9135032335
 21
657.3490897689
 31
0.0
  0
LINE
  5
138
330
1F
100
AcDbEntity
  8
0
  6
Continuous
 62
     7
370
    25
100
AcDbLine
 10
60.2
 20
857.3
 30
0.0
 11
60.2
 21
807.3
 31
0.0
  0
LINE
  5
139
330
1F
100
AcDbEntity
  8
0
  6
Continuous
 62
     7
370
    25
100
AcDbLine
 10
60.0
 20
807.5
 30
0.0
 11
60.0
 21
857.1
 31
0.0
  0
LINE
  5
13A
330
1F
100
AcDbEntity
  8
0
  6
Continuous
 62
     7
370
    25
100
AcDbLine
 10
60.0
 20
810.3
 30
0.0
 11
70.0
 21
810.3
 31
0.0
  0
LINE
  5
13B
330
1F
100
AcDbEntity
  8
0
  6
Continuous
 62
     7
370
    25
100
AcDbLine
 10
60.2
 20
807.3
 30
0.0
 11
70.0
 21
807.3
 31
0.0
  0
LINE
  5
13C
330
1F
100
AcDbEntity
  8
0
  6
Continuous
 62
     7
370
    25
100
AcDbLine
 10
70.0
 20
807.3
 30
0.0
 11
70.0
 21
857.3
 31
0.0
  0
LINE
  5
13D
330
1F
100
AcDbEntity
  8
0
  6
Continuous
 62
     7
370
    25
100
AcDbLine
 10
60.0
 20
854.3
 30
0.0
 11
70.0
 21
854.3
 31
0.0
  0
LINE
  5
13E
330
1F
100
AcDbEntity
  8
0
  6
Continuous
 62
     7
370
    25
100
AcDbLine
 10
60.2
 20
857.3
 30
0.0
 11
70.0
 21
857.3
 31
0.0
  0
LINE
  5
13F
330
1F
100
AcDbEntity
  8
0
  6
Continuous
 62
     7
370
    25
100
AcDbLine
 10
-11.0
 20
660.5
 30
0.0
 11
-11.0
 21
652.8171302363
 31
0.0
  0
LINE
  5
140
330
1F
100
AcDbEntity
  8
0
  6
Continuous
 62
     7
370
    25
100
AcDbLine
 10
-11.0
 20
637.2879875302
 30
0.0
 11
-11.0
 21
635.5
 31
0.0
  0
LINE
  5
141
330
1F
100
AcDbEntity
  8
0
  6
Continuous
 62
     7
370
    25
100
AcDbLine
 10
11.0
 20
660.5
 30
0.0
 11
11.0
 21
658.7120124698
 31
0.0
  0
LINE
  5
142
330
1F
100
AcDbEntity
  8
0
  6
Continuous
 62
     7
370
    25
100
AcDbLine
 10
11.0
 20
643.1828697637
 30
0.0
 11
11.0
 21
635.5
 31
0.0
  0
LINE
  5
143
330
1F
100
AcDbEntity
  8
0
  6
Continuous
 62
     7
370
    25
100
AcDbLine
 10
11.0
 20
660.5
 30
0.0
 11
-11.0
 21
660.5
 31
0.0
  0
LINE
  5
144
330
1F
100
AcDbEntity
  8
0
  6
Continuous
 62
     7
370
    25
100
AcDbLine
 10
11.0
 20
635.5
 30
0.0
 11
-11.0
 21
635.5
 31
0.0
  0
LINE
  5
145
330
1F
100
AcDbEntity
  8
0
  6
Continuous
 62
     7
370
    25
100
AcDbLine
 10
-7.5
 20
660.5
 30
0.0
 11
-7.5
 21
960.0
 31
0.0
  0
LINE
  5
146
330
1F
100
AcDbEntity
  8
0
  6
Continuous
 62
     7
370
    25
100
AcDbLine
 10
-7.5
 20
960.0
 30
0.0
 11
-7.3
 21
960.0
 31
0.0
  0
LINE
  5
147
330
1F
100
AcDbEntity
  8
0
  6
Continuous
 62
     7
370
    25
100
AcDbLine
 10
-7.3
 20
960.0
 30
0.0
 11
-7.3
 21
660.5
 31
0.0
  0
LINE
  5
148
330
1F
100
AcDbEntity
  8
0
  6
Continuous
 62
     7
370
    25
100
AcDbLine
 10
-355.0
 20
992.7
 30
0.0
 11
-40.0
 21
992.7
 31
0.0
  0
LINE
  5
149
330
1F
100
AcDbEntity
  8
0
  6
Continuous
 62
     7
370
    25
100
AcDbLine
 10
-354.8
 20
1007.5
 30
0.0
 11
-354.8
 21
992.5
 31
0.0
  0
LINE
  5
14A
330
1F
100
AcDbEntity
  8
0
  6
Continuous
 62
     7
370
    25
100
AcDbLine
 10
-40.0
 20
992.5
 30
0.0
 11
-354.8
 21
992.5
 31
0.0
  0
LINE
  5
14B
330
1F
100
AcDbEntity
  8
0
  6
Continuous
 62
     7
370
    25
100
AcDbLine
 10
-40.0
 20
992.5
 30
0.0
 11
-40.0
 21
992.7
 31
0.0
  0
LINE
  5
14C
330
1F
100
AcDbEntity
  8
0
  6
Continuous
 62
     7
370
    25
100
AcDbLine
 10
-40.0
 20
1007.3
 30
0.0
 11
-355.0
 21
1007.3
 31
0.0
  0
LINE
  5
14D
330
1F
100
AcDbEntity
  8
0
  6
Continuous
 62
     7
370
    25
100
AcDbLine
 10
7.3
 20
660.5
 30
0.0
 11
7.3
 21
960.0
 31
0.0
  0
LINE
  5
14E
330
1F
100
AcDbEntity
  8
0
  6
Continuous
 62
     7
370
    25
100
AcDbLine
 10
7.5
 20
0.0
 30
0.0
 11
7.3
 21
0.2
 31
0.0
  0
LINE
  5
14F
330
1F
100
AcDbEntity
  8
0
  6
Continuous
 62
     7
370
    25
100
AcDbLine
 10
7.3
 20
0.2
 30
0.0
 11
7.3
 21
635.5
 31
0.0
  0
LINE
  5
150
330
1F
100
AcDbEntity
  8
0
  6
Continuous
 62
     7
370
    25
100
AcDbLine
 10
7.5
 20
635.5
 30
0.0
 11
7.5
 21
0.0
 31
0.0
  0
LINE
  5
151
330
1F
100
AcDbEntity
  8
0
  6
Continuous
 62
     7
370
    25
100
AcDbLine
 10
-354.8
 20
1007.5
 30
0.0
 11
-40.0
 21
1007.5
 31
0.0
  0
LINE
  5
152
330
1F
100
AcDbEntity
  8
0
  6
Continuous
 62
     7
370
    25
100
AcDbLine
 10
-40.0
 20
1007.3
 30
0.0
 11
-40.0
 21
1007.5
 31
0.0
  0
LINE
  5
153
330
1F
100
AcDbEntity
  8
0
  6
Continuous
 62
     7
370
    25
100
AcDbLine
 10
-7.5
 20
0.0
 30
0.0
 11
-7.3
 21
0.2
 31
0.0
  0
LINE
  5
154
330
1F
100
AcDbEntity
  8
0
  6
Continuous
 62
     7
370
    25
100
AcDbLine
 10
-7.5
 20
0.0
 30
0.0
 11
-7.5
 21
635.5
 31
0.0
  0
LINE
  5
155
330
1F
100
AcDbEntity
  8
0
  6
Continuous
 62
     7
370
    25
100
AcDbLine
 10
-7.3
 20
635.5
 30
0.0
 11
-7.3
 21
0.2
 31
0.0
  0
LINE
  5
156
330
1F
100
AcDbEntity
  8
0
  6
Continuous
 62
     7
370
    25
100
AcDbLine
 10
-355.0
 20
992.7
 30
0.0
 11
-355.0
 21
1007.3
 31
0.0
  0
LINE
  5
157
330
1F
100
AcDbEntity
  8
0
  6
Continuous
 62
     7
370
    25
100
AcDbLine
 10
7.3
 20
960.0
 30
0.0
 11
7.5
 21
960.0
 31
0.0
  0
LINE
  5
158
330
1F
100
AcDbEntity
  8
0
  6
Continuous
 62
     7
370
    25
100
AcDbLine
 10
7.5
 20
960.0
 30
0.0
 11
7.5
 21
660.5
 31
0.0
  0
LINE
  5
159
330
1F
100
AcDbEntity
  8
0
  6
Continuous
 62
     7
370
    25
100
AcDbLine
 10
-7.3
 20
0.2
 30
0.0
 11
7.3
 21
0.2
 31
0.0
  0
LINE
  5
15A
330
1F
100
AcDbEntity
  8
0
  6
Continuous
 62
     7
370
    25
100
AcDbLine
 10
13.0
 20
0.0
 30
0.0
 11
-12.999999946
 21
0.0
 31
0.0
  0
LINE
  5
15B
330
1F
100
AcDbEntity
  8
0
  6
Continuous
 62
     7
370
    25
100
AcDbLine
 10
-333.3165649441
 20
980.5
 30
0.0
 11
-341.1382075993
 21
980.5
 31
0.0
  0
LINE
  5
15C
330
1F
100
AcDbEntity
  8
0
  6
Continuous
 62
     7
370
    25
100
AcDbLine
 10
59.8
 20
817.3
 30
0.0
 11
59.8
 21
847.3
 31
0.0
  0
LINE
  5
15D
330
1F
100
AcDbEntity
  8
0
  6
Continuous
 62
     7
370
    25
100
AcDbLine
 10
7.5
 20
817.5
 30
0.0
 11
60.0
 21
817.5
 31
0.0
  0
LINE
  5
15E
330
1F
100
AcDbEntity
  8
0
  6
Continuous
 62
     7
370
    25
100
AcDbLine
 10
60.0
 20
847.1
 30
0.0
 11
7.5
 21
847.1
 31
0.0
  0
LINE
  5
15F
330
1F
100
AcDbEntity
  8
0
  6
Continuous
 62
     7
370
    25
100
AcDbLine
 10
59.8
 20
817.3
 30
0.0
 11
7.5
 21
817.3
 31
0.0
  0
LINE
  5
160
330
1F
100
AcDbEntity
  8
0
  6
Continuous
 62
     7
370
    25
100
AcDbLine
 10
7.5
 20
847.3
 30
0.0
 11
59.8
 21
847.3
 31
0.0
  0
LINE
  5
161
330
1F
100
AcDbEntity
  8
0
  6
Continuous
 62
     7
370
    25
100
AcDbLine
 10
14.0
 20
-12.0
 30
0.0
 11
-14.0
 21
-12.0
 31
0.0
  0
LINE
  5
162
330
1F
100
AcDbEntity
  8
0
  6
Continuous
 62
     8
370
    25
100
AcDbLine
 10
-324.5
 20
992.3
 30
0.0
 11
-345.5
 21
992.3
 31
0.0
  0
LINE
  5
163
330
1F
100
AcDbEntity
  8
0
  6
Continuous
 62
     8
370
    25
100
AcDbLine
 10
14.0
 20
-1.0
 30
0.0
 11
-14.0
 21
-1.0
 31
0.0
  0
ARC
  5
164
330
1F
100
AcDbEntity
  8
0
  6
Continuous
 62
     7
370
    25
100
AcDbCircle
 10
-324.3
 20
992.3
 30
0.0
 40
0.1999999999999886
100
AcDbArc
 50
90.0
 51
180.0
  0
ARC
  5
165
330
1F
100
AcDbEntity
  8
0
  6
Continuous
 62
     7
370
    25
100
AcDbCircle
 10
-345.7
 20
992.3
 30
0.0
 40
0.1999999999998181
100
AcDbArc
 50
360.0
 51
90.0
  0
ARC
  5
166
330
1F
100
AcDbEntity
  8
0
  6
Continuous
 62
     7
370
    25
100
AcDbCircle
 10
13.0
 20
-1.0
 30
0.0
 40
1.000000000000021
100
AcDbArc
 50
0.0
 51
90.0
  0
ARC
  5
167
330
1F
100
AcDbEntity
  8
0
  6
Continuous
 62
     7
370
    25
100
AcDbCircle
 10
-13.0
 20
-1.0
 30
0.0
 40
1.000000000000021
100
AcDbArc
 50
90.0
 51
180.0
  0
ARC
  5
168
330
1F
100
AcDbEntity
  8
0
  6
Continuous
 62
     7
370
    25
100
AcDbCircle
 10
60.2
 20
807.5
 30
0.0
 40
0.1999999999999957
100
AcDbArc
 50
180.0
 51
270.0
  0
ARC
  5
169
330
1F
100
AcDbEntity
  8
0
  6
Continuous
 62
     7
370
    25
100
AcDbCircle
 10
60.2
 20
857.1
 30
0.0
 40
0.2000000000000455
100
AcDbArc
 50
90.0
 51
180.0
  0
ARC
  5
16A
330
1F
100
AcDbEntity
  8
0
  6
Continuous
 62
     7
370
    25
100
AcDbCircle
 10
-354.8
 20
992.7
 30
0.0
 40
0.200000000000216
100
AcDbArc
 50
180.0
 51
270.0
  0
ARC
  5
16B
330
1F
100
AcDbEntity
  8
0
  6
Continuous
 62
     7
370
    25
100
AcDbCircle
 10
-40.0
 20
960.0
 30
0.0
 40
32.70000000000016
100
AcDbArc
 50
0.0
 51
90.0
  0
ARC
  5
16C
330
1F
100
AcDbEntity
  8
0
  6
Continuous
 62
     7
370
    25
100
AcDbCircle
 10
-40.0
 20
960.0
 30
0.0
 40
47.3000000000001
100
AcDbArc
 50
0.0
 51
90.0
  0
ARC
  5
16D
330
1F
100
AcDbEntity
  8
0
  6
Continuous
 62
     7
370
    25
100
AcDbCircle
 10
-40.0
 20
960.0
 30
0.0
 40
47.5
100
AcDbArc
 50
0.0
 51
90.0
  0
ARC
  5
16E
330
1F
100
AcDbEntity
  8
0
  6
Continuous
 62
     7
370
    25
100
AcDbCircle
 10
-354.8
 20
1007.3
 30
0.0
 40
0.1999999999999886
100
AcDbArc
 50
90.0
 51
180.0000000001
  0
ARC
  5
16F
330
1F
100
AcDbEntity
  8
0
  6
Continuous
 62
     7
370
    25
100
AcDbCircle
 10
-40.0
 20
960.0
 30
0.0
 40
32.50000000000011
100
AcDbArc
 50
0.0
 51
90.0
  0
ARC
  5
170
330
1F
100
AcDbEntity
  8
0
  6
Continuous
 62
     7
370
    25
100
AcDbCircle
 10
59.8
 20
817.1
 30
0.0
 40
0.2000000000001592
100
AcDbArc
 50
0.0
 51
90.0
  0
ARC
  5
171
330
1F
100
AcDbEntity
  8
0
  6
Continuous
 62
     7
370
    25
100
AcDbCircle
 10
59.8
 20
847.5
 30
0.0
 40
0.1999999999999318
100
AcDbArc
 50
270.0
 51
0.0
  0
SPLINE
  5
1ED
330
23
100
AcDbEntity
 67
     1
  8
0
  6
Continuous
 62
     7
370
    25
100
AcDbSpline
210
0.0
220
0.0
230
1.0
 70
     8
 71
     3
 72
     9
 73
     5
 74
     0
 42
0.000000001
 43
0.00000001
 40
0.0
 40
0.0
 40
0.0
 40
0.0
 40
0.5055405862453837
 40
1.0
 40
1.0
 40
1.0
 40
1.0
 10
10.49230579757327
 20
982.1587317226581
 30
0.0
 10
10.35678447703807
 20
982.2370305221136
 30
0.0
 10
10.08871238901499
 20
982.3919118542676
 30
0.0
 10
9.820645940536473
 20
982.5468112464697
 30
0.0
 10
9.688097961574503
 20
982.6234027091288
 30
0.0
  0
SPLINE
  5
1EE
330
23
100
AcDbEntity
 67
     1
  8
0
  6
Continuous
 62
     7
370
    25
100
AcDbSpline
210
0.0
220
0.0
230
1.0
 70
     8
 71
     3
 72
     9
 73
     5
 74
     0
 42
0.000000001
 43
0.00000001
 40
0.0
 40
0.0
 40
0.0
 40
0.0
 40
0.5058827371169022
 40
1.0
 40
1.0
 40
1.0
 40
1.0
 10
10.49230579757327
 20
983.6587317226582
 30
0.0
 10
10.35669215520588
 20
983.7370809897926
 30
0.0
 10
10.08861887968697
 20
983.891957330466
 30
0.0
 10
9.820553610410721
 20
984.0468616896376
 30
0.0
 10
9.688097933281917
 20
984.1234026075999
 30
0.0
  0
SPLINE
  5
1EF
330
23
100
AcDbEntity
 67
     1
  8
0
  6
Continuous
 62
     7
370
    25
100
AcDbSpline
210
0.0
220
0.0
230
1.0
 70
     8
 71
     3
 72
     9
 73
     5
 74
     0
 42
0.000000001
 43
0.00000001
 40
0.0
 40
0.0
 40
0.0
 40
0.0
 40
0.506228229945255
 40
1.0
 40
1.0
 40
1.0
 40
1.0
 10
10.49230579757327
 20
985.1587317226581
 30
0.0
 10
10.35659800564023
 20
985.2371312171498
 30
0.0
 10
10.08852170347961
 20
985.392001075949
 30
0.0
 10
9.820459395305576
 20
985.5469119165388
 30
0.0
 10
9.688097794913524
 20
985.6234025164975
 30
0.0
  0
SPLINE
  5
1F0
330
23
100
AcDbEntity
 67
     1
  8
0
  6
Continuous
 62
     7
370
    25
100
AcDbSpline
210
0.0
220
0.0
230
1.0
 70
     8
 71
     3
 72
     9
 73
     5
 74
     0
 42
0.000000001
 43
0.00000001
 40
0.0
 40
0.0
 40
0.0
 40
0.0
 40
0.5065766317342296
 40
1.0
 40
1.0
 40
1.0
 40
1.0
 10
10.49230579757328
 20
986.6587317226583
 30
0.0
 10
10.35650196673567
 20
986.7371812374832
 30
0.0
 10
10.08842045185669
 20
986.8920433252908
 30
0.0
 10
9.820363239369183
 20
987.046961960683
 30
0.0
 10
9.68809754669566
 20
987.1234024355655
 30
0.0
  0
SPLINE
  5
1F1
330
23
100
AcDbEntity
 67
     1
  8
0
  6
Continuous
 62
     7
370
    25
100
AcDbSpline
210
0.0
220
0.0
230
1.0
 70
     8
 71
     3
 72
     9
 73
     5
 74
     0
 42
0.000000001
 43
0.00000001
 40
0.0
 40
0.0
 40
0.0
 40
0.0
 40
0.5069275043338716
 40
0.9999999999999999
 40
0.9999999999999999
 40
0.9999999999999999
 40
0.9999999999999999
 10
10.49230579757327
 20
988.1587317226581
 30
0.0
 10
10.35640397582295
 20
988.2372310846819
 30
0.0
 10
10.08831471140455
 20
988.392084315869
 30
0.0
 10
9.820265086410775
 20
988.5470118557912
 30
0.0
 10
9.68809718885272
 20
988.6234023645482
 30
0.0
  0
SPLINE
  5
1F2
330
23
100
AcDbEntity
 67
     1
  8
0
  6
Continuous
 62
     7
370
    25
100
AcDbSpline
210
0.0
220
0.0
230
1.0
 70
     8
 71
     3
 72
     9
 73
     5
 74
     0
 42
0.000000001
 43
0.00000001
 40
0.0
 40
0.0
 40
0.0
 40
0.0
 40
0.4995822610509823
 40
0.9999999999999999
 40
0.9999999999999999
 40
0.9999999999999999
 40
0.9999999999999999
 10
-9.674985874571083
 20
983.3806498522584
 30
0.0
 10
-9.810350259881341
 20
983.3024133842915
 30
0.0
 10
-10.08130540753909
 20
983.1458096093644
 30
0.0
 10
-10.35230311712942
 20
982.9892892697485
 30
0.0
 10
-10.48791517822298
 20
982.9109637152985
 30
0.0
  0
SPLINE
  5
1F3
330
23
100
AcDbEntity
 67
     1
  8
0
  6
Continuous
 62
     7
370
    25
100
AcDbSpline
210
0.0
220
0.0
230
1.0
 70
     8
 71
     3
 72
     9
 73
     5
 74
     0
 42
0.000000001
 43
0.00000001
 40
0.0
 40
0.0
 40
0.0
 40
0.0
 40
0.4991796522346998
 40
1.0
 40
1.0
 40
1.0
 40
1.0
 10
-9.674985874571087
 20
984.8806498522587
 30
0.0
 10
-9.810232222950251
 20
984.8024592950467
 30
0.0
 10
-10.08116944519821
 20
984.6458211851767
 30
0.0
 10
-10.35218504918466
 20
984.4893351205868
 30
0.0
 10
-10.48791517822298
 20
984.4109637152985
 30
0.0
  0
SPLINE
  5
1F4
330
23
100
AcDbEntity
 67
     1
  8
0
  6
Continuous
 62
     7
370
    25
100
AcDbSpline
210
0.0
220
0.0
230
1.0
 70
     8
 71
     3
 72
     9
 73
     5
 74
     0
 42
0.000000001
 43
0.00000001
 40
0.0
 40
0.0
 40
0.0
 40
0.0
 40
0.4987738505812885
 40
1.0
 40
1.0
 40
1.0
 40
1.0
 10
-9.674985874571083
 20
986.3806498522584
 30
0.0
 10
-9.810112342657419
 20
986.3025050029894
 30
0.0
 10
-10.08102964902554
 20
986.1458310932045
 30
0.0
 10
-10.35206511517099
 20
985.9893807289492
 30
0.0
 10
-10.48791517822298
 20
985.9109637152985
 30
0.0
  0
SPLINE
  5
1F5
330
23
100
AcDbEntity
 67
     1
  8
0
  6
Continuous
 62
     7
370
    25
100
AcDbSpline
210
0.0
220
0.0
230
1.0
 70
     8
 71
     3
 72
     9
 73
     5
 74
     0
 42
0.000000001
 43
0.00000001
 40
0.0
 40
0.0
 40
0.0
 40
0.0
 40
0.4983653688333213
 40
1.0
 40
1.0
 40
1.0
 40
1.0
 10
-9.674985874571083
 20
987.8806498522586
 30
0.0
 10
-9.809990550987525
 20
987.8025505492491
 30
0.0
 10
-10.08088553057346
 20
987.645839614072
 30
0.0
 10
-10.35194324275028
 20
987.4894261337894
 30
0.0
 10
-10.48791517822298
 20
987.4109637152985
 30
0.0
  0
SPLINE
  5
1F6
330
23
100
AcDbEntity
 67
     1
  8
0
  6
Continuous
 62
     7
370
    25
100
AcDbSpline
210
0.0
220
0.0
230
1.0
 70
     8
 71
     3
 72
     9
 73
     5
 74
     0
 42
0.000000001
 43
0.00000001
 40
0.0
 40
0.0
 40
0.0
 40
0.0
 40
0.4979547239193621
 40
1.0
 40
1.0
 40
1.0
 40
1.0
 10
-9.674985874571083
 20
989.3806498522584
 30
0.0
 10
-9.809866779806852
 20
989.3025959749779
 30
0.0
 10
-10.08073659739616
 20
989.1458470306837
 30
0.0
 10
-10.35181935855586
 20
988.9894713746862
 30
0.0
 10
-10.48791517822298
 20
988.9109637152985
 30
0.0
  0
SPLINE
  5
1F7
330
23
100
AcDbEntity
 67
     1
  8
0
  6
Continuous
 62
     7
370
    25
100
AcDbSpline
210
0.0
220
0.0
230
1.0
 70
     8
 71
     3
 72
     9
 73
     5
 74
     0
 42
0.000000001
 43
0.00000001
 40
0.0
 40
0.0
 40
0.0
 40
0.0
 40
0.4999811706163808
 40
0.9999999999999999
 40
0.9999999999999999
 40
0.9999999999999999
 40
0.9999999999999999
 10
-9.674985874571087
 20
981.8806498522587
 30
0.0
 10
-9.8104665210541
 20
981.8023672297973
 30
0.0
 10
-10.08143801847268
 20
981.6457960885982
 30
0.0
 10
-10.35241939003141
 20
981.4892431382622
 30
0.0
 10
-10.48791517822298
 20
981.4109637152985
 30
0.0
  0
SPLINE
  5
1F8
330
23
100
AcDbEntity
 67
     1
  8
0
  6
Continuous
 62
     7
370
    25
100
AcDbSpline
210
0.0
220
0.0
230
1.0
 70
     8
 71
     3
 72
     9
 73
     5
 74
     0
 42
0.000000001
 43
0.00000001
 40
0.0
 40
0.0
 40
0.0
 40
0.0
 40
0.5052022033376332
 40
1.0
 40
1.0
 40
1.0
 40
1.0
 10
10.49230579757327
 20
980.6587317226582
 30
0.0
 10
10.3568750314374
 20
980.7369797815378
 30
0.0
 10
10.08880263341312
 20
980.8918644165666
 30
0.0
 10
9.820736440934189
 20
981.0467605538961
 30
0.0
 10
9.688097879535938
 20
981.1234028213579
 30
0.0
  0
SPLINE
  5
1F9
330
23
100
AcDbEntity
 67
     1
  8
0
  6
Continuous
 62
     7
370
    25
100
AcDbSpline
210
0.0
220
0.0
230
1.0
 70
     8
 71
     3
 72
     9
 73
     5
 74
     0
 42
0.000000001
 43
0.00000001
 40
0.0
 40
0.0
 40
0.0
 40
0.0
 40
0.5001891576865698
 40
1.0
 40
1.0
 40
1.0
 40
1.0
 10
9.626086670303547
 20
982.9675821038757
 30
0.0
 10
9.761151359325181
 20
983.0458263112474
 30
0.0
 10
10.03117858191898
 20
983.2022555464067
 30
0.0
 10
10.30003961331656
 20
983.3585434075234
 30
0.0
 10
10.43441927188464
 20
983.4366577750314
 30
0.0
  0
SPLINE
  5
1FA
330
23
100
AcDbEntity
 67
     1
  8
0
  6
Continuous
 62
     7
370
    25
100
AcDbSpline
210
0.0
220
0.0
230
1.0
 70
     8
 71
     3
 72
     9
 73
     5
 74
     0
 42
0.000000001
 43
0.00000001
 40
0.0
 40
0.0
 40
0.0
 40
0.0
 40
0.5003759867809765
 40
0.9999999999999999
 40
0.9999999999999999
 40
0.9999999999999999
 40
0.9999999999999999
 10
9.626086670303547
 20
984.4675821038758
 30
0.0
 10
9.76150662216461
 20
984.545891404762
 30
0.0
 10
10.03214301447481
 20
984.702392321982
 30
0.0
 10
10.30039442540435
 20
984.8586084474804
 30
0.0
 10
10.43441927188464
 20
984.9366577750314
 30
0.0
  0
SPLINE
  5
1FB
330
23
100
AcDbEntity
 67
     1
  8
0
  6
Continuous
 62
     7
370
    25
100
AcDbSpline
210
0.0
220
0.0
230
1.0
 70
     8
 71
     3
 72
     9
 73
     5
 74
     0
 42
0.000000001
 43
0.00000001
 40
0.0
 40
0.0
 40
0.0
 40
0.0
 40
0.5005580483515093
 40
1.0
 40
1.0
 40
1.0
 40
1.0
 10
9.626086670303547
 20
985.9675821038757
 30
0.0
 10
9.76186033809916
 20
986.0459568657946
 30
0.0
 10
10.03310493848619
 20
986.2025316370463
 30
0.0
 10
10.30074739904109
 20
986.3586738189612
 30
0.0
 10
10.43441927188464
 20
986.4366577750314
 30
0.0
  0
SPLINE
  5
1FC
330
23
100
AcDbEntity
 67
     1
  8
0
  6
Continuous
 62
     7
370
    25
100
AcDbSpline
210
0.0
220
0.0
230
1.0
 70
     8
 71
     3
 72
     9
 73
     5
 74
     0
 42
0.000000001
 43
0.00000001
 40
0.0
 40
0.0
 40
0.0
 40
0.0
 40
0.5007351272680268
 40
1.0
 40
1.0
 40
1.0
 40
1.0
 10
9.626086670303547
 20
987.4675821038758
 30
0.0
 10
9.762212530298688
 20
987.5460227112337
 30
0.0
 10
10.03406455861121
 20
987.7026736092563
 30
0.0
 10
10.30109857011572
 20
987.8587395386533
 30
0.0
 10
10.43441927188464
 20
987.9366577750313
 30
0.0
  0
SPLINE
  5
1FD
330
23
100
AcDbEntity
 67
     1
  8
0
  6
Continuous
 62
     7
370
    25
100
AcDbSpline
210
0.0
220
0.0
230
1.0
 70
     8
 71
     3
 72
     9
 73
     5
 74
     0
 42
0.000000001
 43
0.00000001
 40
0.0
 40
0.0
 40
0.0
 40
0.0
 40
0.5009070221842108
 40
1.0
 40
1.0
 40
1.0
 40
1.0
 10
9.626086670303547
 20
988.9675821038757
 30
0.0
 10
9.762563219829143
 20
989.046088956848
 30
0.0
 10
10.03502206644401
 20
989.2028183487224
 30
0.0
 10
10.30144797287615
 20
989.3588056222068
 30
0.0
 10
10.43441927188464
 20
989.4366577750314
 30
0.0
  0
SPLINE
  5
1FE
330
23
100
AcDbEntity
 67
     1
  8
0
  6
Continuous
 62
     7
370
    25
100
AcDbSpline
210
0.0
220
0.0
230
1.0
 70
     8
 71
     3
 72
     9
 73
     5
 74
     0
 42
0.000000001
 43
0.00000001
 40
0.0
 40
0.0
 40
0.0
 40
0.0
 40
0.5045799908970304
 40
0.9999999999999999
 40
0.9999999999999999
 40
0.9999999999999999
 40
0.9999999999999999
 10
-10.49274065589128
 20
982.7040204360098
 30
0.0
 10
-10.35740184652767
 20
982.625827234471
 30
0.0
 10
-10.08918112472893
 20
982.4708603254587
 30
0.0
 10
-9.820973419130317
 20
982.3158791404568
 30
0.0
 10
-9.68809795518117
 20
982.2390983603723
 30
0.0
  0
SPLINE
  5
1FF
330
23
100
AcDbEntity
 67
     1
  8
0
  6
Continuous
 62
     7
370
    25
100
AcDbSpline
210
0.0
220
0.0
230
1.0
 70
     8
 71
     3
 72
     9
 73
     5
 74
     0
 42
0.000000001
 43
0.00000001
 40
0.0
 40
0.0
 40
0.0
 40
0.0
 40
0.5042576313463947
 40
1.0
 40
1.0
 40
1.0
 40
1.0
 10
-10.49274065589128
 20
984.2040204360098
 30
0.0
 10
-10.3574860831005
 20
984.1258791023654
 30
0.0
 10
-10.08926094503043
 20
983.9709159867137
 30
0.0
 10
-9.821057660617992
 20
983.8159310623065
 30
0.0
 10
-9.688097929122689
 20
983.7390984687751
 30
0.0
  0
SPLINE
  5
200
330
23
100
AcDbEntity
 67
     1
  8
0
  6
Continuous
 62
     7
370
    25
100
AcDbSpline
210
0.0
220
0.0
230
1.0
 70
     8
 71
     3
 72
     9
 73
     5
 74
     0
 42
0.000000001
 43
0.00000001
 40
0.0
 40
0.0
 40
0.0
 40
0.0
 40
0.5039402429772126
 40
1.0
 40
1.0
 40
1.0
 40
1.0
 10
-10.49274065589128
 20
985.7040204360098
 30
0.0
 10
-10.35756872282193
 20
985.6259313323523
 30
0.0
 10
-10.08933864008283
 20
985.4709742620531
 30
0.0
 10
-9.82114023607524
 20
985.3159833312384
 30
0.0
 10
-9.688097800949334
 20
985.2390985677578
 30
0.0
  0
SPLINE
  5
201
330
23
100
AcDbEntity
 67
     1
  8
0
  6
Continuous
 62
     7
370
    25
100
AcDbSpline
210
0.0
220
0.0
230
1.0
 70
     8
 71
     3
 72
     9
 73
     5
 74
     0
 42
0.000000001
 43
0.00000001
 40
0.0
 40
0.0
 40
0.0
 40
0.0
 40
0.5036281982109864
 40
1.0
 40
1.0
 40
1.0
 40
1.0
 10
-10.49274065589128
 20
987.2040204360098
 30
0.0
 10
-10.35764981737045
 20
987.1259839523041
 30
0.0
 10
-10.08941456167845
 20
986.9710353533516
 30
0.0
 10
-9.821221195017563
 20
986.8160359768403
 30
0.0
 10
-9.688097570380236
 20
986.7390986570454
 30
0.0
  0
SPLINE
  5
202
330
23
100
AcDbEntity
 67
     1
  8
0
  6
Continuous
 62
     7
370
    25
100
AcDbSpline
210
0.0
220
0.0
230
1.0
 70
     8
 71
     3
 72
     9
 73
     5
 74
     0
 42
0.000000001
 43
0.00000001
 40
0.0
 40
0.0
 40
0.0
 40
0.0
 40
0.5033218543393072
 40
0.9999999999999999
 40
0.9999999999999999
 40
0.9999999999999999
 40
0.9999999999999999
 10
-10.49274065589128
 20
988.7040204360098
 30
0.0
 10
-10.35772941610628
 20
988.6260369888206
 30
0.0
 10
-10.08948904740183
 20
988.4710994542851
 30
0.0
 10
-9.821300585217342
 20
988.3160890276293
 30
0.0
 10
-9.68809723713196
 20
988.2390987363602
 30
0.0
  0
SPLINE
  5
203
330
23
100
AcDbEntity
 67
     1
  8
0
  6
Continuous
 62
     7
370
    25
100
AcDbSpline
210
0.0
220
0.0
230
1.0
 70
     8
 71
     3
 72
     9
 73
     5
 74
     0
 42
0.000000001
 43
0.00000001
 40
0.0
 40
0.0
 40
0.0
 40
0.0
 40
0.5030215521677506
 40
0.9999999999999999
 40
0.9999999999999999
 40
0.9999999999999999
 40
0.9999999999999999
 10
-10.49274065589128
 20
990.2040204360098
 30
0.0
 10
-10.35780756591199
 20
990.1260904671428
 30
0.0
 10
-10.08956241936153
 20
989.971166749598
 30
0.0
 10
-9.821378452501992
 20
989.8161425109322
 30
0.0
 10
-9.688096800918647
 20
989.739098805424
 30
0.0
  0
SPLINE
  5
204
330
23
100
AcDbEntity
 67
     1
  8
0
  6
Continuous
 62
     7
370
    25
100
AcDbSpline
210
0.0
220
0.0
230
1.0
 70
     8
 71
     3
 72
     9
 73
     5
 74
     0
 42
0.000000001
 43
0.00000001
 40
0.0
 40
0.0
 40
0.0
 40
0.0
 40
0.5049069355217285
 40
0.9999999999999999
 40
0.9999999999999999
 40
0.9999999999999999
 40
0.9999999999999999
 10
-10.49274065589128
 20
981.2040204360098
 30
0.0
 10
-10.35731595928242
 20
981.1257756996217
 30
0.0
 10
-10.0890988145349
 20
980.9708070690021
 30
0.0
 10
-9.820887460550342
 20
980.8158275351528
 30
0.0
 10
-9.688097879378262
 20
980.7390982428083
 30
0.0
  0
SPLINE
  5
205
330
23
100
AcDbEntity
 67
     1
  8
0
  6
Continuous
 62
     7
370
    25
100
AcDbSpline
210
0.0
220
0.0
230
1.0
 70
     8
 71
     3
 72
     9
 73
     5
 74
     0
 42
0.000000001
 43
0.00000001
 40
0.0
 40
0.0
 40
0.0
 40
0.0
 40
0.4999977891448455
 40
0.9999999999999999
 40
0.9999999999999999
 40
0.9999999999999999
 40
0.9999999999999999
 10
9.626086670303547
 20
981.4675821038758
 30
0.0
 10
9.76079452440383
 20
981.5457615673158
 30
0.0
 10
10.03021142388788
 20
981.7021211855734
 30
0.0
 10
10.29968292537741
 20
981.858478681423
 30
0.0
 10
10.43441927188464
 20
981.9366577750313
 30
0.0
  0
SPLINE
  5
213
330
23
100
AcDbEntity
 67
     1
  8
0
  6
Continuous
 62
     7
370
    25
100
AcDbSpline
210
0.0
220
0.0
230
1.0
 70
     8
 71
     3
 72
     9
 73
     5
 74
     0
 42
0.000000001
 43
0.00000001
 40
0.0
 40
0.0
 40
0.0
 40
0.0
 40
0.5004005964443741
 40
1.0
 40
1.0
 40
1.0
 40
1.0
 10
9.688097879535938
 20
982.6185629308991
 30
0.0
 10
9.688099470807076
 20
982.6811130940157
 30
0.0
 10
9.688102650801566
 20
982.8061132709965
 30
0.0
 10
9.688099469108097
 20
982.9311130939213
 30
0.0
 10
9.688097879535938
 20
982.9935629308991
 30
0.0
  0
SPLINE
  5
214
330
23
100
AcDbEntity
 67
     1
  8
0
  6
Continuous
 62
     7
370
    25
100
AcDbSpline
210
0.0
220
0.0
230
1.0
 70
     8
 71
     3
 72
     9
 73
     5
 74
     0
 42
0.000000001
 43
0.00000001
 40
0.0
 40
0.0
 40
0.0
 40
0.0
 40
0.5007983043792404
 40
1.0
 40
1.0
 40
1.0
 40
1.0
 10
9.688097879535938
 20
984.1185629308992
 30
0.0
 10
9.688098923438012
 20
984.1811634252184
 30
0.0
 10
9.688101007914064
 20
984.3061648355103
 30
0.0
 10
9.688098921218101
 20
984.4311634237165
 30
0.0
 10
9.68809787953594
 20
984.4935629308993
 30
0.0
  0
SPLINE
  5
215
330
23
100
AcDbEntity
 67
     1
  8
0
  6
Continuous
 62
     7
370
    25
100
AcDbSpline
210
0.0
220
0.0
230
1.0
 70
     8
 71
     3
 72
     9
 73
     5
 74
     0
 42
0.000000001
 43
0.00000001
 40
0.0
 40
0.0
 40
0.0
 40
0.0
 40
0.5011905918250005
 40
0.9999999999999999
 40
0.9999999999999999
 40
0.9999999999999999
 40
0.9999999999999999
 10
9.688097879535938
 20
985.6185629308991
 30
0.0
 10
9.68809623371386
 20
985.6812141262815
 30
0.0
 10
9.6880929498891
 20
985.8062188578236
 30
0.0
 10
9.68809623893093
 20
985.9312141187647
 30
0.0
 10
9.688097879535938
 20
985.9935629308991
 30
0.0
  0
SPLINE
  5
216
330
23
100
AcDbEntity
 67
     1
  8
0
  6
Continuous
 62
     7
370
    25
100
AcDbSpline
210
0.0
220
0.0
230
1.0
 70
     8
 71
     3
 72
     9
 73
     5
 74
     0
 42
0.000000001
 43
0.00000001
 40
0.0
 40
0.0
 40
0.0
 40
0.0
 40
0.5015748375111341
 40
1.0
 40
1.0
 40
1.0
 40
1.0
 10
9.688097879535938
 20
987.1185629308992
 30
0.0
 10
9.688091397498493
 20
987.1812653654515
 30
0.0
 10
9.688078474128016
 20
987.3062764901388
 30
0.0
 10
9.68809142466329
 20
987.4312653420674
 30
0.0
 10
9.68809787953594
 20
987.4935629308993
 30
0.0
  0
SPLINE
  5
217
330
23
100
AcDbEntity
 67
     1
  8
0
  6
Continuous
 62
     7
370
    25
100
AcDbSpline
210
0.0
220
0.0
230
1.0
 70
     8
 71
     3
 72
     9
 73
     5
 74
     0
 42
0.000000001
 43
0.00000001
 40
0.0
 40
0.0
 40
0.0
 40
0.0
 40
0.5019485918259298
 40
1.0
 40
1.0
 40
1.0
 40
1.0
 10
9.688097879535938
 20
988.6185629308991
 30
0.0
 10
9.688084410830816
 20
988.6813172992341
 30
0.0
 10
9.68805757799307
 20
988.8063388041393
 30
0.0
 10
9.688084480636496
 20
988.9313172432893
 30
0.0
 10
9.688097879535938
 20
988.9935629308991
 30
0.0
  0
SPLINE
  5
218
330
23
100
AcDbEntity
 67
     1
  8
0
  6
Continuous
 62
     7
370
    25
100
AcDbSpline
210
0.0
220
0.0
230
1.0
 70
     8
 71
     3
 72
     9
 73
     5
 74
     0
 42
0.000000001
 43
0.00000001
 40
0.0
 40
0.0
 40
0.0
 40
0.0
 40
0.5056821112035418
 40
1.0
 40
1.0
 40
1.0
 40
1.0
 10
-9.688097879378262
 20
982.24356292644
 30
0.0
 10
-9.688099475458241
 20
982.1811130898215
 30
0.0
 10
-9.688102631749407
 20
982.0576168552606
 30
0.0
 10
-9.688099502625086
 20
981.9341202709024
 30
0.0
 10
-9.688097955842952
 20
981.8730737000493
 30
0.0
  0
SPLINE
  5
219
330
23
100
AcDbEntity
 67
     1
  8
0
  6
Continuous
 62
     7
370
    25
100
AcDbSpline
210
0.0
220
0.0
230
1.0
 70
     8
 71
     3
 72
     9
 73
     5
 74
     0
 42
0.000000001
 43
0.00000001
 40
0.0
 40
0.0
 40
0.0
 40
0.0
 40
0.505277688752413
 40
1.0
 40
1.0
 40
1.0
 40
1.0
 10
-9.688097879378262
 20
983.7435629264401
 30
0.0
 10
-9.688098925404821
 20
983.681163422111
 30
0.0
 10
-9.68810099560618
 20
983.5576679547312
 30
0.0
 10
-9.688098944293163
 20
983.4341696992012
 30
0.0
 10
-9.688097929462847
 20
983.3730723567904
 30
0.0
  0
SPLINE
  5
21A
330
23
100
AcDbEntity
 67
     1
  8
0
  6
Continuous
 62
     7
370
    25
100
AcDbSpline
210
0.0
220
0.0
230
1.0
 70
     8
 71
     3
 72
     9
 73
     5
 74
     0
 42
0.000000001
 43
0.00000001
 40
0.0
 40
0.0
 40
0.0
 40
0.0
 40
0.5048786511815427
 40
0.9999999999999999
 40
0.9999999999999999
 40
0.9999999999999999
 40
0.9999999999999999
 10
-9.688097879378262
 20
985.24356292644
 30
0.0
 10
-9.688096232330988
 20
985.1812141238623
 30
0.0
 10
-9.688092970067334
 20
985.0577214738323
 30
0.0
 10
-9.688096200905091
 20
984.9342194670496
 30
0.0
 10
-9.688097800561838
 20
984.8730709868693
 30
0.0
  0
SPLINE
  5
21B
330
23
100
AcDbEntity
 67
     1
  8
0
  6
Continuous
 62
     7
370
    25
100
AcDbSpline
210
0.0
220
0.0
230
1.0
 70
     8
 71
     3
 72
     9
 73
     5
 74
     0
 42
0.000000001
 43
0.00000001
 40
0.0
 40
0.0
 40
0.0
 40
0.0
 40
0.5044876192771914
 40
1.0
 40
1.0
 40
1.0
 40
1.0
 10
-9.688097879378262
 20
986.7435629264401
 30
0.0
 10
-9.688091398698786
 20
986.6812653600413
 30
0.0
 10
-9.688078552636311
 20
986.5577785508143
 30
0.0
 10
-9.688091268549234
 20
986.4342697364817
 30
0.0
 10
-9.688097569441519
 20
986.3730695898516
 30
0.0
  0
SPLINE
  5
21C
330
23
100
AcDbEntity
 67
     1
  8
0
  6
Continuous
 62
     7
370
    25
100
AcDbSpline
210
0.0
220
0.0
230
1.0
 70
     8
 71
     3
 72
     9
 73
     5
 74
     0
 42
0.000000001
 43
0.00000001
 40
0.0
 40
0.0
 40
0.0
 40
0.0
 40
0.5041070424854931
 40
1.0
 40
1.0
 40
1.0
 40
1.0
 10
-9.688097879378262
 20
988.24356292644
 30
0.0
 10
-9.688084426773921
 20
988.1813172821242
 30
0.0
 10
-9.688057740766379
 20
988.0578402443725
 30
0.0
 10
-9.688084143484481
 20
987.9343206581976
 30
0.0
 10
-9.688097236406442
 20
987.8730681652985
 30
0.0
  0
SPLINE
  5
21D
330
23
100
AcDbEntity
 67
     1
  8
0
  6
Continuous
 62
     7
370
    25
100
AcDbSpline
210
0.0
220
0.0
230
1.0
 70
     8
 71
     3
 72
     9
 73
     5
 74
     0
 42
0.000000001
 43
0.00000001
 40
0.0
 40
0.0
 40
0.0
 40
0.0
 40
0.5037391407491965
 40
1.0
 40
1.0
 40
1.0
 40
1.0
 10
-9.688097879378262
 20
989.7435629264401
 30
0.0
 10
-9.688075318568766
 20
989.6813700264837
 30
0.0
 10
-9.688030531877251
 20
989.5579075139938
 30
0.0
 10
-9.68807482220723
 20
989.4343723696475
 30
0.0
 10
-9.68809680176444
 20
989.3730667127662
 30
0.0
  0
SPLINE
  5
23C
330
23
100
AcDbEntity
 67
     1
  8
0
  6
Continuous
 62
     7
370
    25
100
AcDbSpline
210
0.0
220
0.0
230
1.0
 70
     8
 71
     3
 72
    16
 73
    12
 74
     0
 42
0.000000001
 43
0.00000001
 40
0.0
 40
0.0
 40
0.0
 40
0.0
 40
0.0923666557654103
 40
0.2181826111948787
 40
0.3453487882479577
 40
0.4700311079700453
 40
0.5974727818706652
 40
0.7225318903014366
 40
0.8491564277318356
 40
0.9757765838703502
 40
1.0
 40
1.0
 40
1.0
 40
1.0
 10
-8.277637695096402
 20
980.5
 30
0.0
 10
-7.82989505973947
 20
980.5187544314844
 30
0.0
 10
-6.772266021252242
 20
980.5630549509606
 30
0.0
 10
-4.349016800200562
 20
980.6333328740409
 30
0.0
 10
-1.290489260649081
 20
980.7147395452346
 30
0.0
 10
1.931497297431249
 20
980.7883086659951
 30
0.0
 10
4.924646735943816
 20
980.8707467160195
 30
0.0
 10
7.430961999697079
 20
980.9454919547186
 30
0.0
 10
9.0572482182326
 20
981.0250555970107
 30
0.0
 10
9.786236820437344
 20
981.0833940707649
 30
0.0
 10
9.63336415179735
 20
981.113934238619
 30
0.0
 10
9.608814890522012
 20
981.1188385721842
 30
0.0
  0
SPLINE
  5
23D
330
23
100
AcDbEntity
 67
     1
  8
0
  6
Continuous
 62
     7
370
    25
100
AcDbSpline
210
0.0
220
0.0
230
1.0
 70
     8
 71
     3
 72
    19
 73
    15
 74
     0
 42
0.000000001
 43
0.00000001
 40
0.0
 40
0.0
 40
0.0
 40
0.0
 40
0.0038062966583205
 40
0.1101739265269664
 40
0.1599860480728851
 40
0.2375753473376405
 40
0.3432625321469648
 40
0.4500839222467148
 40
0.5548188370032986
 40
0.6618716483575394
 40
0.7669230709668261
 40
0.8732894761109175
 40
0.9796522009077626
 40
1.0
 40
1.0
 40
1.0
 40
1.0
 10
-9.656890823412791
 20
981.880775984308
 30
0.0
 10
-9.660778852460888
 20
981.881694832426
 30
0.0
 10
-9.773318537391516
 20
981.9082910528762
 30
0.0
 10
-9.206528600634867
 20
981.9482638740324
 30
0.0
 10
-8.194883671929185
 20
982.0072945803311
 30
0.0
 10
-6.7379442032422
 20
982.062798023957
 30
0.0
 10
-4.359506442742457
 20
982.1334113976354
 30
0.0
 10
-1.287729123517812
 20
982.2147188833303
 30
0.0
 10
1.930745341253525
 20
982.2883142950408
 30
0.0
 10
4.924845805785772
 20
982.3707452256815
 30
0.0
 10
7.430908232853295
 20
982.4454923577088
 30
0.0
 10
9.057263132292373
 20
982.5250554834698
 30
0.0
 10
9.786236076968327
 20
982.583394022525
 30
0.0
 10
9.633364400567679
 20
982.6139341358312
 30
0.0
 10
9.608815514943807
 20
982.6188384174233
 30
0.0
  0
SPLINE
  5
23E
330
23
100
AcDbEntity
 67
     1
  8
0
  6
Continuous
 62
     7
370
    25
100
AcDbSpline
210
0.0
220
0.0
230
1.0
 70
     8
 71
     3
 72
    19
 73
    15
 74
     0
 42
0.000000001
 43
0.00000001
 40
0.0
 40
0.0
 40
0.0
 40
0.0
 40
0.0037669340451281
 40
0.1101129406070165
 40
0.1599149359257573
 40
0.237488462184936
 40
0.3431541620140997
 40
0.4499538365628947
 40
0.5546674599247864
 40
0.6616985086828123
 40
0.7667285755550276
 40
0.8730733576413338
 40
0.9794144601285657
 40
1.0
 40
1.0
 40
1.0
 40
1.0
 10
-9.65700301369966
 20
983.3808039475399
 30
0.0
 10
-9.660849691929672
 20
983.3817134819008
 30
0.0
 10
-9.773293670614029
 20
983.4083004892242
 30
0.0
 10
-9.206506296869376
 20
983.4482639153243
 30
0.0
 10
-8.194890334981517
 20
983.5072945679934
 30
0.0
 10
-6.737941198066901
 20
983.5627980295376
 30
0.0
 10
-4.359507652553864
 20
983.6334113953062
 30
0.0
 10
-1.287727740187351
 20
983.7147188862225
 30
0.0
 10
1.93074105679842
 20
983.7883142858907
 30
0.0
 10
4.924861841904829
 20
983.8707452599933
 30
0.0
 10
7.43084941801336
 20
983.9454922318497
 30
0.0
 10
9.0574858039808
 20
984.0250559599738
 30
0.0
 10
9.786445195191918
 20
984.0834534043843
 30
0.0
 10
9.632995444119068
 20
984.114051215005
 30
0.0
 10
9.608108265901231
 20
984.1190137070305
 30
0.0
  0
SPLINE
  5
23F
330
23
100
AcDbEntity
 67
     1
  8
0
  6
Continuous
 62
     7
370
    25
100
AcDbSpline
210
0.0
220
0.0
230
1.0
 70
     8
 71
     3
 72
    19
 73
    15
 74
     0
 42
0.000000001
 43
0.00000001
 40
0.0
 40
0.0
 40
0.0
 40
0.0
 40
0.0037280097368364
 40
0.1100687076796203
 40
0.1598682169640252
 40
0.2374378708793631
 40
0.3430982960492241
 40
0.4498926393325491
 40
0.5546010355612417
 40
0.6616267415039747
 40
0.7666515654466473
 40
0.8729910389749728
 40
0.9793268330879037
 40
1.0
 40
1.0
 40
1.0
 40
1.0
 10
-9.657115638241017
 20
984.8808320190091
 30
0.0
 10
-9.660920843652548
 20
984.8817322034915
 30
0.0
 10
-9.773268737480349
 20
984.9083099620407
 30
0.0
 10
-9.20648389056071
 20
984.9482639568059
 30
0.0
 10
-8.194897024264534
 20
985.0072945556091
 30
0.0
 10
-6.737938216717622
 20
985.062798035063
 30
0.0
 10
-4.359508670212543
 20
985.1334113933893
 30
0.0
 10
-1.287727083186668
 20
985.2147188875597
 30
0.0
 10
1.930739449697471
 20
985.2883142824703
 30
0.0
 10
4.924867713567918
 20
985.3707452725534
 30
0.0
 10
7.430827919927557
 20
985.4454921858464
 30
0.0
 10
9.057567184910159
 20
985.5250561341238
 30
0.0
 10
9.786522035116894
 20
985.5834751709522
 30
0.0
 10
9.632860427821928
 20
985.6140941303487
 30
0.0
 10
9.607849026815632
 20
985.6190779586799
 30
0.0
  0
SPLINE
  5
240
330
23
100
AcDbEntity
 67
     1
  8
0
  6
Continuous
 62
     7
370
    25
100
AcDbSpline
210
0.0
220
0.0
230
1.0
 70
     8
 71
     3
 72
    19
 73
    15
 74
     0
 42
0.000000001
 43
0.00000001
 40
0.0
 40
0.0
 40
0.0
 40
0.0
 40
0.0036889398481429
 40
0.110024376132275
 40
0.1598214213739951
 40
0.2373872372005435
 40
0.3430424343711437
 40
0.4498314935497828
 40
0.5545347088848986
 40
0.6615551192752934
 40
0.7665747466677812
 40
0.8729089585980381
 40
0.979239491294955
 40
1.0
 40
1.0
 40
1.0
 40
1.0
 10
-9.65722870205623
 20
986.3808601999664
 30
0.0
 10
-9.660992311293763
 20
986.3817509980319
 30
0.0
 10
-9.773243737289054
 20
986.4083194717451
 30
0.0
 10
-9.20646137774962
 20
986.4482639984852
 30
0.0
 10
-8.194903745319253
 20
986.5072945431651
 30
0.0
 10
-6.737935221402598
 20
986.5627980406143
 30
0.0
 10
-4.359509691630022
 20
986.6334113914661
 30
0.0
 10
-1.287726427059339
 20
986.7147188888948
 30
0.0
 10
1.93073784966785
 20
986.788314279065
 30
0.0
 10
4.924873557299318
 20
986.8707452850532
 30
0.0
 10
7.430806524664137
 20
986.9454921400638
 30
0.0
 10
9.05764817645059
 20
987.0250563074399
 30
0.0
 10
9.786598727819765
 20
987.0834968676202
 30
0.0
 10
9.632725965110618
 20
987.1141369077047
 30
0.0
 10
9.607590622804398
 20
987.1191420033583
 30
0.0
  0
SPLINE
  5
241
330
23
100
AcDbEntity
 67
     1
  8
0
  6
Continuous
 62
     7
370
    25
100
AcDbSpline
210
0.0
220
0.0
230
1.0
 70
     8
 71
     3
 72
    19
 73
    15
 74
     0
 42
0.000000001
 43
0.00000001
 40
0.0
 40
0.0
 40
0.0
 40
0.0
 40
0.003649722609208
 40
0.1099799442720239
 40
0.1597745474987141
 40
0.2373365595476062
 40
0.3429865754553782
 40
0.4497703977673264
 40
0.5544684785241902
 40
0.6614836407025797
 40
0.7664981180001719
 40
0.872827115369154
 40
0.9791524336852235
 40
1.0
 40
1.0
 40
1.0
 40
1.0
 10
-9.657342210214658
 20
987.8808884916757
 30
0.0
 10
-9.661064098558194
 20
987.8817698663634
 30
0.0
 10
-9.773218669312806
 20
987.9083290187765
 30
0.0
 10
-9.206438757177471
 20
987.9482640403623
 30
0.0
 10
-8.19491049852137
 20
988.0072945306619
 30
0.0
 10
-6.737932211954959
 20
988.0627980461919
 30
0.0
 10
-4.35951071686036
 20
988.1334113895359
 30
0.0
 10
-1.287725771779935
 20
988.2147188902277
 30
0.0
 10
1.930736256661528
 20
988.288314275675
 30
0.0
 10
4.924879373268496
 20
988.3707452974942
 30
0.0
 10
7.4307852316042
 20
988.4454920944987
 30
0.0
 10
9.057728780944501
 20
988.525056479929
 30
0.0
 10
9.786675272869676
 20
988.5835184946013
 30
0.0
 10
9.632592053207283
 20
988.6141795475017
 30
0.0
 10
9.607333051264922
 20
988.6192058417113
 30
0.0
  0
SPLINE
  5
242
330
23
100
AcDbEntity
 67
     1
  8
0
  6
Continuous
 62
     7
370
    25
100
AcDbSpline
210
0.0
220
0.0
230
1.0
 70
     8
 71
     3
 72
    12
 73
     8
 74
     0
 42
0.000000001
 43
0.00000001
 40
0.0
 40
0.0
 40
0.0
 40
0.0
 40
0.0118397838908314
 40
0.3605216264247545
 40
0.5238098593448944
 40
0.7781539663063829
 40
1.0
 40
1.0
 40
1.0
 40
1.0
 10
-9.657456167836289
 20
989.3809168954127
 30
0.0
 10
-9.661135745465767
 20
989.3817888106128
 30
0.0
 10
-9.77317894859904
 20
989.4083386436937
 30
0.0
 10
-9.20825506319902
 20
989.4482590196382
 30
0.0
 10
-8.191416546125172
 20
989.5073041555155
 30
0.0
 10
-6.996284638550253
 20
989.5536895132748
 30
0.0
 10
-5.804988368701014
 20
989.589051792031
 30
0.0
 10
-5.249990837554164
 20
989.605526264337
 30
0.0
  0
SPLINE
  5
243
330
23
100
AcDbEntity
 67
     1
  8
0
  6
Continuous
 62
     7
370
    25
100
AcDbSpline
210
0.0
220
0.0
230
1.0
 70
     8
 71
     3
 72
    10
 73
     6
 74
     0
 42
0.000000001
 43
0.00000001
 40
0.0
 40
0.0
 40
0.0
 40
0.0
 40
0.3500575015541394
 40
0.8448911761138426
 40
1.0
 40
1.0
 40
1.0
 40
1.0
 10
8.518944034811232
 20
980.4999999999999
 30
0.0
 10
8.93904411008277
 20
980.5187560858278
 30
0.0
 10
9.952988519518003
 20
980.5640253668577
 30
0.0
 10
10.61770466160584
 20
980.6178413041009
 30
0.0
 10
10.42007075164615
 20
980.6514752736202
 30
0.0
 10
10.37290540485444
 20
980.6595020228593
 30
0.0
  0
SPLINE
  5
244
330
23
100
AcDbEntity
 67
     1
  8
0
  6
Continuous
 62
     7
370
    25
100
AcDbSpline
210
0.0
220
0.0
230
1.0
 70
     8
 71
     3
 72
    19
 73
    15
 74
     0
 42
0.000000001
 43
0.00000001
 40
0.0
 40
0.0
 40
0.0
 40
0.0
 40
0.0201889993139567
 40
0.1234547802191172
 40
0.2267146072031004
 40
0.3287067857752123
 40
0.4326366733419822
 40
0.534316312444752
 40
0.6380254165808436
 40
0.7406241398321459
 40
0.7912767406647563
 40
0.8643261236098848
 40
0.9675871433754231
 40
1.0
 40
1.0
 40
1.0
 40
1.0
 10
-10.41265289328493
 20
981.3997174247411
 30
0.0
 10
-10.43981270438496
 20
981.4047288740132
 30
0.0
 10
-10.60589367045985
 20
981.4353736503513
 30
0.0
 10
-9.814446984644974
 20
981.4938386927355
 30
0.0
 10
-8.04954599730024
 20
981.5733825460524
 30
0.0
 10
-5.332371590370831
 20
981.6481465073867
 30
0.0
 10
-2.086674668758403
 20
981.7305653100236
 30
0.0
 10
1.401887886505363
 20
981.8041853776513
 30
0.0
 10
4.729243752295679
 20
981.8853913016745
 30
0.0
 10
7.0840161712095
 20
981.9501513494367
 30
0.0
 10
8.72172305317146
 20
982.005043888305
 30
0.0
 10
9.918888280521381
 20
982.0643513948596
 30
0.0
 10
10.62030780292237
 20
982.1178282944389
 30
0.0
 10
10.420494433302
 20
982.1514930267348
 30
0.0
 10
10.372758477984
 20
982.1595356224815
 30
0.0
  0
SPLINE
  5
245
330
23
100
AcDbEntity
 67
     1
  8
0
  6
Continuous
 62
     7
370
    25
100
AcDbSpline
210
0.0
220
0.0
230
1.0
 70
     8
 71
     3
 72
    19
 73
    15
 74
     0
 42
0.000000001
 43
0.00000001
 40
0.0
 40
0.0
 40
0.0
 40
0.0
 40
0.0201880894688926
 40
0.1234492165593895
 40
0.2267043899970306
 40
0.3286919721511224
 40
0.4326171759743472
 40
0.5342922327441184
 40
0.6379966630865743
 40
0.740590762585085
 40
0.7912410806884658
 40
0.8642871715625274
 40
0.9675435377279693
 40
1.0
 40
1.0
 40
1.0
 40
1.0
 10
-10.41265289328493
 20
982.899717424741
 30
0.0
 10
-10.43981270439008
 20
982.904728874013
 30
0.0
 10
-10.60589367049629
 20
982.9353736503509
 30
0.0
 10
-9.814446983683993
 20
982.9938386927373
 30
0.0
 10
-8.049546000724009
 20
983.0733825460468
 30
0.0
 10
-5.332371577704425
 20
983.1481465074074
 30
0.0
 10
-2.086674716597882
 20
983.2305653099437
 30
0.0
 10
1.40188806210771
 20
983.3041853779445
 30
0.0
 10
4.729243084933193
 20
983.3853913005587
 30
0.0
 10
7.084018104872351
 20
983.4501513526692
 30
0.0
 10
8.7217191744576
 20
983.5050438818212
 30
0.0
 10
9.91891472159142
 20
983.5643514390614
 30
0.0
 10
10.62035904097585
 20
983.6178396738667
 30
0.0
 10
10.42042637965395
 20
983.6515155005164
 30
0.0
 10
10.37261139448376
 20
983.6595692579223
 30
0.0
  0
SPLINE
  5
246
330
23
100
AcDbEntity
 67
     1
  8
0
  6
Continuous
 62
     7
370
    25
100
AcDbSpline
210
0.0
220
0.0
230
1.0
 70
     8
 71
     3
 72
    19
 73
    15
 74
     0
 42
0.000000001
 43
0.00000001
 40
0.0
 40
0.0
 40
0.0
 40
0.0
 40
0.0201871787527749
 40
0.1234436475732188
 40
0.2266941630093855
 40
0.3286771443450172
 40
0.4325976599406547
 40
0.5342681299904721
 40
0.6379678820647757
 40
0.7405573533838857
 40
0.7912053865726363
 40
0.8642481822239244
 40
0.967499890334086
 40
1.0
 40
1.0
 40
1.0
 40
1.0
 10
-10.41265289328493
 20
984.399717424741
 30
0.0
 10
-10.43981270439521
 20
984.4047288740131
 30
0.0
 10
-10.60589367053275
 20
984.4353736503522
 30
0.0
 10
-9.814446982722727
 20
984.4938386927386
 30
0.0
 10
-8.049546004148784
 20
984.573382546041
 30
0.0
 10
-5.33237156503431
 20
984.6481465074289
 30
0.0
 10
-2.086674764451367
 20
984.7305653098636
 30
0.0
 10
1.401888237761485
 20
984.8041853782382
 30
0.0
 10
4.729242417375237
 20
984.885391299443
 30
0.0
 10
7.084020039101592
 20
984.9501513559027
 30
0.0
 10
8.721715294607609
 20
985.0050438753353
 30
0.0
 10
9.918941170406466
 20
985.064351483275
 30
0.0
 10
10.62041035359243
 20
985.1178510652519
 30
0.0
 10
10.42035828034597
 20
985.151537997885
 30
0.0
 10
10.37246415689395
 20
985.1596029286007
 30
0.0
  0
SPLINE
  5
247
330
23
100
AcDbEntity
 67
     1
  8
0
  6
Continuous
 62
     7
370
    25
100
AcDbSpline
210
0.0
220
0.0
230
1.0
 70
     8
 71
     3
 72
    19
 73
    15
 74
     0
 42
0.000000001
 43
0.00000001
 40
0.0
 40
0.0
 40
0.0
 40
0.0
 40
0.0201862671815864
 40
0.1234380733583138
 40
0.2266839264195948
 40
0.3286623026170444
 40
0.4325781255833039
 40
0.5342440046066825
 40
0.6379390740203943
 40
0.7405239128146921
 40
0.7911696589434998
 40
0.8642091562781201
 40
0.9674562019595396
 40
1.0
 40
1.0
 40
1.0
 40
1.0
 10
-10.41265289328493
 20
985.8997174247411
 30
0.0
 10
-10.43981270440033
 20
985.9047288740131
 30
0.0
 10
-10.60589367056919
 20
985.9353736503514
 30
0.0
 10
-9.814446981761204
 20
985.9938386927399
 30
0.0
 10
-8.049546007574492
 20
986.0733825460352
 30
0.0
 10
-5.332371552360722
 20
986.1481465074501
 30
0.0
 10
-2.086674812317973
 20
986.2305653097837
 30
0.0
 10
1.401888413463406
 20
986.3041853785317
 30
0.0
 10
4.729241749634318
 20
986.385391298327
 30
0.0
 10
7.084021973860936
 20
986.4501513591368
 30
0.0
 10
8.721711413694301
 20
986.5050438688476
 30
0.0
 10
9.918967626470064
 20
986.5643515275021
 30
0.0
 10
10.620461739927
 20
986.6178624683952
 30
0.0
 10
10.42029013660535
 20
986.6515605184525
 30
0.0
 10
10.3723167677582
 20
986.6596366339351
 30
0.0
  0
SPLINE
  5
248
330
23
100
AcDbEntity
 67
     1
  8
0
  6
Continuous
 62
     7
370
    25
100
AcDbSpline
210
0.0
220
0.0
230
1.0
 70
     8
 71
     3
 72
    19
 73
    15
 74
     0
 42
0.000000001
 43
0.00000001
 40
0.0
 40
0.0
 40
0.0
 40
0.0
 40
0.0201853547713156
 40
0.1234324940124676
 40
0.2266736804072513
 40
0.3286474472275924
 40
0.4325585732450139
 40
0.5342198570160169
 40
0.6379102394588527
 40
0.7404904414642033
 40
0.7911338984278804
 40
0.8641700944098063
 40
0.9674124733708227
 40
1.0
 40
1.0
 40
1.0
 40
1.0
 10
-10.41265289328493
 20
987.399717424741
 30
0.0
 10
-10.43981270440545
 20
987.404728874013
 30
0.0
 10
-10.60589367060565
 20
987.4353736503512
 30
0.0
 10
-9.814446980799438
 20
987.493838692742
 30
0.0
 10
-8.049546011001073
 20
987.5733825460293
 30
0.0
 10
-5.3323715396839
 20
987.6481465074713
 30
0.0
 10
-2.086674860196792
 20
987.7305653097033
 30
0.0
 10
1.401888589210174
 20
987.804185378826
 30
0.0
 10
4.729241081722964
 20
987.8853912972103
 30
0.0
 10
7.084023909114126
 20
987.9501513623724
 30
0.0
 10
8.721707531790393
 20
988.0050438623574
 30
0.0
 10
9.91899408928656
 20
988.0643515717401
 30
0.0
 10
10.62051319913188
 20
988.1178738831023
 30
0.0
 10
10.42022194965906
 20
988.1515830618288
 30
0.0
 10
10.37216922962346
 20
988.1596703733428
 30
0.0
  0
SPLINE
  5
249
330
23
100
AcDbEntity
 67
     1
  8
0
  6
Continuous
 62
     7
370
    25
100
AcDbSpline
210
0.0
220
0.0
230
1.0
 70
     8
 71
     3
 72
    11
 73
     7
 74
     0
 42
0.000000001
 43
0.00000001
 40
0.0
 40
0.0
 40
0.0
 40
0.0
 40
0.0613533300582426
 40
0.3751727245250397
 40
0.6889740253317472
 40
0.9999999999999999
 40
0.9999999999999999
 40
0.9999999999999999
 40
0.9999999999999999
 10
-10.41265289328493
 20
988.8997174247411
 30
0.0
 10
-10.43984899670772
 20
988.9047283300638
 30
0.0
 10
-10.60615188862745
 20
988.935369780177
 30
0.0
 10
-9.807636328803312
 20
988.9939407708657
 30
0.0
 10
-8.071819310575622
 20
989.0731097001175
 30
0.0
 10
-6.18780561265488
 20
989.1239612413249
 30
0.0
 10
-5.249982921994151
 20
989.1492740770287
 30
0.0
  0
SPLINE
  5
24A
330
23
100
AcDbEntity
 67
     1
  8
0
  6
Continuous
 62
     7
370
    25
100
AcDbSpline
210
0.0
220
0.0
230
1.0
 70
    24
 71
     3
 72
    32
 73
    28
 74
     0
 42
0.000000001
 43
0.00000001
 40
0.0
 40
0.0
 40
0.0
 40
0.0
 40
0.0624999999999992
 40
0.0624999999999992
 40
0.1249999999999984
 40
0.1249999999999984
 40
0.2499999999999969
 40
0.2499999999999969
 40
0.3124999999999979
 40
0.3124999999999979
 40
0.3749999999999989
 40
0.3749999999999989
 40
0.4374999999999999
 40
0.4374999999999999
 40
0.5000000000000009
 40
0.5000000000000009
 40
0.6250000000000029
 40
0.6250000000000029
 40
0.7500000000000048
 40
0.7500000000000048
 40
0.8125000000000037
 40
0.8125000000000037
 40
0.8750000000000024
 40
0.8750000000000024
 40
0.9375000000000013
 40
0.9375000000000013
 40
1.0
 40
1.0
 40
1.0
 40
1.0
 10
8.518944034809106
 20
980.4999999999999
 30
0.0
 10
8.261255598299854
 20
980.5000000000001
 30
0.0
 10
7.985556474386446
 20
980.5000000000001
 30
0.0
 10
7.398594557387889
 20
980.5
 30
0.0
 10
7.085568714542283
 20
980.5000000000002
 30
0.0
 10
6.107571742746225
 20
980.5
 30
0.0
 10
5.403400948694858
 20
980.5
 30
0.0
 10
4.268828233538025
 20
980.4999999999998
 30
0.0
 10
3.876448611469578
 20
980.5000000000001
 30
0.0
 10
3.086232739479049
 20
980.5000000000002
 30
0.0
 10
2.685872195613111
 20
980.5000000000009
 30
0.0
 10
1.874774759327133
 20
980.5000000000007
 30
0.0
 10
1.464038600805894
 20
980.4999999999998
 30
0.0
 10
0.6318585318568631
 20
980.4999999999997
 30
0.0
 10
0.2138180445510549
 20
980.4999999999999
 30
0.0
 10
-1.02367853580999
 20
980.5000000000001
 30
0.0
 10
-1.836779867031246
 20
980.4999999999998
 30
0.0
 10
-3.430421568171901
 20
980.5
 30
0.0
 10
-4.179168131124733
 20
980.5000000000001
 30
0.0
 10
-5.232339459565812
 20
980.4999999999998
 30
0.0
 10
-5.573879685666077
 20
980.4999999999995
 30
0.0
 10
-6.218653308030148
 20
980.4999999999995
 30
0.0
 10
-6.521972357559899
 20
980.5
 30
0.0
 10
-7.091436349566157
 20
980.4999999999998
 30
0.0
 10
-7.35726246001532
 20
980.5
 30
0.0
 10
-7.849337886235396
 20
980.4999999999999
 30
0.0
 10
-8.075759296567897
 20
980.4999999999998
 30
0.0
 10
-8.277637695099427
 20
980.4999999999998
 30
0.0
  0
SPLINE
  5
24B
330
23
100
AcDbEntity
 67
     1
  8
0
  6
Continuous
 62
     7
370
    25
100
AcDbSpline
210
0.0
220
0.0
230
1.0
 70
     8
 71
     3
 72
    18
 73
    14
 74
     0
 42
0.000000001
 43
0.00000001
 40
0.0
 40
0.0
 40
0.0
 40
0.0
 40
0.0410625103666801
 40
0.1460797719706051
 40
0.2499774149180936
 40
0.3538783897314874
 40
0.4588941920941037
 40
0.5618591625516713
 40
0.6671024309593964
 40
0.770378503553866
 40
0.8749470951055729
 40
0.9641286104722667
 40
1.0
 40
1.0
 40
1.0
 40
1.0
 10
-10.36861592892347
 20
981.2123578980356
 30
0.0
 10
-10.40128986184158
 20
981.2223084170448
 30
0.0
 10
-10.5175272917366
 20
981.2577073620894
 30
0.0
 10
-9.54547620142476
 20
981.3230070977914
 30
0.0
 10
-7.568072733698094
 20
981.4000271881094
 30
0.0
 10
-4.720590926107445
 20
981.4770753054554
 30
0.0
 10
-1.396649688653103
 20
981.5584908035131
 30
0.0
 10
2.092415210059662
 20
981.632061455604
 30
0.0
 10
5.33912841343131
 20
981.7144834073449
 30
0.0
 10
8.047657338758375
 20
981.7892919146107
 30
0.0
 10
9.750820104027987
 20
981.8647097290581
 30
0.0
 10
10.50822288695034
 20
981.9237688222165
 30
0.0
 10
10.42798610344699
 20
981.9539438645526
 30
0.0
 10
10.40497020535225
 20
981.9625995667019
 30
0.0
  0
SPLINE
  5
24C
330
23
100
AcDbEntity
 67
     1
  8
0
  6
Continuous
 62
     7
370
    25
100
AcDbSpline
210
0.0
220
0.0
230
1.0
 70
     8
 71
     3
 72
    18
 73
    14
 74
     0
 42
0.000000001
 43
0.00000001
 40
0.0
 40
0.0
 40
0.0
 40
0.0
 40
0.04106251036668
 40
0.1460797719706053
 40
0.2499774149180939
 40
0.3538783897314879
 40
0.4588941920941044
 40
0.5618591625516722
 40
0.6671024309593974
 40
0.7703785035538672
 40
0.8749470951055741
 40
0.9641286104722683
 40
1.0
 40
1.0
 40
1.0
 40
1.0
 10
-10.36861592892347
 20
982.7123578980356
 30
0.0
 10
-10.40128986184158
 20
982.7223084170449
 30
0.0
 10
-10.5175272917366
 20
982.7577073620889
 30
0.0
 10
-9.545476201424757
 20
982.8230070977916
 30
0.0
 10
-7.568072733698094
 20
982.9000271881094
 30
0.0
 10
-4.720590926107437
 20
982.977075305455
 30
0.0
 10
-1.396649688653103
 20
983.0584908035129
 30
0.0
 10
2.092415210059661
 20
983.1320614556046
 30
0.0
 10
5.33912841343131
 20
983.2144834073446
 30
0.0
 10
8.047657338758375
 20
983.2892919146108
 30
0.0
 10
9.750820104027985
 20
983.364709729058
 30
0.0
 10
10.50822288695034
 20
983.4237688222165
 30
0.0
 10
10.42798610344699
 20
983.4539438645527
 30
0.0
 10
10.40497020535225
 20
983.4625995667019
 30
0.0
  0
SPLINE
  5
24D
330
23
100
AcDbEntity
 67
     1
  8
0
  6
Continuous
 62
     7
370
    25
100
AcDbSpline
210
0.0
220
0.0
230
1.0
 70
     8
 71
     3
 72
    18
 73
    14
 74
     0
 42
0.000000001
 43
0.00000001
 40
0.0
 40
0.0
 40
0.0
 40
0.0
 40
0.0410625103666784
 40
0.1460797719706038
 40
0.2499774149180926
 40
0.3538783897314868
 40
0.4588941920941034
 40
0.5618591625516715
 40
0.6671024309593968
 40
0.7703785035538667
 40
0.8749470951055739
 40
0.9641286104722682
 40
1.0
 40
1.0
 40
1.0
 40
1.0
 10
-10.36861592892348
 20
984.2123578980359
 30
0.0
 10
-10.40128986184158
 20
984.2223084170452
 30
0.0
 10
-10.5175272917366
 20
984.257707362089
 30
0.0
 10
-9.545476201424757
 20
984.3230070977912
 30
0.0
 10
-7.568072733698091
 20
984.4000271881091
 30
0.0
 10
-4.720590926107445
 20
984.4770753054556
 30
0.0
 10
-1.396649688653103
 20
984.5584908035129
 30
0.0
 10
2.092415210059662
 20
984.6320614556045
 30
0.0
 10
5.339128413431308
 20
984.7144834073447
 30
0.0
 10
8.047657338758375
 20
984.7892919146107
 30
0.0
 10
9.750820104027989
 20
984.8647097290585
 30
0.0
 10
10.50822288695034
 20
984.9237688222164
 30
0.0
 10
10.42798610344699
 20
984.9539438645528
 30
0.0
 10
10.40497020535225
 20
984.9625995667019
 30
0.0
  0
SPLINE
  5
24E
330
23
100
AcDbEntity
 67
     1
  8
0
  6
Continuous
 62
     7
370
    25
100
AcDbSpline
210
0.0
220
0.0
230
1.0
 70
     8
 71
     3
 72
    18
 73
    14
 74
     0
 42
0.000000001
 43
0.00000001
 40
0.0
 40
0.0
 40
0.0
 40
0.0
 40
0.04106251036668
 40
0.1460797719706053
 40
0.2499774149180939
 40
0.3538783897314879
 40
0.4588941920941044
 40
0.5618591625516722
 40
0.6671024309593974
 40
0.7703785035538672
 40
0.8749470951055741
 40
0.9641286104722683
 40
1.0
 40
1.0
 40
1.0
 40
1.0
 10
-10.36861592892347
 20
985.7123578980356
 30
0.0
 10
-10.40128986184158
 20
985.7223084170449
 30
0.0
 10
-10.5175272917366
 20
985.757707362089
 30
0.0
 10
-9.545476201424757
 20
985.8230070977913
 30
0.0
 10
-7.568072733698094
 20
985.9000271881096
 30
0.0
 10
-4.720590926107437
 20
985.9770753054548
 30
0.0
 10
-1.396649688653103
 20
986.0584908035129
 30
0.0
 10
2.092415210059661
 20
986.1320614556046
 30
0.0
 10
5.33912841343131
 20
986.2144834073446
 30
0.0
 10
8.047657338758375
 20
986.2892919146108
 30
0.0
 10
9.750820104027985
 20
986.364709729058
 30
0.0
 10
10.50822288695034
 20
986.4237688222163
 30
0.0
 10
10.42798610344699
 20
986.4539438645527
 30
0.0
 10
10.40497020535225
 20
986.4625995667018
 30
0.0
  0
SPLINE
  5
24F
330
23
100
AcDbEntity
 67
     1
  8
0
  6
Continuous
 62
     7
370
    25
100
AcDbSpline
210
0.0
220
0.0
230
1.0
 70
     8
 71
     3
 72
    18
 73
    14
 74
     0
 42
0.000000001
 43
0.00000001
 40
0.0
 40
0.0
 40
0.0
 40
0.0
 40
0.0410625103666785
 40
0.1460797719706039
 40
0.2499774149180927
 40
0.3538783897314869
 40
0.4588941920941035
 40
0.5618591625516716
 40
0.6671024309593968
 40
0.7703785035538668
 40
0.874947095105574
 40
0.9641286104722682
 40
1.0
 40
1.0
 40
1.0
 40
1.0
 10
-10.36861592892348
 20
987.2123578980356
 30
0.0
 10
-10.40128986184158
 20
987.2223084170449
 30
0.0
 10
-10.5175272917366
 20
987.2577073620888
 30
0.0
 10
-9.545476201424757
 20
987.3230070977914
 30
0.0
 10
-7.568072733698098
 20
987.4000271881096
 30
0.0
 10
-4.720590926107441
 20
987.4770753054551
 30
0.0
 10
-1.3966496886531
 20
987.5584908035131
 30
0.0
 10
2.092415210059659
 20
987.6320614556045
 30
0.0
 10
5.339128413431312
 20
987.7144834073449
 30
0.0
 10
8.047657338758373
 20
987.7892919146107
 30
0.0
 10
9.75082010402799
 20
987.8647097290584
 30
0.0
 10
10.50822288695034
 20
987.9237688222165
 30
0.0
 10
10.42798610344699
 20
987.9539438645527
 30
0.0
 10
10.40497020535225
 20
987.9625995667019
 30
0.0
  0
SPLINE
  5
250
330
23
100
AcDbEntity
 67
     1
  8
0
  6
Continuous
 62
     7
370
    25
100
AcDbSpline
210
0.0
220
0.0
230
1.0
 70
     8
 71
     3
 72
    18
 73
    14
 74
     0
 42
0.000000001
 43
0.00000001
 40
0.0
 40
0.0
 40
0.0
 40
0.0
 40
0.0410625103666801
 40
0.1460797719706053
 40
0.249977414918094
 40
0.353878389731488
 40
0.4588941920941044
 40
0.5618591625516723
 40
0.6671024309593975
 40
0.7703785035538673
 40
0.8749470951055742
 40
0.9641286104722683
 40
1.0
 40
1.0
 40
1.0
 40
1.0
 10
-10.36861592892348
 20
988.7123578980356
 30
0.0
 10
-10.40128986184158
 20
988.7223084170449
 30
0.0
 10
-10.51752729173661
 20
988.7577073620894
 30
0.0
 10
-9.545476201424757
 20
988.8230070977911
 30
0.0
 10
-7.568072733698094
 20
988.9000271881094
 30
0.0
 10
-4.720590926107441
 20
988.9770753054551
 30
0.0
 10
-1.3966496886531
 20
989.0584908035135
 30
0.0
 10
2.092415210059659
 20
989.1320614556043
 30
0.0
 10
5.339128413431312
 20
989.2144834073447
 30
0.0
 10
8.047657338758373
 20
989.2892919146108
 30
0.0
 10
9.75082010402799
 20
989.3647097290584
 30
0.0
 10
10.50822288695034
 20
989.4237688222167
 30
0.0
 10
10.42798610344699
 20
989.4539438645525
 30
0.0
 10
10.40497020535225
 20
989.4625995667019
 30
0.0
  0
SPLINE
  5
251
330
23
100
AcDbEntity
 67
     1
  8
0
  6
Continuous
 62
     7
370
    25
100
AcDbSpline
210
0.0
220
0.0
230
1.0
 70
     8
 71
     3
 72
    11
 73
     7
 74
     0
 42
0.000000001
 43
0.00000001
 40
0.0
 40
0.0
 40
0.0
 40
0.0
 40
0.1231650762997101
 40
0.4381594330190611
 40
0.7497955460261987
 40
1.0
 40
1.0
 40
1.0
 40
1.0
 10
-10.36861592892347
 20
990.2123578980357
 30
0.0
 10
-10.40139962204593
 20
990.222308206577
 30
0.0
 10
-10.51802752357745
 20
990.2577064028823
 30
0.0
 10
-9.539513367652539
 20
990.3230185316692
 30
0.0
 10
-7.717219379576905
 20
990.3949459443018
 30
0.0
 10
-6.010180892315656
 20
990.4411831782246
 30
0.0
 10
-5.249985460162119
 20
990.4617740051366
 30
0.0
  0
SPLINE
  5
252
330
23
100
AcDbEntity
 67
     1
  8
0
  6
Continuous
 62
     7
370
    25
100
AcDbSpline
210
0.0
220
0.0
230
1.0
 70
     8
 71
     3
 72
    17
 73
    13
 74
     0
 42
0.000000001
 43
0.00000001
 40
0.0
 40
0.0
 40
0.0
 40
0.0
 40
0.0428510062288161
 40
0.1517424863039278
 40
0.259472828152482
 40
0.3672066254109199
 40
0.4760965921245873
 40
0.5828596790393684
 40
0.6919855482202315
 40
0.7990712724503465
 40
0.9074974430158412
 40
1.0
 40
1.0
 40
1.0
 40
1.0
 10
-9.566615419529176
 20
980.7434145290124
 30
0.0
 10
-9.597030433410245
 20
980.7534287218306
 30
0.0
 10
-9.704735018050272
 20
980.7888906316042
 30
0.0
 10
-8.807569028420076
 20
980.8542561778386
 30
0.0
 10
-6.982799088833688
 20
980.93127755008
 30
0.0
 10
-4.355723407220097
 20
981.0083247829384
 30
0.0
 10
-1.288143162227119
 20
981.0897428192642
 30
0.0
 10
1.928723223120345
 20
981.1633035303779
 30
0.0
 10
4.93352089912159
 20
981.2457642113037
 30
0.0
 10
7.398803164790392
 20
981.3204281850722
 30
0.0
 10
9.091408043877747
 20
981.3963716912153
 30
0.0
 10
9.414361569125166
 20
981.4450698472732
 30
0.0
 10
9.563041288728982
 20
981.4674892594232
 30
0.0
  0
SPLINE
  5
253
330
23
100
AcDbEntity
 67
     1
  8
0
  6
Continuous
 62
     7
370
    25
100
AcDbSpline
210
0.0
220
0.0
230
1.0
 70
     8
 71
     3
 72
    17
 73
    13
 74
     0
 42
0.000000001
 43
0.00000001
 40
0.0
 40
0.0
 40
0.0
 40
0.0
 40
0.0428495514101454
 40
0.151737895601842
 40
0.259465135005723
 40
0.367195829719978
 40
0.4760826605938125
 40
0.582842672919164
 40
0.6919653994666174
 40
0.7990480398159147
 40
0.9074710878980912
 40
1.0
 40
1.0
 40
1.0
 40
1.0
 10
-9.56661562983329
 20
982.2434146849437
 30
0.0
 10
-9.597030427529127
 20
982.2534288264236
 30
0.0
 10
-9.704734644857972
 20
982.2888906855198
 30
0.0
 10
-8.807568885937373
 20
982.35425617845
 30
0.0
 10
-6.982799138862232
 20
982.4312775499042
 30
0.0
 10
-4.355723348514997
 20
982.5083247830348
 30
0.0
 10
-1.288143347097127
 20
982.5897428190563
 30
0.0
 10
1.928723895118565
 20
982.6633035311047
 30
0.0
 10
4.933518350576208
 20
982.7457642085549
 30
0.0
 10
7.39881252058208
 20
982.820428195162
 30
0.0
 10
9.091534287644174
 20
982.8963788104691
 30
0.0
 10
9.41451551902099
 20
982.9450839795124
 30
0.0
 10
9.563233162487892
 20
982.9675104156676
 30
0.0
  0
SPLINE
  5
254
330
23
100
AcDbEntity
 67
     1
  8
0
  6
Continuous
 62
     7
370
    25
100
AcDbSpline
210
0.0
220
0.0
230
1.0
 70
     8
 71
     3
 72
    17
 73
    13
 74
     0
 42
0.000000001
 43
0.00000001
 40
0.0
 40
0.0
 40
0.0
 40
0.0
 40
0.0428477875948243
 40
0.151733020620889
 40
0.2594571820343079
 40
0.3671847986593754
 40
0.4760685184108165
 40
0.5828254803813878
 40
0.6919450890664195
 40
0.7990246698427854
 40
0.9074446200538041
 40
1.0
 40
1.0
 40
1.0
 40
1.0
 10
-9.566616143751656
 20
983.7434150659919
 30
0.0
 10
-9.59703041306242
 20
983.7534290820174
 30
0.0
 10
-9.704733732452869
 20
983.7888908172746
 30
0.0
 10
-8.807568542955273
 20
983.8542561799372
 30
0.0
 10
-6.982799242391011
 20
983.9312775494946
 30
0.0
 10
-4.355723275163117
 20
984.0083247831946
 30
0.0
 10
-1.28814353631336
 20
984.0897428188312
 30
0.0
 10
1.92872457010688
 20
984.1633035318383
 30
0.0
 10
4.933515794351785
 20
984.245764205797
 30
0.0
 10
7.398821903629477
 20
984.3204282052816
 30
0.0
 10
9.091660940012527
 20
984.3963859526368
 30
0.0
 10
9.414669967124576
 20
984.4450981572355
 30
0.0
 10
9.563425653740541
 20
984.4675316399974
 30
0.0
  0
SPLINE
  5
255
330
23
100
AcDbEntity
 67
     1
  8
0
  6
Continuous
 62
     7
370
    25
100
AcDbSpline
210
0.0
220
0.0
230
1.0
 70
     8
 71
     3
 72
    17
 73
    13
 74
     0
 42
0.000000001
 43
0.00000001
 40
0.0
 40
0.0
 40
0.0
 40
0.0
 40
0.0428457053549901
 40
0.1517278528655655
 40
0.2594489616651509
 40
0.3671735255784733
 40
0.4760541598573074
 40
0.5828080966218834
 40
0.6919246131498482
 40
0.799001159578067
 40
0.9074180374584636
 40
1.0
 40
1.0
 40
1.0
 40
1.0
 10
-9.566616970640263
 20
985.2434156790938
 30
0.0
 10
-9.597030389750087
 20
985.2534294932638
 30
0.0
 10
-9.704732264222704
 20
985.2888910292668
 30
0.0
 10
-8.807567993290688
 20
985.3542561823278
 30
0.0
 10
-6.982799401069273
 20
985.4312775488439
 30
0.0
 10
-4.355723186715215
 20
985.5083247834204
 30
0.0
 10
-1.28814373000067
 20
985.5897428185879
 30
0.0
 10
1.928725248143644
 20
985.6633035325789
 30
0.0
 10
4.933513230340077
 20
985.7457642030291
 30
0.0
 10
7.398831314301049
 20
985.820428215431
 30
0.0
 10
9.091788006311365
 20
985.8963931180177
 30
0.0
 10
9.414824919933615
 20
985.9451123810367
 30
0.0
 10
9.563618770553488
 20
985.9675529333026
 30
0.0
  0
SPLINE
  5
256
330
23
100
AcDbEntity
 67
     1
  8
0
  6
Continuous
 62
     7
370
    25
100
AcDbSpline
210
0.0
220
0.0
230
1.0
 70
     8
 71
     3
 72
    17
 73
    13
 74
     0
 42
0.000000001
 43
0.00000001
 40
0.0
 40
0.0
 40
0.0
 40
0.0
 40
0.0428432952647112
 40
0.1517223838406639
 40
0.2594404663238433
 40
0.367162003823692
 40
0.4760395792104159
 40
0.5827905168303135
 40
0.6919039678392933
 40
0.7989775060594391
 40
0.9073913380764959
 40
1.0
 40
1.0
 40
1.0
 40
1.0
 10
-9.566618119853258
 20
986.7434165311855
 30
0.0
 10
-9.597030357335182
 20
986.7534300648161
 30
0.0
 10
-9.704730223561087
 20
986.7888913238942
 30
0.0
 10
-8.807567230758504
 20
986.8542561856498
 30
0.0
 10
-6.982799616546818
 20
986.9312775479453
 30
0.0
 10
-4.355723082721887
 20
987.0083247837132
 30
0.0
 10
-1.288143928283983
 20
987.0897428183268
 30
0.0
 10
1.928725929287422
 20
987.163303533326
 30
0.0
 10
4.933510658432009
 20
987.2457642002521
 30
0.0
 10
7.398840752968383
 20
987.3204282256115
 30
0.0
 10
9.091915491919549
 20
987.3964003069136
 30
0.0
 10
9.414980384007075
 20
987.4451266515154
 30
0.0
 10
9.563812521068975
 20
987.4675742964805
 30
0.0
  0
SPLINE
  5
257
330
23
100
AcDbEntity
 67
     1
  8
0
  6
Continuous
 62
     7
370
    25
100
AcDbSpline
210
0.0
220
0.0
230
1.0
 70
     8
 71
     3
 72
    17
 73
    13
 74
     0
 42
0.000000001
 43
0.00000001
 40
0.0
 40
0.0
 40
0.0
 40
0.0
 40
0.0428405479023249
 40
0.1517166050533261
 40
0.2594316884364283
 40
0.3671502267400046
 40
0.4760247707439075
 40
0.5827727361910938
 40
0.6918831492499745
 40
0.7989537063155235
 40
0.9073645198613591
 40
0.9999999999999999
 40
0.9999999999999999
 40
0.9999999999999999
 40
0.9999999999999999
 10
-9.56661960074054
 20
988.243417629199
 30
0.0
 10
-9.597030315564213
 20
988.2534308013239
 30
0.0
 10
-9.704727593871965
 20
988.2888917035543
 30
0.0
 10
-8.807566249172886
 20
988.3542561899285
 30
0.0
 10
-6.982799890473651
 20
988.4312775467907
 30
0.0
 10
-4.355722962733663
 20
988.5083247840756
 30
0.0
 10
-1.288144131288322
 20
988.5897428180465
 30
0.0
 10
1.928726613597026
 20
988.663303534081
 30
0.0
 10
4.93350807851763
 20
988.7457641974651
 30
0.0
 10
7.398850220006251
 20
988.8204282358223
 30
0.0
 10
9.092043402266839
 20
988.8964075196303
 30
0.0
 10
9.415136365966031
 20
988.9451409692768
 30
0.0
 10
9.56400691350601
 20
988.9675957304373
 30
0.0
  0
SPLINE
  5
258
330
23
100
AcDbEntity
 67
     1
  8
0
  6
Continuous
 62
     7
370
    25
100
AcDbSpline
210
0.0
220
0.0
230
1.0
 70
     8
 71
     3
 72
    11
 73
     7
 74
     0
 42
0.000000001
 43
0.00000001
 40
0.0
 40
0.0
 40
0.0
 40
0.0
 40
0.1304442033162768
 40
0.4619732167624742
 40
0.789967049949759
 40
1.0
 40
1.0
 40
1.0
 40
1.0
 10
-9.56662142264983
 20
989.7434189800656
 30
0.0
 10
-9.597218329596508
 20
989.7534314684708
 30
0.0
 10
-9.705578464932426
 20
989.7888910853708
 30
0.0
 10
-8.797457482978814
 20
989.8542690383834
 30
0.0
 10
-7.231610405310791
 20
989.9220373023737
 30
0.0
 10
-5.806375422265288
 20
989.9641041597437
 30
0.0
 10
-5.249997343459316
 20
989.9805260674035
 30
0.0
  0
SPLINE
  5
25B
330
23
100
AcDbEntity
 67
     1
  8
0
  6
Continuous
 62
     7
370
    25
100
AcDbSpline
210
0.0
220
0.0
230
1.0
 70
    24
 71
     3
 72
    10
 73
     6
 74
     0
 42
0.000000001
 43
0.00000001
 40
0.0
 40
0.0
 40
0.0
 40
0.0
 40
0.1420902937865346
 40
0.7171350095578986
 40
0.9999999999999999
 40
0.9999999999999999
 40
0.9999999999999999
 40
0.9999999999999999
 10
-8.277637695096399
 20
980.4999999999998
 30
0.0
 10
-8.401426850159384
 20
980.4999999999997
 30
0.0
 10
-9.026195330352877
 20
980.4999999999993
 30
0.0
 10
-9.666067825617366
 20
980.4999999999998
 30
0.0
 10
-9.592573737151513
 20
980.5000000000001
 30
0.0
 10
-9.568341694454155
 20
980.4999999999999
 30
0.0
  0
SPLINE
  5
263
330
23
100
AcDbEntity
 67
     1
  8
0
  6
Continuous
 62
     7
370
    25
100
AcDbSpline
210
0.0
220
0.0
230
1.0
 70
     8
 71
     3
 72
    12
 73
     8
 74
     0
 42
0.000000001
 43
0.00000001
 40
0.0
 40
0.0
 40
0.0
 40
0.0
 40
0.2033968292811189
 40
0.4067867475579327
 40
0.6119778620050486
 40
0.8271778817781549
 40
1.0
 40
1.0
 40
1.0
 40
1.0
 10
27.27163680334117
 20
648.0
 30
0.0
 10
27.30209138049031
 20
647.4645396721832
 30
0.0
 10
27.36299950000495
 20
646.3936372103859
 30
0.0
 10
27.22943471162001
 20
644.9445022830229
 30
0.0
 10
26.98124913786267
 20
643.8164469781274
 30
0.0
 10
26.70274325693756
 20
643.1019004131745
 30
0.0
 10
26.6084834454512
 20
643.0648785483904
 30
0.0
 10
26.56650084010696
 20
643.0483892905207
 30
0.0
  0
SPLINE
  5
264
330
23
100
AcDbEntity
 67
     1
  8
0
  6
Continuous
 62
     7
370
    25
100
AcDbSpline
210
0.0
220
0.0
230
1.0
 70
     8
 71
     3
 72
    11
 73
     7
 74
     0
 42
0.000000001
 43
0.00000001
 40
0.0
 40
0.0
 40
0.0
 40
0.0
 40
0.2325060383358843
 40
0.4775645171861769
 40
0.7324356150039457
 40
1.0
 40
1.0
 40
1.0
 40
1.0
 10
26.50437926543403
 20
652.8163027330482
 30
0.0
 10
26.51787054250044
 20
652.6449506331642
 30
0.0
 10
26.54558145815906
 20
652.2929955465967
 30
0.0
 10
26.774082270289
 20
651.1824927352193
 30
0.0
 10
27.07162790034891
 20
649.7280503389964
 30
0.0
 10
27.20389595767341
 20
648.5852719032442
 30
0.0
 10
27.27163680334117
 20
648.0
 30
0.0
  0
LWPOLYLINE
  5
266
330
23
100
AcDbEntity
 67
     1
  8
0
  6
Continuous
 62
     7
370
    25
100
AcDbPolyline
 90
       17
 70
   128
 43
0.0
 10
52.9601551084
 20
637.9188594235
 10
51.1740942252
 20
637.522016588
 10
49.1764479836
 20
637.199750015
 10
47.0132888008
 20
636.9594922518
 10
44.734506377
 20
636.8067844475
 10
42.3926570719
 20
636.7451485558
 10
40.0417517787
 20
636.7760061071
 10
37.7360102523
 20
636.8986454227
 10
35.5286106196
 20
637.1102380291
 10
33.4704629138
 20
637.4059038915
 10
31.6090349187
 20
637.7788239644
 10
29.987257402
 20
638.2203974611
 10
28.6425339885
 20
638.7204402168
 10
27.6058785066
 20
639.2674195699
 10
26.9011997061
 20
639.8487203433
 10
26.5447498416
 20
640.450935793
 10
26.5
 20
640.7555563028
  0
LWPOLYLINE
  5
268
330
23
100
AcDbEntity
 67
     1
  8
0
  6
Continuous
 62
     7
370
    25
100
AcDbPolyline
 90
       32
 70
   128
 43
0.0
 10
52.9601551084
 20
652.4077468178
 10
51.1740942252
 20
652.0109039823
 10
49.1764479836
 20
651.6886374094
 10
47.0132888008
 20
651.4483796461
 10
44.734506377
 20
651.2956718418
 10
42.3926570719
 20
651.2340359502
 10
40.0417517787
 20
651.2648935014
 10
37.7360102523
 20
651.3875328171
 10
35.5286106196
 20
651.5991254234
 10
33.4704629138
 20
651.8947912859
 10
31.6090349187
 20
652.2677113588
 10
29.987257402
 20
652.7092848554
 10
28.6425339885
 20
653.2093276112
 10
27.6058785066
 20
653.7563069643
 10
26.9011997061
 20
654.3376077376
 10
26.5447498416
 20
654.9398231874
 10
26.5447498416
 20
655.549064207
 10
26.9011997061
 20
656.1512796567
 10
27.6058785066
 20
656.7325804301
 10
28.6425339885
 20
657.2795597832
 10
29.987257402
 20
657.7796025389
 10
31.6090349187
 20
658.2211760356
 10
33.4704629138
 20
658.5940961085
 10
35.5286106196
 20
658.8897619709
 10
37.7360102523
 20
659.1013545773
 10
40.0417517787
 20
659.2239938929
 10
42.3926570719
 20
659.2548514442
 10
44.734506377
 20
659.1932155525
 10
47.0132888008
 20
659.0405077482
 10
49.1764479836
 20
658.800249985
 10
51.1740942252
 20
658.477983412
 10
52.9601551084
 20
658.0811405765
  0
LWPOLYLINE
  5
26A
330
23
100
AcDbEntity
 67
     1
  8
0
  6
Continuous
 62
     7
370
    25
100
AcDbPolyline
 90
       27
 70
   128
 43
0.0
 10
50.1317279836
 20
657.3490897689
 10
48.5327445874
 20
657.6939885277
 10
46.7197472627
 20
657.9586397419
 10
44.7521301393
 20
658.1343733886
 10
42.6943527204
 20
658.2154324007
 10
40.6138281771
 20
658.19916127
 10
38.5787148807
 20
658.0860930418
 10
36.6556835215
 20
657.8799318521
 10
34.9077329648
 20
657.58743158
 10
33.392126396
 20
657.2181745889
 10
32.1585153685
 20
656.7842578064
 10
31.2473132091
 20
656.2998964271
 10
30.6883710701
 20
655.7809582199
 10
30.5
 20
655.2444436972
 10
30.6883710701
 20
654.7079291744
 10
31.2473132091
 20
654.1889909673
 10
32.1585153685
 20
653.704629588
 10
33.392126396
 20
653.2707128055
 10
34.9077329648
 20
652.9014558143
 10
36.6556835215
 20
652.6089555422
 10
38.5787148807
 20
652.4027943526
 10
40.6138281771
 20
652.2897261243
 10
42.6943527204
 20
652.2734549936
 10
44.7521301393
 20
652.3545140058
 10
46.7197472627
 20
652.5302476524
 10
48.5327445874
 20
652.7948988667
 10
50.1317279836
 20
653.1397976254
  0
LINE
  5
29D
330
23
100
AcDbEntity
 67
     1
  8
0
  6
Continuous
 62
     7
370
    25
100
AcDbLine
 10
-10.5
 20
981.3997174247
 30
0.0
 11
-10.5
 21
981.212357898
 31
0.0
  0
LINE
  5
29E
330
23
100
AcDbEntity
 67
     1
  8
0
  6
Continuous
 62
     7
370
    25
100
AcDbLine
 10
-10.5
 20
982.8997174247
 30
0.0
 11
-10.5
 21
982.712357898
 31
0.0
  0
LINE
  5
29F
330
23
100
AcDbEntity
 67
     1
  8
0
  6
Continuous
 62
     7
370
    25
100
AcDbLine
 10
-10.5
 20
984.3997174247
 30
0.0
 11
-10.5
 21
984.212357898
 31
0.0
  0
LINE
  5
2A0
330
23
100
AcDbEntity
 67
     1
  8
0
  6
Continuous
 62
     7
370
    25
100
AcDbLine
 10
-10.5
 20
985.8997174247
 30
0.0
 11
-10.5
 21
985.712357898
 31
0.0
  0
LINE
  5
2A1
330
23
100
AcDbEntity
 67
     1
  8
0
  6
Continuous
 62
     7
370
    25
100
AcDbLine
 10
-10.5
 20
987.3997174247
 30
0.0
 11
-10.5
 21
987.212357898
 31
0.0
  0
LINE
  5
2A2
330
23
100
AcDbEntity
 67
     1
  8
0
  6
Continuous
 62
     7
370
    25
100
AcDbLine
 10
-10.5
 20
988.8997174247
 30
0.0
 11
-10.5
 21
988.712357898
 31
0.0
  0
LINE
  5
2A3
330
23
100
AcDbEntity
 67
     1
  8
0
  6
Continuous
 62
     7
370
    25
100
AcDbLine
 10
-10.5
 20
992.3
 30
0.0
 11
-10.5
 21
990.212357898
 31
0.0
  0
LINE
  5
2A4
330
23
100
AcDbEntity
 67
     1
  8
0
  6
Continuous
 62
     7
370
    25
100
AcDbLine
 10
10.5
 20
989.4625995667
 30
0.0
 11
10.5
 21
992.3
 31
0.0
  0
LINE
  5
2A5
330
23
100
AcDbEntity
 67
     1
  8
0
  6
Continuous
 62
     7
370
    25
100
AcDbLine
 10
10.5
 20
987.9625995667
 30
0.0
 11
10.5
 21
988.1502823416
 31
0.0
  0
LINE
  5
2A6
330
23
100
AcDbEntity
 67
     1
  8
0
  6
Continuous
 62
     7
370
    25
100
AcDbLine
 10
10.5
 20
986.4625995667
 30
0.0
 11
10.5
 21
986.6502823416
 31
0.0
  0
LINE
  5
2A7
330
23
100
AcDbEntity
 67
     1
  8
0
  6
Continuous
 62
     7
370
    25
100
AcDbLine
 10
10.5
 20
984.9625995667
 30
0.0
 11
10.5
 21
985.1502823416
 31
0.0
  0
LINE
  5
2A8
330
23
100
AcDbEntity
 67
     1
  8
0
  6
Continuous
 62
     7
370
    25
100
AcDbLine
 10
10.5
 20
983.4625995667
 30
0.0
 11
10.5
 21
983.6502823416
 31
0.0
  0
LINE
  5
2A9
330
23
100
AcDbEntity
 67
     1
  8
0
  6
Continuous
 62
     7
370
    25
100
AcDbLine
 10
10.5
 20
981.9625995667
 30
0.0
 11
10.5
 21
982.1502823416
 31
0.0
  0
LINE
  5
2AA
330
23
100
AcDbEntity
 67
     1
  8
0
  6
Continuous
 62
     7
370
    25
100
AcDbLine
 10
-9.6880978794
 20
980.7435629264
 30
0.0
 11
-9.6880978794
 21
980.5
 31
0.0
  0
LINE
  5
2AB
330
23
100
AcDbEntity
 67
     1
  8
0
  6
Continuous
 62
     7
370
    25
100
AcDbLine
 10
9.6880978795
 20
981.1185629309
 30
0.0
 11
9.6880978795
 21
981.4935629309
 31
0.0
  0
LINE
  5
2AC
330
23
100
AcDbEntity
 67
     1
  8
0
  6
Continuous
 62
     7
370
    25
100
AcDbLine
 10
26.5
 20
643.0
 30
0.0
 11
26.5
 21
640.7555563028
 31
0.0
  0
LINE
  5
2AD
330
23
100
AcDbEntity
 67
     1
  8
0
  6
Continuous
 62
     7
370
    25
100
AcDbLine
 10
26.5
 20
655.2444436972
 30
0.0
 11
26.5
 21
652.816250737
 31
0.0
  0
LINE
  5
2AE
330
23
100
AcDbEntity
 67
     1
  8
0
  6
Continuous
 62
     7
370
    25
100
AcDbLine
 10
19.0
 20
643.0
 30
0.0
 11
26.5665008401
 21
643.0
 31
0.0
  0
LINE
  5
2AF
330
23
100
AcDbEntity
 67
     1
  8
0
  6
Continuous
 62
     7
370
    25
100
AcDbLine
 10
26.5
 20
653.0
 30
0.0
 11
19.0
 21
653.0
 31
0.0
  0
LINE
  5
2B0
330
23
100
AcDbEntity
 67
     1
  8
0
  6
Continuous
 62
     7
370
    25
100
AcDbLine
 10
-14.0
 20
-1.0
 30
0.0
 11
-14.0
 21
-12.0
 31
0.0
  0
LINE
  5
2B1
330
23
100
AcDbEntity
 67
     1
  8
0
  6
Continuous
 62
     7
370
    25
100
AcDbLine
 10
14.0
 20
-12.0
 30
0.0
 11
14.0
 21
-1.0
 31
0.0
  0
LINE
  5
2B2
330
23
100
AcDbEntity
 67
     1
  8
0
  6
Continuous
 62
     7
370
    25
100
AcDbLine
 10
15.0
 20
1007.3
 30
0.0
 11
-15.0
 21
1007.3
 31
0.0
  0
LINE
  5
2B3
330
23
100
AcDbEntity
 67
     1
  8
0
  6
Continuous
 62
     7
370
    25
100
AcDbLine
 10
-14.8
 20
1007.5
 30
0.0
 11
-14.8
 21
660.5
 31
0.0
  0
LINE
  5
2B4
330
23
100
AcDbEntity
 67
     1
  8
0
  6
Continuous
 62
     7
370
    25
100
AcDbLine
 10
-14.8
 20
1007.5
 30
0.0
 11
14.8
 21
1007.5
 31
0.0
  0
LINE
  5
2B5
330
23
100
AcDbEntity
 67
     1
  8
0
  6
Continuous
 62
     7
370
    25
100
AcDbLine
 10
14.8
 20
660.5
 30
0.0
 11
14.8
 21
1007.5
 31
0.0
  0
LINE
  5
2B6
330
23
100
AcDbEntity
 67
     1
  8
0
  6
Continuous
 62
     7
370
    25
100
AcDbLine
 10
15.0
 20
1007.3
 30
0.0
 11
15.0
 21
660.5
 31
0.0
  0
LINE
  5
2B7
330
23
100
AcDbEntity
 67
     1
  8
0
  6
Continuous
 62
     7
370
    25
100
AcDbLine
 10
-15.0
 20
992.7
 30
0.0
 11
15.0
 21
992.7
 31
0.0
  0
LINE
  5
2B8
330
23
100
AcDbEntity
 67
     1
  8
0
  6
Continuous
 62
     7
370
    25
100
AcDbLine
 10
-15.0
 20
660.5
 30
0.0
 11
-15.0
 21
1007.3
 31
0.0
  0
LINE
  5
2B9
330
23
100
AcDbEntity
 67
     1
  8
0
  6
Continuous
 62
     7
370
    25
100
AcDbLine
 10
14.8
 20
992.5
 30
0.0
 11
-14.8
 21
992.5
 31
0.0
  0
LINE
  5
2BA
330
23
100
AcDbEntity
 67
     1
  8
0
  6
Continuous
 62
     7
370
    25
100
AcDbLine
 10
-5.2500056927
 20
990.4617738107
 30
0.0
 11
-5.249982922
 21
989.1492738491
 31
0.0
  0
LINE
  5
2BB
330
23
100
AcDbEntity
 67
     1
  8
0
  6
Continuous
 62
     7
370
    25
100
AcDbLine
 10
10.5
 20
980.5
 30
0.0
 11
8.5189440348
 21
980.5
 31
0.0
  0
LINE
  5
2BC
330
23
100
AcDbEntity
 67
     1
  8
0
  6
Continuous
 62
     7
370
    25
100
AcDbLine
 10
15.0
 20
960.0
 30
0.0
 11
-15.0
 21
960.0
 31
0.0
  0
LINE
  5
2BD
330
23
100
AcDbEntity
 67
     1
  8
0
  6
Continuous
 62
     7
370
    25
100
AcDbLine
 10
52.9601551084
 20
637.9188594235
 30
0.0
 11
52.9601551084
 21
658.0811405765
 31
0.0
  0
LINE
  5
2BE
330
23
100
AcDbEntity
 67
     1
  8
0
  6
Continuous
 62
     7
370
    25
100
AcDbLine
 10
52.9601551084
 20
658.0811405765
 30
0.0
 11
50.1317279836
 21
657.3490897689
 31
0.0
  0
LINE
  5
2BF
330
23
100
AcDbEntity
 67
     1
  8
0
  6
Continuous
 62
     7
370
    25
100
AcDbLine
 10
50.1317279836
 20
653.1397976254
 30
0.0
 11
52.9601551084
 21
652.4077468178
 31
0.0
  0
LINE
  5
2C0
330
23
100
AcDbEntity
 67
     1
  8
0
  6
Continuous
 62
     7
370
    25
100
AcDbLine
 10
50.1317279836
 20
653.1397976254
 30
0.0
 11
50.1317279836
 21
657.3490897689
 31
0.0
  0
LINE
  5
2C1
330
23
100
AcDbEntity
 67
     1
  8
0
  6
Continuous
 62
     7
370
    25
100
AcDbLine
 10
19.0
 20
660.5
 30
0.0
 11
19.0
 21
635.5
 31
0.0
  0
LINE
  5
2C2
330
23
100
AcDbEntity
 67
     1
  8
0
  6
Continuous
 62
     7
370
    25
100
AcDbLine
 10
19.0
 20
635.5
 30
0.0
 11
-19.0
 21
635.5
 31
0.0
  0
LINE
  5
2C3
330
23
100
AcDbEntity
 67
     1
  8
0
  6
Continuous
 62
     7
370
    25
100
AcDbLine
 10
-19.0
 20
660.5
 30
0.0
 11
-19.0
 21
635.5
 31
0.0
  0
LINE
  5
2C4
330
23
100
AcDbEntity
 67
     1
  8
0
  6
Continuous
 62
     7
370
    25
100
AcDbLine
 10
19.0
 20
660.5
 30
0.0
 11
-19.0
 21
660.5
 31
0.0
  0
LINE
  5
2C5
330
23
100
AcDbEntity
 67
     1
  8
0
  6
Continuous
 62
     7
370
    25
100
AcDbLine
 10
14.8
 20
0.0
 30
0.0
 11
14.8
 21
635.5
 31
0.0
  0
LINE
  5
2C6
330
23
100
AcDbEntity
 67
     1
  8
0
  6
Continuous
 62
     7
370
    25
100
AcDbLine
 10
15.0
 20
635.5
 30
0.0
 11
15.0
 21
0.2
 31
0.0
  0
LINE
  5
2C7
330
23
100
AcDbEntity
 67
     1
  8
0
  6
Continuous
 62
     7
370
    25
100
AcDbLine
 10
-15.0
 20
0.0
 30
0.0
 11
14.8
 21
0.0
 31
0.0
  0
LINE
  5
2C8
330
23
100
AcDbEntity
 67
     1
  8
0
  6
Continuous
 62
     7
370
    25
100
AcDbLine
 10
-14.8
 20
635.5
 30
0.0
 11
-14.8
 21
0.0
 31
0.0
  0
LINE
  5
2C9
330
23
100
AcDbEntity
 67
     1
  8
0
  6
Continuous
 62
     7
370
    25
100
AcDbLine
 10
-15.0
 20
0.0
 30
0.0
 11
-15.0
 21
635.5
 31
0.0
  0
LINE
  5
2CA
330
23
100
AcDbEntity
 67
     1
  8
0
  6
Continuous
 62
     7
370
    25
100
AcDbLine
 10
20.0
 20
854.3
 30
0.0
 11
19.8
 21
854.3
 31
0.0
  0
LINE
  5
2CB
330
23
100
AcDbEntity
 67
     1
  8
0
  6
Continuous
 62
     7
370
    25
100
AcDbLine
 10
17.0
 20
857.3
 30
0.0
 11
17.0
 21
857.1
 31
0.0
  0
LINE
  5
2CC
330
23
100
AcDbEntity
 67
     1
  8
0
  6
Continuous
 62
     7
370
    25
100
AcDbLine
 10
-19.8
 20
854.3
 30
0.0
 11
-19.8
 21
810.3
 31
0.0
  0
LINE
  5
2CD
330
23
100
AcDbEntity
 67
     1
  8
0
  6
Continuous
 62
     7
370
    25
100
AcDbLine
 10
-19.8
 20
810.3
 30
0.0
 11
-20.0
 21
810.3
 31
0.0
  0
LINE
  5
2CE
330
23
100
AcDbEntity
 67
     1
  8
0
  6
Continuous
 62
     7
370
    25
100
AcDbLine
 10
-20.0
 20
810.3
 30
0.0
 11
-20.0
 21
854.3
 31
0.0
  0
LINE
  5
2CF
330
23
100
AcDbEntity
 67
     1
  8
0
  6
Continuous
 62
     7
370
    25
100
AcDbLine
 10
-19.8
 20
854.3
 30
0.0
 11
-20.0
 21
854.3
 31
0.0
  0
LINE
  5
2D0
330
23
100
AcDbEntity
 67
     1
  8
0
  6
Continuous
 62
     7
370
    25
100
AcDbLine
 10
-17.0
 20
857.1
 30
0.0
 11
-17.0
 21
857.3
 31
0.0
  0
LINE
  5
2D1
330
23
100
AcDbEntity
 67
     1
  8
0
  6
Continuous
 62
     7
370
    25
100
AcDbLine
 10
-17.0
 20
857.3
 30
0.0
 11
-15.0
 21
857.3
 31
0.0
  0
LINE
  5
2D2
330
23
100
AcDbEntity
 67
     1
  8
0
  6
Continuous
 62
     7
370
    25
100
AcDbLine
 10
15.0
 20
857.3
 30
0.0
 11
17.0
 21
857.3
 31
0.0
  0
LINE
  5
2D3
330
23
100
AcDbEntity
 67
     1
  8
0
  6
Continuous
 62
     7
370
    25
100
AcDbLine
 10
19.8
 20
810.3
 30
0.0
 11
19.8
 21
854.3
 31
0.0
  0
LINE
  5
2D4
330
23
100
AcDbEntity
 67
     1
  8
0
  6
Continuous
 62
     7
370
    25
100
AcDbLine
 10
17.0
 20
807.3
 30
0.0
 11
17.0
 21
807.5
 31
0.0
  0
LINE
  5
2D5
330
23
100
AcDbEntity
 67
     1
  8
0
  6
Continuous
 62
     7
370
    25
100
AcDbLine
 10
20.0
 20
810.3
 30
0.0
 11
19.8
 21
810.3
 31
0.0
  0
LINE
  5
2D6
330
23
100
AcDbEntity
 67
     1
  8
0
  6
Continuous
 62
     7
370
    25
100
AcDbLine
 10
20.0
 20
854.3
 30
0.0
 11
20.0
 21
810.3
 31
0.0
  0
LINE
  5
2D7
330
23
100
AcDbEntity
 67
     1
  8
0
  6
Continuous
 62
     7
370
    25
100
AcDbLine
 10
-17.0
 20
807.5
 30
0.0
 11
-17.0
 21
807.3
 31
0.0
  0
LINE
  5
2D8
330
23
100
AcDbEntity
 67
     1
  8
0
  6
Continuous
 62
     7
370
    25
100
AcDbLine
 10
17.0
 20
807.3
 30
0.0
 11
15.0
 21
807.3
 31
0.0
  0
LINE
  5
2D9
330
23
100
AcDbEntity
 67
     1
  8
0
  6
Continuous
 62
     7
370
    25
100
AcDbLine
 10
-15.0
 20
807.3
 30
0.0
 11
-17.0
 21
807.3
 31
0.0
  0
LINE
  5
2DA
330
23
100
AcDbEntity
 67
     1
  8
0
  6
Continuous
 62
     7
370
    25
100
AcDbLine
 10
14.0
 20
-12.0
 30
0.0
 11
-14.0
 21
-12.0
 31
0.0
  0
LINE
  5
2DB
330
23
100
AcDbEntity
 67
     1
  8
0
  6
Continuous
 62
     8
370
    25
100
AcDbLine
 10
10.5
 20
992.3
 30
0.0
 11
-10.5
 21
992.3
 31
0.0
  0
LINE
  5
2DC
330
23
100
AcDbEntity
 67
     1
  8
0
  6
Continuous
 62
     8
370
    25
100
AcDbLine
 10
17.0
 20
857.1
 30
0.0
 11
15.0
 21
857.1
 31
0.0
  0
LINE
  5
2DD
330
23
100
AcDbEntity
 67
     1
  8
0
  6
Continuous
 62
     8
370
    25
100
AcDbLine
 10
-15.0
 20
857.1
 30
0.0
 11
-17.0
 21
857.1
 31
0.0
  0
LINE
  5
2DE
330
23
100
AcDbEntity
 67
     1
  8
0
  6
Continuous
 62
     8
370
    25
100
AcDbLine
 10
-17.0
 20
807.5
 30
0.0
 11
-15.0
 21
807.5
 31
0.0
  0
LINE
  5
2DF
330
23
100
AcDbEntity
 67
     1
  8
0
  6
Continuous
 62
     8
370
    25
100
AcDbLine
 10
15.0
 20
807.5
 30
0.0
 11
17.0
 21
807.5
 31
0.0
  0
LINE
  5
2E0
330
23
100
AcDbEntity
 67
     1
  8
0
  6
Continuous
 62
     8
370
    25
100
AcDbLine
 10
14.0
 20
-1.0
 30
0.0
 11
-14.0
 21
-1.0
 31
0.0
  0
ARC
  5
2E1
330
23
100
AcDbEntity
 67
     1
  8
0
  6
Continuous
 62
     7
370
    25
100
AcDbCircle
 10
10.7
 20
992.3
 30
0.0
 40
0.1999999999999602
100
AcDbArc
 50
90.0
 51
180.0
  0
ARC
  5
2E2
330
23
100
AcDbEntity
 67
     1
  8
0
  6
Continuous
 62
     7
370
    25
100
AcDbCircle
 10
-10.7
 20
992.3
 30
0.0
 40
0.2000000000001592
100
AcDbArc
 50
0.0000000001
 51
90.0
  0
ARC
  5
2E3
330
23
100
AcDbEntity
 67
     1
  8
0
  6
Continuous
 62
     7
370
    25
100
AcDbCircle
 10
13.0
 20
-1.0
 30
0.0
 40
1.000000000000004
100
AcDbArc
 50
0.0
 51
90.0
  0
ARC
  5
2E4
330
23
100
AcDbEntity
 67
     1
  8
0
  6
Continuous
 62
     7
370
    25
100
AcDbCircle
 10
-13.0
 20
-1.0
 30
0.0
 40
1.000000000000004
100
AcDbArc
 50
90.0
 51
180.0
  0
ARC
  5
2E5
330
23
100
AcDbEntity
 67
     1
  8
0
  6
Continuous
 62
     7
370
    25
100
AcDbCircle
 10
-14.8
 20
1007.3
 30
0.0
 40
0.1999999999999478
100
AcDbArc
 50
90.0
 51
180.0000000001
  0
ARC
  5
2E6
330
23
100
AcDbEntity
 67
     1
  8
0
  6
Continuous
 62
     7
370
    25
100
AcDbCircle
 10
-14.8
 20
992.7
 30
0.0
 40
0.2000000000001592
100
AcDbArc
 50
180.0
 51
270.0
  0
ARC
  5
2E7
330
23
100
AcDbEntity
 67
     1
  8
0
  6
Continuous
 62
     7
370
    25
100
AcDbCircle
 10
14.8
 20
1007.3
 30
0.0
 40
0.1999999999999318
100
AcDbArc
 50
359.9999999999
 51
90.0
  0
ARC
  5
2E8
330
23
100
AcDbEntity
 67
     1
  8
0
  6
Continuous
 62
     7
370
    25
100
AcDbCircle
 10
14.8
 20
992.7
 30
0.0
 40
0.2000000000001592
100
AcDbArc
 50
270.0
 51
360.0
  0
ARC
  5
2E9
330
23
100
AcDbEntity
 67
     1
  8
0
  6
Continuous
 62
     7
370
    25
100
AcDbCircle
 10
14.8
 20
0.2
 30
0.0
 40
0.2000000000000028
100
AcDbArc
 50
270.0
 51
360.0
  0
ARC
  5
2EA
330
23
100
AcDbEntity
 67
     1
  8
0
  6
Continuous
 62
     7
370
    25
100
AcDbCircle
 10
17.0
 20
854.3
 30
0.0
 40
3.000000000000021
100
AcDbArc
 50
0.0
 51
90.0
  0
ARC
  5
2EB
330
23
100
AcDbEntity
 67
     1
  8
0
  6
Continuous
 62
     7
370
    25
100
AcDbCircle
 10
17.0
 20
854.3
 30
0.0
 40
2.800000000000409
100
AcDbArc
 50
0.0
 51
90.0
  0
ARC
  5
2EC
330
23
100
AcDbEntity
 67
     1
  8
0
  6
Continuous
 62
     7
370
    25
100
AcDbCircle
 10
-17.0
 20
854.3
 30
0.0
 40
2.800000000000182
100
AcDbArc
 50
90.0
 51
180.0
  0
ARC
  5
2ED
330
23
100
AcDbEntity
 67
     1
  8
0
  6
Continuous
 62
     7
370
    25
100
AcDbCircle
 10
-17.0
 20
854.3
 30
0.0
 40
3.000000000000018
100
AcDbArc
 50
90.0
 51
180.0
  0
ARC
  5
2EE
330
23
100
AcDbEntity
 67
     1
  8
0
  6
Continuous
 62
     7
370
    25
100
AcDbCircle
 10
17.0
 20
810.3
 30
0.0
 40
2.800000000000068
100
AcDbArc
 50
270.0
 51
0.0
  0
ARC
  5
2EF
330
23
100
AcDbEntity
 67
     1
  8
0
  6
Continuous
 62
     7
370
    25
100
AcDbCircle
 10
-17.0
 20
810.3
 30
0.0
 40
2.800000000000068
100
AcDbArc
 50
180.0
 51
270.0
  0
ARC
  5
2F0
330
23
100
AcDbEntity
 67
     1
  8
0
  6
Continuous
 62
     7
370
    25
100
AcDbCircle
 10
17.0
 20
810.3
 30
0.0
 40
3.0
100
AcDbArc
 50
270.0
 51
0.0
  0
ARC
  5
2F1
330
23
100
AcDbEntity
 67
     1
  8
0
  6
Continuous
 62
     7
370
    25
100
AcDbCircle
 10
-17.0
 20
810.3
 30
0.0
 40
3.0
100
AcDbArc
 50
180.0
 51
270.0
  0
VIEWPORT
  5
2F4
330
23
100
AcDbEntity
 67
     1
  8
0
100
AcDbViewport
 10
0.0
 20
0.0
 30
0.0
 40
205.6
 41
156.0
 68
     1
 69
     1
 12
-142.5
 22
497.75
 13
0.0
 23
0.0
 14
10.0
 24
10.0
 15
10.0
 25
10.0
 16
0.0
 26
0.0
 36
1.0
 17
0.0
 27
0.0
 37
0.0
 42
50.0
 43
0.0
 44
0.0
 45
1039.89
 50
0.0
 51
0.0
 72
   100
 90
   557152
  1

281
     0
 71
     1
 74
     0
110
0.0
120
0.0
130
0.0
111
1.0
121
0.0
131
0.0
112
0.0
122
1.0
132
0.0
 79
     0
146
0.0
  0
ENDSEC
  0
SECTION
  2
OBJECTS
  0
DICTIONARY
  5
C
330
0
100
AcDbDictionary
281
     1
  3
ACAD_GROUP
350
D
  3
ACAD_LAYOUT
350
1A
  3
ACAD_MLINESTYLE
350
17
  3
ACAD_PLOTSETTINGS
350
19
  3
ACAD_PLOTSTYLENAME
350
E
  3
ACAD_SCALELIST
350
47
  0
DICTIONARY
  5
D
102
{ACAD_REACTORS
330
C
102
}
330
C
100
AcDbDictionary
281
     1
  0
DICTIONARY
  5
1A
102
{ACAD_REACTORS
330
C
102
}
330
C
100
AcDbDictionary
281
     1
  3
_Front
350
26
  3
_Top
350
1E
  3
Model
350
22
  0
DICTIONARY
  5
17
102
{ACAD_REACTORS
330
C
102
}
330
C
100
AcDbDictionary
281
     1
  3
Standard
350
18
  0
DICTIONARY
  5
19
102
{ACAD_REACTORS
330
C
102
}
330
C
100
AcDbDictionary
281
     1
  0
ACDBDICTIONARYWDFLT
  5
E
102
{ACAD_REACTORS
330
C
102
}
330
C
100
AcDbDictionary
281
     1
  3
Normal
350
F
100
AcDbDictionaryWithDefault
340
F
  0
DICTIONARY
  5
47
102
{ACAD_REACTORS
330
C
102
}
330
C
100
AcDbDictionary
281
     1
  3
A0
350
48
  3
A1
350
49
  3
A2
350
4A
  3
A3
350
4B
  3
A4
350
4C
  3
A5
350
4D
  3
A6
350
4E
  3
A7
350
4F
  3
A8
350
50
  3
A9
350
51
  3
B0
350
52
  3
B1
350
53
  3
B2
350
54
  3
B3
350
55
  3
B4
350
56
  3
B5
350
57
  3
B6
350
58
  3
B7
350
59
  3
B8
350
5A
  3
B9
350
5B
  3
C0
350
5C
  3
C1
350
5D
  3
C2
350
5E
  3
C3
350
5F
  3
C4
350
60
  3
C5
350
61
  3
C6
350
62
  3
C7
350
63
  3
C8
350
64
  3
C9
350
65
  3
D0
350
66
  3
D1
350
67
  3
D2
350
68
  0
LAYOUT
  5
26
102
{ACAD_REACTORS
330
1A
102
}
330
1A
100
AcDbPlotSettings
  1

  2
none_device
  4
ANSI_A_(11.00_x_8.50_Inches)
  6

 40
6.35
 41
19.05
 42
6.35000508
 43
19.05000254
 44
279.4
 45
215.9
 46
163.2255173227
 47
-15.4546680184
 48
0.0
 49
0.0
140
0.0
141
0.0
142
0.0082540461
143
1.0
 70
  1696
 72
     0
 73
     0
 74
     1
  7

 75
     0
147
0.0068661107
148
9017.0
149
304.8
100
AcDbLayout
  1
_Front
 70
     1
 71
     2
 10
0.0
 20
0.0
 11
0.0
 21
0.0
 12
0.0
 22
0.0
 32
0.0
 14
-355.0
 24
-12.0
 34
0.0
 15
70.0
 25
1007.5
 35
0.0
146
0.0
 13
0.0
 23
0.0
 33
0.0
 16
1.0
 26
0.0
 36
0.0
 17
0.0
 27
1.0
 37
0.0
 76
     0
330
23
331
2F4
  0
LAYOUT
  5
1E
102
{ACAD_REACTORS
330
1A
102
}
330
1A
100
AcDbPlotSettings
  1

  2
none_device
  4
ISO_A4_(210.00_x_297.00_MM)
  6

 40
7.5
 41
20.0
 42
7.5
 43
20.0
 44
210.0
 45
297.0
 46
0.0
 47
0.0
 48
0.0
 49
0.0
140
0.0
141
0.0
142
1.0
143
2.1794871795
 70
   688
 72
     1
 73
     1
 74
     1
  7

 75
     0
147
0.4588235294
148
20.0
149
355.0
100
AcDbLayout
  1
_Top
 70
     1
 71
     1
 10
-63.5897435897
 20
-371.3461538462
 11
583.7179487179
 21
86.3461538462
 12
0.0
 22
0.0
 32
0.0
 14
1.0000000000E+20
 24
1.0000000000E+20
 34
1.0000000000E+20
 15
-1.0000000000E+20
 25
-1.0000000000E+20
 35
-1.0000000000E+20
146
0.0
 13
0.0
 23
0.0
 33
0.0
 16
1.0
 26
0.0
 36
0.0
 17
0.0
 27
1.0
 37
0.0
 76
     0
330
1B
331
2F2
  0
LAYOUT
  5
22
102
{ACAD_REACTORS
330
1A
102
}
330
1A
100
AcDbPlotSettings
  1

  2
none_device
  4
Letter_(8.50_x_11.00_Inches)
  6

 40
6.35
 41
6.35
 42
6.35000508
 43
6.35000508
 44
215.9
 45
279.4
 46
0.0
 47
0.0
 48
0.0
 49
0.0
140
0.0
141
0.0
142
1.0
143
1.0
 70
  1712
 72
     1
 73
     0
 74
     0
  7

 75
     0
147
1.0
148
0.0
149
0.0
100
AcDbLayout
  1
Model
 70
     1
 71
     0
 10
0.0
 20
0.0
 11
420.0
 21
297.0
 12
0.0
 22
0.0
 32
0.0
 14
-355.0
 24
-12.0
 34
0.0
 15
70.0
 25
1007.5
 35
0.0
146
0.0
 13
0.0
 23
0.0
 33
0.0
 16
1.0
 26
0.0
 36
0.0
 17
0.0
 27
1.0
 37
0.0
 76
     0
330
1F
331
29
  0
MLINESTYLE
  5
18
102
{ACAD_REACTORS
330
17
102
}
330
17
100
AcDbMlineStyle
  2
Standard
 70
     0
  3

 62
   256
 51
90.0
 52
90.0
 71
     2
 49
0.5
 62
   256
  6
BYLAYER
 49
-0.5
 62
   256
  6
BYLAYER
  0
ACDBPLACEHOLDER
  5
F
102
{ACAD_REACTORS
330
E
102
}
330
E
  0
SCALE
  5
48
102
{ACAD_REACTORS
330
47
102
}
330
47
100
AcDbScale
 70
     0
300
1:1
140
1.0
141
1.0
290
     1
  0
SCALE
  5
49
102
{ACAD_REACTORS
330
47
102
}
330
47
100
AcDbScale
 70
     0
300
1:2
140
1.0
141
2.0
290
     0
  0
SCALE
  5
4A
102
{ACAD_REACTORS
330
47
102
}
330
47
100
AcDbScale
 70
     0
300
1:4
140
1.0
141
4.0
290
     0
  0
SCALE
  5
4B
102
{ACAD_REACTORS
330
47
102
}
330
47
100
AcDbScale
 70
     0
300
1:5
140
1.0
141
5.0
290
     0
  0
SCALE
  5
4C
102
{ACAD_REACTORS
330
47
102
}
330
47
100
AcDbScale
 70
     0
300
1:8
140
1.0
141
8.0
290
     0
  0
SCALE
  5
4D
102
{ACAD_REACTORS
330
47
102
}
330
47
100
AcDbScale
 70
     0
300
1:10
140
1.0
141
10.0
290
     0
  0
SCALE
  5
4E
102
{ACAD_REACTORS
330
47
102
}
330
47
100
AcDbScale
 70
     0
300
1:16
140
1.0
141
16.0
290
     0
  0
SCALE
  5
4F
102
{ACAD_REACTORS
330
47
102
}
330
47
100
AcDbScale
 70
     0
300
1:20
140
1.0
141
20.0
290
     0
  0
SCALE
  5
50
102
{ACAD_REACTORS
330
47
102
}
330
47
100
AcDbScale
 70
     0
300
1:30
140
1.0
141
30.0
290
     0
  0
SCALE
  5
51
102
{ACAD_REACTORS
330
47
102
}
330
47
100
AcDbScale
 70
     0
300
1:40
140
1.0
141
40.0
290
     0
  0
SCALE
  5
52
102
{ACAD_REACTORS
330
47
102
}
330
47
100
AcDbScale
 70
     0
300
1:50
140
1.0
141
50.0
290
     0
  0
SCALE
  5
53
102
{ACAD_REACTORS
330
47
102
}
330
47
100
AcDbScale
 70
     0
300
1:100
140
1.0
141
100.0
290
     0
  0
SCALE
  5
54
102
{ACAD_REACTORS
330
47
102
}
330
47
100
AcDbScale
 70
     0
300
2:1
140
2.0
141
1.0
290
     0
  0
SCALE
  5
55
102
{ACAD_REACTORS
330
47
102
}
330
47
100
AcDbScale
 70
     0
300
4:1
140
4.0
141
1.0
290
     0
  0
SCALE
  5
56
102
{ACAD_REACTORS
330
47
102
}
330
47
100
AcDbScale
 70
     0
300
8:1
140
8.0
141
1.0
290
     0
  0
SCALE
  5
57
102
{ACAD_REACTORS
330
47
102
}
330
47
100
AcDbScale
 70
     0
300
10:1
140
10.0
141
1.0
290
     0
  0
SCALE
  5
58
102
{ACAD_REACTORS
330
47
102
}
330
47
100
AcDbScale
 70
     0
300
100:1
140
100.0
141
1.0
290
     0
  0
SCALE
  5
59
102
{ACAD_REACTORS
330
47
102
}
330
47
100
AcDbScale
 70
     0
300
1/128" = 1'-0"
140
0.0078125
141
12.0
290
     0
  0
SCALE
  5
5A
102
{ACAD_REACTORS
330
47
102
}
330
47
100
AcDbScale
 70
     0
300
1/64" = 1'-0"
140
0.015625
141
12.0
290
     0
  0
SCALE
  5
5B
102
{ACAD_REACTORS
330
47
102
}
330
47
100
AcDbScale
 70
     0
300
1/32" = 1'-0"
140
0.03125
141
12.0
290
     0
  0
SCALE
  5
5C
102
{ACAD_REACTORS
330
47
102
}
330
47
100
AcDbScale
 70
     0
300
1/16" = 1'-0"
140
0.0625
141
12.0
290
     0
  0
SCALE
  5
5D
102
{ACAD_REACTORS
330
47
102
}
330
47
100
AcDbScale
 70
     0
300
3/32" = 1'-0"
140
0.09375
141
12.0
290
     0
  0
SCALE
  5
5E
102
{ACAD_REACTORS
330
47
102
}
330
47
100
AcDbScale
 70
     0
300
1/8" = 1'-0"
140
0.125
141
12.0
290
     0
  0
SCALE
  5
5F
102
{ACAD_REACTORS
330
47
102
}
330
47
100
AcDbScale
 70
     0
300
3/16" = 1'-0"
140
0.1875
141
12.0
290
     0
  0
SCALE
  5
60
102
{ACAD_REACTORS
330
47
102
}
330
47
100
AcDbScale
 70
     0
300
1/4" = 1'-0"
140
0.25
141
12.0
290
     0
  0
SCALE
  5
61
102
{ACAD_REACTORS
330
47
102
}
330
47
100
AcDbScale
 70
     0
300
3/8" = 1'-0"
140
0.375
141
12.0
290
     0
  0
SCALE
  5
62
102
{ACAD_REACTORS
330
47
102
}
330
47
100
AcDbScale
 70
     0
300
1/2" = 1'-0"
140
0.5
141
12.0
290
     0
  0
SCALE
  5
63
102
{ACAD_REACTORS
330
47
102
}
330
47
100
AcDbScale
 70
     0
300
3/4" = 1'-0"
140
0.75
141
12.0
290
     0
  0
SCALE
  5
64
102
{ACAD_REACTORS
330
47
102
}
330
47
100
AcDbScale
 70
     0
300
1" = 1'-0"
140
1.0
141
12.0
290
     0
  0
SCALE
  5
65
102
{ACAD_REACTORS
330
47
102
}
330
47
100
AcDbScale
 70
     0
300
1-1/2" = 1'-0"
140
1.5
141
12.0
290
     0
  0
SCALE
  5
66
102
{ACAD_REACTORS
330
47
102
}
330
47
100
AcDbScale
 70
     0
300
3" = 1'-0"
140
3.0
141
12.0
290
     0
  0
SCALE
  5
67
102
{ACAD_REACTORS
330
47
102
}
330
47
100
AcDbScale
 70
     0
300
6" = 1'-0"
140
6.0
141
12.0
290
     0
  0
SCALE
  5
68
102
{ACAD_REACTORS
330
47
102
}
330
47
100
AcDbScale
 70
     0
300
1'-0" = 1'-0"
140
12.0
141
12.0
290
     0
  0
ENDSEC
  0
EOF
