  0
SECTION
  2
HEADER
  9
$ACADVER
  1
AC1015
  9
$ACADMAINTVER
 70
     6
  9
$DWGCODEPAGE
  3
ANSI_1252
  9
$INSBASE
 10
0.0
 20
0.0
 30
0.0
  9
$EXTMIN
 10
-282.2840283629
 20
0.0
 30
0.0
  9
$EXTMAX
 10
282.2840290343
 20
146.9999864058
 30
0.0
  9
$LIMMIN
 10
0.0
 20
0.0
  9
$LIMMAX
 10
420.0
 20
297.0
  9
$ORTHOMODE
 70
     0
  9
$REGENMODE
 70
     1
  9
$FILLMODE
 70
     1
  9
$QTEXTMODE
 70
     0
  9
$MIRRTEXT
 70
     1
  9
$LTSCALE
 40
1.0
  9
$ATTMODE
 70
     1
  9
$TEXTSIZE
 40
3.5
  9
$TRACEWID
 40
1.0
  9
$TEXTSTYLE
  7
Standard
  9
$CLAYER
  8
0
  9
$CELTYPE
  6
ByLayer
  9
$CECOLOR
 62
   256
  9
$CELTSCALE
 40
1.0
  9
$DISPSILH
 70
     0
  9
$DIMSCALE
 40
1.0
  9
$DIMASZ
 40
3.302
  9
$DIMEXO
 40
1.0
  9
$DIMDLI
 40
3.75
  9
$DIMRND
 40
0.0
  9
$DIMDLE
 40
0.0
  9
$DIMEXE
 40
1.0
  9
$DIMTP
 40
0.0
  9
$DIMTM
 40
0.0
  9
$DIMTXT
 40
3.5
  9
$DIMCEN
 40
2.5
  9
$DIMTSZ
 40
0.0
  9
$DIMTOL
 70
     0
  9
$DIMLIM
 70
     0
  9
$DIMTIH
 70
     1
  9
$DIMTOH
 70
     1
  9
$DIMSE1
 70
     0
  9
$DIMSE2
 70
     0
  9
$DIMTAD
 70
     1
  9
$DIMZIN
 70
     1
  9
$DIMBLK
  1

  9
$DIMASO
 70
     1
  9
$DIMSHO
 70
     1
  9
$DIMPOST
  1

  9
$DIMAPOST
  1

  9
$DIMALT
 70
     0
  9
$DIMALTD
 70
     3
  9
$DIMALTF
 40
0.0393700787
  9
$DIMLFAC
 40
1.0
  9
$DIMTOFL
 70
     1
  9
$DIMTVP
 40
0.0
  9
$DIMTIX
 70
     0
  9
$DIMSOXD
 70
     0
  9
$DIMSAH
 70
     0
  9
$DIMBLK1
  1

  9
$DIMBLK2
  1

  9
$DIMSTYLE
  2
ISO-25
  9
$DIMCLRD
 70
     0
  9
$DIMCLRE
 70
     0
  9
$DIMCLRT
 70
     0
  9
$DIMTFAC
 40
1.0
  9
$DIMGAP
 40
1.524
  9
$DIMJUST
 70
     0
  9
$DIMSD1
 70
     0
  9
$DIMSD2
 70
     0
  9
$DIMTOLJ
 70
     0
  9
$DIMTZIN
 70
     1
  9
$DIMALTZ
 70
     0
  9
$DIMALTTZ
 70
     0
  9
$DIMUPT
 70
     0
  9
$DIMDEC
 70
     2
  9
$DIMTDEC
 70
     2
  9
$DIMALTU
 70
     2
  9
$DIMALTTD
 70
     3
  9
$DIMTXSTY
  7
Standard
  9
$DIMAUNIT
 70
     0
  9
$DIMADEC
 70
     2
  9
$DIMALTRND
 40
0.0
  9
$DIMAZIN
 70
     0
  9
$DIMDSEP
 70
    44
  9
$DIMATFIT
 70
     3
  9
$DIMFRAC
 70
     0
  9
$DIMLDRBLK
  1

  9
$DIMLUNIT
 70
     2
  9
$DIMLWD
 70
    -2
  9
$DIMLWE
 70
    -2
  9
$DIMTMOVE
 70
     0
  9
$LUNITS
 70
     2
  9
$LUPREC
 70
     2
  9
$SKETCHINC
 40
1.0
  9
$FILLETRAD
 40
10.0
  9
$AUNITS
 70
     0
  9
$AUPREC
 70
     2
  9
$MENU
  1
.
  9
$ELEVATION
 40
0.0
  9
$PELEVATION
 40
0.0
  9
$THICKNESS
 40
0.0
  9
$LIMCHECK
 70
     0
  9
$CHAMFERA
 40
0.0
  9
$CHAMFERB
 40
0.0
  9
$CHAMFERC
 40
0.0
  9
$CHAMFERD
 40
0.0
  9
$SKPOLY
 70
     0
  9
$TDCREATE
 40
2460292.514599039
  9
$TDUCREATE
 40
2460292.514599039
  9
$TDUPDATE
 40
2460292.514645926
  9
$TDUUPDATE
 40
2460292.514645926
  9
$TDINDWG
 40
0.0000000116
  9
$TDUSRTIMER
 40
0.0000000116
  9
$USRTIMER
 70
     1
  9
$ANGBASE
 50
0.0
  9
$ANGDIR
 70
     0
  9
$PDMODE
 70
     0
  9
$PDSIZE
 40
-1.0
  9
$PLINEWID
 40
0.0
  9
$SPLFRAME
 70
     0
  9
$SPLINETYPE
 70
     6
  9
$SPLINESEGS
 70
     8
  9
$HANDSEED
  5
13D
  9
$SURFTAB1
 70
     6
  9
$SURFTAB2
 70
     6
  9
$SURFTYPE
 70
     6
  9
$SURFU
 70
     6
  9
$SURFV
 70
     6
  9
$UCSBASE
  2

  9
$UCSNAME
  2

  9
$UCSORG
 10
0.0
 20
0.0
 30
0.0
  9
$UCSXDIR
 10
1.0
 20
0.0
 30
0.0
  9
$UCSYDIR
 10
0.0
 20
1.0
 30
0.0
  9
$UCSORTHOREF
  2

  9
$UCSORTHOVIEW
 70
     0
  9
$UCSORGTOP
 10
0.0
 20
0.0
 30
0.0
  9
$UCSORGBOTTOM
 10
0.0
 20
0.0
 30
0.0
  9
$UCSORGLEFT
 10
0.0
 20
0.0
 30
0.0
  9
$UCSORGRIGHT
 10
0.0
 20
0.0
 30
0.0
  9
$UCSORGFRONT
 10
0.0
 20
0.0
 30
0.0
  9
$UCSORGBACK
 10
0.0
 20
0.0
 30
0.0
  9
$PUCSBASE
  2

  9
$PUCSNAME
  2

  9
$PUCSORG
 10
0.0
 20
0.0
 30
0.0
  9
$PUCSXDIR
 10
1.0
 20
0.0
 30
0.0
  9
$PUCSYDIR
 10
0.0
 20
1.0
 30
0.0
  9
$PUCSORTHOREF
  2

  9
$PUCSORTHOVIEW
 70
     0
  9
$PUCSORGTOP
 10
0.0
 20
0.0
 30
0.0
  9
$PUCSORGBOTTOM
 10
0.0
 20
0.0
 30
0.0
  9
$PUCSORGLEFT
 10
0.0
 20
0.0
 30
0.0
  9
$PUCSORGRIGHT
 10
0.0
 20
0.0
 30
0.0
  9
$PUCSORGFRONT
 10
0.0
 20
0.0
 30
0.0
  9
$PUCSORGBACK
 10
0.0
 20
0.0
 30
0.0
  9
$USERI1
 70
     0
  9
$USERI2
 70
     0
  9
$USERI3
 70
     0
  9
$USERI4
 70
     0
  9
$USERI5
 70
     0
  9
$USERR1
 40
0.0
  9
$USERR2
 40
0.0
  9
$USERR3
 40
0.0
  9
$USERR4
 40
0.0
  9
$USERR5
 40
0.0
  9
$WORLDVIEW
 70
     1
  9
$SHADEDGE
 70
     3
  9
$SHADEDIF
 70
    70
  9
$TILEMODE
 70
     1
  9
$MAXACTVP
 70
    64
  9
$PINSBASE
 10
0.0
 20
0.0
 30
0.0
  9
$PLIMCHECK
 70
     0
  9
$PEXTMIN
 10
-282.2840283626
 20
-181.4562385198
 30
0.0
  9
$PEXTMAX
 10
282.2840287669
 20
181.4562394778
 30
0.0
  9
$PLIMMIN
 10
-326.2192857267
 20
-197.9319600314
  9
$PLIMMAX
 10
326.2192861311
 20
263.3882422923
  9
$UNITMODE
 70
     0
  9
$VISRETAIN
 70
     1
  9
$PLINEGEN
 70
     0
  9
$PSLTSCALE
 70
     1
  9
$TREEDEPTH
 70
  3020
  9
$CMLSTYLE
  2
Standard
  9
$CMLJUST
 70
     0
  9
$CMLSCALE
 40
20.0
  9
$PROXYGRAPHICS
 70
     1
  9
$MEASUREMENT
 70
     1
  9
$CELWEIGHT
370
    -1
  9
$ENDCAPS
280
     0
  9
$JOINSTYLE
280
     0
  9
$LWDISPLAY
290
     1
  9
$INSUNITS
 70
     4
  9
$HYPERLINKBASE
  1

  9
$STYLESHEET
  1

  9
$XEDIT
290
     1
  9
$CEPSNTYPE
380
     0
  9
$PSTYLEMODE
290
     1
  9
$FINGERPRINTGUID
  2
{c4fae08b-39a7-44d2-ba35-6d8f5597dc74}
  9
$VERSIONGUID
  2
{FAEB1C32-E019-11D5-929B-00C0DF256EC4}
  9
$EXTNAMES
290
     1
  9
$PSVPSCALE
 40
0.0
  9
$OLESTARTUP
290
     0
  0
ENDSEC
  0
SECTION
  2
CLASSES
  0
CLASS
  1
ACDBDICTIONARYWDFLT
  2
AcDbDictionaryWithDefault
  3
ObjectDBX Classes
 90
        0
280
     0
281
     0
  0
CLASS
  1
VISUALSTYLE
  2
AcDbVisualStyle
  3
ObjectDBX Classes
 90
     4095
280
     0
281
     0
  0
CLASS
  1
MATERIAL
  2
AcDbMaterial
  3
ObjectDBX Classes
 90
     1153
280
     0
281
     0
  0
CLASS
  1
SCALE
  2
AcDbScale
  3
ObjectDBX Classes
 90
     1153
280
     0
281
     0
  0
CLASS
  1
TABLESTYLE
  2
AcDbTableStyle
  3
ObjectDBX Classes
 90
     4095
280
     0
281
     0
  0
CLASS
  1
MLEADERSTYLE
  2
AcDbMLeaderStyle
  3
ACDB_MLEADERSTYLE_CLASS
 90
     4095
280
     0
281
     0
  0
CLASS
  1
SUN
  2
AcDbSun
  3
SCENEOE
 90
     1153
280
     0
281
     0
  0
CLASS
  1
ACDBPLACEHOLDER
  2
AcDbPlaceHolder
  3
ObjectDBX Classes
 90
        0
280
     0
281
     0
  0
CLASS
  1
LAYOUT
  2
AcDbLayout
  3
ObjectDBX Classes
 90
        0
280
     0
281
     0
  0
ENDSEC
  0
SECTION
  2
TABLES
  0
TABLE
  2
VPORT
  5
8
330
0
100
AcDbSymbolTable
 70
     1
  0
VPORT
  5
29
330
8
100
AcDbSymbolTableRecord
100
AcDbViewportTableRecord
  2
*Active
 70
     0
 10
0.0
 20
0.0
 11
1.0
 21
1.0
 12
0.0000003357
 22
73.4999932029
 13
0.0
 23
0.0
 14
10.0
 24
10.0
 15
10.0
 25
10.0
 16
0.0
 26
0.0
 36
1.0
 17
0.0
 27
0.0
 37
0.0
 40
149.9399861339
 41
3.8405993851
 42
50.0
 43
0.0
 44
0.0
 50
0.0
 51
0.0
 71
     0
 72
   100
 73
     1
 74
     3
 75
     0
 76
     0
 77
     0
 78
     0
281
     0
 65
     1
110
0.0
120
0.0
130
0.0
111
1.0
121
0.0
131
0.0
112
0.0
122
1.0
132
0.0
 79
     0
146
0.0
  0
ENDTAB
  0
TABLE
  2
LTYPE
  5
5
330
0
100
AcDbSymbolTable
 70
     6
  0
LTYPE
  5
14
330
5
100
AcDbSymbolTableRecord
100
AcDbLinetypeTableRecord
  2
ByBlock
 70
     0
  3

 72
    65
 73
     0
 40
0.0
  0
LTYPE
  5
15
330
5
100
AcDbSymbolTableRecord
100
AcDbLinetypeTableRecord
  2
ByLayer
 70
     0
  3

 72
    65
 73
     0
 40
0.0
  0
LTYPE
  5
16
330
5
100
AcDbSymbolTableRecord
100
AcDbLinetypeTableRecord
  2
Continuous
 70
     0
  3
Solid line
 72
    65
 73
     0
 40
0.0
  0
LTYPE
  5
6E
330
5
100
AcDbSymbolTableRecord
100
AcDbLinetypeTableRecord
  2
HIDDEN
 70
     0
  3
Hidden __ __ __ __ __ __ __ __ __ __ __ __ __ __
 72
    65
 73
     2
 40
1.905
 49
1.27
 74
     0
 49
-0.635
 74
     0
  0
LTYPE
  5
6F
330
5
100
AcDbSymbolTableRecord
100
AcDbLinetypeTableRecord
  2
PHANTOM
 70
     0
  3
Phantom ______  __  __  ______  __  __  ______
 72
    65
 73
     6
 40
12.7
 49
6.35
 74
     0
 49
-1.27
 74
     0
 49
1.27
 74
     0
 49
-1.27
 74
     0
 49
1.27
 74
     0
 49
-1.27
 74
     0
  0
LTYPE
  5
70
330
5
100
AcDbSymbolTableRecord
100
AcDbLinetypeTableRecord
  2
CENTER
 70
     0
  3
Center ____ _ ____ _ ____ _ ____ _ ____ _ ____
 72
    65
 73
     4
 40
10.16
 49
6.35
 74
     0
 49
-1.27
 74
     0
 49
1.27
 74
     0
 49
-1.27
 74
     0
  0
LTYPE
  5
71
330
5
100
AcDbSymbolTableRecord
100
AcDbLinetypeTableRecord
  2
CENTERX2
 70
     0
  3
Center (2x) ________  __  ________  __  _____
 72
    65
 73
     4
 40
20.32
 49
12.7
 74
     0
 49
-2.54
 74
     0
 49
2.54
 74
     0
 49
-2.54
 74
     0
  0
LTYPE
  5
72
330
5
100
AcDbSymbolTableRecord
100
AcDbLinetypeTableRecord
  2
DOT2
 70
     0
  3
Dot (.5x) ........................................
 72
    65
 73
     2
 40
0.635
 49
0.0
 74
     0
 49
-0.635
 74
     0
  0
ENDTAB
  0
TABLE
  2
LAYER
  5
2
330
0
100
AcDbSymbolTable
 70
     1
  0
LAYER
  5
10
330
2
100
AcDbSymbolTableRecord
100
AcDbLayerTableRecord
  2
0
 70
     0
 62
     7
  6
Continuous
370
    -3
390
F
  0
ENDTAB
  0
TABLE
  2
STYLE
  5
3
330
0
100
AcDbSymbolTable
 70
     1
  0
STYLE
  5
11
330
3
100
AcDbSymbolTableRecord
100
AcDbTextStyleTableRecord
  2
Standard
 70
     0
 40
0.0
 41
1.0
 50
0.0
 71
     0
 42
3.5
  3
txt
  4

  0
ENDTAB
  0
TABLE
  2
VIEW
  5
6
330
0
100
AcDbSymbolTable
 70
     0
  0
ENDTAB
  0
TABLE
  2
UCS
  5
7
330
0
100
AcDbSymbolTable
 70
     0
  0
ENDTAB
  0
TABLE
  2
APPID
  5
9
330
0
100
AcDbSymbolTable
 70
     1
  0
APPID
  5
12
330
9
100
AcDbSymbolTableRecord
100
AcDbRegAppTableRecord
  2
ACAD
 70
     0
  0
ENDTAB
  0
TABLE
  2
DIMSTYLE
  5
A
330
0
100
AcDbSymbolTable
 70
     1
100
AcDbDimStyleTable
  0
DIMSTYLE
105
27
330
A
100
AcDbSymbolTableRecord
100
AcDbDimStyleTableRecord
  2
ISO-25
 70
     0
 41
2.5
 42
0.625
 43
3.75
 44
1.25
 73
     0
 74
     0
 77
     1
 78
     8
140
2.5
141
2.5
143
0.0393700787
147
0.625
171
     3
172
     1
178
     0
271
     2
272
     2
274
     3
278
    44
283
     0
284
     8
340
11
  0
ENDTAB
  0
TABLE
  2
BLOCK_RECORD
  5
1
330
0
100
AcDbSymbolTable
 70
     3
  0
BLOCK_RECORD
  5
1F
330
1
100
AcDbSymbolTableRecord
100
AcDbBlockTableRecord
  2
*Model_Space
340
22
  0
BLOCK_RECORD
  5
1B
330
1
100
AcDbSymbolTableRecord
100
AcDbBlockTableRecord
  2
*Paper_Space
340
1E
  0
BLOCK_RECORD
  5
23
330
1
100
AcDbSymbolTableRecord
100
AcDbBlockTableRecord
  2
*Paper_Space0
340
26
  0
BLOCK_RECORD
  5
AF
330
1
100
AcDbSymbolTableRecord
100
AcDbBlockTableRecord
  2
*Paper_Space1
340
B0
  0
BLOCK_RECORD
  5
100
330
1
100
AcDbSymbolTableRecord
100
AcDbBlockTableRecord
  2
*Paper_Space2
340
101
  0
ENDTAB
  0
ENDSEC
  0
SECTION
  2
BLOCKS
  0
BLOCK
  5
20
330
1F
100
AcDbEntity
  8
0
100
AcDbBlockBegin
  2
*Model_Space
 70
     0
 10
0.0
 20
0.0
 30
0.0
  3
*Model_Space
  1

  0
ENDBLK
  5
21
330
1F
100
AcDbEntity
  8
0
100
AcDbBlockEnd
  0
BLOCK
  5
1C
330
1B
100
AcDbEntity
 67
     1
  8
0
100
AcDbBlockBegin
  2
*Paper_Space
 70
     0
 10
0.0
 20
0.0
 30
0.0
  3
*Paper_Space
  1

  0
ENDBLK
  5
1D
330
1B
100
AcDbEntity
 67
     1
  8
0
100
AcDbBlockEnd
  0
BLOCK
  5
24
330
23
100
AcDbEntity
  8
0
100
AcDbBlockBegin
  2
*Paper_Space0
 70
     0
 10
0.0
 20
0.0
 30
0.0
  3
*Paper_Space0
  1

  0
SPLINE
  5
A0
330
23
100
AcDbEntity
  8
0
  6
Continuous
 62
     7
370
    25
100
AcDbSpline
210
0.0
220
0.0
230
1.0
 70
     8
 71
     3
 72
    67
 73
    63
 74
     0
 42
0.000000001
 43
0.00000001
 40
0.0
 40
0.0
 40
0.0
 40
0.0
 40
0.0014867095571758
 40
0.0029832491853325
 40
0.0058295267262944
 40
0.0071401453704381
 40
0.0083773322798339
 40
0.0108139031681788
 40
0.0194742036728829
 40
0.0299493305404643
 40
0.0420063174921471
 40
0.0556805494104736
 40
0.0703421725898922
 40
0.0889619753679339
 40
0.1068691785476991
 40
0.1240700539640436
 40
0.1453605371382354
 40
0.1658287928639004
 40
0.1862596061858677
 40
0.2066859533218769
 40
0.2271115815805008
 40
0.2475371203762959
 40
0.2679587970970887
 40
0.2883761410941039
 40
0.3087933715826652
 40
0.3292103596260915
 40
0.3496246759985044
 40
0.3700393253788647
 40
0.3904557736302467
 40
0.4108704911589811
 40
0.4312799395322675
 40
0.4516891035719798
 40
0.472102233689857
 40
0.4925180616026436
 40
0.5129311848890202
 40
0.5333418476098023
 40
0.553754043385976
 40
0.5741659395688724
 40
0.5945780457286017
 40
0.6149925175300172
 40
0.6354100958123028
 40
0.6558260424282576
 40
0.6762400040758351
 40
0.6966555216474287
 40
0.7170758106572557
 40
0.7374990406834038
 40
0.7579217815401441
 40
0.7783442362722689
 40
0.7987800970333605
 40
0.8194667167760806
 40
0.8405035444674988
 40
0.8618935935827187
 40
0.8836443471415165
 40
0.905854172826169
 40
0.9285889383651085
 40
0.9385034313641085
 40
0.9485243609944022
 40
0.9586552847891864
 40
0.9687923258267914
 40
0.979011630487974
 40
0.989485572500765
 40
1.0
 40
1.0
 40
1.0
 40
1.0
 10
181.4471888238008
 20
141.8245047324815
 30
0.0
 10
181.4355765406797
 20
142.1158744714019
 30
0.0
 10
181.4122751944323
 20
142.7005404756456
 30
0.0
 10
181.1282552526098
 20
143.7977369032063
 30
0.0
 10
180.6133045823465
 20
144.750714985963
 30
0.0
 10
180.0336955800771
 20
145.4275307617303
 30
0.0
 10
179.5091571287388
 20
145.908577943489
 30
0.0
 10
178.8299596888873
 20
146.3765265408596
 30
0.0
 10
177.9380981798238
 20
146.7849662242908
 30
0.0
 10
176.9715196961886
 20
146.9670233444017
 30
0.0
 10
176.0206920259551
 20
147.0024545004668
 30
0.0
 10
175.064876618025
 20
146.9992394199175
 30
0.0
 10
173.8080420789369
 20
147.0002235250292
 30
0.0
 10
171.8173212259798
 20
146.9998970742903
 30
0.0
 10
169.1260071027017
 20
146.9999925932433
 30
0.0
 10
165.677369721618
 20
146.9999713704514
 30
0.0
 10
161.3804889899316
 20
146.9999812157524
 30
0.0
 10
156.076592332093
 20
146.9999799922275
 30
0.0
 10
150.1209817693088
 20
146.9999814756859
 30
0.0
 10
143.4757214794789
 20
146.9999820609112
 30
0.0
 10
136.1703990579708
 20
146.9999826901581
 30
0.0
 10
128.2380024496755
 20
146.9999830817049
 30
0.0
 10
119.7121167526308
 20
146.9999835633478
 30
0.0
 10
110.634739076622
 20
146.9999840033255
 30
0.0
 10
101.0488876989564
 20
146.9999842696456
 30
0.0
 10
90.99772036048948
 20
146.9999843850422
 30
0.0
 10
80.52519373701351
 20
146.9999846901798
 30
0.0
 10
69.68177916251976
 20
146.9999849839844
 30
0.0
 10
58.51799960568237
 20
146.9999850817274
 30
0.0
 10
47.08548759184412
 20
146.9999850616335
 30
0.0
 10
35.43609484890558
 20
146.9999853072883
 30
0.0
 10
23.62384367499485
 20
146.9999854928081
 30
0.0
 10
11.70169258797377
 20
146.9999854517132
 30
0.0
 10
-0.2753633199073192
 20
146.99998529848
 30
0.0
 10
-12.25065073223816
 20
146.9999854148906
 30
0.0
 10
-24.16858992443626
 20
146.9999854507817
 30
0.0
 10
-35.97514303037326
 20
146.9999853066931
 30
0.0
 10
-47.61624130875204
 20
146.9999850932268
 30
0.0
 10
-59.03704865495832
 20
146.9999850597559
 30
0.0
 10
-70.18693199366885
 20
146.999984923344
 30
0.0
 10
-81.0149162082434
 20
146.9999847000043
 30
0.0
 10
-91.46938068076012
 20
146.9999844372402
 30
0.0
 10
-101.4995409065755
 20
146.9999842179925
 30
0.0
 10
-111.0626975530741
 20
146.9999839054458
 30
0.0
 10
-120.1161421540748
 20
146.999983608184
 30
0.0
 10
-128.615780648015
 20
146.9999832057301
 30
0.0
 10
-136.5194094881779
 20
146.9999825018399
 30
0.0
 10
-143.7956205500498
 20
146.9999821804552
 30
0.0
 10
-150.4380173602897
 20
146.9999804610709
 30
0.0
 10
-156.4373527634237
 20
146.9999844382059
 30
0.0
 10
-161.7631717171921
 20
146.9999641027165
 30
0.0
 10
-166.3773441725122
 20
147.0000332288005
 30
0.0
 10
-170.1797912999802
 20
146.9997579735258
 30
0.0
 10
-173.3122722556982
 20
147.0009169385045
 30
0.0
 10
-175.2730553816762
 20
146.98686681842
 30
0.0
 10
-176.4205423220883
 20
146.9527941197701
 30
0.0
 10
-177.1037172377055
 20
146.9051157975008
 30
0.0
 10
-177.4969045284606
 20
146.8667526949077
 30
0.0
 10
-178.2298792413182
 20
146.6819393017502
 30
0.0
 10
-179.7167344518916
 20
145.8846259221775
 30
0.0
 10
-181.1790386724269
 20
144.0974311863241
 30
0.0
 10
-181.3576905699022
 20
142.5831205598682
 30
0.0
 10
-181.4471888238056
 20
141.8245047329423
 30
0.0
  0
SPLINE
  5
A2
330
23
100
AcDbEntity
  8
0
  6
Continuous
 62
     7
370
    25
100
AcDbSpline
210
0.0
220
0.0
230
1.0
 70
    24
 71
     3
 72
    11
 73
     7
 74
     0
 42
0.000000001
 43
0.00000001
 40
0.0
 40
0.0
 40
0.0
 40
0.0
 40
0.2501654659179031
 40
0.5041433675423672
 40
0.7561986547211369
 40
1.0
 40
1.0
 40
1.0
 40
1.0
 10
-181.4471888238006
 20
141.8245047324662
 30
0.0
 10
-181.332298472414
 20
130.5652502965735
 30
0.0
 10
-181.1007668801789
 20
107.8751542575381
 30
0.0
 10
-180.749394396953
 20
73.44065090140879
 30
0.0
 10
-180.3984931553516
 20
39.05232922446476
 30
0.0
 10
-180.165203163022
 20
16.18990997615927
 30
0.0
 10
-180.0504998188554
 20
4.948982247835493
 30
0.0
  0
SPLINE
  5
A3
330
23
100
AcDbEntity
  8
0
  6
Continuous
 62
     7
370
    25
100
AcDbSpline
210
0.0
220
0.0
230
1.0
 70
     8
 71
     3
 72
   113
 73
   109
 74
     0
 42
0.000000001
 43
0.00000001
 40
0.0
 40
0.0
 40
0.0
 40
0.0
 40
0.0078124999999999
 40
0.0078124999999999
 40
0.0156249999999998
 40
0.0156249999999998
 40
0.0312499999999996
 40
0.0312499999999996
 40
0.0390624999999996
 40
0.0390624999999996
 40
0.0468749999999995
 40
0.0468749999999995
 40
0.0624999999999994
 40
0.0624999999999994
 40
0.0937499999999991
 40
0.0937499999999991
 40
0.1249999999999987
 40
0.1249999999999987
 40
0.1406249999999985
 40
0.1406249999999985
 40
0.1562499999999983
 40
0.1562499999999983
 40
0.1874999999999979
 40
0.1874999999999979
 40
0.2187499999999974
 40
0.2187499999999974
 40
0.2343749999999972
 40
0.2343749999999972
 40
0.242187499999997
 40
0.242187499999997
 40
0.2499999999999968
 40
0.2499999999999968
 40
0.2812499999999964
 40
0.2812499999999964
 40
0.312499999999996
 40
0.312499999999996
 40
0.3437499999999956
 40
0.3437499999999956
 40
0.3515624999999954
 40
0.3515624999999954
 40
0.3593749999999954
 40
0.3593749999999954
 40
0.3749999999999953
 40
0.3749999999999953
 40
0.4062499999999949
 40
0.4062499999999949
 40
0.4374999999999946
 40
0.4374999999999946
 40
0.4531249999999945
 40
0.4531249999999945
 40
0.4609374999999944
 40
0.4609374999999944
 40
0.4687499999999944
 40
0.4687499999999944
 40
0.4999999999999943
 40
0.4999999999999943
 40
0.5312499999999942
 40
0.5312499999999942
 40
0.562499999999994
 40
0.562499999999994
 40
0.578124999999994
 40
0.578124999999994
 40
0.5937499999999939
 40
0.5937499999999939
 40
0.6249999999999939
 40
0.6249999999999939
 40
0.6562499999999938
 40
0.6562499999999938
 40
0.6718749999999938
 40
0.6718749999999938
 40
0.6796874999999937
 40
0.6796874999999937
 40
0.6874999999999936
 40
0.6874999999999936
 40
0.7187499999999938
 40
0.7187499999999938
 40
0.7499999999999939
 40
0.7499999999999939
 40
0.7812499999999941
 40
0.7812499999999941
 40
0.7890624999999941
 40
0.7890624999999941
 40
0.7968749999999942
 40
0.7968749999999942
 40
0.8124999999999946
 40
0.8124999999999946
 40
0.8437499999999953
 40
0.8437499999999953
 40
0.874999999999996
 40
0.874999999999996
 40
0.8906249999999964
 40
0.8906249999999964
 40
0.8984374999999967
 40
0.8984374999999967
 40
0.9062499999999969
 40
0.9062499999999969
 40
0.9374999999999978
 40
0.9374999999999978
 40
0.945312499999998
 40
0.945312499999998
 40
0.9531249999999982
 40
0.9531249999999982
 40
0.9687499999999988
 40
0.9843749999999994
 40
0.9843749999999994
 40
0.9921874999999997
 40
0.9921874999999997
 40
1.0
 40
1.0
 40
1.0
 40
1.0
 10
-180.0504998188554
 20
4.948982247835493
 30
0.0
 10
-180.0504998188555
 20
4.948982247835493
 30
0.0
 10
-180.0344606257909
 20
4.946579265723352
 30
0.0
 10
-179.963293856718
 20
4.944053558998296
 30
0.0
 10
-179.9093452173962
 20
4.942792734078702
 30
0.0
 10
-179.6925501248498
 20
4.939015199621061
 30
0.0
 10
-179.4747996081416
 20
4.936503444814042
 30
0.0
 10
-179.0381159411322
 20
4.932740772658429
 30
0.0
 10
-178.8742153582337
 20
4.931487843749721
 30
0.0
 10
-178.5110686792608
 20
4.928991856021497
 30
0.0
 10
-178.3117003188911
 20
4.927747679897287
 30
0.0
 10
-177.6607033205878
 20
4.924025228869352
 30
0.0
 10
-177.1562250243942
 20
4.921556499231775
 30
0.0
 10
-175.4337078046616
 20
4.914183517231482
 30
0.0
 10
-174.0073128229868
 20
4.909360676849952
 30
0.0
 10
-170.6057326675182
 20
4.899847970504926
 30
0.0
 10
-168.6305653474553
 20
4.895157020582672
 30
0.0
 10
-165.2456449675346
 20
4.88818469312656
 30
0.0
 10
-164.0468155503343
 20
4.885883547889283
 30
0.0
 10
-161.5055870397482
 20
4.881321998426044
 30
0.0
 10
-160.173270884649
 20
4.879079722340085
 30
0.0
 10
-155.9979997562527
 20
4.872461030325876
 30
0.0
 10
-152.9761065615691
 20
4.868188895340464
 30
0.0
 10
-146.4630539550919
 20
4.859879838821787
 30
0.0
 10
-142.9719440175949
 20
4.855887484854341
 30
0.0
 10
-137.3823457010611
 20
4.850109469717548
 30
0.0
 10
-135.4601846580657
 20
4.84821860258694
 30
0.0
 10
-132.4870677364405
 20
4.845431645892115
 30
0.0
 10
-131.4810402345695
 20
4.844510890811963
 30
0.0
 10
-129.4386531728267
 20
4.842685371435159
 30
0.0
 10
-128.4009857069516
 20
4.841779298110152
 30
0.0
 10
-123.1519568225632
 20
4.837303755166625
 30
0.0
 10
-118.7790870102797
 20
4.833948554101227
 30
0.0
 10
-109.6992394547938
 20
4.827633529510364
 30
0.0
 10
-104.9922183216832
 20
4.824673221381248
 30
0.0
 10
-95.24387877785381
 20
4.819115497501983
 30
0.0
 10
-90.20259302930512
 20
4.81654961772901
 30
0.0
 10
-83.68804089343558
 20
4.813594609070479
 30
0.0
 10
-82.37445062901156
 20
4.813016266848671
 30
0.0
 10
-79.72567473640802
 20
4.811884738643982
 30
0.0
 10
-78.38889647963953
 20
4.811330943869888
 30
0.0
 10
-74.366462721638
 20
4.809715321963684
 30
0.0
 10
-71.6639805732458
 20
4.808696873981444
 30
0.0
 10
-63.4949470058414
 20
4.805811660971368
 30
0.0
 10
-57.96701762452081
 20
4.804135703410567
 30
0.0
 10
-46.75094973574856
 20
4.801248037382328
 30
0.0
 10
-41.06280792793402
 20
4.800036259875684
 30
0.0
 10
-32.40845090740515
 20
4.798562191121639
 30
0.0
 10
-29.50325682984752
 20
4.798131066679853
 30
0.0
 10
-25.11445502705076
 20
4.797575138034818
 30
0.0
 10
-23.64634948613466
 20
4.797404951719014
 30
0.0
 10
-20.69968936639581
 20
4.797094996911222
 30
0.0
 10
-19.22179057204871
 20
4.796955351061477
 30
0.0
 10
-11.84724316103203
 20
4.796336653413932
 30
0.0
 10
-5.963008754031646
 20
4.796091538719113
 30
0.0
 10
5.775420140937138
 20
4.796086347077607
 30
0.0
 10
11.62961131237772
 20
4.79632634147116
 30
0.0
 10
23.30813293357203
 20
4.797290603295576
 30
0.0
 10
29.13246598039493
 20
4.798014844392434
 30
0.0
 10
37.84583196465429
 20
4.799483467507374
 30
0.0
 10
40.75292107260745
 20
4.800036006101696
 30
0.0
 10
46.49964402721278
 20
4.801253331266866
 30
0.0
 10
49.34498443554506
 20
4.801918967416927
 30
0.0
 10
57.79853648175571
 20
4.80408648668465
 30
0.0
 10
63.32453799919781
 20
4.805758321230161
 30
0.0
 10
74.15909932276647
 20
4.809571522938983
 30
0.0
 10
79.46762081681875
 20
4.811692162652287
 30
0.0
 10
87.26565206029434
 20
4.815211989906198
 30
0.0
 10
89.83747278358965
 20
4.816442149131947
 30
0.0
 10
93.65310297284071
 20
4.818377226265894
 30
0.0
 10
94.91947270413132
 20
4.819038057865349
 30
0.0
 10
97.43054392736069
 20
4.82038657605352
 30
0.0
 10
98.67369295576289
 20
4.821073376896787
 30
0.0
 10
104.8280712137131
 20
4.824570731129171
 30
0.0
 10
109.5557394902897
 20
4.827540551523304
 30
0.0
 10
118.6316112553879
 20
4.833839374283263
 30
0.0
 10
122.979787614308
 20
4.837169861220916
 30
0.0
 10
131.2939219953738
 20
4.844233681827792
 30
0.0
 10
135.2598025326905
 20
4.847930796053126
 30
0.0
 10
139.9718163241583
 20
4.852782910911888
 30
0.0
 10
140.9029945345276
 20
4.853766279960481
 30
0.0
 10
142.731234865278
 20
4.855747381253369
 30
0.0
 10
143.6291418967604
 20
4.856745923376566
 30
0.0
 10
146.2747050605676
 20
4.859766372149076
 30
0.0
 10
147.9742425685622
 20
4.861813098987241
 30
0.0
 10
152.8827239993204
 20
4.868059572378847
 30
0.0
 10
155.9020299082446
 20
4.872322695209958
 30
0.0
 10
161.4423745741095
 20
4.881078258495208
 30
0.0
 10
163.963431556099
 20
4.885573092093545
 30
0.0
 10
167.3626118926985
 20
4.892531871524886
 30
0.0
 10
168.43175016864
 20
4.894877785732776
 30
0.0
 10
169.937965276731
 20
4.898435514085822
 30
0.0
 10
170.4236937931995
 20
4.899628167362128
 30
0.0
 10
171.3584357180298
 20
4.902017833128102
 30
0.0
 10
171.8079965228625
 20
4.903216109022404
 30
0.0
 10
173.9671685114721
 20
4.909226779269166
 30
0.0
 10
175.4117542665988
 20
4.914097185282087
 30
0.0
 10
176.862001467882
 20
4.920295250673834
 30
0.0
 10
177.1342177705914
 20
4.921537694323449
 30
0.0
 10
177.6428907526719
 20
4.924027138209331
 30
0.0
 10
177.8794165042582
 20
4.925274975433186
 30
0.0
 10
178.5334503952294
 20
4.929017424957369
 30
0.0
 10
179.2588314688492
 20
4.934010548457934
 30
0.0
 10
179.6931400149452
 20
4.939023746326751
 30
0.0
 10
179.9094899608895
 20
4.942796124696683
 30
0.0
 10
179.9633652266782
 20
4.944055661262562
 30
0.0
 10
180.0344596264732
 20
4.946579661337713
 30
0.0
 10
180.0504998188554
 20
4.948982247835493
 30
0.0
 10
180.0504998188554
 20
4.948982247835493
 30
0.0
  0
SPLINE
  5
A5
330
23
100
AcDbEntity
  8
0
  6
Continuous
 62
     7
370
    25
100
AcDbSpline
210
0.0
220
0.0
230
1.0
 70
    24
 71
     3
 72
   110
 73
   106
 74
     0
 42
0.000000001
 43
0.00000001
 40
0.0
 40
0.0
 40
0.0
 40
0.0
 40
0.0078125
 40
0.0078125
 40
0.0156250000000001
 40
0.0156250000000001
 40
0.0312500000000002
 40
0.0312500000000002
 40
0.0625000000000003
 40
0.0625000000000003
 40
0.0937500000000004
 40
0.0937500000000004
 40
0.1015625000000005
 40
0.1015625000000005
 40
0.1093750000000006
 40
0.1093750000000006
 40
0.1250000000000007
 40
0.1250000000000007
 40
0.1562500000000011
 40
0.1562500000000011
 40
0.1875000000000014
 40
0.1875000000000014
 40
0.2031250000000016
 40
0.2031250000000016
 40
0.2109375000000016
 40
0.2109375000000016
 40
0.2187500000000017
 40
0.2187500000000017
 40
0.2500000000000019
 40
0.2500000000000019
 40
0.2812500000000021
 40
0.2812500000000021
 40
0.3125000000000023
 40
0.3125000000000023
 40
0.3203125000000023
 40
0.3203125000000023
 40
0.3281250000000024
 40
0.3281250000000024
 40
0.3437500000000025
 40
0.3437500000000025
 40
0.3750000000000028
 40
0.3750000000000028
 40
0.406250000000003
 40
0.406250000000003
 40
0.4218750000000031
 40
0.4218750000000031
 40
0.4375000000000033
 40
0.4375000000000033
 40
0.4687500000000034
 40
0.4687500000000034
 40
0.5000000000000037
 40
0.5000000000000037
 40
0.5312500000000038
 40
0.5312500000000038
 40
0.5390625000000039
 40
0.5390625000000039
 40
0.5468750000000039
 40
0.5468750000000039
 40
0.562500000000004
 40
0.562500000000004
 40
0.593750000000004
 40
0.593750000000004
 40
0.625000000000004
 40
0.625000000000004
 40
0.640625000000004
 40
0.640625000000004
 40
0.6484375000000039
 40
0.6484375000000039
 40
0.6562500000000039
 40
0.6562500000000039
 40
0.6875000000000038
 40
0.6875000000000038
 40
0.7187500000000037
 40
0.7187500000000037
 40
0.7500000000000037
 40
0.7500000000000037
 40
0.7578125000000036
 40
0.7578125000000036
 40
0.7656250000000034
 40
0.7656250000000034
 40
0.7812500000000032
 40
0.7812500000000032
 40
0.8125000000000028
 40
0.8125000000000028
 40
0.8437500000000023
 40
0.8437500000000023
 40
0.8593750000000022
 40
0.8593750000000022
 40
0.8750000000000021
 40
0.8750000000000021
 40
0.9062500000000016
 40
0.9062500000000016
 40
0.937500000000001
 40
0.937500000000001
 40
0.9531250000000007
 40
0.9531250000000007
 40
0.9609375000000006
 40
0.9609375000000006
 40
0.9687500000000006
 40
0.9687500000000006
 40
0.9843750000000002
 40
0.9843750000000002
 40
0.9921875000000002
 40
0.9921875000000002
 40
1.0
 40
1.0
 40
1.0
 40
1.0
 10
175.050760106734
 20
0.0
 30
0.0
 10
175.050760106734
 20
0.0
 30
0.0
 10
175.0352276377995
 20
0.0
 30
0.0
 10
174.9663240589284
 20
0.0
 30
0.0
 10
174.9141426578969
 20
0.0
 30
0.0
 10
174.7050098118161
 20
0.0
 30
0.0
 10
174.4955134053257
 20
0.0
 30
0.0
 10
173.6599648437241
 20
0.0
 30
0.0
 10
172.8275073228157
 20
0.0
 30
0.0
 10
170.6123344826792
 20
0.0
 30
0.0
 10
169.2296305068539
 20
0.0
 30
0.0
 10
167.1513655263888
 20
0.0
 30
0.0
 10
166.7181643615519
 20
0.0
 30
0.0
 10
165.816294108556
 20
0.0
 30
0.0
 10
165.3469947069216
 20
0.0
 30
0.0
 10
163.8899790664429
 20
0.0
 30
0.0
 10
162.8552899244327
 20
0.0
 30
0.0
 10
159.5643716656243
 20
0.0
 30
0.0
 10
157.1219388848077
 20
0.0
 30
0.0
 10
151.751928360398
 20
0.0
 30
0.0
 10
148.8243330157227
 20
0.0
 30
0.0
 10
144.063610462508
 20
0.0
 30
0.0
 10
142.4150033970168
 20
0.0
 30
0.0
 10
139.8484295286311
 20
0.0
 30
0.0
 10
138.9772847372037
 20
0.0
 30
0.0
 10
137.2034493730918
 20
0.0
 30
0.0
 10
136.2996399947009
 20
0.0
 30
0.0
 10
131.724383784572
 20
0.0
 30
0.0
 10
127.8729063174361
 20
0.0
 30
0.0
 10
119.7975319247045
 20
0.0
 30
0.0
 10
115.5736463365267
 20
0.0
 30
0.0
 10
106.7564229481347
 20
0.0
 30
0.0
 10
102.1631117986764
 20
0.0
 30
0.0
 10
96.18329264452606
 20
0.0
 30
0.0
 10
94.97538281285213
 20
0.0
 30
0.0
 10
92.53545620351449
 20
0.0
 30
0.0
 10
91.30405181487899
 20
0.0
 30
0.0
 10
87.5942983854972
 20
0.0
 30
0.0
 10
85.09377611780216
 20
0.0000000000000139
 30
0.0
 10
77.51177138883588
 20
0.0000000000000139
 30
0.0
 10
72.35010536800675
 20
0.0
 30
0.0
 10
61.8149737450942
 20
0.0
 30
0.0
 10
56.44151356425882
 20
0.0
 30
0.0
 10
48.22116767716296
 20
0.0
 30
0.0
 10
45.45429619980533
 20
0.0
 30
0.0
 10
39.86601990024867
 20
0.0
 30
0.0
 10
37.03835074087801
 20
0.0
 30
0.0
 10
28.56103081209989
 20
0.0
 30
0.0
 10
22.8944543730911
 20
0.0
 30
0.0
 10
11.53222674910539
 20
0.0
 30
0.0
 10
5.836572929149222
 20
0.0
 30
0.0
 10
-5.583985259781055
 20
0.0
 30
0.0
 10
-11.30889012958025
 20
0.0000000000000139
 30
0.0
 10
-18.48375896657179
 20
0.0000000000000139
 30
0.0
 10
-19.92151778896617
 20
0.0
 30
0.0
 10
-22.78952946675441
 20
0.0
 30
0.0
 10
-24.21844522873535
 20
0.0
 30
0.0
 10
-28.49007844418697
 20
0.0
 30
0.0
 10
-31.31769427256681
 20
0.0
 30
0.0
 10
-39.74090593436846
 20
0.0
 30
0.0
 10
-45.27704920786552
 20
0.0
 30
0.0
 10
-56.19333824619018
 20
0.0
 30
0.0
 10
-61.5734869503974
 20
0.0
 30
0.0
 10
-69.52411218619693
 20
0.0
 30
0.0
 10
-72.15433270486027
 20
0.0
 30
0.0
 10
-76.06920668624109
 20
0.0
 30
0.0
 10
-77.37045880232473
 20
0.0
 30
0.0
 10
-79.9491914738157
 20
0.0
 30
0.0
 10
-81.22803912010316
 20
0.0
 30
0.0
 10
-87.57026361835693
 20
0.0
 30
0.0
 10
-92.47811182902052
 20
0.0
 30
0.0
 10
-101.968326241875
 20
0.0
 30
0.0
 10
-106.5506345594245
 20
0.0
 30
0.0
 10
-115.3898954938252
 20
0.0
 30
0.0
 10
-119.6468907143563
 20
0.0
 30
0.0
 10
-124.7568421622444
 20
0.0
 30
0.0
 10
-125.7673101462756
 20
0.0
 30
0.0
 10
-127.7560062430333
 20
0.0
 30
0.0
 10
-128.7355809770595
 20
0.0
 30
0.0
 10
-131.6305091757912
 20
0.0
 30
0.0
 10
-133.5021032094213
 20
0.0
 30
0.0
 10
-138.9446316839584
 20
0.0
 30
0.0
 10
-142.3438601075839
 20
0.0
 30
0.0
 10
-148.6854791431608
 20
0.0
 30
0.0
 10
-151.6277982190366
 20
0.0
 30
0.0
 10
-155.6931775622727
 20
0.0
 30
0.0
 10
-156.9902748979642
 20
0.0
 30
0.0
 10
-159.464991964127
 20
0.0
 30
0.0
 10
-160.6324405793484
 20
0.0
 30
0.0
 10
-163.9287415281263
 20
0.0
 30
0.0
 10
-165.852163470514
 20
0.0
 30
0.0
 10
-169.1647033937462
 20
0.0
 30
0.0
 10
-170.5538039038782
 20
0.0
 30
0.0
 10
-172.2313391669848
 20
0.0
 30
0.0
 10
-172.7226505886478
 20
0.0
 30
0.0
 10
-173.3566823893394
 20
0.0
 30
0.0
 10
-173.5508600951618
 20
0.0
 30
0.0
 10
-173.9045642623105
 20
0.0
 30
0.0
 10
-174.0641964985663
 20
0.0
 30
0.0
 10
-174.4896438376345
 20
0.0
 30
0.0
 10
-174.7019823883313
 20
0.0
 30
0.0
 10
-174.9133845669058
 20
0.0
 30
0.0
 10
-174.9659488104037
 20
0.0
 30
0.0
 10
-175.0352298272919
 20
0.0
 30
0.0
 10
-175.0507601067339
 20
0.0
 30
0.0
 10
-175.050760106734
 20
0.0
 30
0.0
  0
LWPOLYLINE
  5
A7
330
23
100
AcDbEntity
  8
0
  6
Continuous
 62
     7
370
    25
100
AcDbPolyline
 90
        2
 70
   128
 43
0.0
 10
-181.4471888238
 20
141.8245047325
 10
-181.4471888238
 20
141.8245047325
  0
SPLINE
  5
A9
330
23
100
AcDbEntity
  8
0
  6
Continuous
 62
     8
370
    25
100
AcDbSpline
210
0.0
220
0.0
230
1.0
 70
     8
 71
     3
 72
   256
 73
   252
 74
     0
 42
0.000000001
 43
0.00000001
 40
0.0
 40
0.0
 40
0.0
 40
0.0
 40
0.0010705787600262
 40
0.0021429439975247
 40
0.003217096389933
 40
0.004293036517599
 40
0.0053707648713998
 40
0.00645028186058
 40
0.0075315878208117
 40
0.0086146830224812
 40
0.0096995676792016
 40
0.0107862419565567
 40
0.0118747059810762
 40
0.0129649598494489
 40
0.014057003637972
 40
0.0151508374122426
 40
0.0162464612370922
 40
0.0173438751867691
 40
0.0184430793553683
 40
0.0195440738675158
 40
0.0206468588893069
 40
0.0217514346395022
 40
0.0228578014009847
 40
0.0239659595324811
 40
0.0250759094805494
 40
0.0261876517918352
 40
0.0273011871256011
 40
0.0284165162665303
 40
0.0295336401309509
 40
0.0306525596479124
 40
0.0317732756218277
 40
0.0328957887423525
 40
0.0340200995942779
 40
0.035146208667405
 40
0.0362741163666816
 40
0.0374038230226077
 40
0.0385353289019111
 40
0.0396686342184952
 40
0.0408037391446647
 40
0.0419406438226292
 40
0.0430793483762895
 40
0.0442198529233106
 40
0.045362157587481
 40
0.0465062625113664
 40
0.0476521678692564
 40
0.0487998738804104
 40
0.0499493808226043
 40
0.0511006890459823
 40
0.0522537989872163
 40
0.0534087111839758
 40
0.0545654262897122
 40
0.0557239450887606
 40
0.0568842685117618
 40
0.0580463976461881
 40
0.0592103335935641
 40
0.0603760772794462
 40
0.0615436294933304
 40
0.0627129909035877
 40
0.0638841620696866
 40
0.0650571434547252
 40
0.0662319354382786
 40
0.0674085383295615
 40
0.0685869523809134
 40
0.0697671778016049
 40
0.0709492147719736
 40
0.0721330634578889
 40
0.0733187240255516
 40
0.0745061966566315
 40
0.0756954815637453
 40
0.0768865790062793
 40
0.0780794893065614
 40
0.0792742128663832
 40
0.0804707501838793
 40
0.0816691018707637
 40
0.0828692686699301
 40
0.0840712514734165
 40
0.0852750513407411
 40
0.0864806695165812
 40
0.0876881073170304
 40
0.0888973658371271
 40
0.0901084460027256
 40
0.0913213486005441
 40
0.0925360742930282
 40
0.0937526236335718
 40
0.0949709970821043
 40
0.0961911950210433
 40
0.0974132177716192
 40
0.0986370656105745
 40
0.0998627387872416
 40
0.1010902375410025
 40
0.1023195621191353
 40
0.1035507127950504
 40
0.1047836898869215
 40
0.1060184937767131
 40
0.1072551249296114
 40
0.1084935839138599
 40
0.1097338714210053
 40
0.1109759882865562
 40
0.1122199355110596
 40
0.1134657142815985
 40
0.1147133259937136
 40
0.1159627722140378
 40
0.1172140542630005
 40
0.1184671731896796
 40
0.1197221298811441
 40
0.1209789250804336
 40
0.1222375594047656
 40
0.1234980333641589
 40
0.1247603473804807
 40
0.1260245018069167
 40
0.1272904969478729
 40
0.1285583330793094
 40
0.1298280104695134
 40
0.1310995294003136
 40
0.1323728901887419
 40
0.1336480932091447
 40
0.1349251389157509
 40
0.136204027865698
 40
0.1374847607425221
 40
0.1387673383801167
 40
0.1400517617871626
 40
0.1413380321720339
 40
0.1426261509681854
 40
0.1439161198591565
 40
0.1452079406060883
 40
0.1465016145901451
 40
0.1477971429595884
 40
0.149094526690853
 40
0.1503937666099094
 40
0.1516948634140979
 40
0.1529978176944415
 40
0.1543026299584389
 40
0.1556093006533461
 40
0.1569178301899473
 40
0.1668575434532907
 40
0.1768013843610996
 40
0.1867497725436411
 40
0.1967028058544461
 40
0.2066607011451481
 40
0.2166239082666897
 40
0.2265925826415428
 40
0.2365769790285366
 40
0.238675766057961
 40
0.2407764128632146
 40
0.2428788688680816
 40
0.2449830834348288
 40
0.2470890058671336
 40
0.2491965854130108
 40
0.2513057712677406
 40
0.2534165125767957
 40
0.255528758438769
 40
0.2648966088711086
 40
0.2742883471202893
 40
0.2836066453192563
 40
0.2929393025523127
 40
0.3022368018917772
 40
0.3115389823648492
 40
0.3208411892355422
 40
0.3301386621894392
 40
0.3394712416806211
 40
0.3487896176603775
 40
0.3581814806917677
 40
0.3675492064047427
 40
0.3770419662861615
 40
0.3865009856004855
 40
0.3882913552363528
 40
0.390445501980671
 40
0.3929623090589105
 40
0.3943775134759078
 40
0.3957925952466925
 40
0.3972075564528141
 40
0.3986223988250631
 40
0.400037123779801
 40
0.4014517324553082
 40
0.4028662257481488
 40
0.4042806043495511
 40
0.4056948687818038
 40
0.4071090194346662
 40
0.4085230566017933
 40
0.409936980517175
 40
0.4113507913915879
 40
0.4127644894490634
 40
0.4141780749633664
 40
0.4155915482944904
 40
0.4170049099251634
 40
0.41841816049737
 40
0.4198313008488829
 40
0.4212443320498099
 40
0.4226572554687788
 40
0.4240700730986743
 40
0.4254827870241446
 40
0.4268953989701508
 40
0.4283079103272653
 40
0.4297203221878852
 40
0.4335874775298169
 40
0.4409539333400433
 40
0.4518150320995476
 40
0.4661645231518567
 40
0.4817466320178431
 40
0.4970609299843824
 40
0.512108613614876
 40
0.5268910227048511
 40
0.5414091097986126
 40
0.5556640922649705
 40
0.5696566970823816
 40
0.5833879503073646
 40
0.596858452203158
 40
0.6100690301555567
 40
0.6230202083472914
 40
0.635971199045391
 40
0.6491816269909763
 40
0.6626520163384538
 40
0.6763831944826874
 40
0.6903757616698142
 40
0.7046307439908882
 40
0.7191488684275826
 40
0.7339313524085753
 40
0.7489791485093273
 40
0.7642935966144776
 40
0.7798758933562309
 40
0.7898156027735237
 40
0.7997594398771846
 40
0.8097078242963482
 40
0.8196608538830421
 40
0.8296187454883046
 40
0.8395819489607482
 40
0.8495506197202933
 40
0.8595350125337283
 40
0.8616337995952934
 40
0.8637344464264997
 40
0.8658369024512955
 40
0.8679411170321517
 40
0.8700470394729882
 40
0.8721546190220982
 40
0.8742638048750757
 40
0.8763745461777387
 40
0.8784867920290564
 40
0.8878546424526041
 40
0.8972463807721471
 40
0.9065646790166053
 40
0.9158973362420584
 40
0.9251948355797225
 40
0.9344970160657736
 40
0.9437992229228725
 40
0.9530966958779403
 40
0.9624292753757622
 40
0.9717476513090793
 40
0.9811395142691263
 40
0.990507239989917
 40
0.9952575545215573
 40
1.0
 40
1.0
 40
1.0
 40
1.0
 10
-0.0000000002144377
 20
141.6997143944624
 30
0.0
 10
-0.4419662533593078
 20
141.6997151025388
 30
0.0
 10
-1.32663626984844
 20
141.6997165198732
 30
0.0
 10
-2.654676484014338
 20
141.6997279325217
 30
0.0
 10
-3.984786752408092
 20
141.6997461394789
 30
0.0
 10
-5.316895287307405
 20
141.6997718107109
 30
0.0
 10
-6.650929591666423
 20
141.6998047662512
 30
0.0
 10
-7.986816455193092
 20
141.6998450544412
 30
0.0
 10
-9.324481951661673
 20
141.6998926622953
 30
0.0
 10
-10.66385143588694
 20
141.6999475933008
 30
0.0
 10
-12.00484954078333
 20
141.7000098465207
 30
0.0
 10
-13.34740017439446
 20
141.7000794222068
 30
0.0
 10
-14.69142651692443
 20
141.7001563202911
 30
0.0
 10
-16.03685101776239
 20
141.7002405407926
 30
0.0
 10
-17.38359539250274
 20
141.7003320837061
 30
0.0
 10
-18.73158061995974
 20
141.7004309490337
 30
0.0
 10
-20.08072693917742
 20
141.7005371367754
 30
0.0
 10
-21.43095384643456
 20
141.7006506469323
 30
0.0
 10
-22.78218009224374
 20
141.7007714795052
 30
0.0
 10
-24.13432367834933
 20
141.7008996344949
 30
0.0
 10
-25.48730185470461
 20
141.701035111903
 30
0.0
 10
-26.84103111650451
 20
141.7011779117304
 30
0.0
 10
-28.19542720098426
 20
141.701328033979
 30
0.0
 10
-29.55040508507054
 20
141.70148547865
 30
0.0
 10
-30.90587897982009
 20
141.7016502457458
 30
0.0
 10
-32.26176233685294
 20
141.701822335268
 30
0.0
 10
-33.61796780988561
 20
141.7020017472186
 30
0.0
 10
-34.97440738143808
 20
141.7021884816006
 30
0.0
 10
-36.33099180766575
 20
141.7023825384043
 30
0.0
 10
-37.68763360029833
 20
141.7025839176154
 30
0.0
 10
-39.04424543356196
 20
141.7027926192356
 30
0.0
 10
-40.40073900740506
 20
141.7030086432642
 30
0.0
 10
-41.7570253198158
 20
141.7032319897016
 30
0.0
 10
-43.11301459012455
 20
141.7034626585478
 30
0.0
 10
-44.46861627587229
 20
141.7037006498034
 30
0.0
 10
-45.82373906451139
 20
141.7039459634689
 30
0.0
 10
-47.17829087185912
 20
141.7041985995451
 30
0.0
 10
-48.53217883873256
 20
141.7044585580327
 30
0.0
 10
-49.88530932806489
 20
141.704725838933
 30
0.0
 10
-51.2375879218858
 20
141.7050004422471
 30
0.0
 10
-52.58891941833387
 20
141.7052823679765
 30
0.0
 10
-53.93920782865212
 20
141.7055716161229
 30
0.0
 10
-55.28835637418381
 20
141.7058681866879
 30
0.0
 10
-56.63626748335898
 20
141.7061720796736
 30
0.0
 10
-57.98284278868634
 20
141.7064832950821
 30
0.0
 10
-59.32798312370326
 20
141.7068018329156
 30
0.0
 10
-60.67158852005971
 20
141.7071276931771
 30
0.0
 10
-62.01355820407705
 20
141.707460875869
 30
0.0
 10
-63.35379059524728
 20
141.7078013809943
 30
0.0
 10
-64.69218329745159
 20
141.7081492085564
 30
0.0
 10
-66.0286331173892
 20
141.7085043585585
 30
0.0
 10
-67.36303598119426
 20
141.7088668310038
 30
0.0
 10
-68.69528722989105
 20
141.7092366258975
 30
0.0
 10
-70.02528042964262
 20
141.7096137432173
 30
0.0
 10
-71.352912513815
 20
141.7099981829264
 30
0.0
 10
-72.67808327748646
 20
141.7103899450355
 30
0.0
 10
-74.0006909353215
 20
141.7107890295439
 30
0.0
 10
-75.32063313847169
 20
141.7111954364537
 30
0.0
 10
-76.6378067022062
 20
141.7116091657658
 30
0.0
 10
-77.95210767574588
 20
141.712030217482
 30
0.0
 10
-79.26343131987626
 20
141.712458591604
 30
0.0
 10
-80.57167210932347
 20
141.7128942881339
 30
0.0
 10
-81.87672372847337
 20
141.7133373070737
 30
0.0
 10
-83.17847906887206
 20
141.7137876484261
 30
0.0
 10
-84.47683022624364
 20
141.7142453121936
 30
0.0
 10
-85.77166849762982
 20
141.714710298379
 30
0.0
 10
-87.0628843784937
 20
141.7151826069855
 30
0.0
 10
-88.35036755982267
 20
141.7156622380165
 30
0.0
 10
-89.6340069252362
 20
141.7161491914754
 30
0.0
 10
-90.91369054805314
 20
141.7166434673661
 30
0.0
 10
-92.18930568848586
 20
141.7171450656928
 30
0.0
 10
-93.46073879033736
 20
141.7176539864594
 30
0.0
 10
-94.72787547953808
 20
141.7181702296709
 30
0.0
 10
-95.99060055577667
 20
141.7186937953318
 30
0.0
 10
-97.2487980099417
 20
141.7192246834474
 30
0.0
 10
-98.50235094499386
 20
141.7197628940224
 30
0.0
 10
-99.75114185768298
 20
141.7203084270643
 30
0.0
 10
-100.9950515234952
 20
141.7208612825517
 30
0.0
 10
-102.2339630868865
 20
141.7214214604039
 30
0.0
 10
-103.467768023831
 20
141.721988960642
 30
0.0
 10
-104.6963556549861
 20
141.722563783269
 30
0.0
 10
-105.9196149155586
 20
141.7231459282882
 30
0.0
 10
-107.1374338869587
 20
141.7237353957019
 30
0.0
 10
-108.3496999206818
 20
141.7243321855135
 30
0.0
 10
-109.5562996017104
 20
141.7249362977261
 30
0.0
 10
-110.75711875501
 20
141.7255477323435
 30
0.0
 10
-111.952042440446
 20
141.7261664893692
 30
0.0
 10
-113.140954950805
 20
141.7267925688078
 30
0.0
 10
-114.3237398089769
 20
141.7274259706631
 30
0.0
 10
-115.5002797653576
 20
141.7280666949402
 30
0.0
 10
-116.6704567951876
 20
141.728714741644
 30
0.0
 10
-117.8341520958991
 20
141.7293701107795
 30
0.0
 10
-118.9912460844682
 20
141.7300328023522
 30
0.0
 10
-120.1416183947127
 20
141.7307028163683
 30
0.0
 10
-121.2851478747808
 20
141.7313801528335
 30
0.0
 10
-122.421712583898
 20
141.7320648117545
 30
0.0
 10
-123.5511897918764
 20
141.7327567931377
 30
0.0
 10
-124.6734559682659
 20
141.7334560969904
 30
0.0
 10
-125.7883868102287
 20
141.7341627233201
 30
0.0
 10
-126.8958571255606
 20
141.7348766721325
 30
0.0
 10
-127.9957412399316
 20
141.7355979434327
 30
0.0
 10
-129.0879112504823
 20
141.7363265370752
 30
0.0
 10
-130.1722530339811
 20
141.7370624530615
 30
0.0
 10
-131.248653642046
 20
141.7378056914262
 30
0.0
 10
-132.3169989131123
 20
141.7385562521701
 30
0.0
 10
-133.377174133526
 20
141.739314135299
 30
0.0
 10
-134.4290638644165
 20
141.7400793408169
 30
0.0
 10
-135.4725519853388
 20
141.7408518687295
 30
0.0
 10
-136.507521679683
 20
141.7416317190421
 30
0.0
 10
-137.5338554357191
 20
141.7424188917603
 30
0.0
 10
-138.5514350434383
 20
141.7432133868905
 30
0.0
 10
-139.5601415925176
 20
141.7440152044389
 30
0.0
 10
-140.5598554699799
 20
141.7448243444126
 30
0.0
 10
-141.5504563579284
 20
141.7456408068183
 30
0.0
 10
-142.5318232312668
 20
141.7464645916639
 30
0.0
 10
-143.5038343553765
 20
141.7472956989567
 30
0.0
 10
-144.4663672839663
 20
141.7481341287054
 30
0.0
 10
-145.4192988562448
 20
141.7489798809181
 30
0.0
 10
-146.3625051966158
 20
141.7498329556039
 30
0.0
 10
-147.2958617049198
 20
141.7506933527721
 30
0.0
 10
-148.2192430820143
 20
141.7515610724321
 30
0.0
 10
-149.1325232231665
 20
141.7524361145935
 30
0.0
 10
-150.0355756056243
 20
141.7533184792692
 30
0.0
 10
-150.9282717812833
 20
141.754208166414
 30
0.0
 10
-151.8104868831166
 20
141.755105175824
 30
0.0
 10
-152.6821133748531
 20
141.7560095076152
 30
0.0
 10
-153.5430408391739
 20
141.7569211616621
 30
0.0
 10
-154.3931588740066
 20
141.7578401384832
 30
0.0
 10
-155.2323563739819
 20
141.7587664361739
 30
0.0
 10
-156.0605215673874
 20
141.7597000618906
 30
0.0
 10
-156.8775425882123
 20
141.7606409889013
 30
0.0
 10
-157.6833051352987
 20
141.7615893172219
 30
0.0
 10
-158.477701270597
 20
141.7625446728283
 30
0.0
 10
-160.9815756568929
 20
141.7656270630065
 30
0.0
 10
-164.9150749451168
 20
141.7708722410692
 30
0.0
 10
-169.6911822277542
 20
141.7783152458805
 30
0.0
 10
-173.6862357575657
 20
141.7858320704935
 30
0.0
 10
-176.8836567925303
 20
141.7934221847974
 30
0.0
 10
-179.2644353531646
 20
141.8010770670138
 30
0.0
 10
-180.8165956948992
 20
141.8088315487559
 30
0.0
 10
-181.5354944320774
 20
141.8165564897396
 30
0.0
 10
-181.4428909322275
 20
141.8225872293152
 30
0.0
 10
-181.4476480533192
 20
141.8260552381334
 30
0.0
 10
-181.4470967866566
 20
141.8271437305857
 30
0.0
 10
-181.4472552392959
 20
141.8278855728528
 30
0.0
 10
-181.4472185089328
 20
141.828253016992
 30
0.0
 10
-181.4472293643312
 20
141.8282525926605
 30
0.0
 10
-181.4472227101163
 20
141.8278859664735
 30
0.0
 10
-181.4472158782184
 20
141.8271399188075
 30
0.0
 10
-181.4472047098835
 20
141.8260657168823
 30
0.0
 10
-181.4471699157534
 20
141.8226460736108
 30
0.0
 10
-181.4471343577127
 20
141.8191693201595
 30
0.0
 10
-181.4471882624925
 20
141.8244491262511
 30
0.0
 10
-181.4472445999274
 20
141.8299709378948
 30
0.0
 10
-181.44718883649
 20
141.8245059933357
 30
0.0
 10
-181.4471334484974
 20
141.8190777399619
 30
0.0
 10
-181.4471888129792
 20
141.8245045066166
 30
0.0
 10
-181.4472442426413
 20
141.8299326539042
 30
0.0
 10
-181.4471886586358
 20
141.8245002236643
 30
0.0
 10
-181.4471336164915
 20
141.8190506791157
 30
0.0
 10
-181.4471872598255
 20
141.824514938207
 30
0.0
 10
-181.4472512831317
 20
141.8300109330647
 30
0.0
 10
-181.4471652518891
 20
141.8244949480967
 30
0.0
 10
-181.4472201700429
 20
141.8188768223273
 30
0.0
 10
-181.4469571972319
 20
141.823057416503
 30
0.0
 10
-181.4473414505611
 20
141.8255932420294
 30
0.0
 10
-181.4464645931182
 20
141.8254255095453
 30
0.0
 10
-181.4498262397574
 20
141.8246893343043
 30
0.0
 10
-181.4420050496771
 20
141.8237821411971
 30
0.0
 10
-181.4159331715172
 20
141.8230481643634
 30
0.0
 10
-181.3736956612135
 20
141.8222643213989
 30
0.0
 10
-181.3143271455766
 20
141.8214403120591
 30
0.0
 10
-181.238111150852
 20
141.8205735376373
 30
0.0
 10
-181.1449966034503
 20
141.8196646943687
 30
0.0
 10
-181.035022073567
 20
141.8187135957191
 30
0.0
 10
-180.9082021136245
 20
141.81772029166
 30
0.0
 10
-180.7645577099964
 20
141.8166847687959
 30
0.0
 10
-180.6041081244671
 20
141.8156070307059
 30
0.0
 10
-180.42687308
 20
141.8144870764187
 30
0.0
 10
-180.23287217514
 20
141.8133249061784
 30
0.0
 10
-180.0221250407414
 20
141.8121205199051
 30
0.0
 10
-179.7946512984459
 20
141.8108739175848
 30
0.0
 10
-179.5504705699235
 20
141.8095850992522
 30
0.0
 10
-179.2896024812794
 20
141.8082540646672
 30
0.0
 10
-179.0120666360557
 20
141.8068808146279
 30
0.0
 10
-178.7178827186624
 20
141.8054653460404
 30
0.0
 10
-178.4070701075546
 20
141.8040076703268
 30
0.0
 10
-178.0796493165079
 20
141.8025077447192
 30
0.0
 10
-177.7356365811128
 20
141.8009657284886
 30
0.0
 10
-177.3750701648078
 20
141.7993810266276
 30
0.0
 10
-176.9980035886656
 20
141.7977558609863
 30
0.0
 10
-176.6044868384116
 20
141.7960819414053
 30
0.0
 10
-176.1945707756348
 20
141.7943902037669
 30
0.0
 10
-175.5213499593728
 20
141.7915078939102
 30
0.0
 10
-174.1580759981699
 20
141.7877202764126
 30
0.0
 10
-171.4401290918373
 20
141.7816769493799
 30
0.0
 10
-166.640387585874
 20
141.7733419607508
 30
0.0
 10
-159.2907426736504
 20
141.7631452044041
 30
0.0
 10
-149.4636895957015
 20
141.7523587651291
 30
0.0
 10
-137.8356227281922
 20
141.7423434912218
 30
0.0
 10
-124.946242523282
 20
141.7333635366647
 30
0.0
 10
-110.9999031240676
 20
141.725443586287
 30
0.0
 10
-96.20547519628872
 20
141.718576963275
 30
0.0
 10
-80.76001294001453
 20
141.7127655958003
 30
0.0
 10
-64.85730597015497
 20
141.7080087688523
 30
0.0
 10
-48.67687022656249
 20
141.7043067788881
 30
0.0
 10
-32.38998389801527
 20
141.7016594216344
 30
0.0
 10
-16.15206125100284
 20
141.7000667792555
 30
0.0
 10
-0.0000773822295818
 20
141.6995251751624
 30
0.0
 10
16.1518442728914
 20
141.7000666762206
 30
0.0
 10
32.38958595450307
 20
141.7016592452373
 30
0.0
 10
48.67634587810726
 20
141.7043065443506
 30
0.0
 10
64.85671046572988
 20
141.7080084970038
 30
0.0
 10
80.7594007802823
 20
141.7127653050953
 30
0.0
 10
96.20489470115717
 20
141.7185766760921
 30
0.0
 10
110.9994037061153
 20
141.7254433113914
 30
0.0
 10
124.9458360819798
 20
141.7333633347475
 30
0.0
 10
137.8354167075182
 20
141.7423432239808
 30
0.0
 10
149.4633673626571
 20
141.7523590568739
 30
0.0
 10
158.3335955484906
 20
141.7620926669969
 30
0.0
 10
164.914793304993
 20
141.7709014022442
 30
0.0
 10
169.6912742147658
 20
141.7783353771645
 30
0.0
 10
173.6862228872961
 20
141.7858518544185
 30
0.0
 10
176.8836680919339
 20
141.7934386309689
 30
0.0
 10
179.2644369579733
 20
141.8010903211195
 30
0.0
 10
180.8165974995402
 20
141.808840892345
 30
0.0
 10
181.5354944218222
 20
141.8165615217584
 30
0.0
 10
181.4428909463297
 20
141.8225884874501
 30
0.0
 10
181.4476480429947
 20
141.8260542267176
 30
0.0
 10
181.4470967691074
 20
141.8271420106092
 30
0.0
 10
181.4472552168073
 20
141.8278833690224
 30
0.0
 10
181.4472184840011
 20
141.8282505736552
 30
0.0
 10
181.4472293394008
 20
141.828250149492
 30
0.0
 10
181.4472226876234
 20
141.8278837621731
 30
0.0
 10
181.4472158606863
 20
141.8271382006615
 30
0.0
 10
181.4472046994946
 20
141.8260646987719
 30
0.0
 10
181.4471699281059
 20
141.8226472840848
 30
0.0
 10
181.4471343931723
 20
141.8191727964193
 30
0.0
 10
181.4471882629137
 20
141.8244491631533
 30
0.0
 10
181.4472445633935
 20
141.8299673737223
 30
0.0
 10
181.4471888371922
 20
141.8245060018013
 30
0.0
 10
181.4471334819539
 20
141.8190812429962
 30
0.0
 10
181.4471888228085
 20
141.8245046321448
 30
0.0
 10
181.4472441698777
 20
141.8299286488356
 30
0.0
 10
181.4471887956695
 20
141.8245019753892
 30
0.0
 10
181.4471331396586
 20
141.8190476866137
 30
0.0
 10
181.4471891775974
 20
141.8245394045347
 30
0.0
 10
181.4472440337097
 20
141.8299153035624
 30
0.0
 10
181.4472009323536
 20
141.8256913706444
 30
0.0
 10
181.4471552999434
 20
141.8212193944497
 30
0.0
 10
181.447152270445
 20
141.820922503618
 30
0.0
 10
181.4471507569516
 20
141.8207741812566
 30
0.0
  0
SPLINE
  5
AA
330
23
100
AcDbEntity
  8
0
  6
Continuous
 62
     8
370
    25
100
AcDbSpline
210
0.0
220
0.0
230
1.0
 70
     8
 71
     3
 72
    31
 73
    27
 74
     0
 42
0.000000001
 43
0.00000001
 40
0.0
 40
0.0
 40
0.0
 40
0.0
 40
0.0068213834691299
 40
0.0530175899688525
 40
0.0990907957389508
 40
0.1450472826879445
 40
0.1884610554615967
 40
0.2317786276989736
 40
0.2750015573462837
 40
0.3181287966015485
 40
0.3611622759272315
 40
0.4041149376829026
 40
0.4469991325487288
 40
0.4898252226000384
 40
0.5325854246838571
 40
0.5752740317055856
 40
0.6179017716143559
 40
0.660477702983582
 40
0.7030156412944056
 40
0.7455229184889076
 40
0.7879967624124844
 40
0.8304335247037896
 40
0.872837601467142
 40
0.915224755242412
 40
0.9576079523830631
 40
1.0
 40
1.0
 40
1.0
 40
1.0
 10
181.4383499536529
 20
141.8233359297464
 30
0.0
 10
181.4392705499729
 20
141.8232928607782
 30
0.0
 10
181.4464256671768
 20
141.8229581174071
 30
0.0
 10
180.9657765529751
 20
141.8128265422374
 30
0.0
 10
179.4138654015391
 20
141.8049307383569
 30
0.0
 10
176.957333438373
 20
141.7955680673148
 30
0.0
 10
173.6891630544291
 20
141.7870675631592
 30
0.0
 10
169.6834576723615
 20
141.7788521619996
 30
0.0
 10
164.9071202058476
 20
141.7709711883718
 30
0.0
 10
159.3845969405288
 20
141.7634573272374
 30
0.0
 10
153.1410909227099
 20
141.7562966091873
 30
0.0
 10
146.2125256705969
 20
141.7494158955273
 30
0.0
 10
138.6330948894599
 20
141.7428552908046
 30
0.0
 10
130.438184495797
 20
141.7365890999099
 30
0.0
 10
121.6645465500972
 20
141.7307439223043
 30
0.0
 10
112.3575061896233
 20
141.7254251462327
 30
0.0
 10
102.5611151926116
 20
141.7205923267639
 30
0.0
 10
92.31757840769671
 20
141.716243687628
 30
0.0
 10
81.66946950917198
 20
141.7123628065365
 30
0.0
 10
70.66658933465226
 20
141.7089774818788
 30
0.0
 10
59.35916869995766
 20
141.7061110962317
 30
0.0
 10
47.79725043612462
 20
141.7038165965283
 30
0.0
 10
36.03004819143629
 20
141.7020342266505
 30
0.0
 10
24.10838796760887
 20
141.7007208092731
 30
0.0
 10
12.08126008279885
 20
141.6998765003464
 30
0.0
 10
4.02736696772689
 20
141.6997684335178
 30
0.0
 10
-0.0000000002144377
 20
141.6997143944624
 30
0.0
  0
LINE
  5
AB
330
23
100
AcDbEntity
  8
0
  6
Continuous
 62
     7
370
    25
100
AcDbLine
 10
180.0504978193
 20
4.948786291
 30
0.0
 11
181.447175976
 21
141.8232456443
 31
0.0
  0
LINE
  5
AC
330
23
100
AcDbEntity
  8
0
  6
Continuous
 62
     7
370
    25
100
AcDbLine
 10
181.4449858968
 20
141.8242134297
 30
0.0
 11
181.4383499537
 21
141.8233359297
 31
0.0
  0
ARC
  5
AD
330
23
100
AcDbEntity
  8
0
  6
Continuous
 62
     7
370
    25
100
AcDbCircle
 10
175.0507601067
 20
5.0
 30
0.0
 40
5.000000000000023
100
AcDbArc
 50
270.0
 51
359.4153694793
  0
ARC
  5
AE
330
23
100
AcDbEntity
  8
0
  6
Continuous
 62
     7
370
    25
100
AcDbCircle
 10
-175.0507601067
 20
5.0
 30
0.0
 40
4.999999999999996
100
AcDbArc
 50
180.5846305207
 51
270.0
  0
VIEWPORT
  5
137
330
23
100
AcDbEntity
  8
0
100
AcDbViewport
 10
0.0
 20
0.0
 30
0.0
 40
205.6
 41
156.0
 68
     1
 69
     1
 12
0.0000003357
 22
73.4999932029
 13
0.0
 23
0.0
 14
10.0
 24
10.0
 15
10.0
 25
10.0
 16
0.0
 26
0.0
 36
1.0
 17
0.0
 27
0.0
 37
0.0
 42
50.0
 43
0.0
 44
0.0
 45
436.9361346937
 50
0.0
 51
0.0
 72
   100
 90
   557152
  1

281
     0
 71
     1
 74
     0
110
0.0
120
0.0
130
0.0
111
1.0
121
0.0
131
0.0
112
0.0
122
1.0
132
0.0
 79
     0
146
0.0
  0
ENDBLK
  5
25
330
23
100
AcDbEntity
  8
0
100
AcDbBlockEnd
  0
BLOCK
  5
B1
330
AF
100
AcDbEntity
  8
0
100
AcDbBlockBegin
  2
*Paper_Space1
 70
     0
 10
0.0
 20
0.0
 30
0.0
  3
*Paper_Space1
  1

  0
SPLINE
  5
B4
330
AF
100
AcDbEntity
  8
0
  6
Continuous
 62
     7
370
    25
100
AcDbSpline
210
0.0
220
0.0
230
1.0
 70
     8
 71
     3
 72
   113
 73
   109
 74
     0
 42
0.000000001
 43
0.00000001
 40
0.0
 40
0.0
 40
0.0
 40
0.0
 40
0.0078124999999999
 40
0.0078124999999999
 40
0.0156249999999999
 40
0.0156249999999999
 40
0.0312499999999997
 40
0.0312499999999997
 40
0.0390624999999996
 40
0.0390624999999996
 40
0.0468749999999995
 40
0.0468749999999995
 40
0.0624999999999993
 40
0.0624999999999993
 40
0.0937499999999987
 40
0.0937499999999987
 40
0.1249999999999982
 40
0.1249999999999982
 40
0.1406249999999979
 40
0.1406249999999979
 40
0.1562499999999977
 40
0.1562499999999977
 40
0.1874999999999972
 40
0.1874999999999972
 40
0.2187499999999966
 40
0.2187499999999966
 40
0.2343749999999963
 40
0.2343749999999963
 40
0.2421874999999961
 40
0.2421874999999961
 40
0.249999999999996
 40
0.249999999999996
 40
0.2812499999999956
 40
0.2812499999999956
 40
0.3124999999999953
 40
0.3124999999999953
 40
0.343749999999995
 40
0.343749999999995
 40
0.3515624999999949
 40
0.3515624999999949
 40
0.3593749999999949
 40
0.3593749999999949
 40
0.3749999999999949
 40
0.3749999999999949
 40
0.4062499999999949
 40
0.4062499999999949
 40
0.4374999999999949
 40
0.4374999999999949
 40
0.4531249999999949
 40
0.4531249999999949
 40
0.460937499999995
 40
0.460937499999995
 40
0.4687499999999951
 40
0.4687499999999951
 40
0.4999999999999951
 40
0.4999999999999951
 40
0.5312499999999952
 40
0.5312499999999952
 40
0.5624999999999952
 40
0.5624999999999952
 40
0.5781249999999953
 40
0.5781249999999953
 40
0.5937499999999954
 40
0.5937499999999954
 40
0.6249999999999957
 40
0.6249999999999957
 40
0.6562499999999958
 40
0.6562499999999958
 40
0.671874999999996
 40
0.671874999999996
 40
0.6796874999999962
 40
0.6796874999999962
 40
0.6874999999999963
 40
0.6874999999999963
 40
0.7187499999999968
 40
0.7187499999999968
 40
0.7499999999999971
 40
0.7499999999999971
 40
0.7812499999999977
 40
0.7812499999999977
 40
0.7890624999999979
 40
0.7890624999999979
 40
0.796874999999998
 40
0.796874999999998
 40
0.8124999999999983
 40
0.8124999999999983
 40
0.843749999999999
 40
0.843749999999999
 40
0.8749999999999996
 40
0.8749999999999996
 40
0.8906249999999998
 40
0.8906249999999998
 40
0.8984374999999999
 40
0.8984374999999999
 40
0.9062499999999999
 40
0.9062499999999999
 40
0.9374999999999998
 40
0.9374999999999998
 40
0.9453124999999997
 40
0.9453124999999997
 40
0.9531249999999996
 40
0.9531249999999996
 40
0.9687499999999997
 40
0.9843749999999998
 40
0.9843749999999998
 40
0.9921874999999999
 40
0.9921874999999999
 40
1.0
 40
1.0
 40
1.0
 40
1.0
 10
-96.50000000000779
 20
-180.0504998188555
 30
0.0
 10
-97.98630424064955
 20
-180.0504998188555
 30
0.0
 10
-99.47177093294259
 20
-180.0344606257945
 30
0.0
 10
-102.440670024172
 20
-179.9632938567198
 30
0.0
 10
-103.9241628777889
 20
-179.9093452173951
 30
0.0
 10
-108.3717789979223
 20
-179.6925501248346
 30
0.0
 10
-111.3330421736877
 20
-179.4747996081093
 30
0.0
 10
-115.7692037407571
 20
-179.0381159410618
 30
0.0
 10
-117.2464095688933
 20
-178.8742153581523
 30
0.0
 10
-120.1881999952486
 20
-178.5110686791539
 30
0.0
 10
-121.6541014305233
 20
-178.31170031877
 30
0.0
 10
-126.0369627918927
 20
-177.6607033204195
 30
0.0
 10
-128.939091632121
 20
-177.1562250241881
 30
0.0
 10
-137.5868038242831
 20
-175.4337078043209
 30
0.0
 10
-143.2739167011958
 20
-174.0073128225285
 30
0.0
 10
-154.4941366731487
 20
-170.605732666753
 30
0.0
 10
-160.0272487775247
 20
-168.630565346501
 30
0.0
 10
-168.20844443358
 20
-165.2456449662275
 30
0.0
 10
-170.9157190487723
 20
-164.0468155488983
 30
0.0
 10
-176.2899786424673
 20
-161.5055870380287
 30
0.0
 10
-178.9355646822651
 20
-160.1732708828735
 30
0.0
 10
-186.7449293369456
 20
-155.9979997541521
 30
0.0
 10
-191.7841988350692
 20
-152.9761065592228
 30
0.0
 10
-201.5340383887387
 20
-146.4630539521811
 30
0.0
 10
-206.244643136611
 20
-142.9719440143668
 30
0.0
 10
-213.0633366350778
 20
-137.3823456972904
 30
0.0
 10
-215.2949345756696
 20
-135.460184654103
 30
0.0
 10
-218.5793779284181
 20
-132.4870677321711
 30
0.0
 10
-219.6636936041572
 20
-131.4810402301947
 30
0.0
 10
-221.8110787421199
 20
-129.4386531682345
 30
0.0
 10
-222.8754463931153
 20
-128.4009857022311
 30
0.0
 10
-228.1272697341298
 20
-123.1519568174934
 30
0.0
 10
-232.0867268609442
 20
-118.7790870049031
 30
0.0
 10
-239.5400138426891
 20
-109.6992394487375
 30
0.0
 10
-243.0337832271107
 20
-104.9922183152541
 30
0.0
 10
-249.5554308145436
 20
-95.24387877059907
 30
0.0
 10
-252.583354563774
 20
-90.20259302159909
 30
0.0
 10
-256.0714899522808
 20
-83.68804088510629
 30
0.0
 10
-256.7542331466107
 20
-82.37445062055464
 30
0.0
 10
-258.0896233014055
 20
-79.72567472768958
 30
0.0
 10
-258.7429869549238
 20
-78.38889647081307
 30
0.0
 10
-260.6477264647168
 20
-74.36646271259937
 30
0.0
 10
-261.8463811094958
 20
-71.66398056405869
 30
0.0
 10
-265.232213934447
 20
-63.49494699618656
 30
0.0
 10
-267.2099746628293
 20
-57.96701761452543
 30
0.0
 10
-270.6188733994979
 20
-46.7509497250086
 30
0.0
 10
-272.0500001471023
 20
-41.06280791679005
 30
0.0
 10
-273.7799421259529
 20
-32.40845089560048
 30
0.0
 10
-274.2869573566452
 20
-29.50325681781355
 30
0.0
 10
-274.9416738352596
 20
-25.11445501465878
 30
0.0
 10
-275.1422674889056
 20
-23.6463494736212
 30
0.0
 10
-275.5078033845552
 20
-20.6996893536339
 30
0.0
 10
-275.6726010353595
 20
-19.2217905592521
 30
0.0
 10
-276.4030183305132
 20
-11.84724314799655
 30
0.0
 10
-276.6930548400421
 20
-5.963008740779451
 30
0.0
 10
-276.6991897689065
 20
5.775420154671202
 30
0.0
 10
-276.4152248231877
 20
11.629611326377
 30
0.0
 10
-275.2767805603638
 20
23.30813294814883
 30
0.0
 10
-274.4223508624768
 20
29.13246599528381
 30
0.0
 10
-272.698719574007
 20
37.84583198004635
 30
0.0
 10
-272.0483887914912
 20
40.75292108809687
 30
0.0
 10
-270.6128478911152
 20
46.49964404271145
 30
0.0
 10
-269.8268497620929
 20
49.34498445105395
 30
0.0
 10
-267.2680535933243
 20
57.79853649730901
 30
0.0
 10
-265.2950845453406
 20
63.32453801479923
 30
0.0
 10
-260.8197040283892
 20
74.15909933848702
 30
0.0
 10
-258.3171992568275
 20
79.46762083261248
 30
0.0
 10
-254.1622947316582
 20
87.26565207620773
 30
0.0
 10
-252.7103115523392
 20
89.83747279954471
 30
0.0
 10
-250.4298265510528
 20
93.65310298885919
 30
0.0
 10
-249.651604380022
 20
94.91947272020207
 30
0.0
 10
-248.0652281121692
 20
97.43054394330841
 30
0.0
 10
-247.2581150614798
 20
98.67369297165023
 30
0.0
 10
-243.1535615547637
 20
104.828071229303
 30
0.0
 10
-239.6497630396257
 20
109.5557395056597
 30
0.0
 10
-232.2155741267314
 20
118.6316112703277
 30
0.0
 10
-228.285153231289
 20
122.9797876290373
 30
0.0
 10
-219.994624070793
 20
131.2939220096649
 30
0.0
 10
-215.6344286669817
 20
135.259802546758
 30
0.0
 10
-209.9083782626572
 20
139.9718163379228
 30
0.0
 10
-208.74790157847
 20
140.9029945482048
 30
0.0
 10
-206.4108848427472
 20
142.7312348786984
 30
0.0
 10
-205.2333893003579
 20
143.6291419100525
 30
0.0
 10
-201.6742080368869
 20
146.2747050734739
 30
0.0
 10
-199.2658494675716
 20
147.9742425812109
 30
0.0
 10
-191.9353813563979
 20
152.8827240111887
 30
0.0
 10
-186.9081526961011
 20
155.902029919589
 30
0.0
 10
-176.5774986753276
 20
161.4423745843715
 30
0.0
 10
-171.2740834192994
 20
163.9634315658028
 30
0.0
 10
-163.1069878631021
 20
167.3626119015154
 30
0.0
 10
-160.3491898752686
 20
168.4317501771544
 30
0.0
 10
-156.1584514910309
 20
169.9379652847787
 30
0.0
 10
-154.7526097807728
 20
170.4236938010766
 30
0.0
 10
-151.9348423747207
 20
171.3584357255635
 30
0.0
 10
-150.5214295420384
 20
171.8079965302228
 30
0.0
 10
-143.4318262210587
 20
173.9671685179561
 30
0.0
 10
-137.688239674056
 20
175.4117542723524
 30
0.0
 10
-130.4183565603991
 20
176.8620014726744
 30
0.0
 10
-128.9598449636741
 20
177.1342177751896
 30
0.0
 10
-126.0337280827897
 20
177.6428907568774
 30
0.0
 10
-124.5655034977695
 20
177.8794165082647
 30
0.0
 10
-120.1590706219428
 20
178.5334503986333
 30
0.0
 10
-114.2720634994783
 20
179.2588309563644
 30
0.0
 10
-108.3617108970718
 20
179.6931400166815
 30
0.0
 10
-103.9201734441727
 20
179.909489961976
 30
0.0
 10
-102.4381979047825
 20
179.9633652275459
 30
0.0
 10
-99.47130681158615
 20
180.034459626899
 30
0.0
 10
-97.98629766190201
 20
180.0504998188554
 30
0.0
 10
-96.49999997278478
 20
180.0504998188555
 30
0.0
  0
SPLINE
  5
B6
330
AF
100
AcDbEntity
  8
0
  6
Continuous
 62
     7
370
    25
100
AcDbSpline
210
0.0
220
0.0
230
1.0
 70
     8
 71
     3
 72
   110
 73
   106
 74
     0
 42
0.000000001
 43
0.00000001
 40
0.0
 40
0.0
 40
0.0
 40
0.0
 40
0.0078124999999999
 40
0.0078124999999999
 40
0.0156249999999999
 40
0.0156249999999999
 40
0.0312499999999998
 40
0.0312499999999998
 40
0.0624999999999995
 40
0.0624999999999995
 40
0.0937499999999992
 40
0.0937499999999992
 40
0.1015624999999992
 40
0.1015624999999992
 40
0.1093749999999992
 40
0.1093749999999992
 40
0.1249999999999992
 40
0.1249999999999992
 40
0.1562499999999991
 40
0.1562499999999991
 40
0.1874999999999989
 40
0.1874999999999989
 40
0.2031249999999989
 40
0.2031249999999989
 40
0.2109374999999988
 40
0.2109374999999988
 40
0.2187499999999988
 40
0.2187499999999988
 40
0.2499999999999984
 40
0.2499999999999984
 40
0.2812499999999981
 40
0.2812499999999981
 40
0.3124999999999978
 40
0.3124999999999978
 40
0.3203124999999977
 40
0.3203124999999977
 40
0.3281249999999977
 40
0.3281249999999977
 40
0.3437499999999976
 40
0.3437499999999976
 40
0.3749999999999973
 40
0.3749999999999973
 40
0.4062499999999971
 40
0.4062499999999971
 40
0.421874999999997
 40
0.421874999999997
 40
0.4374999999999969
 40
0.4374999999999969
 40
0.4687499999999967
 40
0.4687499999999967
 40
0.4999999999999966
 40
0.4999999999999966
 40
0.5312499999999964
 40
0.5312499999999964
 40
0.5390624999999963
 40
0.5390624999999963
 40
0.5468749999999963
 40
0.5468749999999963
 40
0.5624999999999962
 40
0.5624999999999962
 40
0.5937499999999961
 40
0.5937499999999961
 40
0.624999999999996
 40
0.624999999999996
 40
0.640624999999996
 40
0.640624999999996
 40
0.648437499999996
 40
0.648437499999996
 40
0.6562499999999961
 40
0.6562499999999961
 40
0.6874999999999962
 40
0.6874999999999962
 40
0.7187499999999963
 40
0.7187499999999963
 40
0.7499999999999964
 40
0.7499999999999964
 40
0.7578124999999964
 40
0.7578124999999964
 40
0.7656249999999966
 40
0.7656249999999966
 40
0.7812499999999967
 40
0.7812499999999967
 40
0.8124999999999971
 40
0.8124999999999971
 40
0.8437499999999976
 40
0.8437499999999976
 40
0.8593749999999979
 40
0.8593749999999979
 40
0.8749999999999982
 40
0.8749999999999982
 40
0.9062499999999988
 40
0.9062499999999988
 40
0.9374999999999993
 40
0.9374999999999993
 40
0.9531249999999996
 40
0.9531249999999996
 40
0.9609374999999996
 40
0.9609374999999996
 40
0.9687499999999997
 40
0.9687499999999997
 40
0.9843749999999999
 40
0.9843749999999999
 40
0.9921874999999999
 40
0.9921874999999999
 40
1.0
 40
1.0
 40
1.0
 40
1.0
 10
-96.4999999727847
 20
175.0507601067341
 30
0.0
 10
-97.94601703049614
 20
175.0507601067341
 30
0.0
 10
-99.389397793647
 20
175.0352276382247
 30
0.0
 10
-102.2697370436402
 20
174.966324059795
 30
0.0
 10
-103.7068974574103
 20
174.9141426589817
 30
0.0
 10
-108.0094529343847
 20
174.7050098135487
 30
0.0
 10
-110.8659296472342
 20
174.4955134074813
 30
0.0
 10
-119.4002160211538
 20
173.6599648471257
 30
0.0
 10
-125.0429929156789
 20
172.8275073270174
 30
0.0
 10
-136.2351525581527
 20
170.6123344884371
 30
0.0
 10
-141.7845372313929
 20
169.2296305133592
 30
0.0
 10
-148.6618827955831
 20
167.1513655337995
 30
0.0
 10
-150.034373493124
 20
166.7181643691422
 30
0.0
 10
-152.7733349890976
 20
165.8162941165027
 30
0.0
 10
-154.1415478547694
 20
165.3469947150507
 30
0.0
 10
-158.2237764327015
 20
163.8899790750471
 30
0.0
 10
-160.9101503164079
 20
162.8552899333446
 30
0.0
 10
-168.8657020557374
 20
159.5643716754383
 30
0.0
 10
-174.0316687199984
 20
157.1219388951891
 30
0.0
 10
-184.0946901028193
 20
151.7519283718775
 30
0.0
 10
-188.9917350652414
 20
148.824333027733
 30
0.0
 10
-196.1325861214036
 20
144.0636104753083
 30
0.0
 10
-198.4786702443764
 20
142.4150034100779
 30
0.0
 10
-201.9458796325223
 20
139.848429542082
 30
0.0
 10
-203.0929579615642
 20
138.9772847507844
 30
0.0
 10
-205.3696290471553
 20
137.2034493869319
 30
0.0
 10
-206.5005359518343
 20
136.2996400086454
 30
0.0
 10
-212.0824982197345
 20
131.7243837988275
 30
0.0
 10
-216.3330490224046
 20
127.8729063319203
 30
0.0
 10
-224.4154952315119
 20
119.7975319396357
 30
0.0
 10
-228.2474033829039
 20
115.5736463516715
 30
0.0
 10
-235.4958999200363
 20
106.7564229637143
 30
0.0
 10
-238.9125182652281
 20
102.1631118144772
 30
0.0
 10
-242.9155408657851
 20
96.18329266062443
 30
0.0
 10
-243.7027162870602
 20
94.97538282901071
 30
0.0
 10
-245.2499673022656
 20
92.53545621979579
 30
0.0
 10
-246.0095831924891
 20
91.30405183112545
 30
0.0
 10
-248.2352451291148
 20
87.59429840168103
 30
0.0
 10
-249.6524202426218
 20
85.09377613394477
 30
0.0
 10
-253.7080963207626
 20
77.51177140485915
 30
0.0
 10
-256.1513673509791
 20
72.35010538395639
 30
0.0
 10
-260.5222224229169
 20
61.81497376092157
 30
0.0
 10
-262.4498196642207
 20
56.44151358003553
 30
0.0
 10
-264.9512706229257
 20
48.22116769289013
 30
0.0
 10
-265.7199419905479
 20
45.45429621552054
 30
0.0
 10
-267.1245076154451
 20
39.86601991595024
 30
0.0
 10
-267.7613549205328
 20
37.03835075649555
 30
0.0
 10
-269.4507461335074
 20
28.56103082720981
 30
0.0
 10
-270.2898511775109
 20
22.89445438788524
 30
0.0
 10
-271.412566854548
 20
11.53222676331332
 30
0.0
 10
-271.6961271443629
 20
5.836572943086713
 30
0.0
 10
-271.7043944664546
 20
-5.583985246336813
 30
0.0
 10
-271.4290919300944
 20
-11.30889011635931
 30
0.0
 10
-270.7269652661551
 20
-18.48375895359866
 30
0.0
 10
-270.5683489155942
 20
-19.92151777601811
 30
0.0
 10
-270.2159452740851
 20
-22.78952945405736
 30
0.0
 10
-270.0223770072427
 20
-24.21844521616137
 30
0.0
 10
-269.3901056597221
 20
-28.49007843197504
 30
0.0
 10
-268.8998784935639
 20
-31.31769426058671
 30
0.0
 10
-267.2257300674759
 20
-39.74090592305787
 30
0.0
 10
-265.8389671424221
 20
-45.27704919696529
 30
0.0
 10
-262.5332052632512
 20
-56.19333823604802
 30
0.0
 10
-260.61421633778
 20
-61.57348694060298
 30
0.0
 10
-257.327686246691
 20
-69.52411217688176
 30
0.0
 10
-256.1639810442797
 20
-72.15433269569752
 30
0.0
 10
-254.3145100139373
 20
-76.06920667729668
 30
0.0
 10
-253.6799578823564
 20
-77.3704587934829
 30
0.0
 10
-252.3827426905384
 20
-79.94919146523819
 30
0.0
 10
-251.7194762699724
 20
-81.22803911165468
 30
0.0
 10
-248.3306579322837
 20
-87.57026361053893
 30
0.0
 10
-245.3883616107339
 20
-92.47811182165987
 30
0.0
 10
-239.0501778895943
 20
-101.9683262353528
 30
0.0
 10
-235.6542098220812
 20
-106.5506345532816
 30
0.0
 10
-228.4088586312923
 20
-115.3898954883754
 30
0.0
 10
-224.5595348804198
 20
-119.6468907092205
 30
0.0
 10
-219.4534232767513
 20
-124.7568421574666
 30
0.0
 10
-218.4182659360281
 20
-125.7673101416237
 30
0.0
 10
-216.3299210511179
 20
-127.7560062386011
 30
0.0
 10
-215.2754010084135
 20
-128.7355809727337
 30
0.0
 10
-212.0811650600804
 20
-131.6305091717757
 30
0.0
 10
-209.9107989503685
 20
-133.5021032056002
 30
0.0
 10
-203.2790498569981
 20
-138.9446316806869
 30
0.0
 10
-198.6973996682471
 20
-142.3438601046345
 30
0.0
 10
-189.2141186187895
 20
-148.6854791407852
 30
0.0
 10
-184.3124376524187
 20
-151.6277982169113
 30
0.0
 10
-176.7160987349181
 20
-155.693177560479
 30
0.0
 10
-174.1429889400416
 20
-156.9902748962286
 30
0.0
 10
-168.9144977730574
 20
-159.4649919626771
 30
0.0
 10
-166.2806346734579
 20
-160.6324405780287
 30
0.0
 10
-158.3212268389325
 20
-163.9287415271628
 30
0.0
 10
-152.9380360055555
 20
-165.8521634697418
 30
0.0
 10
-142.0217225853086
 20
-169.1647033932848
 30
0.0
 10
-136.4885950959584
 20
-170.5538039035361
 30
0.0
 10
-128.0749432445127
 20
-172.2313391667791
 30
0.0
 10
-125.2513483773634
 20
-172.7226505884804
 30
0.0
 10
-120.9870712546958
 20
-173.3566823892196
 30
0.0
 10
-119.5608285088784
 20
-173.5508600950564
 30
0.0
 10
-116.6986194849068
 20
-173.9045642622309
 30
0.0
 10
-115.261517799728
 20
-174.0641964984976
 30
0.0
 10
-110.9445315234188
 20
-174.4896438376029
 30
0.0
 10
-108.0610884334609
 20
-174.7019823883162
 30
0.0
 10
-103.7277327345169
 20
-174.9133845669044
 30
0.0
 10
-102.2827223473713
 20
-174.9659488104053
 30
0.0
 10
-99.39199281104695
 20
-175.0352298272954
 30
0.0
 10
-97.9461789054358
 20
-175.050760106734
 30
0.0
 10
-96.5000000000078
 20
-175.050760106734
 30
0.0
  0
LWPOLYLINE
  5
B8
330
AF
100
AcDbEntity
  8
0
  6
Continuous
 62
     7
370
    25
100
AcDbPolyline
 90
      106
 70
   128
 43
0.0
 10
281.8809634559
 20
12.0731544584
 10
280.6759745311
 20
24.0902504802
 10
278.675372512
 20
36.0019011025
 10
275.8854679185
 20
47.7587193622
 10
272.3139120313
 20
59.311879233
 10
267.9771690709
 20
70.6114296943
 10
262.8947689665
 20
81.6062962909
 10
257.086241647
 20
92.2454045678
 10
250.572131784
 20
102.4805676348
 10
243.3794354296
 20
112.2691193558
 10
235.5373595837
 20
121.5682664061
 10
227.0751112466
 20
130.3352154612
 10
218.0277561595
 20
138.5249834381
 10
208.4372971403
 20
146.0982532992
 10
198.3433468043
 20
153.0207307872
 10
187.7855177667
 20
159.258121645
 10
176.8050814425
 20
164.7770690481
 10
165.4509233047
 20
169.5502018209
 10
153.7740770558
 20
173.5522041792
 10
141.8255763983
 20
176.7577603388
 10
129.6567936666
 20
179.1440822674
 10
117.3236700459
 20
180.6963532882
 10
104.8823058786
 20
181.4020589511
 10
92.8393190429
 20
181.4471888238
 10
46.134355866
 20
181.4471888238
 10
0.0000029933
 20
181.4471888238
 10
-38.7322741672
 20
181.4471888238
 10
-77.7845866776
 20
181.4471888238
 10
-90.1953436597
 20
181.4471888238
 10
-102.7853149085
 20
181.4367361473
 10
-115.9346836972
 20
180.8176894305
 10
-128.9699958588
 20
179.2531708437
 10
-141.8256126694
 20
176.7577515048
 10
-153.7740839455
 20
173.5522024302
 10
-165.4509052694
 20
169.5502098454
 10
-176.8050472864
 20
164.7770858666
 10
-187.7854806415
 20
159.2581426099
 10
-198.3433170793
 20
153.0207498418
 10
-208.4372771278
 20
146.0982674442
 10
-218.0277446083
 20
138.5249927068
 10
-227.0751033416
 20
130.335222919
 10
-235.5373514756
 20
121.5682752338
 10
-243.379426987
 20
112.269130158
 10
-250.5721234396
 20
102.4805800119
 10
-257.0862343975
 20
92.2454171156
 10
-262.8947630233
 20
81.6063085893
 10
-267.9771637077
 20
70.6114427955
 10
-272.3139068566
 20
59.3118939181
 10
-275.8854628758
 20
47.7587361408
 10
-278.6753683148
 20
36.0019188038
 10
-280.6759719142
 20
24.0902660631
 10
-281.8809623661
 20
12.0731643258
 10
-282.2840283629
 20
-0.0000000009
 10
-281.880962366
 20
-12.0731643275
 10
-280.675971914
 20
-24.0902660648
 10
-278.6753683145
 20
-36.0019188054
 10
-275.8854628754
 20
-47.7587361424
 10
-272.3139068561
 20
-59.3118939197
 10
-267.9771637071
 20
-70.6114427971
 10
-262.8947630226
 20
-81.6063085907
 10
-257.0862343968
 20
-92.2454171167
 10
-250.5721234392
 20
-102.4805800126
 10
-243.3794269869
 20
-112.2691301583
 10
-235.5373514756
 20
-121.5682752339
 10
-227.075103341
 20
-130.3352229195
 10
-218.027744607
 20
-138.5249927078
 10
-208.4372771265
 20
-146.0982674452
 10
-198.3433170783
 20
-153.0207498424
 10
-187.7854806414
 20
-159.2581426099
 10
-176.805047287
 20
-164.7770858663
 10
-165.4509052702
 20
-169.550209845
 10
-153.7740839463
 20
-173.5522024299
 10
-141.8256126703
 20
-176.7577515046
 10
-129.6568455033
 20
-179.1440735299
 10
-117.3237080386
 20
-180.6963496409
 10
-104.8823105812
 20
-181.4020588333
 10
-92.8393133084
 20
-181.4471888238
 10
-46.1343499463
 20
-181.4471888238
 10
0.0000029901
 20
-181.4471888238
 10
38.7322801082
 20
-181.4471888238
 10
77.7845924872
 20
-181.4471888238
 10
90.1953494085
 20
-181.4471888238
 10
102.78531603
 20
-181.4367361382
 10
115.9346490067
 20
-180.817692485
 10
128.9699440177
 20
-179.2531793688
 10
141.825576398
 20
-176.7577603389
 10
153.7740770553
 20
-173.5522041793
 10
165.4509233045
 20
-169.550201821
 10
176.8050814426
 20
-164.7770690481
 10
187.7855177667
 20
-159.258121645
 10
198.343346804
 20
-153.0207307874
 10
208.4372971401
 20
-146.0982532994
 10
218.0277561594
 20
-138.5249834382
 10
227.0751112467
 20
-130.3352154611
 10
235.5373595839
 20
-121.5682664059
 10
243.3794354298
 20
-112.2691193555
 10
250.5721317843
 20
-102.4805676345
 10
257.0862416472
 20
-92.2454045675
 10
262.8947689666
 20
-81.6062962906
 10
267.9771690711
 20
-70.6114296937
 10
272.3139120315
 20
-59.3118792323
 10
275.8854679186
 20
-47.7587193618
 10
278.6753725111
 20
-36.0019011025
 10
280.6759745285
 20
-24.0902504801
 10
281.8809634531
 20
-12.0731544581
 10
282.2840287669
 20
0.0000000002
  0
SPLINE
  5
B9
330
AF
100
AcDbEntity
  8
0
  6
Continuous
 62
     7
370
    25
100
AcDbSpline
210
0.0
220
0.0
230
1.0
 70
     8
 71
     3
 72
   113
 73
   109
 74
     0
 42
0.000000001
 43
0.00000001
 40
0.0
 40
0.0
 40
0.0
 40
0.0
 40
0.0078124999999999
 40
0.0078124999999999
 40
0.0156249999999998
 40
0.0156249999999998
 40
0.0312499999999996
 40
0.0312499999999996
 40
0.0390624999999996
 40
0.0390624999999996
 40
0.0468749999999995
 40
0.0468749999999995
 40
0.0624999999999994
 40
0.0624999999999994
 40
0.0937499999999991
 40
0.0937499999999991
 40
0.1249999999999987
 40
0.1249999999999987
 40
0.1406249999999985
 40
0.1406249999999985
 40
0.1562499999999983
 40
0.1562499999999983
 40
0.1874999999999979
 40
0.1874999999999979
 40
0.2187499999999974
 40
0.2187499999999974
 40
0.2343749999999972
 40
0.2343749999999972
 40
0.242187499999997
 40
0.242187499999997
 40
0.2499999999999968
 40
0.2499999999999968
 40
0.2812499999999964
 40
0.2812499999999964
 40
0.312499999999996
 40
0.312499999999996
 40
0.3437499999999956
 40
0.3437499999999956
 40
0.3515624999999954
 40
0.3515624999999954
 40
0.3593749999999954
 40
0.3593749999999954
 40
0.3749999999999953
 40
0.3749999999999953
 40
0.4062499999999949
 40
0.4062499999999949
 40
0.4374999999999946
 40
0.4374999999999946
 40
0.4531249999999945
 40
0.4531249999999945
 40
0.4609374999999944
 40
0.4609374999999944
 40
0.4687499999999944
 40
0.4687499999999944
 40
0.4999999999999943
 40
0.4999999999999943
 40
0.5312499999999942
 40
0.5312499999999942
 40
0.562499999999994
 40
0.562499999999994
 40
0.578124999999994
 40
0.578124999999994
 40
0.5937499999999939
 40
0.5937499999999939
 40
0.6249999999999939
 40
0.6249999999999939
 40
0.6562499999999938
 40
0.6562499999999938
 40
0.6718749999999938
 40
0.6718749999999938
 40
0.6796874999999937
 40
0.6796874999999937
 40
0.6874999999999936
 40
0.6874999999999936
 40
0.7187499999999938
 40
0.7187499999999938
 40
0.7499999999999939
 40
0.7499999999999939
 40
0.7812499999999941
 40
0.7812499999999941
 40
0.7890624999999941
 40
0.7890624999999941
 40
0.7968749999999942
 40
0.7968749999999942
 40
0.8124999999999946
 40
0.8124999999999946
 40
0.8437499999999953
 40
0.8437499999999953
 40
0.874999999999996
 40
0.874999999999996
 40
0.8906249999999964
 40
0.8906249999999964
 40
0.8984374999999967
 40
0.8984374999999967
 40
0.9062499999999969
 40
0.9062499999999969
 40
0.9374999999999978
 40
0.9374999999999978
 40
0.945312499999998
 40
0.945312499999998
 40
0.9531249999999982
 40
0.9531249999999982
 40
0.9687499999999988
 40
0.9843749999999994
 40
0.9843749999999994
 40
0.9921874999999997
 40
0.9921874999999997
 40
1.0
 40
1.0
 40
1.0
 40
1.0
 10
96.50000000034152
 20
180.0504998188554
 30
0.0
 10
97.98630424090956
 20
180.0504998188555
 30
0.0
 10
99.47177093312803
 20
180.0344606257909
 30
0.0
 10
102.440670024207
 20
179.963293856718
 30
0.0
 10
103.924162877748
 20
179.9093452173962
 30
0.0
 10
108.3717789976513
 20
179.6925501248498
 30
0.0
 10
111.3330421732603
 20
179.4747996081416
 30
0.0
 10
115.7692037400909
 20
179.0381159411322
 30
0.0
 10
117.2464095681827
 20
178.8742153582337
 30
0.0
 10
120.1881999944351
 20
178.5110686792608
 30
0.0
 10
121.654101429657
 20
178.3117003188911
 30
0.0
 10
126.0369627908643
 20
177.6607033205878
 30
0.0
 10
128.9390916309796
 20
177.1562250243942
 30
0.0
 10
137.5868038227886
 20
175.4337078046616
 30
0.0
 10
143.2739166994474
 20
174.0073128229868
 30
0.0
 10
154.4941366708597
 20
170.6057326675182
 30
0.0
 10
160.0272487749492
 20
168.6305653474553
 30
0.0
 10
168.2084444305539
 20
165.2456449675346
 30
0.0
 10
170.9157190455926
 20
164.0468155503343
 30
0.0
 10
176.2899786389735
 20
161.5055870397482
 30
0.0
 10
178.9355646788057
 20
160.173270884649
 30
0.0
 10
186.7449293332948
 20
155.9979997562527
 30
0.0
 10
191.7841988312796
 20
152.9761065615691
 30
0.0
 10
201.5340383846607
 20
146.4630539550919
 30
0.0
 10
206.2446431323827
 20
142.9719440175949
 30
0.0
 10
213.0633366306239
 20
137.3823457010611
 30
0.0
 10
215.2949345711405
 20
135.4601846580657
 30
0.0
 10
218.5793779237776
 20
132.4870677364405
 30
0.0
 10
219.6636935994795
 20
131.4810402345695
 30
0.0
 10
221.8110787373691
 20
129.4386531728267
 30
0.0
 10
222.8754463883127
 20
128.4009857069516
 30
0.0
 10
228.1272697293743
 20
123.1519568225632
 30
0.0
 10
232.0867268562191
 20
118.7790870102797
 30
0.0
 10
239.5400138380297
 20
109.6992394547938
 30
0.0
 10
243.0337832224868
 20
104.9922183216832
 30
0.0
 10
249.5554308100144
 20
95.24387877785381
 30
0.0
 10
252.5833545593023
 20
90.20259302930512
 30
0.0
 10
256.0714899479081
 20
83.68804089343558
 30
0.0
 10
256.7542331422587
 20
82.37445062901156
 30
0.0
 10
258.0896232970987
 20
79.72567473640802
 30
0.0
 10
258.7429869506544
 20
78.38889647963953
 30
0.0
 10
260.6477264606158
 20
74.366462721638
 30
0.0
 10
261.8463811055078
 20
71.6639805732458
 30
0.0
 10
265.2322139308046
 20
63.4949470058414
 30
0.0
 10
267.2099746594231
 20
57.96701762452081
 30
0.0
 10
270.6188733966019
 20
46.75094973574856
 30
0.0
 10
272.0500001444802
 20
41.06280792793402
 30
0.0
 10
273.7799421237912
 20
32.40845090740515
 30
0.0
 10
274.286957354644
 20
29.50325682984752
 30
0.0
 10
274.941673833514
 20
25.11445502705076
 30
0.0
 10
275.1422674872476
 20
23.64634948613466
 30
0.0
 10
275.5078033830778
 20
20.69968936639581
 30
0.0
 10
275.6726010339855
 20
19.22179057204871
 30
0.0
 10
276.4030183296482
 20
11.84724316103203
 30
0.0
 10
276.6930548395934
 20
5.963008754031646
 30
0.0
 10
276.6991897693402
 20
-5.775420140937138
 30
0.0
 10
276.4152248240832
 20
-11.62961131237772
 30
0.0
 10
275.2767805622542
 20
-23.30813293357203
 30
0.0
 10
274.4223508649007
 20
-29.13246598039493
 30
0.0
 10
272.6987195773133
 20
-37.84583196465429
 30
0.0
 10
272.0483887950905
 20
-40.75292107260745
 30
0.0
 10
270.6128478952578
 20
-46.49964402721278
 30
0.0
 10
269.8268497665109
 20
-49.34498443554506
 30
0.0
 10
267.2680535985853
 20
-57.79853648175571
 30
0.0
 10
265.295084551186
 20
-63.32453799919781
 30
0.0
 10
260.8197040354811
 20
-74.15909932276647
 30
0.0
 10
258.3171992645767
 20
-79.46762081681875
 30
0.0
 10
254.1622947404701
 20
-87.26565206029434
 30
0.0
 10
252.7103115615181
 20
-89.83747278358965
 30
0.0
 10
250.4298265608054
 20
-93.65310297284071
 30
0.0
 10
249.65160438999
 20
-94.91947270413132
 30
0.0
 10
248.0652281224295
 20
-97.43054392736069
 30
0.0
 10
247.2581150718875
 20
-98.67369295576289
 30
0.0
 10
243.1535615659157
 20
-104.8280712137131
 30
0.0
 10
239.6497630513922
 20
-109.5557394902897
 30
0.0
 10
232.2155741397922
 20
-118.6316112553879
 30
0.0
 10
228.2851532450297
 20
-122.979787614308
 30
0.0
 10
219.9946240859898
 20
-131.2939219953738
 30
0.0
 10
215.6344286829503
 20
-135.2598025326905
 30
0.0
 10
209.9083782796657
 20
-139.9718163241583
 30
0.0
 10
208.7479015956601
 20
-140.9029945345276
 30
0.0
 10
206.4108848601961
 20
-142.731234865278
 30
0.0
 10
205.2333893179372
 20
-143.6291418967604
 30
0.0
 10
201.6742080548582
 20
-146.2747050605676
 30
0.0
 10
199.2658494858067
 20
-147.9742425685622
 30
0.0
 10
191.9353813754345
 20
-152.8827239993204
 30
0.0
 10
186.9081527156825
 20
-155.9020299082446
 30
0.0
 10
176.5774986960342
 20
-161.4423745741095
 30
0.0
 10
171.2740834405864
 20
-163.963431556099
 30
0.0
 10
163.1069878852995
 20
-167.3626118926985
 30
0.0
 10
160.3491898977756
 20
-168.43175016864
 30
0.0
 10
156.1584515140123
 20
-169.937965276731
 30
0.0
 10
154.7526098038776
 20
-170.4236937931995
 30
0.0
 10
151.9348423980705
 20
-171.3584357180298
 30
0.0
 10
150.5214295655099
 20
-171.8079965228625
 30
0.0
 10
143.4318262451322
 20
-173.9671685114721
 30
0.0
 10
137.688239698594
 20
-175.4117542665988
 30
0.0
 10
130.4183565854997
 20
-176.862001467882
 30
0.0
 10
128.9598449888862
 20
-177.1342177705914
 30
0.0
 10
126.0337281082227
 20
-177.6428907526719
 30
0.0
 10
124.5655035233092
 20
-177.8794165042582
 30
0.0
 10
120.1590706477886
 20
-178.5334503952294
 30
0.0
 10
114.2720635670139
 20
-179.2588314688492
 30
0.0
 10
108.3617109236584
 20
-179.6931400149452
 30
0.0
 10
103.9201734710091
 20
-179.9094899608895
 30
0.0
 10
102.4381979317001
 20
-179.9633652266782
 30
0.0
 10
99.47130683866084
 20
-180.0344596264732
 30
0.0
 10
97.98629768906886
 20
-180.0504998188554
 30
0.0
 10
96.50000000000765
 20
-180.0504998188554
 30
0.0
  0
SPLINE
  5
BE
330
AF
100
AcDbEntity
  8
0
  6
Continuous
 62
     7
370
    25
100
AcDbSpline
210
0.0
220
0.0
230
1.0
 70
     8
 71
     3
 72
   110
 73
   106
 74
     0
 42
0.000000001
 43
0.00000001
 40
0.0
 40
0.0
 40
0.0
 40
0.0
 40
0.0078125
 40
0.0078125
 40
0.0156250000000001
 40
0.0156250000000001
 40
0.0312500000000002
 40
0.0312500000000002
 40
0.0625000000000003
 40
0.0625000000000003
 40
0.0937500000000004
 40
0.0937500000000004
 40
0.1015625000000005
 40
0.1015625000000005
 40
0.1093750000000006
 40
0.1093750000000006
 40
0.1250000000000007
 40
0.1250000000000007
 40
0.1562500000000011
 40
0.1562500000000011
 40
0.1875000000000014
 40
0.1875000000000014
 40
0.2031250000000016
 40
0.2031250000000016
 40
0.2109375000000016
 40
0.2109375000000016
 40
0.2187500000000017
 40
0.2187500000000017
 40
0.2500000000000019
 40
0.2500000000000019
 40
0.2812500000000021
 40
0.2812500000000021
 40
0.3125000000000023
 40
0.3125000000000023
 40
0.3203125000000023
 40
0.3203125000000023
 40
0.3281250000000024
 40
0.3281250000000024
 40
0.3437500000000025
 40
0.3437500000000025
 40
0.3750000000000028
 40
0.3750000000000028
 40
0.406250000000003
 40
0.406250000000003
 40
0.4218750000000031
 40
0.4218750000000031
 40
0.4375000000000033
 40
0.4375000000000033
 40
0.4687500000000034
 40
0.4687500000000034
 40
0.5000000000000037
 40
0.5000000000000037
 40
0.5312500000000038
 40
0.5312500000000038
 40
0.5390625000000039
 40
0.5390625000000039
 40
0.5468750000000039
 40
0.5468750000000039
 40
0.562500000000004
 40
0.562500000000004
 40
0.593750000000004
 40
0.593750000000004
 40
0.625000000000004
 40
0.625000000000004
 40
0.640625000000004
 40
0.640625000000004
 40
0.6484375000000039
 40
0.6484375000000039
 40
0.6562500000000039
 40
0.6562500000000039
 40
0.6875000000000038
 40
0.6875000000000038
 40
0.7187500000000037
 40
0.7187500000000037
 40
0.7500000000000037
 40
0.7500000000000037
 40
0.7578125000000036
 40
0.7578125000000036
 40
0.7656250000000034
 40
0.7656250000000034
 40
0.7812500000000032
 40
0.7812500000000032
 40
0.8125000000000028
 40
0.8125000000000028
 40
0.8437500000000023
 40
0.8437500000000023
 40
0.8593750000000022
 40
0.8593750000000022
 40
0.8750000000000021
 40
0.8750000000000021
 40
0.9062500000000016
 40
0.9062500000000016
 40
0.937500000000001
 40
0.937500000000001
 40
0.9531250000000007
 40
0.9531250000000007
 40
0.9609375000000006
 40
0.9609375000000006
 40
0.9687500000000006
 40
0.9687500000000006
 40
0.9843750000000002
 40
0.9843750000000002
 40
0.9921875000000002
 40
0.9921875000000002
 40
1.0
 40
1.0
 40
1.0
 40
1.0
 10
96.50000000000765
 20
-175.050760106734
 30
0.0
 10
97.94601705768211
 20
-175.050760106734
 30
0.0
 10
99.3893978207225
 20
-175.0352276377995
 30
0.0
 10
102.26973707056
 20
-174.9663240589284
 30
0.0
 10
103.7068974842508
 20
-174.9141426578969
 30
0.0
 10
108.0094529609837
 20
-174.7050098118161
 30
0.0
 10
110.8659296736669
 20
-174.4955134053257
 30
0.0
 10
119.4002160470703
 20
-173.6599648437241
 30
0.0
 10
125.0429929412294
 20
-172.8275073228157
 30
0.0
 10
136.2351525829237
 20
-170.6123344826792
 30
0.0
 10
141.784537255752
 20
-169.2296305068539
 30
0.0
 10
148.6618828193976
 20
-167.1513655263888
 30
0.0
 10
150.0343735168282
 20
-166.7181643615519
 30
0.0
 10
152.7733350125779
 20
-165.816294108556
 30
0.0
 10
154.1415478781497
 20
-165.3469947069216
 30
0.0
 10
158.2237764555975
 20
-163.8899790664429
 30
0.0
 10
160.910150338988
 20
-162.8552899244327
 30
0.0
 10
168.8657020773877
 20
-159.5643716656243
 30
0.0
 10
174.0316687410561
 20
-157.1219388848077
 30
0.0
 10
184.094690122728
 20
-151.751928360398
 30
0.0
 10
188.9917350845933
 20
-148.8243330157227
 30
0.0
 10
196.1325861399364
 20
-144.063610462508
 30
0.0
 10
198.4786702626398
 20
-142.4150033970168
 30
0.0
 10
201.9458796503851
 20
-139.8484295286311
 30
0.0
 10
203.0929579792939
 20
-138.9772847372037
 30
0.0
 10
205.3696290646205
 20
-137.2034493730918
 30
0.0
 10
206.5005359691345
 20
-136.2996399947009
 30
0.0
 10
212.0824982359787
 20
-131.724383784572
 30
0.0
 10
216.3330490378652
 20
-127.8729063174361
 30
0.0
 10
224.4154952454919
 20
-119.7975319247045
 30
0.0
 10
228.2474033961921
 20
-115.5736463365267
 30
0.0
 10
235.4958999320063
 20
-106.7564229481347
 30
0.0
 10
238.9125182765722
 20
-102.1631117986764
 30
0.0
 10
242.9155408763707
 20
-96.18329264452606
 30
0.0
 10
243.7027162974954
 20
-94.97538281285213
 30
0.0
 10
245.2499673124028
 20
-92.53545620351449
 30
0.0
 10
246.0095832024182
 20
-91.30405181487899
 30
0.0
 10
248.2352451384612
 20
-87.5942983854972
 30
0.0
 10
249.6524202515952
 20
-85.09377611780216
 30
0.0
 10
253.7080963286562
 20
-77.51177138883588
 30
0.0
 10
256.1513673582043
 20
-72.35010536800675
 30
0.0
 10
260.5222224288743
 20
-61.8149737450942
 30
0.0
 10
262.4498196695835
 20
-56.44151356425882
 30
0.0
 10
264.9512706274308
 20
-48.22116767716296
 30
0.0
 10
265.7199419947729
 20
-45.45429619980533
 30
0.0
 10
267.1245076191174
 20
-39.86601990024867
 30
0.0
 10
267.7613549239112
 20
-37.03835074087801
 30
0.0
 10
269.4507461359885
 20
-28.56103081209989
 30
0.0
 10
270.2898511794497
 20
-22.8944543730911
 30
0.0
 10
271.4125668554751
 20
-11.53222674910539
 30
0.0
 10
271.6961271448207
 20
-5.836572929149222
 30
0.0
 10
271.7043944660154
 20
5.583985259781055
 30
0.0
 10
271.4290919292326
 20
11.30889012958025
 30
0.0
 10
270.7269652647772
 20
18.48375896657179
 30
0.0
 10
270.5683489141105
 20
19.92151778896617
 30
0.0
 10
270.2159452724177
 20
22.78952946675441
 30
0.0
 10
270.0223770054862
 20
24.21844522873535
 30
0.0
 10
269.3901056577056
 20
28.49007844418697
 30
0.0
 10
268.8998784913837
 20
31.31769427256681
 30
0.0
 10
267.2257300648274
 20
39.74090593436846
 30
0.0
 10
265.8389671394949
 20
45.27704920786552
 30
0.0
 10
262.5332052598062
 20
56.19333824619018
 30
0.0
 10
260.6142163340957
 20
61.5734869503974
 30
0.0
 10
257.327686242658
 20
69.52411218619693
 30
0.0
 10
256.1639810401326
 20
72.15433270486027
 30
0.0
 10
254.314510009621
 20
76.06920668624109
 30
0.0
 10
253.6799578779985
 20
77.37045880232473
 30
0.0
 10
252.3827426861336
 20
79.9491914738157
 30
0.0
 10
251.7194762655461
 20
81.22803912010316
 30
0.0
 10
248.3306579277559
 20
87.57026361835693
 30
0.0
 10
245.388361606147
 20
92.47811182902052
 30
0.0
 10
239.0501778849109
 20
101.968326241875
 30
0.0
 10
235.6542098173624
 20
106.5506345594245
 30
0.0
 10
228.4088586265095
 20
115.3898954938252
 30
0.0
 10
224.5595348756086
 20
119.6468907143563
 30
0.0
 10
219.4534232718966
 20
124.7568421622444
 30
0.0
 10
218.4182659312214
 20
125.7673101462756
 30
0.0
 10
216.3299210463846
 20
127.7560062430333
 30
0.0
 10
215.2754010037174
 20
128.7355809770595
 30
0.0
 10
212.0811650554963
 20
131.6305091757912
 30
0.0
 10
209.9107989458601
 20
133.5021032094213
 30
0.0
 10
203.2790498527176
 20
138.9446316839584
 30
0.0
 10
198.6973996641194
 20
142.3438601075839
 30
0.0
 10
189.2141186149564
 20
148.6854791431608
 30
0.0
 10
184.3124376487283
 20
151.6277982190366
 30
0.0
 10
176.7160987314265
 20
155.6931775622727
 30
0.0
 10
174.1429889365182
 20
156.9902748979642
 30
0.0
 10
168.91449776985
 20
159.464991964127
 30
0.0
 10
166.2806346704054
 20
160.6324405793484
 30
0.0
 10
158.3212268363347
 20
163.9287415281263
 30
0.0
 10
152.9380360032478
 20
165.852163470514
 30
0.0
 10
142.0217225835498
 20
169.1647033937462
 30
0.0
 10
136.4885950944586
 20
170.5538039038782
 30
0.0
 10
128.0749432433747
 20
172.2313391669848
 30
0.0
 10
125.2513483763415
 20
172.7226505886478
 30
0.0
 10
120.987071253841
 20
173.3566823893394
 30
0.0
 10
119.5608285080781
 20
173.5508600951618
 30
0.0
 10
116.6986194842131
 20
173.9045642623105
 30
0.0
 10
115.261517799081
 20
174.0641964985663
 30
0.0
 10
110.944531523003
 20
174.4896438376345
 30
0.0
 10
108.061088433194
 20
174.7019823883313
 30
0.0
 10
103.7277327344656
 20
174.9133845669058
 30
0.0
 10
102.282722347402
 20
174.9659488104037
 30
0.0
 10
99.3919928112301
 20
175.0352298272919
 30
0.0
 10
97.94617890569457
 20
175.0507601067339
 30
0.0
 10
96.50000000034139
 20
175.050760106734
 30
0.0
  0
CIRCLE
  5
CD
330
AF
100
AcDbEntity
  8
0
  6
Continuous
 62
     7
370
    25
100
AcDbCircle
 10
0.0
 20
0.0
 30
0.0
 40
25.50000000000002
  0
CIRCLE
  5
CE
330
AF
100
AcDbEntity
  8
0
  6
Continuous
 62
     7
370
    25
100
AcDbCircle
 10
0.0
 20
0.0
 30
0.0
 40
33.00000000000004
  0
CIRCLE
  5
CF
330
AF
100
AcDbEntity
  8
0
  6
Continuous
 62
     7
370
    25
100
AcDbCircle
 10
0.0
 20
0.0
 30
0.0
 40
22.5
  0
CIRCLE
  5
D0
330
AF
100
AcDbEntity
  8
0
  6
Continuous
 62
     7
370
    25
100
AcDbCircle
 10
0.0
 20
0.0
 30
0.0
 40
35.00000000000004
  0
CIRCLE
  5
E1
330
AF
100
AcDbEntity
  8
0
  6
Continuous
 62
     7
370
    25
100
AcDbCircle
 10
0.0
 20
0.0
 30
0.0
 40
40.0
  0
SPLINE
  5
E2
330
AF
100
AcDbEntity
  8
0
  6
Continuous
 62
     8
370
    25
100
AcDbSpline
210
0.0
220
0.0
230
1.0
 70
     8
 71
     3
 72
   338
 73
   334
 74
     0
 42
0.000000001
 43
0.00000001
 40
0.0
 40
0.0
 40
0.0
 40
0.0
 40
0.0008653566778372
 40
0.0017321573785416
 40
0.0026004026496906
 40
0.0034700929603839
 40
0.0043412287074011
 40
0.0052138102215373
 40
0.0060878377741192
 40
0.0069633115837016
 40
0.0078402318229498
 40
0.0087185986257062
 40
0.0095984120942459
 40
0.0104796723067231
 40
0.0113623793248093
 40
0.0122465332015272
 40
0.0131321339892805
 40
0.0140191817480847
 40
0.0149076765539975
 40
0.0157976185077551
 40
0.0166890077436133
 40
0.0175818444383981
 40
0.0184761288207658
 40
0.019371861180678
 40
0.0202690418790906
 40
0.0211676713578614
 40
0.022067750149877
 40
0.0229692788894029
 40
0.0238722583171137
 40
0.0247766891839668
 40
0.0256825721401753
 40
0.0265899077431927
 40
0.0274986964657102
 40
0.0284089387036374
 40
0.0293206347842968
 40
0.0302337849748339
 40
0.0311483894908466
 40
0.0320644485052348
 40
0.0329819621572735
 40
0.0339009305619119
 40
0.0348213538192998
 40
0.0357432320245467
 40
0.0366665652777119
 40
0.0375913536940321
 40
0.0385175974143871
 40
0.0394452966160055
 40
0.040374451523416
 40
0.0413050624196426
 40
0.0422371296576504
 40
0.0431706536720415
 40
0.0441056349910055
 40
0.0450420742485264
 40
0.0459799721968478
 40
0.0469193297149816
 40
0.0478601476932984
 40
0.048802426879932
 40
0.0497461679130378
 40
0.0506913713328653
 40
0.0516380375916367
 40
0.0525861670636777
 40
0.0535357600558016
 40
0.054486816817949
 40
0.0554393375540877
 40
0.0563933224333727
 40
0.0573487716015721
 40
0.0583056851927596
 40
0.0592640633412763
 40
0.0602239061939673
 40
0.0611852139226923
 40
0.0621479867371151
 40
0.0631122248977756
 40
0.0640779287294451
 40
0.0650450986347695
 40
0.0660137351082015
 40
0.0669838387502275
 40
0.0679554102818887
 40
0.068928450559601
 40
0.0699029605894467
 40
0.0708789414352336
 40
0.0718563939820893
 40
0.0728353189783887
 40
0.073815717060042
 40
0.0747975887625087
 40
0.0757809345331012
 40
0.0767657547435838
 40
0.0777520497030674
 40
0.078739819671205
 40
0.0797290648716897
 40
0.0807197855060584
 40
0.0817119817678056
 40
0.0827056538568078
 40
0.0837008019940648
 40
0.0846974264367587
 40
0.0856955274936342
 40
0.0866951055407046
 40
0.0876961610372855
 40
0.0886986945423591
 40
0.0897027067312731
 40
0.0907081984127771
 40
0.0917151705463989
 40
0.0927236242601642
 40
0.0937335608203941
 40
0.0947449812944014
 40
0.0957578865301632
 40
0.0967722772447041
 40
0.0977881540386286
 40
0.0988055174108378
 40
0.099824367773584
 40
0.1008447054678652
 40
0.1018665307791643
 40
0.1028898439535347
 40
0.1039146452140371
 40
0.1049409347775299
 40
0.1059687128718175
 40
0.1069979797531588
 40
0.1080287357241412
 40
0.1090609811519209
 40
0.1100947164868362
 40
0.1111299422813946
 40
0.1121666592096382
 40
0.1132048680868911
 40
0.1142445698898911
 40
0.1152857657773101
 40
0.1163284571099653
 40
0.1173726453114002
 40
0.11841833149802
 40
0.1194655165979727
 40
0.120514201400518
 40
0.1215643865732937
 40
0.1226160726799654
 40
0.1236692601982609
 40
0.1247239495383955
 40
0.1257801410618893
 40
0.1268378351007823
 40
0.1348721783638703
 40
0.142909858032308
 40
0.1509512132963231
 40
0.1589963232516438
 40
0.1670453631810389
 40
0.1750986967023304
 40
0.1831564494446444
 40
0.1912269104048896
 40
0.1929233753816712
 40
0.1946213436289202
 40
0.1963207742655099
 40
0.1980216263605884
 40
0.1997238589359457
 40
0.2014274309683793
 40
0.2031323013920608
 40
0.2048384291009022
 40
0.2065457729509221
 40
0.2141178752859314
 40
0.2217092863188096
 40
0.2292413352194973
 40
0.2367849906329429
 40
0.2443002276626746
 40
0.2518192484870959
 40
0.2593382906489082
 40
0.2668535063509918
 40
0.2743970989251089
 40
0.2819292106965803
 40
0.2895207225918353
 40
0.2970927241152658
 40
0.3047657916757415
 40
0.3124115864879246
 40
0.3138587554193883
 40
0.3155999680604756
 40
0.3176343217141286
 40
0.3187782418426425
 40
0.3199220628353216
 40
0.3210657863746976
 40
0.3222094138597813
 40
0.323352946435428
 40
0.3244963850217183
 40
0.3256397303433512
 40
0.3267829829590519
 40
0.3279261432909902
 40
0.3290692116542112
 40
0.3302121882860787
 40
0.3313550733757281
 40
0.3324978670935319
 40
0.3336405696205763
 40
0.3347831811781474
 40
0.3359257020572307
 40
0.3370681326480187
 40
0.3382104734694323
 40
0.3393527251986494
 40
0.3404948887006459
 40
0.3416369650816937
 40
0.3427789559526562
 40
0.3439208629985698
 40
0.3450626876137333
 40
0.3462044309221566
 40
0.3473460938068322
 40
0.3504719438837501
 40
0.3564263042404011
 40
0.3652054101699423
 40
0.3768042092208199
 40
0.3893993423071876
 40
0.4017780018757838
 40
0.4139411551175979
 40
0.4258898849991986
 40
0.4376249614691464
 40
0.4491473685355951
 40
0.4604576938205729
 40
0.4715567666931025
 40
0.4824450723503706
 40
0.493123279574394
 40
0.5035918120659255
 40
0.5140601930049742
 40
0.5247382789773881
 40
0.5356264936610255
 40
0.5467255058452337
 40
0.5580358007133762
 40
0.569558207662391
 40
0.5812933143169058
 40
0.5932421047334663
 40
0.6054053488858167
 40
0.6177841298125553
 40
0.6303794147602856
 40
0.6384137549145829
 40
0.6464514315080996
 40
0.6544927837301489
 40
0.6625378906752432
 40
0.6705869276256704
 40
0.6786402581973692
 40
0.6866980080174032
 40
0.6947684660891146
 40
0.6964649310918757
 40
0.6981628993601023
 40
0.6998623300128007
 40
0.7015631821192836
 40
0.7032654147015371
 40
0.7049689867365838
 40
0.7066738571588489
 40
0.7083799848625235
 40
0.7100873287039304
 40
0.7176594310318332
 40
0.7252508421215859
 40
0.7327828910590444
 40
0.7403265464663442
 40
0.7478417834946205
 40
0.755360804329533
 40
0.7628798464803571
 40
0.770395062183387
 40
0.7779386547628713
 40
0.7854707664968054
 40
0.7930622783343932
 40
0.8006342798641412
 40
0.8044739940030536
 40
0.8083073475284487
 40
0.8121338831244703
 40
0.8159531423573717
 40
0.8167179200281468
 40
0.8180299857154415
 40
0.819888135992
 40
0.8222909038491519
 40
0.8252391600603046
 40
0.828733012362096
 40
0.8327720659222301
 40
0.8373558623364445
 40
0.8424838844047835
 40
0.8481556051989794
 40
0.8569750821623778
 40
0.8652793079273611
 40
0.8730690834079866
 40
0.8803453357405348
 40
0.8823272818740722
 40
0.8843039463352642
 40
0.8862753316242876
 40
0.8882414410163348
 40
0.8902022789869531
 40
0.8921578516998899
 40
0.8941081677639766
 40
0.8960532352104924
 40
0.8979930598954914
 40
0.8999276459270644
 40
0.9018569961191465
 40
0.9037811124288715
 40
0.905699996377751
 40
0.907613649456961
 40
0.9095220735170189
 40
0.9114252711421306
 40
0.913323246009485
 40
0.9152160032784841
 40
0.9171035503179528
 40
0.9189858943091974
 40
0.9208630405526498
 40
0.9227349928042365
 40
0.9246017536628972
 40
0.9264633249436309
 40
0.9283197080363225
 40
0.9301709042506078
 40
0.9320169151470364
 40
0.9338577428547845
 40
0.9356933903761698
 40
0.9375238618782147
 40
0.9393491631126715
 40
0.9411693006820965
 40
0.9429842797413326
 40
0.9447941039539063
 40
0.946598775825585
 40
0.9483982970251905
 40
0.9501926686929031
 40
0.9519818917362838
 40
0.9537659671142504
 40
0.9555448961092433
 40
0.9573186805878048
 40
0.9590873232498031
 40
0.9608508278665366
 40
0.962609199582487
 40
0.9643624439617724
 40
0.9661105652493664
 40
0.9678535664385052
 40
0.9695914495487639
 40
0.9713242158931281
 40
0.9730518663342698
 40
0.9747744015302366
 40
0.9764918221697675
 40
0.9782041291974386
 40
0.9799113240288507
 40
0.9816134087560595
 40
0.9833103863434431
 40
0.9850022608256171
 40
0.9866890370280914
 40
0.9883707189287442
 40
0.9900473093509319
 40
0.9917188101940033
 40
0.9933852226575552
 40
0.9950465474563757
 40
0.9967027850262605
 40
0.9983539357208979
 40
1.0
 40
1.0
 40
1.0
 40
1.0
 10
282.2840287669347
 20
0.0000000002144377
 30
0.0
 10
282.2830934265156
 20
0.441966253359308
 30
0.0
 10
282.2812211848724
 20
1.326636269848441
 30
0.0
 10
282.2660652954661
 20
2.654676484014338
 30
0.0
 10
282.2418226305272
 20
3.984786752408092
 30
0.0
 10
282.2075635629912
 20
5.316895287307405
 30
0.0
 10
282.1634846961448
 20
6.650929591666423
 30
0.0
 10
282.1094800910328
 20
7.98681645519309
 30
0.0
 10
282.0455250615742
 20
9.324481951661673
 30
0.0
 10
281.9715730807966
 20
10.66385143588694
 30
0.0
 10
281.8875834738949
 20
12.00484954078333
 30
0.0
 10
281.793513979798
 20
13.34740017439446
 30
0.0
 10
281.689322749597
 20
14.69142651692443
 30
0.0
 10
281.5749678100977
 20
16.03685101776239
 30
0.0
 10
281.4504072082757
 20
17.38359539250274
 30
0.0
 10
281.3155989728318
 20
18.73158061995974
 30
0.0
 10
281.1705011248768
 20
20.08072693917741
 30
0.0
 10
281.0150716754225
 20
21.43095384643456
 30
0.0
 10
280.8492686264112
 20
22.78218009224375
 30
0.0
 10
280.673049970814
 20
24.13432367834933
 30
0.0
 10
280.4863736929086
 20
25.48730185470463
 30
0.0
 10
280.2891977687804
 20
26.84103111650449
 30
0.0
 10
280.0814801657456
 20
28.19542720098427
 30
0.0
 10
279.863178845879
 20
29.55040508507052
 30
0.0
 10
279.6342517541577
 20
30.90587897982011
 30
0.0
 10
279.3946568641908
 20
32.26176233685291
 30
0.0
 10
279.1443520084779
 20
33.61796780988563
 30
0.0
 10
278.8832955153409
 20
34.97440738143808
 30
0.0
 10
278.611443840866
 20
36.33099180766575
 30
0.0
 10
278.3287667209905
 20
37.68763360029833
 30
0.0
 10
278.035238211365
 20
39.04424543356197
 30
0.0
 10
277.73083145124
 20
40.40073900740506
 30
0.0
 10
277.4155200054271
 20
41.75702531981581
 30
0.0
 10
277.0892775049217
 20
43.11301459012456
 30
0.0
 10
276.7520777445336
 20
44.46861627587229
 30
0.0
 10
276.403894657776
 20
45.82373906451141
 30
0.0
 10
276.0447023247209
 20
47.17829087185909
 30
0.0
 10
275.6744749710069
 20
48.53217883873259
 30
0.0
 10
275.29318696922
 20
49.88530932806488
 30
0.0
 10
274.9008128396404
 20
51.23758792188581
 30
0.0
 10
274.497327251164
 20
52.58891941833387
 30
0.0
 10
274.0827050221741
 20
53.93920782865212
 30
0.0
 10
273.656921121432
 20
55.2883563741838
 30
0.0
 10
273.2199506689585
 20
56.63626748335899
 30
0.0
 10
272.7717689369408
 20
57.98284278868632
 30
0.0
 10
272.3123513505516
 20
59.32798312370328
 30
0.0
 10
271.8416734891038
 20
60.67158852005969
 30
0.0
 10
271.3597110859574
 20
62.01355820407704
 30
0.0
 10
270.8664400330981
 20
63.35379059524729
 30
0.0
 10
270.3618363682491
 20
64.69218329745159
 30
0.0
 10
269.845876327328
 20
66.02863311738922
 30
0.0
 10
269.318536152466
 20
67.36303598119426
 30
0.0
 10
268.7797928152327
 20
68.69528722989105
 30
0.0
 10
268.2296213444788
 20
70.02528042964263
 30
0.0
 10
267.6680075961471
 20
71.35291251381499
 30
0.0
 10
267.094946383651
 20
72.67808327748644
 30
0.0
 10
266.5104309144589
 20
74.0006909353215
 30
0.0
 10
265.9144552274572
 20
75.32063313847166
 30
0.0
 10
265.3070135384194
 20
76.6378067022062
 30
0.0
 10
264.6881004175482
 20
77.95210767574588
 30
0.0
 10
264.0577107436778
 20
79.26343131987622
 30
0.0
 10
263.4158397184631
 20
80.57167210932349
 30
0.0
 10
262.7624828644599
 20
81.87672372847335
 30
0.0
 10
262.0976360275349
 20
83.17847906887206
 30
0.0
 10
261.4212953781162
 20
84.47683022624362
 30
0.0
 10
260.7334574127561
 20
85.77166849762988
 30
0.0
 10
260.0341189556168
 20
87.0628843784937
 30
0.0
 10
259.3232771599722
 20
88.35036755982273
 30
0.0
 10
258.6009295097249
 20
89.63400692523616
 30
0.0
 10
257.8670738208716
 20
90.91369054805318
 30
0.0
 10
257.1217082431689
 20
92.18930568848585
 30
0.0
 10
256.3648312610557
 20
93.46073879033737
 30
0.0
 10
255.5964416973772
 20
94.72787547953806
 30
0.0
 10
254.8165387066345
 20
95.99060055577668
 30
0.0
 10
254.0251218074233
 20
97.24879800994175
 30
0.0
 10
253.2221907682997
 20
98.50235094499382
 30
0.0
 10
252.407746042145
 20
99.75114185768294
 30
0.0
 10
251.5817871800948
 20
100.9950515234953
 30
0.0
 10
250.7443193773931
 20
102.2339630868866
 30
0.0
 10
249.8953619747585
 20
103.467768023831
 30
0.0
 10
249.0349327092024
 20
104.6963556549861
 30
0.0
 10
248.163050386194
 20
105.9196149155585
 30
0.0
 10
247.2797341578781
 20
107.1374338869587
 30
0.0
 10
246.3850037185868
 20
108.3496999206818
 30
0.0
 10
245.4788792549773
 20
109.5562996017104
 30
0.0
 10
244.5613814620711
 20
110.75711875501
 30
0.0
 10
243.6325315415966
 20
111.952042440446
 30
0.0
 10
242.6923512050899
 20
113.140954950805
 30
0.0
 10
241.7408626757215
 20
114.3237398089769
 30
0.0
 10
240.7780886904681
 20
115.5002797653576
 30
0.0
 10
239.8040525021975
 20
116.6704567951876
 30
0.0
 10
238.8187778817767
 20
117.8341520958991
 30
0.0
 10
237.8222891201905
 20
118.9912460844682
 30
0.0
 10
236.8146110306154
 20
120.1416183947127
 30
0.0
 10
235.7957689506827
 20
121.2851478747808
 30
0.0
 10
234.7657887440407
 20
122.421712583898
 30
0.0
 10
233.7246968045647
 20
123.5511897918764
 30
0.0
 10
232.672520050667
 20
124.6734559682658
 30
0.0
 10
231.6092859566594
 20
125.7883868102287
 30
0.0
 10
230.5350224455411
 20
126.8958571255607
 30
0.0
 10
229.4497583174253
 20
127.9957412399316
 30
0.0
 10
228.353521868977
 20
129.0879112504823
 30
0.0
 10
227.2463569296897
 20
130.1722530339811
 30
0.0
 10
226.1283098816328
 20
131.248653642046
 30
0.0
 10
224.9994273313023
 20
132.3169989131123
 30
0.0
 10
223.8597566992244
 20
133.377174133526
 30
0.0
 10
222.7093460576775
 20
134.4290638644165
 30
0.0
 10
221.5482441776088
 20
135.4725519853388
 30
0.0
 10
220.3765005193888
 20
136.507521679683
 30
0.0
 10
219.1941652386563
 20
137.5338554357191
 30
0.0
 10
218.0012891881144
 20
138.5514350434383
 30
0.0
 10
216.7979239204186
 20
139.5601415925175
 30
0.0
 10
215.5841216907772
 20
140.5598554699799
 30
0.0
 10
214.3599354596315
 20
141.5504563579283
 30
0.0
 10
213.1254188953287
 20
142.5318232312668
 30
0.0
 10
211.8806263767696
 20
143.5038343553765
 30
0.0
 10
210.6256129961845
 20
144.4663672839663
 30
0.0
 10
209.3604345614487
 20
145.4192988562448
 30
0.0
 10
208.0851476001332
 20
146.3625051966158
 30
0.0
 10
206.799809357092
 20
147.2958617049197
 30
0.0
 10
205.5044778162368
 20
148.2192430820143
 30
0.0
 10
204.1992116318685
 20
149.1325232231665
 30
0.0
 10
202.8840703985914
 20
150.0355756056242
 30
0.0
 10
201.5591137241065
 20
150.9282717812833
 30
0.0
 10
200.2244053412639
 20
151.8104868831166
 30
0.0
 10
198.8800219833659
 20
152.682113374853
 30
0.0
 10
197.5260397443315
 20
153.5430408391738
 30
0.0
 10
196.1625360274015
 20
154.3931588740066
 30
0.0
 10
194.7895889222845
 20
155.2323563739819
 30
0.0
 10
193.4072776512388
 20
156.0605215673874
 30
0.0
 10
192.0156814113802
 20
156.8775425882123
 30
0.0
 10
190.6148835862219
 20
157.6833051352987
 30
0.0
 10
189.2049560450157
 20
158.477701270597
 30
0.0
 10
184.6668737298813
 20
160.9815756568929
 30
0.0
 10
176.8436298305431
 20
164.9150749451168
 30
0.0
 10
165.4821204506164
 20
169.6911822277542
 30
0.0
 10
153.8167127041434
 20
173.6862357575657
 30
0.0
 10
141.9021073054304
 20
176.8836567925303
 30
0.0
 10
129.7913297454097
 20
179.2644353531646
 30
0.0
 10
117.5408874605114
 20
180.8165956948993
 30
0.0
 10
105.2003343193254
 20
181.5354944320774
 30
0.0
 10
96.09462564013697
 20
181.4428909322274
 30
0.0
 10
90.2392453024113
 20
181.4476480533192
 30
0.0
 10
87.63763410182457
 20
181.4470967866566
 30
0.0
 10
85.03379814225136
 20
181.4472552392959
 30
0.0
 10
82.42777987962258
 20
181.4472185089329
 30
0.0
 10
79.81964760116006
 20
181.4472293643312
 30
0.0
 10
77.20946274868207
 20
181.4472227101162
 30
0.0
 10
74.59728869671392
 20
181.4472158782184
 30
0.0
 10
71.9831883333841
 20
181.4472047098836
 30
0.0
 10
66.37250630890294
 20
181.4471699157534
 30
0.0
 10
57.75602102725792
 20
181.4471343577127
 30
0.0
 10
46.16467404850645
 20
181.4471882624924
 30
0.0
 10
34.58785552384716
 20
181.4472445999275
 30
0.0
 10
23.0499415675094
 20
181.4471888364899
 30
0.0
 10
11.51868144303264
 20
181.4471334484975
 30
0.0
 10
-0.000007904145042
 20
181.4471888129792
 30
0.0
 10
-11.5186863600085
 20
181.4472442426413
 30
0.0
 10
-23.04991439124229
 20
181.4471886586359
 30
0.0
 10
-34.58781748624759
 20
181.4471336164915
 30
0.0
 10
-46.16468748337076
 20
181.4471872598253
 30
0.0
 10
-57.75606681319646
 20
181.4472512831318
 30
0.0
 10
-69.41943683421552
 20
181.4471652518891
 30
0.0
 10
-81.11053057051413
 20
181.4472201700428
 30
0.0
 10
-89.67347790951587
 20
181.4469571972321
 30
0.0
 10
-95.20683643774056
 20
181.4473414505611
 30
0.0
 10
-97.87425527347234
 20
181.4464645931182
 30
0.0
 10
-100.3867891523451
 20
181.4498262397573
 30
0.0
 10
-102.5942315454108
 20
181.4420050496772
 30
0.0
 10
-104.3466318019889
 20
181.4159331715173
 30
0.0
 10
-106.0985550334885
 20
181.3736956612135
 30
0.0
 10
-107.8498392636907
 20
181.3143271455767
 30
0.0
 10
-109.6003235174913
 20
181.238111150852
 30
0.0
 10
-111.3498465547226
 20
181.1449966034504
 30
0.0
 10
-113.0982472093643
 20
181.0350220735669
 30
0.0
 10
-114.8453642986432
 20
180.9082021136245
 30
0.0
 10
-116.5910366473698
 20
180.7645577099964
 30
0.0
 10
-118.3351030813996
 20
180.6041081244671
 30
0.0
 10
-120.0774024293656
 20
180.4268730800001
 30
0.0
 10
-121.8177735222031
 20
180.23287217514
 30
0.0
 10
-123.556055193233
 20
180.0221250407415
 30
0.0
 10
-125.2920862782204
 20
179.7946512984458
 30
0.0
 10
-127.0257056149701
 20
179.5504705699235
 30
0.0
 10
-128.7567520448063
 20
179.2896024812794
 30
0.0
 10
-130.4850644069703
 20
179.0120666360557
 30
0.0
 10
-132.210481559463
 20
178.7178827186623
 30
0.0
 10
-133.9328423011992
 20
178.4070701075546
 30
0.0
 10
-135.6519856744461
 20
178.0796493165078
 30
0.0
 10
-137.3677500099197
 20
177.7356365811128
 30
0.0
 10
-139.0799781095889
 20
177.3750701648078
 30
0.0
 10
-140.7885167011607
 20
176.9980035886657
 30
0.0
 10
-142.4932112791274
 20
176.6044868384115
 30
0.0
 10
-144.1939102857545
 20
176.1945707756348
 30
0.0
 10
-146.873342887702
 20
175.5213499593727
 30
0.0
 10
-151.913447382908
 20
174.1580759981699
 30
0.0
 10
-160.6244454918228
 20
171.4401290918373
 30
0.0
 10
-173.2006528187313
 20
166.6403875858741
 30
0.0
 10
-188.3830968928636
 20
159.2907426736504
 30
0.0
 10
-204.3096962857909
 20
149.4636895957015
 30
0.0
 10
-219.3379164894015
 20
137.8356227281922
 30
0.0
 10
-232.8442866662847
 20
124.9462425232821
 30
0.0
 10
-244.7535179373029
 20
110.9999031240675
 30
0.0
 10
-255.0248258033712
 20
96.2054751962888
 30
0.0
 10
-263.6340236293124
 20
80.76001294001445
 30
0.0
 10
-270.5874672881657
 20
64.85730597015507
 30
0.0
 10
-275.9027684766617
 20
48.67687022656236
 30
0.0
 10
-279.6254257670948
 20
32.3899838980153
 30
0.0
 10
-281.8047666745331
 20
16.15206125100293
 30
0.0
 10
-282.5212797789891
 20
0.0000773822294872
 30
0.0
 10
-281.8047797915809
 20
-16.15184427289136
 30
0.0
 10
-279.6254927894034
 20
-32.38958595450318
 30
0.0
 10
-275.9029105559952
 20
-48.67634587810699
 30
0.0
 10
-270.5876924521932
 20
-64.85671046573005
 30
0.0
 10
-263.634326183166
 20
-80.7594007802823
 30
0.0
 10
-255.0251900960279
 20
-96.20489470115714
 30
0.0
 10
-244.7539015965271
 20
-110.9994037061153
 30
0.0
 10
-232.8446917858552
 20
-124.9458360819797
 30
0.0
 10
-219.3381185613228
 20
-137.8354167075182
 30
0.0
 10
-204.3102945403468
 20
-149.4633673626571
 30
0.0
 10
-189.934077846592
 20
-158.3335955484908
 30
0.0
 10
-176.8440381545039
 20
-164.9147933049929
 30
0.0
 10
-165.4819709625747
 20
-169.6912742147658
 30
0.0
 10
-153.8167174050487
 20
-173.686222887296
 30
0.0
 10
-141.9020756404872
 20
-176.8836680919339
 30
0.0
 10
-129.7913130893491
 20
-179.2644369579733
 30
0.0
 10
-117.5408722391326
 20
-180.8165974995402
 30
0.0
 10
-105.200324308293
 20
-181.5354944218221
 30
0.0
 10
-96.09461840988008
 20
-181.4428909463298
 30
0.0
 10
-90.23923953087794
 20
-181.4476480429946
 30
0.0
 10
-87.63762829675366
 20
-181.4470967691074
 30
0.0
 10
-85.03379231256733
 20
-181.4472552168073
 30
0.0
 10
-82.42777403226773
 20
-181.4472184840011
 30
0.0
 10
-79.8196417431547
 20
-181.4472293394007
 30
0.0
 10
-77.20945688651761
 20
-181.4472226876235
 30
0.0
 10
-74.5972828364456
 20
-181.4472158606863
 30
0.0
 10
-71.98318248061537
 20
-181.4472046994947
 30
0.0
 10
-66.37250046540365
 20
-181.4471699281057
 30
0.0
 10
-57.75601516300981
 20
-181.4471343931723
 30
0.0
 10
-46.16466813900594
 20
-181.4471882629139
 30
0.0
 10
-34.58784956899213
 20
-181.4472445633925
 30
0.0
 10
-23.04993559698012
 20
-181.4471888371962
 30
0.0
 10
-11.51867547033387
 20
-181.4471334819393
 30
0.0
 10
0.000013876748571
 20
-181.4471888228628
 30
0.0
 10
11.51869233298491
 20
-181.4472441696755
 30
0.0
 10
23.04992036480131
 20
-181.447188796425
 30
0.0
 10
34.58782343626279
 20
-181.4471331368292
 30
0.0
 10
46.16469341944081
 20
-181.447189188173
 30
0.0
 10
57.7560725874776
 20
-181.4472439939364
 30
0.0
 10
67.46162713408965
 20
-181.4472010495061
 30
0.0
 10
75.24776913951735
 20
-181.4471550939919
 30
0.0
 10
81.12098355852109
 20
-181.4471515433671
 30
0.0
 10
86.9837508968064
 20
-181.4471433059298
 30
0.0
 10
91.27929817129817
 20
-181.4472118113226
 30
0.0
 10
94.29062528167135
 20
-181.4471711431065
 30
0.0
 10
96.30035477172916
 20
-181.4473585502536
 30
0.0
 10
99.14663759110918
 20
-181.4461079814358
 30
0.0
 10
102.8286886627131
 20
-181.4528734836771
 30
0.0
 10
107.34548839608
 20
-181.3523596818553
 30
0.0
 10
112.6928475238866
 20
-181.0899691925977
 30
0.0
 10
118.8621979986543
 20
-180.5896337768773
 30
0.0
 10
125.8387077682317
 20
-179.7679617910285
 30
0.0
 10
133.5999498164238
 20
-178.5297225701992
 30
0.0
 10
143.4159196905272
 20
-176.4998343609988
 30
0.0
 10
154.6624205431353
 20
-173.4455630067587
 30
0.0
 10
166.6790966168924
 20
-169.2308259377496
 30
0.0
 10
177.655207774528
 20
-164.5198383321737
 30
0.0
 10
185.42715192525
 20
-160.581034536395
 30
0.0
 10
190.4404548763193
 20
-157.7894249559311
 30
0.0
 10
193.0616901072033
 20
-156.2719504203617
 30
0.0
 10
195.6503352579475
 20
-154.7152077241301
 30
0.0
 10
198.2058889917923
 20
-153.119920958583
 30
0.0
 10
200.7278325358312
 20
-151.4868295513145
 30
0.0
 10
203.2156545018765
 20
-149.8166434939992
 30
0.0
 10
205.6689093136554
 20
-148.1101540993558
 30
0.0
 10
208.0872113697255
 20
-146.368211231763
 30
0.0
 10
210.4701744432388
 20
-144.5916397472546
 30
0.0
 10
212.8174240728755
 20
-142.7812596810055
 30
0.0
 10
215.1285939192311
 20
-140.9378811042792
 30
0.0
 10
217.4033266480473
 20
-139.0623055635463
 30
0.0
 10
219.641273636477
 20
-137.1553257852763
 30
0.0
 10
221.8420948970517
 20
-135.2177257471874
 30
0.0
 10
224.0054593029631
 20
-133.2502810087089
 30
0.0
 10
226.131043398216
 20
-131.2537576442062
 30
0.0
 10
228.2185355637132
 20
-129.2289164680841
 30
0.0
 10
230.2676204593045
 20
-127.1764973554544
 30
0.0
 10
232.2780465806492
 20
-125.0972882253884
 30
0.0
 10
234.2496363057915
 20
-122.9921293503869
 30
0.0
 10
236.1822062793156
 20
-120.8618370522129
 30
0.0
 10
238.0755832375139
 20
-118.7072213288468
 30
0.0
 10
239.9295994898233
 20
-116.5290814641389
 30
0.0
 10
241.7440940565949
 20
-114.3282072853078
 30
0.0
 10
243.5189123028625
 20
-112.105378906251
 30
0.0
 10
245.2539059777116
 20
-109.8613668760253
 30
0.0
 10
246.9489331303965
 20
-107.5969322137
 30
0.0
 10
248.6038581160495
 20
-105.3128264927231
 30
0.0
 10
250.2185513675768
 20
-103.0097918394767
 30
0.0
 10
251.7928900513433
 20
-100.6885611636005
 30
0.0
 10
253.3267553102854
 20
-98.349857734511
 30
0.0
 10
254.8201403833697
 20
-95.99446541668824
 30
0.0
 10
256.273045829249
 20
-93.62315706509617
 30
0.0
 10
257.6854759654783
 20
-91.23669493695397
 30
0.0
 10
259.0574394278605
 20
-88.83583117650693
 30
0.0
 10
260.3889489480743
 20
-86.42130781678547
 30
0.0
 10
261.6800213685957
 20
-83.99385686516827
 30
0.0
 10
262.930677596537
 20
-81.55420036744033
 30
0.0
 10
264.1409425661001
 20
-79.10305047299289
 30
0.0
 10
265.3108452278706
 20
-76.64110951540312
 30
0.0
 10
266.4404184232567
 20
-74.16907002926239
 30
0.0
 10
267.5296991903208
 20
-71.68761500429508
 30
0.0
 10
268.5787274807743
 20
-69.197417221164
 30
0.0
 10
269.5875506174868
 20
-66.69914242429724
 30
0.0
 10
270.5563244862843
 20
-64.19348937599939
 30
0.0
 10
271.4852042446311
 20
-61.68114372331465
 30
0.0
 10
272.3743478872225
 20
-59.16278140062102
 30
0.0
 10
273.2239151046792
 20
-56.63906820004373
 30
0.0
 10
274.0340675504802
 20
-54.11066000372644
 30
0.0
 10
274.8049687456688
 20
-51.57820281158837
 30
0.0
 10
275.5367840725745
 20
-49.04233282186127
 30
0.0
 10
276.2296807734123
 20
-46.50367650270277
 30
0.0
 10
276.8838278415445
 20
-43.96285064561512
 30
0.0
 10
277.4993963356513
 20
-41.42046249875197
 30
0.0
 10
278.0765581165235
 20
-38.8771095987377
 30
0.0
 10
278.6154904474537
 20
-36.33338071678369
 30
0.0
 10
279.1163587684505
 20
-33.78985287110815
 30
0.0
 10
279.5794020124751
 20
-31.24710900085118
 30
0.0
 10
280.0049071445629
 20
-28.70573010937303
 30
0.0
 10
280.3931446767994
 20
-26.16628495850296
 30
0.0
 10
280.7444092088865
 20
-23.62933470963161
 30
0.0
 10
281.0589151943367
 20
-21.09542617471654
 30
0.0
 10
281.3371717075012
 20
-18.56511479226268
 30
0.0
 10
281.578593484005
 20
-16.03888025259095
 30
0.0
 10
281.7866598721108
 20
-13.51744009918995
 30
0.0
 10
281.8955547548768
 20
-11.83694463184424
 30
0.0
 10
281.9499182034617
 20
-10.99799309789148
 30
0.0
  0
LINE
  5
E3
330
AF
100
AcDbEntity
  8
0
  6
Continuous
 62
     7
370
    25
100
AcDbLine
 10
282.2791526461
 20
0.3503723996
 30
0.0
 11
281.8932182197
 21
11.7226045182
 31
0.0
  0
LINE
  5
E4
330
AF
100
AcDbEntity
  8
0
  6
Continuous
 62
     7
370
    25
100
AcDbLine
 10
-96.4999999728
 20
175.0507601067
 30
0.0
 11
-96.4999999728
 21
180.0504998189
 31
0.0
  0
LINE
  5
E5
330
AF
100
AcDbEntity
  8
0
  6
Continuous
 62
     7
370
    25
100
AcDbLine
 10
-96.5
 20
-180.0504998189
 30
0.0
 11
-96.5
 21
-175.0507601067
 31
0.0
  0
LINE
  5
E6
330
AF
100
AcDbEntity
  8
0
  6
Continuous
 62
     7
370
    25
100
AcDbLine
 10
-96.4999999728
 20
180.0504998189
 30
0.0
 11
96.5000000003
 21
180.0504998189
 31
0.0
  0
LINE
  5
E7
330
AF
100
AcDbEntity
  8
0
  6
Continuous
 62
     7
370
    25
100
AcDbLine
 10
96.5
 20
-180.0504998189
 30
0.0
 11
-96.5
 21
-180.0504998189
 31
0.0
  0
LINE
  5
E8
330
AF
100
AcDbEntity
  8
0
  6
Continuous
 62
     7
370
    25
100
AcDbLine
 10
-96.5
 20
-175.0507601067
 30
0.0
 11
96.5
 21
-175.0507601067
 31
0.0
  0
LINE
  5
E9
330
AF
100
AcDbEntity
  8
0
  6
Continuous
 62
     7
370
    25
100
AcDbLine
 10
96.5
 20
-180.0504998189
 30
0.0
 11
96.5
 21
-175.0507601067
 31
0.0
  0
LINE
  5
EA
330
AF
100
AcDbEntity
  8
0
  6
Continuous
 62
     7
370
    25
100
AcDbLine
 10
96.5000000003
 20
175.0507601067
 30
0.0
 11
96.5000000003
 21
180.0504998189
 31
0.0
  0
LINE
  5
EB
330
AF
100
AcDbEntity
  8
0
  6
Continuous
 62
     7
370
    25
100
AcDbLine
 10
-96.5
 20
98.3589838486
 30
0.0
 11
-96.5
 21
148.0
 31
0.0
  0
LINE
  5
EC
330
AF
100
AcDbEntity
  8
0
  6
Continuous
 62
     7
370
    25
100
AcDbLine
 10
-96.5
 20
-148.0
 30
0.0
 11
-96.5
 21
-98.3589838486
 31
0.0
  0
LINE
  5
ED
330
AF
100
AcDbEntity
  8
0
  6
Continuous
 62
     7
370
    25
100
AcDbLine
 10
96.5
 20
-148.0
 30
0.0
 11
96.5
 21
-98.3589838486
 31
0.0
  0
LINE
  5
EE
330
AF
100
AcDbEntity
  8
0
  6
Continuous
 62
     7
370
    25
100
AcDbLine
 10
96.5
 20
98.3589838486
 30
0.0
 11
96.5
 21
148.0
 31
0.0
  0
LINE
  5
EF
330
AF
100
AcDbEntity
  8
0
  6
Continuous
 62
     7
370
    25
100
AcDbLine
 10
-96.5
 20
148.0
 30
0.0
 11
96.5
 21
148.0
 31
0.0
  0
LINE
  5
F0
330
AF
100
AcDbEntity
  8
0
  6
Continuous
 62
     7
370
    25
100
AcDbLine
 10
96.5
 20
-148.0
 30
0.0
 11
-96.5
 21
-148.0
 31
0.0
  0
LINE
  5
F1
330
AF
100
AcDbEntity
  8
0
  6
Continuous
 62
     7
370
    25
100
AcDbLine
 10
96.5000000003
 20
175.0507601067
 30
0.0
 11
-96.4999999728
 21
175.0507601067
 31
0.0
  0
LINE
  5
F2
330
AF
100
AcDbEntity
  8
0
  6
Continuous
 62
     7
370
    25
100
AcDbLine
 10
96.5
 20
-131.1246564049
 30
0.0
 11
-96.5
 21
-131.1246564049
 31
0.0
  0
LINE
  5
F3
330
AF
100
AcDbEntity
  8
0
  6
Continuous
 62
     7
370
    25
100
AcDbLine
 10
-96.5
 20
131.1246564049
 30
0.0
 11
96.5
 21
131.1246564049
 31
0.0
  0
LINE
  5
F4
330
AF
100
AcDbEntity
  8
0
  6
Continuous
 62
     7
370
    25
100
AcDbLine
 10
-96.5
 20
-122.3954887741
 30
0.0
 11
96.5
 21
-122.3954887741
 31
0.0
  0
LINE
  5
F5
330
AF
100
AcDbEntity
  8
0
  6
Continuous
 62
     7
370
    25
100
AcDbLine
 10
96.5
 20
122.3954887741
 30
0.0
 11
-96.5
 21
122.3954887741
 31
0.0
  0
LINE
  5
F6
330
AF
100
AcDbEntity
  8
0
  6
Continuous
 62
     7
370
    25
100
AcDbLine
 10
96.5
 20
98.3589838486
 30
0.0
 11
-96.5
 21
98.3589838486
 31
0.0
  0
LINE
  5
F7
330
AF
100
AcDbEntity
  8
0
  6
Continuous
 62
     7
370
    25
100
AcDbLine
 10
-96.5
 20
-98.3589838486
 30
0.0
 11
96.5
 21
-98.3589838486
 31
0.0
  0
ARC
  5
F8
330
AF
100
AcDbEntity
  8
0
  6
Continuous
 62
     7
370
    25
100
AcDbCircle
 10
-96.5
 20
0.0
 30
0.0
 40
148.0000000000001
100
AcDbArc
 50
90.0
 51
270.0
  0
ARC
  5
F9
330
AF
100
AcDbEntity
  8
0
  6
Continuous
 62
     7
370
    25
100
AcDbCircle
 10
-96.5
 20
0.0
 30
0.0
 40
131.1246564049339
100
AcDbArc
 50
90.0
 51
270.0
  0
ARC
  5
FA
330
AF
100
AcDbEntity
  8
0
  6
Continuous
 62
     7
370
    25
100
AcDbCircle
 10
96.5
 20
0.0
 30
0.0
 40
148.0000000000001
100
AcDbArc
 50
270.0
 51
90.0
  0
ARC
  5
FB
330
AF
100
AcDbEntity
  8
0
  6
Continuous
 62
     7
370
    25
100
AcDbCircle
 10
96.5
 20
0.0
 30
0.0
 40
131.1246564049339
100
AcDbArc
 50
270.0
 51
90.0
  0
ARC
  5
FC
330
AF
100
AcDbEntity
  8
0
  6
Continuous
 62
     7
370
    25
100
AcDbCircle
 10
-96.5
 20
0.0
 30
0.0
 40
122.3954887740799
100
AcDbArc
 50
90.0
 51
270.0
  0
ARC
  5
FD
330
AF
100
AcDbEntity
  8
0
  6
Continuous
 62
     7
370
    25
100
AcDbCircle
 10
96.5
 20
0.0
 30
0.0
 40
122.3954887740799
100
AcDbArc
 50
270.0
 51
90.0
  0
ARC
  5
FE
330
AF
100
AcDbEntity
  8
0
  6
Continuous
 62
     7
370
    25
100
AcDbCircle
 10
-96.5
 20
0.0
 30
0.0
 40
98.3589838486224
100
AcDbArc
 50
90.0
 51
270.0
  0
ARC
  5
FF
330
AF
100
AcDbEntity
  8
0
  6
Continuous
 62
     7
370
    25
100
AcDbCircle
 10
96.5
 20
0.0
 30
0.0
 40
98.35898384862242
100
AcDbArc
 50
270.0
 51
90.0
  0
VIEWPORT
  5
139
330
AF
100
AcDbEntity
  8
0
100
AcDbViewport
 10
0.0
 20
0.0
 30
0.0
 40
205.6
 41
156.0
 68
     1
 69
     1
 12
0.0000003357
 22
73.4999932029
 13
0.0
 23
0.0
 14
10.0
 24
10.0
 15
10.0
 25
10.0
 16
0.0
 26
0.0
 36
1.0
 17
0.0
 27
0.0
 37
0.0
 42
50.0
 43
0.0
 44
0.0
 45
436.9361346937
 50
0.0
 51
0.0
 72
   100
 90
   557152
  1

281
     0
 71
     1
 74
     0
110
0.0
120
0.0
130
0.0
111
1.0
121
0.0
131
0.0
112
0.0
122
1.0
132
0.0
 79
     0
146
0.0
  0
ENDBLK
  5
B2
330
AF
100
AcDbEntity
  8
0
100
AcDbBlockEnd
  0
BLOCK
  5
102
330
100
100
AcDbEntity
  8
0
100
AcDbBlockBegin
  2
*Paper_Space2
 70
     0
 10
0.0
 20
0.0
 30
0.0
  3
*Paper_Space2
  1

  0
SPLINE
  5
104
330
100
100
AcDbEntity
  8
0
  6
Continuous
 62
     7
370
    25
100
AcDbSpline
210
0.0
220
0.0
230
1.0
 70
     8
 71
     3
 72
    80
 73
    76
 74
     0
 42
0.000000001
 43
0.00000001
 40
0.0
 40
0.0
 40
0.0
 40
0.0
 40
0.014933229872685
 40
0.0306236692994811
 40
0.0450632842597564
 40
0.0579869825607653
 40
0.0693240450669236
 40
0.0793610554241975
 40
0.0893946895534372
 40
0.0995844357381599
 40
0.1099621203418566
 40
0.1212056736813645
 40
0.1335928496860861
 40
0.1471256084976006
 40
0.1618056098866969
 40
0.177061545848912
 40
0.1924158705741133
 40
0.2020635794486756
 40
0.2117504561815066
 40
0.2214768023966746
 40
0.2311168872391423
 40
0.2379096407948365
 40
0.2436639818209099
 40
0.2483787512561017
 40
0.2520529552676108
 40
0.2547281992565923
 40
0.2591610546825373
 40
0.2654043598636126
 40
0.2734102940735953
 40
0.2820646894851156
 40
0.2960460314733826
 40
0.310496458258307
 40
0.3274890817216026
 40
0.3449424164116467
 40
0.3626599844208944
 40
0.3806423129923158
 40
0.3952206415381704
 40
0.4099700896616297
 40
0.4240196192089672
 40
0.4364599830337149
 40
0.4472849258620929
 40
0.456503371460093
 40
0.4648333882376775
 40
0.4728354570677009
 40
0.4822884405067813
 40
0.4936874499428887
 40
0.5076849248209768
 40
0.5224518407402114
 40
0.5369529574868992
 40
0.551187892503398
 40
0.5650795447315974
 40
0.578606667653653
 40
0.6097210572155294
 40
0.6403036740601694
 40
0.6762818983661436
 40
0.712218135320021
 40
0.7485676893037733
 40
0.7697572494924141
 40
0.7913776096618806
 40
0.8129469807743304
 40
0.833950295326235
 40
0.8544055594614162
 40
0.8749265484775003
 40
0.8875764926550085
 40
0.9004747685963528
 40
0.9131376098744419
 40
0.9240824792148744
 40
0.9332154240808618
 40
0.9399552115879718
 40
0.9484855434772104
 40
0.958799604999558
 40
0.9707879167624317
 40
0.9821277192260416
 40
0.9918613239354995
 40
1.0
 40
1.0
 40
1.0
 40
1.0
 10
237.9746488093681
 20
52.74113683701515
 30
0.0
 10
237.2174977730602
 20
51.01832816556152
 30
0.0
 10
235.6648033363354
 20
47.48535348622714
 30
0.0
 10
232.6027366860314
 20
42.28086356731308
 30
0.0
 10
229.1192806807037
 20
37.27065024030786
 30
0.0
 10
225.5591401343537
 20
32.86529822948672
 30
0.0
 10
222.0917692787564
 20
29.05088509756041
 30
0.0
 10
218.665297946612
 20
25.63610916177183
 30
0.0
 10
215.1446459195694
 20
22.42348345832408
 30
0.0
 10
211.3660937064116
 20
19.25690650739836
 30
0.0
 10
207.2167086388324
 20
16.05853484725572
 30
0.0
 10
202.5259264351948
 20
12.73913996005408
 30
0.0
 10
197.1057704358495
 20
9.240691412634408
 30
0.0
 10
190.8472097644482
 20
5.586471797453585
 30
0.0
 10
183.7736913643825
 20
1.883372265089098
 30
0.0
 10
176.0196357856606
 20
-1.730032207145085
 30
0.0
 10
168.801711461841
 20
-4.707718300494192
 30
0.0
 10
162.3720498462445
 20
-7.09988855096854
 30
0.0
 10
156.8557258800921
 20
-8.988438778329812
 30
0.0
 10
151.2184015902469
 20
-10.75717513704432
 30
0.0
 10
146.0400457024146
 20
-12.24066396462663
 30
0.0
 10
141.5808420599057
 20
-13.41863291795308
 30
0.0
 10
138.0736465499064
 20
-14.2869601587653
 30
0.0
 10
135.175339151241
 20
-14.9652087202165
 30
0.0
 10
132.8930742717014
 20
-15.47484247765649
 30
0.0
 10
130.6578465123427
 20
-15.95603820389518
 30
0.0
 10
127.8747991100641
 20
-16.53039394415831
 30
0.0
 10
123.9521005830003
 20
-17.28808931905326
 30
0.0
 10
119.099667554701
 20
-18.14100330920685
 30
0.0
 10
112.5465913366252
 20
-19.16171009732425
 30
0.0
 10
104.5247001551084
 20
-20.19677555999628
 30
0.0
 10
94.59226513798627
 20
-21.15366776607992
 30
0.0
 10
83.80850301450728
 20
-21.81091762948639
 30
0.0
 10
72.24783847013984
 20
-22.07300179618752
 30
0.0
 10
60.4633214288846
 20
-21.87920533429879
 30
0.0
 10
49.36475828146196
 20
-21.2555709937571
 30
0.0
 10
39.01012109911456
 20
-20.29533529194515
 30
0.0
 10
29.61841832808464
 20
-19.10910306071333
 30
0.0
 10
20.8140597994277
 20
-17.69835382772638
 30
0.0
 10
12.97387963703804
 20
-16.18924593849729
 30
0.0
 10
6.259962783814313
 20
-14.70174933300308
 30
0.0
 10
0.4892808946670296
 20
-13.27429033722249
 30
0.0
 10
-4.626451607191121
 20
-11.8897044317929
 30
0.0
 10
-9.707302113254157
 20
-10.4009657411752
 30
0.0
 10
-15.28911389641245
 20
-8.627506416889634
 30
0.0
 10
-21.87281236440562
 20
-6.332370660891922
 30
0.0
 10
-29.2228778782644
 20
-3.478467277896545
 30
0.0
 10
-36.82930823677597
 20
-0.1545751938371726
 30
0.0
 10
-44.15750205285951
 20
3.424314319830701
 30
0.0
 10
-50.94073276361983
 20
7.185406229701277
 30
0.0
 10
-57.41285012353554
 20
10.96266593450615
 30
0.0
 10
-66.57726242534365
 20
16.24013359656076
 30
0.0
 10
-78.34609205163287
 20
23.04136647447247
 30
0.0
 10
-93.64553208824806
 20
31.87103452523148
 30
0.0
 10
-109.709691307266
 20
41.14546657346667
 30
0.0
 10
-126.6757843084438
 20
50.93948776783612
 30
0.0
 10
-141.3248145769174
 20
59.39649758266782
 30
0.0
 10
-153.7301574230984
 20
66.55735994266993
 30
0.0
 10
-163.8194711434077
 20
72.38371081944615
 30
0.0
 10
-173.8788125110426
 20
78.18372378756918
 30
0.0
 10
-183.7066514719259
 20
83.88219139562729
 30
0.0
 10
-193.4550899988815
 20
89.41484813712263
 30
0.0
 10
-201.5451758871464
 20
94.37979196057918
 30
0.0
 10
-207.8871103861732
 20
98.90320081451375
 30
0.0
 10
-212.8162198466088
 20
102.7782128759303
 30
0.0
 10
-217.1831024348964
 20
106.5963430330327
 30
0.0
 10
-220.8262698083813
 20
110.1220613561018
 30
0.0
 10
-223.6138759581274
 20
113.0760964473813
 30
0.0
 10
-226.0075729206177
 20
115.8097864817104
 30
0.0
 10
-228.3694637461479
 20
118.71817192073
 30
0.0
 10
-230.9893480095298
 20
122.277333978001
 30
0.0
 10
-233.5652837919862
 20
126.244816397397
 30
0.0
 10
-235.7343459596183
 20
130.1333830497382
 30
0.0
 10
-237.3640076817748
 20
133.5239782576986
 30
0.0
 10
-238.1678709184943
 20
135.5041578568452
 30
0.0
 10
-238.5339340173549
 20
136.4058916932154
 30
0.0
  0
SPLINE
  5
106
330
100
100
AcDbEntity
  8
0
  6
Continuous
 62
     7
370
    25
100
AcDbSpline
210
0.0
220
0.0
230
1.0
 70
     8
 71
     3
 72
    87
 73
    83
 74
     0
 42
0.000000001
 43
0.00000001
 40
0.0
 40
0.0
 40
0.0
 40
0.0
 40
0.0113797657932377
 40
0.0223181385332808
 40
0.031790261785212
 40
0.0398251375847742
 40
0.0473162961578591
 40
0.061640868378942
 40
0.0756412822589115
 40
0.084742804830119
 40
0.0938549607701075
 40
0.102561217449718
 40
0.1101544553202414
 40
0.1166210442340683
 40
0.1221519151630548
 40
0.1283879240376784
 40
0.135548639770793
 40
0.1437509889385271
 40
0.1529691368897578
 40
0.1624733939307748
 40
0.1719445896104386
 40
0.1813841749436909
 40
0.1906511790809824
 40
0.1995908178194197
 40
0.2272051304972948
 40
0.2542204004816347
 40
0.276761514160315
 40
0.2991795511375087
 40
0.3216082335801033
 40
0.3442256862137872
 40
0.3678915639836615
 40
0.3927887850585415
 40
0.4038620418395916
 40
0.4139745040500267
 40
0.4230526525345496
 40
0.431088885437339
 40
0.4380831696646075
 40
0.4452165639728134
 40
0.4530367517003278
 40
0.4618652138458253
 40
0.4715649723826624
 40
0.4821199747529464
 40
0.4928461900901564
 40
0.5096947458536797
 40
0.5259791300432779
 40
0.5417061331004905
 40
0.5569678223578001
 40
0.5772288268677509
 40
0.5974770609307613
 40
0.6177220634719721
 40
0.637964954390334
 40
0.6582016105121853
 40
0.6784558938287879
 40
0.6938484358729651
 40
0.7094891365258263
 40
0.7253796112845502
 40
0.7415114378931381
 40
0.7577449407879682
 40
0.7740357357065656
 40
0.7903904452656343
 40
0.8065870912337436
 40
0.8220296280677117
 40
0.8366803322898211
 40
0.8505444290464442
 40
0.8636339976655174
 40
0.8719316081644252
 40
0.8804327163287498
 40
0.8900969530048589
 40
0.9009458990073247
 40
0.9123925418140936
 40
0.9230658872527242
 40
0.9329070584267765
 40
0.9420056401879922
 40
0.9505131060506511
 40
0.9535902053999494
 40
0.9573608102246561
 40
0.962107379573757
 40
0.9678315237036139
 40
0.9745350933261224
 40
0.9822201938443197
 40
0.9908892428201201
 40
1.0
 40
1.0
 40
1.0
 40
1.0
 10
252.6995880742665
 20
72.66779508100761
 30
0.0
 10
252.7216101300218
 20
74.48039790754521
 30
0.0
 10
252.7648000602948
 20
78.03529716676557
 30
0.0
 10
252.2565442193803
 20
83.06953764191347
 30
0.0
 10
251.5011172161931
 20
87.52574793130441
 30
0.0
 10
250.5989210471724
 20
91.35071496365433
 30
0.0
 10
249.270409365769
 20
95.8833688894547
 30
0.0
 10
247.229982863159
 20
101.3120135886654
 30
0.0
 10
244.498194449442
 20
106.9183643202811
 30
0.0
 10
241.7476242788041
 20
111.6474513853421
 30
0.0
 10
239.1899145589752
 20
115.5360658914114
 30
0.0
 10
236.5413309170568
 20
119.1422123655754
 30
0.0
 10
233.9800666009768
 20
122.3166192712534
 30
0.0
 10
231.6405079207566
 20
125.0017188376002
 30
0.0
 10
229.3606728551926
 20
127.4587024639523
 30
0.0
 10
226.8933515719056
 20
129.9638396853187
 30
0.0
 10
223.9437711370973
 20
132.7677697211583
 30
0.0
 10
220.4135324257278
 20
135.8865266451278
 30
0.0
 10
216.3344643227435
 20
139.2116435552298
 30
0.0
 10
211.8346056135944
 20
142.5851349381207
 30
0.0
 10
207.0713978346448
 20
145.8671170841758
 30
0.0
 10
202.1422123682765
 20
149.0078606734413
 30
0.0
 10
197.0716712721251
 20
151.948382589773
 30
0.0
 10
188.6643116809142
 20
156.8001948633808
 30
0.0
 10
177.044350116063
 20
163.5110826512935
 30
0.0
 10
162.9377820478001
 20
171.6541325306684
 30
0.0
 10
149.7939995452722
 20
179.2420544531688
 30
0.0
 10
137.4894716431225
 20
186.3452627742717
 30
0.0
 10
125.1705592103542
 20
193.4568314471468
 30
0.0
 10
112.6239158475198
 20
200.6998512729271
 30
0.0
 10
99.6264790387994
 20
208.2031126266196
 30
0.0
 10
88.73703284176939
 20
214.4894562990484
 30
0.0
 10
80.32233352220622
 20
219.3471580530405
 30
0.0
 10
74.79320077534256
 20
222.5390992081006
 30
0.0
 10
69.81610229301108
 20
225.4123470030903
 30
0.0
 10
65.40573916045899
 20
227.9584566893696
 30
0.0
 10
61.34727947904491
 20
230.3011323322611
 30
0.0
 10
57.32256993267492
 20
232.6247997297285
 30
0.0
 10
52.95677061704623
 20
235.1418331396935
 30
0.0
 10
47.92314067541385
 20
237.8146698423473
 30
0.0
 10
42.17382833775068
 20
240.6408346065802
 30
0.0
 10
35.82400357170359
 20
243.4940295997201
 30
0.0
 10
27.74414438179955
 20
246.7940691254995
 30
0.0
 10
18.07728770879448
 20
250.2625407750548
 30
0.0
 10
6.868946770233308
 20
253.6679558120994
 30
0.0
 10
-4.332794906527229
 20
256.5217748863901
 30
0.0
 10
-16.79691357243271
 20
259.1394888445734
 30
0.0
 10
-30.70078226825698
 20
261.3772942634416
 30
0.0
 10
-46.149170052218
 20
263.0397091645674
 30
0.0
 10
-61.78051779411195
 20
263.9188046051603
 30
0.0
 10
-77.48063899664795
 20
264.0041538818624
 30
0.0
 10
-93.13643178265072
 20
263.2958302233097
 30
0.0
 10
-107.3931078494288
 20
261.9216221938676
 30
0.0
 10
-120.2672696664177
 20
260.0823115006223
 30
0.0
 10
-131.8298919982421
 20
257.9449930100282
 30
0.0
 10
-143.2996257191215
 20
255.3173819445562
 30
0.0
 10
-154.575449844546
 20
252.1997827325652
 30
0.0
 10
-165.5480943076242
 20
248.6008977953619
 30
0.0
 10
-176.1173764852156
 20
244.5415935837683
 30
0.0
 10
-186.1747883739419
 20
240.0605570179578
 30
0.0
 10
-195.5154441945546
 20
235.2609221765123
 30
0.0
 10
-203.971090954164
 20
230.2785006217501
 30
0.0
 10
-211.4685167573858
 20
225.2463748264674
 30
0.0
 10
-218.0626781930123
 20
220.2306386052285
 30
0.0
 10
-223.2313401871918
 20
215.7880511477034
 30
0.0
 10
-227.3187682981561
 20
211.900284844192
 30
0.0
 10
-230.7309562145931
 20
208.3731723178073
 30
0.0
 10
-234.2232403688727
 20
204.4064539355748
 30
0.0
 10
-237.7452735885724
 20
199.9284223026824
 30
0.0
 10
-241.0027307164721
 20
195.2002938602079
 30
0.0
 10
-243.7910077168562
 20
190.5209883874737
 30
0.0
 10
-246.0517588834752
 20
186.1056772743104
 30
0.0
 10
-247.8597116651725
 20
181.9604041307315
 30
0.0
 10
-249.012038042161
 20
178.8250687123751
 30
0.0
 10
-249.7646894551897
 20
176.4991248163236
 30
0.0
 10
-250.2941138661087
 20
174.7209064730111
 30
0.0
 10
-250.8792615899587
 20
172.5173488955791
 30
0.0
 10
-251.4838621456159
 20
169.8424083433692
 30
0.0
 10
-252.0499533818217
 20
166.6938614164953
 30
0.0
 10
-252.5018184046236
 20
163.0719047740251
 30
0.0
 10
-252.780915628529
 20
159.0641707546758
 30
0.0
 10
-252.7318119666486
 20
156.2691096600728
 30
0.0
 10
-252.7066501883862
 20
154.8368599092666
 30
0.0
  0
LWPOLYLINE
  5
108
330
100
100
AcDbEntity
  8
0
  6
Continuous
 62
     7
370
    25
100
AcDbPolyline
 90
        3
 70
   128
 43
0.0
 10
248.3430944581
 20
-37.8772952709
 10
250.5237683776
 20
17.1720588869
 10
252.7028768463
 20
72.1740478511
  0
LWPOLYLINE
  5
109
330
100
100
AcDbEntity
  8
0
  6
Continuous
 62
     7
370
    25
100
AcDbPolyline
 90
        3
 70
   128
 43
0.0
 10
-252.7059244575
 20
154.5783640336
 10
-250.5266472776
 20
97.8615827446
 10
-248.3462412579
 20
41.106981138
  0
SPLINE
  5
10A
330
100
100
AcDbEntity
  8
0
  6
Continuous
 62
     7
370
    25
100
AcDbSpline
210
0.0
220
0.0
230
1.0
 70
     8
 71
     3
 72
    62
 73
    58
 74
     0
 42
0.000000001
 43
0.00000001
 40
0.0
 40
0.0
 40
0.0
 40
0.0
 40
0.0102887606660166
 40
0.0278765848461464
 40
0.0463802800926666
 40
0.0648977393833671
 40
0.0834256933044274
 40
0.1019571728097363
 40
0.1204858484954741
 40
0.13900547618433
 40
0.1575243023185891
 40
0.1757304905039077
 40
0.1940114473139835
 40
0.2124157969810112
 40
0.2309259791343843
 40
0.2495221319394182
 40
0.2681822305233056
 40
0.2868825888487308
 40
0.3055984321233893
 40
0.3242970142892982
 40
0.3429524760964256
 40
0.3615410104270447
 40
0.3800405262147711
 40
0.398431208578482
 40
0.41669602783931
 40
0.4348431481445517
 40
0.4529933984111172
 40
0.47129029193981
 40
0.4897172574110021
 40
0.5082556505960505
 40
0.5268843671561113
 40
0.5455803135770497
 40
0.5643189468590872
 40
0.5830748689183964
 40
0.6018152701170402
 40
0.6205136990858736
 40
0.6391463752685284
 40
0.6576912857433471
 40
0.6761286199149764
 40
0.6944410575152964
 40
0.7126572359400316
 40
0.7309812311553107
 40
0.7494139769153326
 40
0.767939738233575
 40
0.7865400461316124
 40
0.8051938803902485
 40
0.8238779809164641
 40
0.8425635157929169
 40
0.8612188122726421
 40
0.8798168116305393
 40
0.8983310677354702
 40
0.9167368472497764
 40
0.935012378689725
 40
0.9531401580940961
 40
0.9710922637565595
 40
0.9889551477701535
 40
1.0
 40
1.0
 40
1.0
 40
1.0
 10
-58.03671612484705
 20
-111.1155409869099
 30
0.0
 10
-57.03582541273585
 20
-111.6797936721001
 30
0.0
 10
-54.32399103699368
 20
-113.2085917814121
 30
0.0
 10
-49.63047408720777
 20
-115.6977191474847
 30
0.0
 10
-43.92548205152126
 20
-118.4785936640224
 30
0.0
 10
-37.92156933587325
 20
-121.1639994354841
 30
0.0
 10
-31.73067412926732
 20
-123.6985288465297
 30
0.0
 10
-25.36338253760177
 20
-126.0785218403551
 30
0.0
 10
-18.83315767317008
 20
-128.2988946438643
 30
0.0
 10
-12.15201418577431
 20
-130.355977718962
 30
0.0
 10
-5.367901772766623
 20
-132.2353405682071
 30
0.0
 10
1.518779196846953
 20
-133.9328864934432
 30
0.0
 10
8.506266278471204
 20
-135.4561767142326
 30
0.0
 10
15.63563234149404
 20
-136.8146216919746
 30
0.0
 10
22.89655901472726
 20
-138.0053020452251
 30
0.0
 10
30.26946123202581
 20
-139.0237829283694
 30
0.0
 10
37.73352148257253
 20
-139.8661676381731
 30
0.0
 10
45.26692188508041
 20
-140.5291319292013
 30
0.0
 10
52.84607466194678
 20
-141.0099540960452
 30
0.0
 10
60.44680301830132
 20
-141.3067428014584
 30
0.0
 10
68.04484059207861
 20
-141.4184965958258
 30
0.0
 10
75.61722330550445
 20
-141.3450647295294
 30
0.0
 10
83.14173408219555
 20
-141.0870537552951
 30
0.0
 10
90.59703886950855
 20
-140.6457686672728
 30
0.0
 10
97.96596583140696
 20
-140.0229196967638
 30
0.0
 10
105.2499056696307
 20
-139.2184221710876
 30
0.0
 10
112.4731489533127
 20
-138.2339687743213
 30
0.0
 10
119.6560997267153
 20
-137.0676865516888
 30
0.0
 10
126.7998246002916
 20
-135.7180190697266
 30
0.0
 10
133.8838837659959
 20
-134.186997742122
 30
0.0
 10
140.8872905263535
 20
-132.477429971006
 30
0.0
 10
147.7886754072805
 20
-130.5929292483452
 30
0.0
 10
154.5665653526569
 20
-128.537902360869
 30
0.0
 10
161.1988293524182
 20
-126.3177940194206
 30
0.0
 10
167.6637710625702
 20
-123.9388857635797
 30
0.0
 10
173.9406268766549
 20
-121.4081422404472
 30
0.0
 10
180.0106258888422
 20
-118.7327341906254
 30
0.0
 10
185.8563671621149
 20
-115.9200377681588
 30
0.0
 10
191.4622232566775
 20
-112.9778760126793
 30
0.0
 10
196.8170329787081
 20
-109.9108682922914
 30
0.0
 10
201.9345662774764
 20
-106.7160462285152
 30
0.0
 10
206.8316066877909
 20
-103.3863756580148
 30
0.0
 10
211.5153622607201
 20
-99.9150178639297
 30
0.0
 10
215.9732228761613
 20
-96.30832350122922
 30
0.0
 10
220.1913319266749
 20
-92.57433475058512
 30
0.0
 10
224.1561546361713
 20
-88.7219623016324
 30
0.0
 10
227.854383216324
 20
-84.76123438876957
 30
0.0
 10
231.2731697208338
 20
-80.70340880914185
 30
0.0
 10
234.4007744157781
 20
-76.5605716151141
 30
0.0
 10
237.2270248746051
 20
-72.3452058593122
 30
0.0
 10
239.7433257731231
 20
-68.06990914920752
 30
0.0
 10
241.9431497707984
 20
-63.74740387068204
 30
0.0
 10
243.8198453293446
 20
-59.39085861682246
 30
0.0
 10
245.3747484991065
 20
-55.01282995297887
 30
0.0
 10
246.5886706145423
 20
-50.62388951175583
 30
0.0
 10
247.4180413343153
 20
-46.78666089824434
 30
0.0
 10
247.7136861403557
 20
-44.40391932876322
 30
0.0
 10
247.826643902518
 20
-43.4935392036919
 30
0.0
  0
SPLINE
  5
10B
330
100
100
AcDbEntity
  8
0
  6
Continuous
 62
     7
370
    25
100
AcDbSpline
210
0.0
220
0.0
230
1.0
 70
     8
 71
     3
 72
    15
 73
    11
 74
     0
 42
0.000000001
 43
0.00000001
 40
0.0
 40
0.0
 40
0.0
 40
0.0
 40
0.0143485809344329
 40
0.0682897123749421
 40
0.1576607104546502
 40
0.3155568611161546
 40
0.7232550593584715
 40
0.9270520084690205
 40
0.9785856618471944
 40
0.9999999999999999
 40
0.9999999999999999
 40
0.9999999999999999
 40
0.9999999999999999
 10
-194.5080176935151
 20
-32.28570533111585
 30
0.0
 10
-193.8647959859355
 20
-32.67237131041704
 30
0.0
 10
-190.8034879998252
 20
-34.51264447975093
 30
0.0
 10
-183.5598182296045
 20
-38.61613313908406
 30
0.0
 10
-169.89623029688
 20
-46.53705912593569
 30
0.0
 10
-140.0689905286698
 20
-63.72592975952907
 30
0.0
 10
-105.1268762117119
 20
-83.967266366098
 30
0.0
 10
-74.87958389295684
 20
-101.3162925214545
 30
0.0
 10
-62.38224648375658
 20
-108.6418747140994
 30
0.0
 10
-58.99312637419236
 20
-110.5351700252733
 30
0.0
 10
-57.99822901590311
 20
-111.090958679158
 30
0.0
  0
SPLINE
  5
10C
330
100
100
AcDbEntity
  8
0
  6
Continuous
 62
     7
370
    25
100
AcDbSpline
210
0.0
220
0.0
230
1.0
 70
     8
 71
     3
 72
    25
 73
    21
 74
     0
 42
0.000000001
 43
0.00000001
 40
0.0
 40
0.0
 40
0.0
 40
0.0
 40
0.0505449190947366
 40
0.1078389945070928
 40
0.1652645015953449
 40
0.2228334838359849
 40
0.2805495434201277
 40
0.3384078948696322
 40
0.3963964203478985
 40
0.4544975405324736
 40
0.5126906095636579
 40
0.5708492363934595
 40
0.6292506943667551
 40
0.6876135393015452
 40
0.7458842897070956
 40
0.8041980602216858
 40
0.8626491415513043
 40
0.9213701879223936
 40
0.9803335237593144
 40
1.0
 40
1.0
 40
1.0
 40
1.0
 10
-247.9077659765632
 20
36.01718087362462
 30
0.0
 10
-247.7331478165267
 20
34.70195323049471
 30
0.0
 10
-247.3605951022625
 20
31.89587837424207
 30
0.0
 10
-246.4060640173132
 20
27.62548478633439
 30
0.0
 10
-245.1297723014659
 20
23.20794424484265
 30
0.0
 10
-243.5337208816459
 20
18.82531401591603
 30
0.0
 10
-241.6299572836969
 20
14.48553419482043
 30
0.0
 10
-239.4183523354877
 20
10.1975128094501
 30
0.0
 10
-236.9029383918433
 20
5.96997511143077
 30
0.0
 10
-234.0878786792141
 20
1.812007102510504
 30
0.0
 10
-230.9793542160619
 20
-2.266229799843922
 30
0.0
 10
-227.5826485843968
 20
-6.257400216682328
 30
0.0
 10
-223.9116601756318
 20
-10.15770377021993
 30
0.0
 10
-219.9668981314035
 20
-13.95921365884097
 30
0.0
 10
-215.7595710596202
 20
-17.65032351339379
 30
0.0
 10
-211.2930910910498
 20
-21.22874858466361
 30
0.0
 10
-206.5642414055417
 20
-24.69587931178298
 30
0.0
 10
-201.5824239742693
 20
-28.05060182697428
 30
0.0
 10
-197.5025895912202
 20
-30.56435322563945
 30
0.0
 10
-195.142762630723
 20
-31.96073662602421
 30
0.0
 10
-194.5525350869392
 20
-32.30999271911332
 30
0.0
  0
SPLINE
  5
10D
330
100
100
AcDbEntity
  8
0
  6
Continuous
 62
     7
370
    25
100
AcDbSpline
210
0.0
220
0.0
230
1.0
 70
     8
 71
     3
 72
    28
 73
    24
 74
     0
 42
0.000000001
 43
0.00000001
 40
0.0
 40
0.0
 40
0.0
 40
0.0
 40
0.0266805583076549
 40
0.0863658122586635
 40
0.1357471377104254
 40
0.1885357039651102
 40
0.2400969353381092
 40
0.2907919116144839
 40
0.3402229621844731
 40
0.3901291870489914
 40
0.4402214502359322
 40
0.4899479457761632
 40
0.5403414650080789
 40
0.5907125123296534
 40
0.6410132335255256
 40
0.6917806059425912
 40
0.7421402340459581
 40
0.7926669100863835
 40
0.8435230103156854
 40
0.8936310448938616
 40
0.9439052139458795
 40
0.9907269980571355
 40
1.0
 40
1.0
 40
1.0
 40
1.0
 10
22.46348641049137
 20
15.79195935382954
 30
0.0
 10
22.47001474878239
 20
15.59236242547211
 30
0.0
 10
22.49114718659353
 20
14.94626084681894
 30
0.0
 10
22.22648800518003
 20
13.92255506217277
 30
0.0
 10
21.67499661119676
 20
12.67606147772438
 30
0.0
 10
20.8441522418387
 20
11.44828280745738
 30
0.0
 10
19.7150000582623
 20
10.22312097503494
 30
0.0
 10
18.31488257001928
 20
9.064600735761076
 30
0.0
 10
16.66545366433269
 20
7.983942131875047
 30
0.0
 10
14.79467415084339
 20
7.002753206807238
 30
0.0
 10
12.70605703019782
 20
6.139532131906357
 30
0.0
 10
10.43363026749279
 20
5.406474693171612
 30
0.0
 10
8.015052891657463
 20
4.81860356902706
 30
0.0
 10
5.472544689156795
 20
4.393364209504064
 30
0.0
 10
2.849149249048792
 20
4.134305259228602
 30
0.0
 10
0.1865571970567671
 20
4.045964827332833
 30
0.0
 10
-2.482574576280535
 20
4.139238242268445
 30
0.0
 10
-5.118368891933251
 20
4.405451729609947
 30
0.0
 10
-7.680464138945235
 20
4.835673894450325
 30
0.0
 10
-10.12846849067905
 20
5.425671718972028
 30
0.0
 10
-12.37399340367721
 20
6.141933183320007
 30
0.0
 10
-13.88355457695145
 20
6.746841873210417
 30
0.0
 10
-14.63083884230941
 20
7.092087517407974
 30
0.0
 10
-14.75437204266516
 20
7.149159907813757
 30
0.0
  0
SPLINE
  5
10E
330
100
100
AcDbEntity
  8
0
  6
Continuous
 62
     7
370
    25
100
AcDbSpline
210
0.0
220
0.0
230
1.0
 70
     8
 71
     3
 72
    16
 73
    12
 74
     0
 42
0.000000001
 43
0.00000001
 40
0.0
 40
0.0
 40
0.0
 40
0.0
 40
0.0657588745287522
 40
0.193294907386405
 40
0.3208426405009833
 40
0.4455933391384749
 40
0.5706845894971345
 40
0.7000302649391711
 40
0.8305294823002686
 40
0.9672411843932126
 40
0.9999999999999999
 40
0.9999999999999999
 40
0.9999999999999999
 40
0.9999999999999999
 10
-14.75437204266516
 20
7.149159907813757
 30
0.0
 10
-15.0893572711546
 20
7.311781900174834
 30
0.0
 10
-16.07402951776322
 20
7.789801075194052
 30
0.0
 10
-17.54433156832579
 20
8.66250188097381
 30
0.0
 10
-19.05354541507637
 20
9.766225685199977
 30
0.0
 10
-20.27565304818498
 20
10.90542004347735
 30
0.0
 10
-21.23186898353297
 20
12.0712326790323
 30
0.0
 10
-21.93131260306825
 20
13.24207699602224
 30
0.0
 10
-22.33856561814466
 20
14.38273345030027
 30
0.0
 10
-22.5211180909085
 20
15.23322374987388
 30
0.0
 10
-22.48010856005452
 20
15.71132437191943
 30
0.0
 10
-22.47218137792514
 20
15.80374168633886
 30
0.0
  0
SPLINE
  5
10F
330
100
100
AcDbEntity
  8
0
  6
Continuous
 62
     7
370
    25
100
AcDbSpline
210
0.0
220
0.0
230
1.0
 70
     8
 71
     3
 72
    27
 73
    23
 74
     0
 42
0.000000001
 43
0.00000001
 40
0.0
 40
0.0
 40
0.0
 40
0.0
 40
0.0471328542238997
 40
0.0980153195926563
 40
0.1486369046798237
 40
0.1992495548712522
 40
0.2499842376793251
 40
0.3008982239098372
 40
0.3519922612891684
 40
0.4032392674099298
 40
0.45459927785438
 40
0.5060268530432418
 40
0.5574744202467574
 40
0.6088832110481159
 40
0.6601987146112158
 40
0.711372643370501
 40
0.7623593318038434
 40
0.8131208416644566
 40
0.8636375616843129
 40
0.9139284122363333
 40
0.9640870847380443
 40
1.0
 40
1.0
 40
1.0
 40
1.0
 10
-20.47799090831419
 20
11.2083899188762
 30
0.0
 10
-20.13782165163085
 20
11.57379148362996
 30
0.0
 10
-19.43042128391649
 20
12.33366380069485
 30
0.0
 10
-18.00739226247835
 20
13.44139971798621
 30
0.0
 10
-16.31898467208827
 20
14.50303605706785
 30
0.0
 10
-14.39416414667777
 20
15.46481796292926
 30
0.0
 10
-12.26485848144843
 20
16.30904238110504
 30
0.0
 10
-9.956512051478212
 20
17.01915832375717
 30
0.0
 10
-7.50149843971434
 20
17.58107837011676
 30
0.0
 10
-4.934734927603547
 20
17.98348231412588
 30
0.0
 10
-2.293691782297179
 20
18.21820994611553
 30
0.0
 10
0.3827272421527972
 20
18.28040296842748
 30
0.0
 10
3.054672593952219
 20
18.16858466170469
 30
0.0
 10
5.682117405272392
 20
17.88475339918743
 30
0.0
 10
8.225663266061893
 20
17.43443726630187
 30
0.0
 10
10.64728208531601
 20
16.82667020545828
 30
0.0
 10
12.91134283047309
 20
16.07402310238509
 30
0.0
 10
14.98388471717204
 20
15.19256417525004
 30
0.0
 10
16.83911883065545
 20
14.20200527192579
 30
0.0
 10
18.44044627983885
 20
13.12443022301397
 30
0.0
 10
19.6861744891118
 20
12.09495082650898
 30
0.0
 10
20.2708765496602
 20
11.42602045560606
 30
0.0
 10
20.51484039533273
 20
11.14691279243215
 30
0.0
  0
SPLINE
  5
114
330
100
100
AcDbEntity
  8
0
  6
Continuous
 62
     7
370
    25
100
AcDbSpline
210
0.0
220
0.0
230
1.0
 70
     8
 71
     3
 72
     9
 73
     5
 74
     0
 42
0.000000001
 43
0.00000001
 40
0.0
 40
0.0
 40
0.0
 40
0.0
 40
0.260815000377707
 40
1.0
 40
1.0
 40
1.0
 40
1.0
 10
247.8099834121876
 20
-43.20718747904073
 30
0.0
 10
247.9010928391596
 20
-42.74538186120981
 30
0.0
 10
248.2504187093743
 20
-40.97475663964612
 30
0.0
 10
248.210837889622
 20
-39.19034999603517
 30
0.0
 10
248.1815803413884
 20
-37.8713433718516
 30
0.0
  0
SPLINE
  5
116
330
100
100
AcDbEntity
  8
0
  6
Continuous
 62
     7
370
    25
100
AcDbSpline
210
0.0
220
0.0
230
1.0
 70
     8
 71
     3
 72
     9
 73
     5
 74
     0
 42
0.000000001
 43
0.00000001
 40
0.0
 40
0.0
 40
0.0
 40
0.0
 40
0.0491529771810105
 40
1.0
 40
1.0
 40
1.0
 40
1.0
 10
-248.3291706262335
 20
41.10725084855531
 30
0.0
 10
-248.3319586566967
 20
41.02821616526608
 30
0.0
 10
-248.3886801540118
 20
39.42028338434488
 30
0.0
 10
-248.0876652843793
 20
37.81758822385648
 30
0.0
 10
-247.801446191765
 20
36.29367030201967
 30
0.0
  0
SPLINE
  5
117
330
100
100
AcDbEntity
  8
0
  6
Continuous
 62
     7
370
    25
100
AcDbSpline
210
0.0
220
0.0
230
1.0
 70
     8
 71
     3
 72
    21
 73
    17
 74
     0
 42
0.000000001
 43
0.00000001
 40
0.0
 40
0.0
 40
0.0
 40
0.0
 40
0.0625
 40
0.0625
 40
0.125
 40
0.125
 40
0.2499999999999999
 40
0.2499999999999999
 40
0.5
 40
0.75
 40
0.75
 40
0.875
 40
0.875
 40
0.9375
 40
0.9375
 40
1.0
 40
1.0
 40
1.0
 40
1.0
 10
32.72797508372692
 20
139.025094445021
 30
0.0
 10
35.59330336355227
 20
137.3528317453088
 30
0.0
 10
38.45971357094445
 20
135.6854057908697
 30
0.0
 10
44.19530667663192
 20
132.3629491661428
 30
0.0
 10
47.06427136439857
 20
130.706942988089
 30
0.0
 10
55.66983297449404
 20
125.73296773655
 30
0.0
 10
61.40688841238865
 20
122.4170484518523
 30
0.0
 10
78.61833879720668
 20
112.4705605346367
 30
0.0
 10
101.5678253665707
 20
99.21253774982797
 30
0.0
 10
124.5211021945815
 20
85.97145927456373
 30
0.0
 10
141.7367243577943
 20
76.043621246724
 30
0.0
 10
147.4753597692433
 20
72.73476521640319
 30
0.0
 10
156.0833344331633
 20
67.77157749541438
 30
0.0
 10
158.9522151700682
 20
66.1151960159579
 30
0.0
 10
164.6923129137264
 20
62.81287732567531
 30
0.0
 10
167.5637481310071
 20
61.16791562260915
 30
0.0
 10
170.4362652758544
 20
59.52779066481571
 30
0.0
  0
LWPOLYLINE
  5
118
330
100
100
AcDbEntity
  8
0
  6
Continuous
 62
     7
370
    25
100
AcDbPolyline
 90
       12
 70
   128
 43
0.0
 10
150.8242687777
 20
30.5844322583
 10
153.225236672
 20
32.217031713
 10
155.5857186992
 20
34.1414649548
 10
157.8751474917
 20
36.3328112862
 10
160.0638757948
 20
38.7626935842
 10
162.123560388
 20
41.3996457735
 10
164.0275291191
 20
44.2095203001
 10
165.7511262983
 20
47.1559303303
 10
167.272031981
 20
50.2007209457
 10
168.5705510021
 20
53.3044632362
 10
169.6298680213
 20
56.426964889
 10
170.4362652759
 20
59.5277906648
  0
SPLINE
  5
119
330
100
100
AcDbEntity
  8
0
  6
Continuous
 62
     7
370
    25
100
AcDbSpline
210
0.0
220
0.0
230
1.0
 70
     8
 71
     3
 72
    32
 73
    28
 74
     0
 42
0.000000001
 43
0.00000001
 40
0.0
 40
0.0
 40
0.0
 40
0.0
 40
0.0624999999999998
 40
0.0624999999999998
 40
0.0781249999999997
 40
0.0781249999999997
 40
0.0859374999999998
 40
0.0859374999999998
 40
0.0937499999999999
 40
0.1249999999999998
 40
0.1249999999999998
 40
0.2499999999999998
 40
0.2499999999999998
 40
0.4999999999999997
 40
0.4999999999999997
 40
0.7499999999999997
 40
0.7499999999999997
 40
0.8749999999999998
 40
0.8749999999999998
 40
0.9062499999999998
 40
0.9140624999999998
 40
0.9140624999999998
 40
0.9218749999999997
 40
0.9218749999999997
 40
0.9374999999999997
 40
0.9374999999999997
 40
1.0
 40
1.0
 40
1.0
 40
1.0
 10
150.8242687776552
 20
30.58443225830709
 30
0.0
 10
147.9647870331152
 20
32.23688454629152
 30
0.0
 10
145.1073689376477
 20
33.89478187185838
 30
0.0
 10
141.5387663715065
 20
35.97577483560806
 30
0.0
 10
140.8252050938817
 20
36.39240687727517
 30
0.0
 10
139.7551155074829
 20
37.01804703363408
 30
0.0
 10
139.3945086234723
 20
37.22421600933404
 30
0.0
 10
138.6768063355014
 20
37.6386879916014
 30
0.0
 10
136.8825535055439
 20
38.67486973149855
 30
0.0
 10
135.0883139976441
 20
39.7110608036025
 30
0.0
 10
127.9113784720832
 20
43.85585995946287
 30
0.0
 10
122.1699235565303
 20
47.17181320159681
 30
0.0
 10
104.9445624350781
 20
57.1201613256928
 30
0.0
 10
93.45924302066483
 20
63.75303566804929
 30
0.0
 10
70.47824157047907
 20
77.01968541765646
 30
0.0
 10
58.98255743248459
 20
83.65346204137974
 30
0.0
 10
41.73642146399244
 20
93.60508560945759
 30
0.0
 10
35.98737863763774
 20
96.92245552045557
 30
0.0
 10
28.8011917502564
 20
101.0693104412316
 30
0.0
 10
27.00465064561351
 20
102.1060328936146
 30
0.0
 10
25.2081228286633
 20
103.1427646979941
 30
0.0
 10
24.48951285478429
 20
103.5574581352154
 30
0.0
 10
24.13195925467788
 20
103.7658747988466
 30
0.0
 10
23.04759768485863
 20
104.3839727375769
 30
0.0
 10
22.32485813816513
 20
104.7964994637191
 30
0.0
 10
18.7119563109803
 20
106.861300526806
 30
0.0
 10
15.82417001925666
 20
108.5200390242017
 30
0.0
 10
12.93844647950418
 20
110.1842231418426
 30
0.0
  0
SPLINE
  5
11A
330
100
100
AcDbEntity
  8
0
  6
Continuous
 62
     7
370
    25
100
AcDbSpline
210
0.0
220
0.0
230
1.0
 70
    11
 71
     3
 72
    63
 73
    59
 74
     0
 42
0.000000001
 43
0.00000001
 40
0.0
 40
0.0
 40
0.0
 40
0.0
 40
0.0156699340420949
 40
0.0313645905312378
 40
0.046941722349118
 40
0.0625504220425393
 40
0.0782803194983697
 40
0.0938926734879527
 40
0.0977862857548222
 40
0.1016720767343741
 40
0.1094527006580582
 40
0.12511970725147
 40
0.1562931605133493
 40
0.1875851989076573
 40
0.2187174632318007
 40
0.2500342186863188
 40
0.281201120823481
 40
0.3124578966402423
 40
0.3437140155615812
 40
0.3748467183656454
 40
0.3904813552085022
 40
0.3983438601623044
 40
0.3999099737935591
 40
0.4022582405897127
 40
0.4061685830196957
 40
0.4217505758363791
 40
0.4373541884326966
 40
0.4530824049363051
 40
0.4686994857785226
 40
0.4842736650788604
 40
0.4999556161794746
 40
0.5156880280835456
 40
0.5314094968394983
 40
0.5471151923204663
 40
0.5626956176041659
 40
0.5782984283061696
 40
0.5940284101261256
 40
0.5981649543776107
 40
0.625153098074852
 40
0.656445907585666
 40
0.6875790962382751
 40
0.7188628748285721
 40
0.7500987513807574
 40
0.7812884860641027
 40
0.8125936442290789
 40
0.8437161053487512
 40
0.8750026646415945
 40
0.8905484456104407
 40
0.8983410657243988
 40
0.8999030234615257
 40
0.9022512144334317
 40
0.906181398000896
 40
0.9218954169578918
 40
0.9374801632927185
 40
0.95307669183044
 40
0.9688024135063014
 40
0.9844275315830173
 40
1.0
 40
1.0
 40
1.0
 40
1.0
 10
-22.81458456352156
 20
7.520268904300173
 30
0.0
 10
-23.56369467720927
 20
7.952721086752595
 30
0.0
 10
-24.98956851011616
 20
8.859677735353253
 30
0.0
 10
-26.8828007996197
 20
10.32794730126574
 30
0.0
 10
-28.51559870269973
 20
11.8907550442371
 30
0.0
 10
-29.87663373647891
 20
13.53638064985496
 30
0.0
 10
-30.95101425335046
 20
15.24961237624778
 30
0.0
 10
-31.53366631065431
 20
16.57338594846173
 30
0.0
 10
-31.82555778304344
 20
17.46192430679362
 30
0.0
 10
-31.99445420417219
 20
18.05555350462439
 30
0.0
 10
-32.22384478631152
 20
19.10505107915567
 30
0.0
 10
-32.41092769152459
 20
21.22061926219519
 30
0.0
 10
-31.89560560895902
 20
24.25916189775365
 30
0.0
 10
-30.05065787273357
 20
27.76346863163464
 30
0.0
 10
-27.04726432588466
 20
31.00301973553411
 30
0.0
 10
-23.00848838510215
 20
33.84270676160089
 30
0.0
 10
-18.07978743348842
 20
36.17981908346233
 30
0.0
 10
-12.45952761647812
 20
37.92048634911685
 30
0.0
 10
-6.363966650466887
 20
38.99856903855976
 30
0.0
 10
-1.079426309384433
 20
39.31263383660879
 30
0.0
 10
2.613030876022708
 20
39.22111923271952
 30
0.0
 10
4.294475662269685
 20
39.10823442615721
 30
0.0
 10
5.08093345514656
 20
39.04189139390167
 30
0.0
 10
5.602448347970683
 20
38.99418167014832
 30
0.0
 10
7.053038350353249
 20
38.84444929439663
 30
0.0
 10
9.356991185258089
 20
38.52076478847187
 30
0.0
 10
12.34560131505905
 20
37.91482939322459
 30
0.0
 10
15.21733586695398
 20
37.13979561363414
 30
0.0
 10
17.94016966631766
 20
36.20401727821216
 30
0.0
 10
20.48831443573547
 20
35.11765518383869
 30
0.0
 10
22.84565813605604
 20
33.88665232180404
 30
0.0
 10
24.98892523061681
 20
32.52057787063336
 30
0.0
 10
26.89065332586155
 20
31.03556953734654
 30
0.0
 10
28.52628545369113
 20
29.45201559399613
 30
0.0
 10
29.88390003100081
 20
27.78514690666787
 30
0.0
 10
30.95611075617926
 20
26.04649431163002
 30
0.0
 10
31.54168044714697
 20
24.69030638655449
 30
0.0
 10
32.12167074793327
 20
22.87640357982276
 30
0.0
 10
32.48662930277343
 20
20.4177900112231
 30
0.0
 10
31.89228705267737
 20
16.90495883795102
 30
0.0
 10
30.04214776726407
 20
13.37114520671562
 30
0.0
 10
27.03838732579013
 20
10.12104768940027
 30
0.0
 10
22.99211442531015
 20
7.275693993292316
 30
0.0
 10
18.06162326663754
 20
4.945066697494053
 30
0.0
 10
12.44258383905019
 20
3.222456087517763
 30
0.0
 10
6.342071772191376
 20
2.171079364288529
 30
0.0
 10
1.061413066457843
 20
1.891998805849726
 30
0.0
 10
-2.630477138817906
 20
2.016507520607426
 30
0.0
 10
-4.300920458035005
 20
2.14546963757932
 30
0.0
 10
-5.08242518535737
 20
2.219613380837586
 30
0.0
 10
-5.604975041944012
 20
2.273111964816117
 30
0.0
 10
-7.065621376788751
 20
2.439686214746439
 30
0.0
 10
-9.37804541140302
 20
2.788688094349872
 30
0.0
 10
-12.36446372017253
 20
3.422532748096917
 30
0.0
 10
-15.23291828427502
 20
4.219070856036032
 30
0.0
 10
-17.95681500805771
 20
5.171866443747529
 30
0.0
 10
-20.50603362258834
 20
6.270422576235717
 30
0.0
 10
-22.07013384950409
 20
7.090506536762136
 30
0.0
 10
-22.81458456352156
 20
7.520268904300171
 30
0.0
  0
SPLINE
  5
11C
330
100
100
AcDbEntity
  8
0
  6
Continuous
 62
     7
370
    25
100
AcDbSpline
210
0.0
220
0.0
230
1.0
 70
    11
 71
     3
 72
   120
 73
   116
 74
     0
 42
0.000000001
 43
0.00000001
 40
0.0
 40
0.0
 40
0.0
 40
0.0
 40
0.0312500000000001
 40
0.0312500000000001
 40
0.0468750000000002
 40
0.0468750000000002
 40
0.0625000000000002
 40
0.0625000000000002
 40
0.0781250000000002
 40
0.0781250000000002
 40
0.0859375000000002
 40
0.0859375000000002
 40
0.0937500000000003
 40
0.0937500000000003
 40
0.1250000000000004
 40
0.1250000000000004
 40
0.1406250000000005
 40
0.1406250000000005
 40
0.1484375000000005
 40
0.1484375000000005
 40
0.1562500000000005
 40
0.1562500000000005
 40
0.1875000000000005
 40
0.1875000000000005
 40
0.1953125000000005
 40
0.1953125000000005
 40
0.2031250000000005
 40
0.2031250000000005
 40
0.2187500000000005
 40
0.2187500000000005
 40
0.2500000000000006
 40
0.2500000000000006
 40
0.2656250000000006
 40
0.2656250000000006
 40
0.2812500000000006
 40
0.2812500000000006
 40
0.2968750000000006
 40
0.2968750000000006
 40
0.3125000000000006
 40
0.3125000000000006
 40
0.3437500000000006
 40
0.3437500000000006
 40
0.3593750000000006
 40
0.3593750000000006
 40
0.3750000000000006
 40
0.3750000000000006
 40
0.4062500000000007
 40
0.4062500000000007
 40
0.4218750000000007
 40
0.4218750000000007
 40
0.4375000000000007
 40
0.4375000000000007
 40
0.4531250000000007
 40
0.4531250000000007
 40
0.4687500000000007
 40
0.4687500000000007
 40
0.5000000000000007
 40
0.5000000000000007
 40
0.5312500000000008
 40
0.5312500000000008
 40
0.5468750000000009
 40
0.5468750000000009
 40
0.5625000000000009
 40
0.5625000000000009
 40
0.5937500000000009
 40
0.5937500000000009
 40
0.6015625000000009
 40
0.6015625000000009
 40
0.609375000000001
 40
0.609375000000001
 40
0.625000000000001
 40
0.625000000000001
 40
0.656250000000001
 40
0.656250000000001
 40
0.6640625000000011
 40
0.6640625000000011
 40
0.6718750000000011
 40
0.6718750000000011
 40
0.687500000000001
 40
0.687500000000001
 40
0.703125000000001
 40
0.703125000000001
 40
0.7109375000000009
 40
0.7109375000000009
 40
0.7187500000000009
 40
0.7187500000000009
 40
0.7500000000000008
 40
0.7500000000000008
 40
0.7656250000000008
 40
0.7656250000000008
 40
0.7734375000000008
 40
0.7734375000000008
 40
0.7812500000000009
 40
0.7812500000000009
 40
0.8125000000000009
 40
0.8125000000000009
 40
0.8281250000000008
 40
0.8281250000000008
 40
0.8437500000000008
 40
0.8437500000000008
 40
0.8750000000000007
 40
0.8750000000000007
 40
0.8906250000000006
 40
0.8906250000000006
 40
0.9062500000000006
 40
0.9062500000000006
 40
0.9218750000000004
 40
0.9218750000000004
 40
0.9375000000000004
 40
0.9375000000000004
 40
0.9687500000000002
 40
0.9687500000000002
 40
0.9843750000000001
 40
0.9843750000000001
 40
1.0
 40
1.0
 40
1.0
 40
1.0
 10
-17.25431707973424
 20
8.203036531129234
 30
0.0
 10
-18.39400423451412
 20
8.860964829957025
 30
0.0
 10
-19.40891524764142
 20
9.573624033152193
 30
0.0
 10
-20.74603995468407
 20
10.72404221376978
 30
0.0
 10
-21.16044271915676
 20
11.12152391510036
 30
0.0
 10
-21.91187912517209
 20
11.92901459163199
 30
0.0
 10
-22.25114515759337
 20
12.34082106898094
 30
0.0
 10
-22.85796492757864
 20
13.18033637336125
 30
0.0
 10
-23.12551789125732
 20
13.6080438551761
 30
0.0
 10
-23.47239978596046
 20
14.26172247534421
 30
0.0
 10
-23.57893642879298
 20
14.48163852524494
 30
0.0
 10
-23.77351572033723
 20
14.92559370314368
 30
0.0
 10
-23.86173982989506
 20
15.15022949490911
 30
0.0
 10
-24.25199559578047
 20
16.27322601510394
 30
0.0
 10
-24.40552487652583
 20
17.17664207529912
 30
0.0
 10
-24.4046384785912
 20
18.54158404092358
 30
0.0
 10
-24.36554265408379
 20
18.99802006601187
 30
0.0
 10
-24.24701120390663
 20
19.68480628354299
 30
0.0
 10
-24.19735107834325
 20
19.91447264391934
 30
0.0
 10
-24.07899996572096
 20
20.36957833266382
 30
0.0
 10
-24.0102475855033
 20
20.59557575294494
 30
0.0
 10
-23.61943389451095
 20
21.71782808584641
 30
0.0
 10
-23.15754786834248
 20
22.59117445873519
 30
0.0
 10
-22.39308258549707
 20
23.65178317651064
 30
0.0
 10
-22.23075016490386
 20
23.86233816397622
 30
0.0
 10
-21.88684510986636
 20
24.28024878875961
 30
0.0
 10
-21.70522148892231
 20
24.48756720263841
 30
0.0
 10
-21.13754796083812
 20
25.0977904641413
 30
0.0
 10
-20.72688001379031
 20
25.4913618436698
 30
0.0
 10
-19.40065389690039
 20
26.63329593418099
 30
0.0
 10
-18.3917883066511
 20
27.34324150914603
 30
0.0
 10
-16.68459059051517
 20
28.32826505032816
 30
0.0
 10
-16.08884309551947
 20
28.63961675868402
 30
0.0
 10
-14.85604642655018
 20
29.223759198431
 30
0.0
 10
-14.21736829977076
 20
29.49750190565845
 30
0.0
 10
-12.8958595394559
 20
30.00864171541009
 30
0.0
 10
-12.21302824500493
 20
30.24606566345673
 30
0.0
 10
-10.8023372122804
 20
30.68389706916859
 30
0.0
 10
-10.07080734159598
 20
30.88502325128643
 30
0.0
 10
-7.851727162819115
 20
31.42006071525764
 30
0.0
 10
-6.330481496835783
 20
31.6901508743351
 30
0.0
 10
-3.986734046465434
 20
31.96778961556862
 30
0.0
 10
-3.194342006935589
 20
32.03897326754426
 30
0.0
 10
-1.591117086957264
 20
32.13689758094092
 30
0.0
 10
-0.792235190930697
 20
32.16295246348486
 30
0.0
 10
1.596494769422139
 20
32.17494644969133
 30
0.0
 10
3.178492757504083
 20
32.09601642624867
 30
0.0
 10
5.535499674203671
 20
31.8426192711635
 30
0.0
 10
6.320070403891283
 20
31.73442831235212
 30
0.0
 10
7.849584922374467
 20
31.47613869278494
 30
0.0
 10
8.598821637579295
 20
31.32568275859941
 30
0.0
 10
10.06680914647086
 20
30.98284940826963
 30
0.0
 10
10.78556031598703
 20
30.79045829616337
 30
0.0
 10
12.1922441166416
 20
30.36332367311083
 30
0.0
 10
12.88232123055845
 20
30.12767945544737
 30
0.0
 10
14.88973629363042
 20
29.36019726097495
 30
0.0
 10
16.12893745326816
 20
28.77513779233646
 30
0.0
 10
18.40612242367468
 20
27.45849513373695
 30
0.0
 10
19.41402098020287
 20
26.74441483188925
 30
0.0
 10
20.7377491157213
 20
25.59316199038664
 30
0.0
 10
21.14740540404105
 20
25.1959612419991
 30
0.0
 10
21.90209026708435
 20
24.37409354293486
 30
0.0
 10
22.24762159821971
 20
23.94807443124629
 30
0.0
 10
23.1640073071608
 20
22.65616876478601
 30
0.0
 10
23.62441126000137
 20
21.76834553816611
 30
0.0
 10
24.01341752773933
 20
20.62596741897441
 30
0.0
 10
24.08181296784538
 20
20.39578362185484
 30
0.0
 10
24.19946343380639
 20
19.93258997363546
 30
0.0
 10
24.24881485776861
 20
19.698888521144
 30
0.0
 10
24.36673162611741
 20
18.9982200052871
 30
0.0
 10
24.40525136294201
 20
18.53292573504995
 30
0.0
 10
24.40429832720083
 20
17.14226316841452
 30
0.0
 10
24.24941423155526
 20
16.22195521406916
 30
0.0
 10
23.85838233437952
 20
15.07958297989192
 30
0.0
 10
23.76992310656509
 20
14.85088981297247
 30
0.0
 10
23.57450561303737
 20
14.398524193611
 30
0.0
 10
23.4675428998759
 20
14.1746512543867
 30
0.0
 10
23.11940698430829
 20
13.50978215401146
 30
0.0
 10
22.85104572645037
 20
13.07556476149404
 30
0.0
 10
22.24288284682406
 20
12.22472894903413
 30
0.0
 10
21.90307250898358
 20
11.80818779832744
 30
0.0
 10
21.33903605604098
 20
11.19675028126369
 30
0.0
 10
21.14195394144699
 20
10.99517458346344
 30
0.0
 10
20.72932375217832
 20
10.5965747374718
 30
0.0
 10
20.51329778529248
 20
10.39918338045096
 30
0.0
 10
19.39815447089772
 20
9.434091028138656
 30
0.0
 10
18.38817163911179
 20
8.724038122718374
 30
0.0
 10
16.7010428691485
 20
7.749495676992548
 30
0.0
 10
16.10976824995154
 20
7.439843791433718
 30
0.0
 10
15.17818105257103
 20
6.998863226579221
 30
0.0
 10
14.86003006448184
 20
6.855768972758088
 30
0.0
 10
14.21586263428932
 20
6.580632691325077
 30
0.0
 10
13.8889875200036
 20
6.448168652520521
 30
0.0
 10
12.23105276216947
 20
5.810894345676991
 30
0.0
 10
10.82998254751777
 20
5.380596733945385
 30
0.0
 10
8.615611807054544
 20
4.855426463522418
 30
0.0
 10
7.854264900523225
 20
4.699935532332645
 30
0.0
 10
6.320759453348567
 20
4.435830916070409
 30
0.0
 10
5.5475191637536
 20
4.326645349456252
 30
0.0
 10
3.208797160687456
 20
4.066211845381355
 30
0.0
 10
1.624500068973963
 20
3.981408155070927
 30
0.0
 10
-0.7911639429638243
 20
3.993574108268914
 30
0.0
 10
-1.591922545974227
 20
4.021075370402174
 30
0.0
 10
-3.177561542216491
 20
4.121278669463484
 30
0.0
 10
-3.963646326550104
 20
4.194393506751819
 30
0.0
 10
-5.522483878249284
 20
4.384172360910051
 30
0.0
 10
-6.295237644680781
 20
4.500791964451912
 30
0.0
 10
-7.827133183982963
 20
4.77825304816943
 30
0.0
 10
-8.589122522270642
 20
4.940022430069142
 30
0.0
 10
-10.80654387643572
 20
5.482242420829723
 30
0.0
 10
-12.20817686614483
 20
5.920900328976256
 30
0.0
 10
-14.19701956358019
 20
6.692981453600415
 30
0.0
 10
-14.8417720714648
 20
6.969887518393309
 30
0.0
 10
-16.08799338998943
 20
7.561666643068968
 30
0.0
 10
-16.6844735023443
 20
7.874072381715343
 30
0.0
 10
-17.25431707973424
 20
8.203036531129234
 30
0.0
  0
SPLINE
  5
11D
330
100
100
AcDbEntity
  8
0
  6
Continuous
 62
     8
370
    25
100
AcDbSpline
210
0.0
220
0.0
230
1.0
 70
     8
 71
     3
 72
    48
 73
    44
 74
     0
 42
0.000000001
 43
0.00000001
 40
0.0
 40
0.0
 40
0.0
 40
0.0
 40
0.0193246280533976
 40
0.03864522157273
 40
0.0579676187444639
 40
0.0772977303460194
 40
0.0966427418094476
 40
0.1160046571206644
 40
0.1353818131563203
 40
0.1547729462163153
 40
0.1741813986032638
 40
0.193613468173319
 40
0.2130732843227127
 40
0.2325657374409922
 40
0.2520882259204456
 40
0.2716372017718229
 40
0.2912173885994374
 40
0.3108344165231237
 40
0.3304941853819184
 40
0.350197575186472
 40
0.369944108291597
 40
0.3897344948955185
 40
0.4095721246903454
 40
0.4294575371867185
 40
0.4493924408868389
 40
0.4686581841221432
 40
0.5433738254534103
 40
0.6171766405682576
 40
0.6791380838801583
 40
0.741611499470583
 40
0.7614654422692296
 40
0.7816060877613215
 40
0.8026649182393873
 40
0.8236676490444635
 40
0.8446171203316646
 40
0.8644074585868426
 40
0.8841539488865948
 40
0.9038573094518517
 40
0.9235170710819767
 40
0.943134110755516
 40
0.96271431484656
 40
0.9822633061640391
 40
1.0
 40
1.0
 40
1.0
 40
1.0
 10
199.604950961606
 20
0.4741143738852746
 30
0.0
 10
196.7021965372354
 20
-1.138092079101156
 30
0.0
 10
190.897293716283
 20
-4.362168393764902
 30
0.0
 10
181.5075786017094
 20
-8.759956609777984
 30
0.0
 10
171.6706752903186
 20
-12.81310089407279
 30
0.0
 10
161.3737372057006
 20
-16.47418907443776
 30
0.0
 10
150.6708384119842
 20
-19.73290741861025
 30
0.0
 10
139.6061680626083
 20
-22.57453859783708
 30
0.0
 10
128.2298492780006
 20
-24.98720592597813
 30
0.0
 10
116.5904763375336
 20
-26.95797253399308
 30
0.0
 10
104.736616443784
 20
-28.47424056001615
 30
0.0
 10
92.71924322142443
 20
-29.53066555086282
 30
0.0
 10
80.58852762818346
 20
-30.12175274303296
 30
0.0
 10
68.39698113311552
 20
-30.24181914692334
 30
0.0
 10
56.20003339023336
 20
-29.88594572185414
 30
0.0
 10
44.05335759946634
 20
-29.05637114865637
 30
0.0
 10
32.0106456457323
 20
-27.75517876577673
 30
0.0
 10
20.1241306325329
 20
-25.98464630295771
 30
0.0
 10
8.448422854514497
 20
-23.74688366713331
 30
0.0
 10
-2.963777763303602
 20
-21.05183123702453
 30
0.0
 10
-14.05914867809224
 20
-17.90994782623089
 30
0.0
 10
-24.78420134412578
 20
-14.33172251269079
 30
0.0
 10
-35.08342524118176
 20
-10.32734077182564
 30
0.0
 10
-44.91170531891026
 20
-5.917786543148694
 30
0.0
 10
-54.09659368894582
 20
-1.166908554490961
 30
0.0
 10
-70.76001031816543
 20
8.59744019409825
 30
0.0
 10
-95.57078247964978
 20
22.81279987675469
 30
0.0
 10
-126.5543055307371
 20
40.73314000504469
 30
0.0
 10
-155.7610718968462
 20
57.59485483860382
 30
0.0
 10
-177.0416504654398
 20
69.85553804423012
 30
0.0
 10
-192.1047936100958
 20
78.59056417032953
 30
0.0
 10
-201.1890610665842
 20
83.73319492524703
 30
0.0
 10
-209.9571565993
 20
89.24224674328933
 30
0.0
 10
-218.0656365286417
 20
95.20584239629652
 30
0.0
 10
-225.2721887123118
 20
101.3581469254291
 30
0.0
 10
-231.5739834796335
 20
107.6587901789366
 30
0.0
 10
-237.0049214640223
 20
114.057252004592
 30
0.0
 10
-241.6625040701755
 20
120.6389516672115
 30
0.0
 10
-245.5270989974209
 20
127.3730749438294
 30
0.0
 10
-248.588150400781
 20
134.2291014628541
 30
0.0
 10
-250.8167843333093
 20
141.175834206846
 30
0.0
 10
-252.257417278099
 20
147.9683800820256
 30
0.0
 10
-252.53821853323
 20
152.4488539068747
 30
0.0
 10
-252.6717948875471
 20
154.5802024966713
 30
0.0
  0
SPLINE
  5
11E
330
100
100
AcDbEntity
  8
0
  6
Continuous
 62
     8
370
    25
100
AcDbSpline
210
0.0
220
0.0
230
1.0
 70
     8
 71
     3
 72
    19
 73
    15
 74
     0
 42
0.000000001
 43
0.00000001
 40
0.0
 40
0.0
 40
0.0
 40
0.0
 40
0.0371874392749605
 40
0.1251203562418222
 40
0.2129278949599386
 40
0.3006287148993512
 40
0.388251274134494
 40
0.4758106755019125
 40
0.5633012087276577
 40
0.6507153586671116
 40
0.7380621807170877
 40
0.8253741436369663
 40
0.912677956409822
 40
1.0
 40
1.0
 40
1.0
 40
1.0
 10
252.6027749852923
 20
72.1777038611184
 30
0.0
 10
252.5873486859783
 20
71.18692868152958
 30
0.0
 10
252.5354455675246
 20
67.85337988541293
 30
0.0
 10
251.5862371438974
 20
62.19928179989437
 30
0.0
 10
249.7880973063094
 20
55.25738745942596
 30
0.0
 10
247.1450643300834
 20
48.41087366420217
 30
0.0
 10
243.7285050669541
 20
41.68840442440982
 30
0.0
 10
239.543660703485
 20
35.11824005586048
 30
0.0
 10
234.6174216936914
 20
28.72839891396662
 30
0.0
 10
228.9692458159819
 20
22.54787404367727
 30
0.0
 10
222.6248610931116
 20
16.60212266688772
 30
0.0
 10
215.6019870315291
 20
10.92232684784278
 30
0.0
 10
207.9827757735347
 20
5.501070267797024
 30
0.0
 10
202.3977535897194
 20
2.149882959059962
 30
0.0
 10
199.6049509616061
 20
0.4741143738852885
 30
0.0
  0
SPLINE
  5
120
330
100
100
AcDbEntity
  8
0
  6
Continuous
 62
     8
370
    25
100
AcDbSpline
210
0.0
220
0.0
230
1.0
 70
     8
 71
     3
 72
    61
 73
    57
 74
     0
 42
0.000000001
 43
0.00000001
 40
0.0
 40
0.0
 40
0.0
 40
0.0
 40
0.0140023311064332
 40
0.0327317062767349
 40
0.0514941311083104
 40
0.0655939674769755
 40
0.0797178234377623
 40
0.0938657663044468
 40
0.1080385543158931
 40
0.122238809794937
 40
0.1364684630690055
 40
0.1507283818293243
 40
0.1650202732510486
 40
0.1793461218718876
 40
0.1937066870428826
 40
0.2081029985407213
 40
0.222566694025346
 40
0.279678866606728
 40
0.3360932804949371
 40
0.3834562232581294
 40
0.4312105144522738
 40
0.4463867451205651
 40
0.4616611644465978
 40
0.4768687143588858
 40
0.4920363057443538
 40
0.5071650864242454
 40
0.5214569529132955
 40
0.5357168350843146
 40
0.549946453627609
 40
0.5641466920689605
 40
0.5783194836733809
 40
0.5924674390799943
 40
0.6065913104214427
 40
0.6206911571031782
 40
0.6394535875017332
 40
0.6581829650891498
 40
0.676883663371762
 40
0.6955575647006254
 40
0.7142087635966479
 40
0.7328432479275678
 40
0.7514658468709694
 40
0.7700799436698333
 40
0.7886882603424543
 40
0.8072965770151291
 40
0.8259106738140789
 40
0.8445332727574508
 40
0.8631677570886337
 40
0.8818189559851253
 40
0.9004928573136205
 40
0.9191935555953233
 40
0.9379229331827517
 40
0.9566853635828431
 40
0.9707852102660427
 40
0.9849090816081336
 40
0.999057037014557
 40
1.0
 40
1.0
 40
1.0
 40
1.0
 10
238.1717410209793
 20
53.45438391414656
 30
0.0
 10
239.0179122028707
 20
55.60281211823141
 30
0.0
 10
240.9959133210403
 20
60.62495595972718
 30
0.0
 10
242.5280575169037
 20
68.69193292766509
 30
0.0
 10
242.964330242585
 20
76.80736359380657
 30
0.0
 10
242.3142855384511
 20
84.19126394158333
 30
0.0
 10
240.9613458421044
 20
90.81131831783988
 30
0.0
 10
238.8345812541978
 20
97.37495935988166
 30
0.0
 10
235.9401255933646
 20
103.8521357057644
 30
0.0
 10
232.281319850434
 20
110.2126048211545
 30
0.0
 10
227.8754753107502
 20
116.4279710302435
 30
0.0
 10
222.7390513192905
 20
122.4696572588428
 30
0.0
 10
216.8892091691165
 20
128.3089688559602
 30
0.0
 10
210.3426590831925
 20
133.9155075667749
 30
0.0
 10
203.1331475128987
 20
139.2659657696603
 30
0.0
 10
195.2647526094826
 20
144.3254384980122
 30
0.0
 10
178.5614382839977
 20
153.8155462942706
 30
0.0
 10
153.9908625564232
 20
168.1150770308854
 30
0.0
 10
122.9475289606126
 20
185.9994699572391
 30
0.0
 10
93.73890368211975
 20
202.8605878684847
 30
0.0
 10
72.50146361910511
 20
215.1456422262688
 30
0.0
 10
57.39211759765109
 20
223.8277783919202
 30
0.0
 10
48.68030360736945
 20
228.958728330245
 30
0.0
 10
39.50994728694254
 20
233.8351532381837
 30
0.0
 10
29.74206384247173
 20
238.2681737725982
 30
0.0
 10
19.66490705695065
 20
242.2105985661336
 30
0.0
 10
9.345450319568238
 20
245.6590219659718
 30
0.0
 10
-1.134147181666129
 20
248.6324527152566
 30
0.0
 10
-11.91434588428431
 20
251.1838061432644
 30
0.0
 10
-22.94547368794512
 20
253.3036696697886
 30
0.0
 10
-34.17830828504783
 20
254.9820487163741
 30
0.0
 10
-45.56015702575396
 20
256.2165475445582
 30
0.0
 10
-57.03951693079227
 20
257.0051324526723
 30
0.0
 10
-69.8405574034776
 20
257.3833238062707
 30
0.0
 10
-83.91801641365615
 20
257.1578253725614
 30
0.0
 10
-99.14919835742113
 20
256.1233842469278
 30
0.0
 10
-114.1361781698649
 20
254.3122627530206
 30
0.0
 10
-128.7608776003927
 20
251.7371197487635
 30
0.0
 10
-142.9143790728168
 20
248.4263065227999
 30
0.0
 10
-156.4911137580251
 20
244.4072795373555
 30
0.0
 10
-169.3836477715785
 20
239.7073469101886
 30
0.0
 10
-181.4981312750204
 20
234.3682931963568
 30
0.0
 10
-192.7437109015763
 20
228.4317406892944
 30
0.0
 10
-203.028057034115
 20
221.9393315533982
 30
0.0
 10
-212.2790606630028
 20
214.9443523834387
 30
0.0
 10
-220.4246928723686
 20
207.4992090227972
 30
0.0
 10
-227.39248664064
 20
199.6581364574863
 30
0.0
 10
-233.1349421933711
 20
191.4832421903008
 30
0.0
 10
-237.6047550503474
 20
183.0354176379613
 30
0.0
 10
-240.7519871832519
 20
174.3776579224131
 30
0.0
 10
-242.5576878724509
 20
165.5777520818162
 30
0.0
 10
-242.9537579942722
 20
157.4449927325676
 30
0.0
 10
-242.3293680959152
 20
150.0455787881373
 30
0.0
 10
-240.9089354652874
 20
143.4214304117485
 30
0.0
 10
-239.6154630523328
 20
138.8698775472504
 30
0.0
 10
-238.5810473395497
 20
136.5687016205505
 30
0.0
 10
-238.5164113973633
 20
136.4249115830244
 30
0.0
  0
SPLINE
  5
121
330
100
100
AcDbEntity
  8
0
  6
Continuous
 62
     8
370
    25
100
AcDbSpline
210
0.0
220
0.0
230
1.0
 70
     8
 71
     3
 72
    35
 73
    31
 74
     0
 42
0.000000001
 43
0.00000001
 40
0.0
 40
0.0
 40
0.0
 40
0.0
 40
0.0231220435045578
 40
0.0463077625517707
 40
0.082607263304999
 40
0.1191592932173559
 40
0.1565066469446137
 40
0.1941288180714991
 40
0.2304250431140069
 40
0.2669730258577734
 40
0.3043160333388036
 40
0.3419333256810348
 40
0.3782151585580609
 40
0.4150143330876027
 40
0.4520763015387685
 40
0.4896785669133637
 40
0.5259671041103402
 40
0.5625079380054153
 40
0.599843259932427
 40
0.637453441471661
 40
0.6737577468093167
 40
0.7103142970239824
 40
0.7476662501041752
 40
0.7852927657104256
 40
0.8215787737487736
 40
0.8581161951626394
 40
0.895447944106388
 40
0.9330540026848685
 40
0.9693364449889674
 40
0.9999999999999999
 40
0.9999999999999999
 40
0.9999999999999999
 40
0.9999999999999999
 10
-59.0791249931969
 20
-108.8479897078527
 30
0.0
 10
-56.80699093261671
 20
-110.1243445246322
 30
0.0
 10
-52.25646560632376
 20
-112.6805690977581
 30
0.0
 10
-43.62754873627747
 20
-116.9196998807293
 30
0.0
 10
-33.06712697289783
 20
-121.4697242073547
 30
0.0
 10
-20.22828790097036
 20
-126.0811495635548
 30
0.0
 10
-6.605577228811679
 20
-130.1030582506416
 30
0.0
 10
7.530642432364204
 20
-133.4288667853875
 30
0.0
 10
21.99412062472953
 20
-136.03580332126
 30
0.0
 10
36.74416687825389
 20
-137.9360149494214
 30
0.0
 10
51.89836113831725
 20
-139.1241595820285
 30
0.0
 10
67.1355849241618
 20
-139.5608280316174
 30
0.0
 10
82.30497241121199
 20
-139.2536898721773
 30
0.0
 10
97.30165614889732
 20
-138.2241804678258
 30
0.0
 10
112.2711599689352
 20
-136.4466262494546
 30
0.0
 10
126.8569427824864
 20
-133.9506367185891
 30
0.0
 10
140.9585168423219
 20
-130.7695320514164
 30
0.0
 10
154.5194787360643
 20
-126.9305022027614
 30
0.0
 10
167.6296144702771
 20
-122.3926688515649
 30
0.0
 10
179.991702297327
 20
-117.2330050792356
 30
0.0
 10
191.476249111374
 20
-111.5315814494407
 30
0.0
 10
202.0748890235557
 20
-105.311969143077
 30
0.0
 10
211.8444964884141
 20
-98.51729925415287
 30
0.0
 10
220.5525348534636
 20
-91.28230872814171
 30
0.0
 10
228.1155649216636
 20
-83.70455120510576
 30
0.0
 10
234.5467280541469
 20
-75.81131056758491
 30
0.0
 10
239.8734913612107
 20
-67.53378993258654
 30
0.0
 10
243.9143705533332
 20
-59.04144652565331
 30
0.0
 10
246.6565818913598
 20
-50.90630023997878
 30
0.0
 10
247.4476480654837
 20
-45.62582543050159
 30
0.0
 10
247.8099834121876
 20
-43.20718747904073
 30
0.0
  0
SPLINE
  5
122
330
100
100
AcDbEntity
  8
0
  6
Continuous
 62
     8
370
    25
100
AcDbSpline
210
0.0
220
0.0
230
1.0
 70
     8
 71
     3
 72
    17
 73
    13
 74
     0
 42
0.000000001
 43
0.00000001
 40
0.0
 40
0.0
 40
0.0
 40
0.0
 40
0.0580492274399902
 40
0.1737071974783368
 40
0.2901723307279898
 40
0.4091799189595415
 40
0.5290663666133355
 40
0.6513582291044305
 40
0.7129356329942743
 40
0.7746340203148329
 40
0.8869488640861724
 40
1.0
 40
1.0
 40
1.0
 40
1.0
 10
-247.801446191765
 20
36.29367030201967
 30
0.0
 10
-247.6637200921944
 20
34.85368078718737
 30
0.0
 10
-247.2515868764551
 20
30.54463906431013
 30
0.0
 10
-245.1948942509013
 20
23.4200982202717
 30
0.0
 10
-241.7226994373432
 20
14.92917504859985
 30
0.0
 10
-236.8966549344709
 20
6.542734417603488
 30
0.0
 10
-230.7618419822894
 20
-1.708129671593867
 30
0.0
 10
-224.5708948642495
 20
-8.362509150581031
 30
0.0
 10
-218.9719212342647
 20
-13.53571442275927
 30
0.0
 10
-213.2160556605738
 20
-18.35184467478127
 30
0.0
 10
-205.6245343402819
 20
-23.99043095627191
 30
0.0
 10
-198.9159731119396
 20
-28.03547642097935
 30
0.0
 10
-195.5507337431979
 20
-30.06460692793116
 30
0.0
  0
SPLINE
  5
123
330
100
100
AcDbEntity
  8
0
  6
Continuous
 62
     8
370
    25
100
AcDbSpline
210
0.0
220
0.0
230
1.0
 70
     8
 71
     3
 72
    14
 73
    10
 74
     0
 42
0.000000001
 43
0.00000001
 40
0.0
 40
0.0
 40
0.0
 40
0.0
 40
0.1442743799363139
 40
0.2895216782372313
 40
0.4379004058570386
 40
0.5873832051235408
 40
0.7322025536545758
 40
0.8780470426983639
 40
1.0
 40
1.0
 40
1.0
 40
1.0
 10
170.4362652758543
 20
59.52779066481574
 30
0.0
 10
173.1994396613364
 20
57.86372688119603
 30
0.0
 10
178.7444219769772
 20
54.52437765273255
 30
0.0
 10
186.1732523799663
 20
48.97429819050724
 30
0.0
 10
192.8955387517514
 20
43.03720265501816
 30
0.0
 10
198.7008974595016
 20
36.7857828418539
 30
0.0
 10
203.5180072768748
 20
30.30798236936418
 30
0.0
 10
207.2410022531929
 20
24.04906691870377
 30
0.0
 10
208.8808102916126
 20
19.86546091998716
 30
0.0
 10
209.6275666271242
 20
17.96027798904069
 30
0.0
  0
SPLINE
  5
124
330
100
100
AcDbEntity
  8
0
  6
Continuous
 62
     8
370
    25
100
AcDbSpline
210
0.0
220
0.0
230
1.0
 70
     8
 71
     3
 72
    33
 73
    29
 74
     0
 42
0.000000001
 43
0.00000001
 40
0.0
 40
0.0
 40
0.0
 40
0.0
 40
0.0340590388655004
 40
0.0732735686022155
 40
0.1133375550911391
 40
0.1536948267285842
 40
0.1926606386325306
 40
0.2318963610834667
 40
0.2719829867257217
 40
0.3123638739000321
 40
0.3513156956342705
 40
0.3905373315148036
 40
0.4306086589154543
 40
0.4709737264605032
 40
0.5099259307352376
 40
0.5491475066078564
 40
0.5892190417413204
 40
0.6295838893074784
 40
0.668561478569681
 40
0.7078089639613951
 40
0.7479088558551403
 40
0.788303377288311
 40
0.8273035396463085
 40
0.866574957574596
 40
0.9067015394441683
 40
0.9471242006286712
 40
0.9735204073244076
 40
1.0
 40
1.0
 40
1.0
 40
1.0
 10
-208.8745621996647
 20
99.74554455959883
 30
0.0
 10
-208.0124373836121
 20
101.6767564459116
 30
0.0
 10
-206.1576885722269
 20
105.8315062964862
 30
0.0
 10
-202.1244996562816
 20
112.0592697750343
 30
0.0
 10
-197.0125451462397
 20
118.4231131112966
 30
0.0
 10
-190.966326645468
 20
124.4985708698886
 30
0.0
 10
-184.1088443375156
 20
130.2227353385631
 30
0.0
 10
-176.4677105274141
 20
135.5898827466506
 30
0.0
 10
-167.9710529256554
 20
140.6306249300797
 30
0.0
 10
-158.7808621549736
 20
145.2268250869026
 30
0.0
 10
-149.0274191796845
 20
149.3342888932033
 30
0.0
 10
-138.744073058882
 20
152.9539932095525
 30
0.0
 10
-127.8431861735735
 20
156.103332674919
 30
0.0
 10
-116.5431392283864
 20
158.7010661397913
 30
0.0
 10
-104.991395548542
 20
160.7296561347442
 30
0.0
 10
-93.21973036493871
 20
162.1973944907775
 30
0.0
 10
-81.13576771190223
 20
163.1011271631427
 30
0.0
 10
-68.99042425933311
 20
163.4088640359116
 30
0.0
 10
-56.93221273563509
 20
163.1279821688469
 30
0.0
 10
-44.98609512191916
 20
162.2748154035699
 30
0.0
 10
-33.06967070511577
 20
160.8267887792039
 30
0.0
 10
-21.43893689476027
 20
158.8015109781459
 30
0.0
 10
-10.22854416617039
 20
156.2359565067362
 30
0.0
 10
0.5443620308045183
 20
153.1467780385274
 30
0.0
 10
10.95174900065134
 20
149.5025365074844
 30
0.0
 10
19.71059050926982
 20
145.7934284986149
 30
0.0
 10
26.95464627687981
 20
142.2715606611214
 30
0.0
 10
30.80150995962831
 20
140.1083869702042
 30
0.0
 10
32.72797508372706
 20
139.025094445021
 30
0.0
  0
SPLINE
  5
126
330
100
100
AcDbEntity
  8
0
  6
Continuous
 62
     8
370
    25
100
AcDbSpline
210
0.0
220
0.0
230
1.0
 70
     8
 71
     3
 72
    14
 73
    10
 74
     0
 42
0.000000001
 43
0.00000001
 40
0.0
 40
0.0
 40
0.0
 40
0.0
 40
0.0269382525584205
 40
0.1907336535196702
 40
0.3545285858914303
 40
0.5135767678458029
 40
0.672623959487869
 40
0.8362910773068074
 40
0.9999999999999999
 40
0.9999999999999999
 40
0.9999999999999999
 40
0.9999999999999999
 10
180.9511016606646
 20
0.6408467476584565
 30
0.0
 10
180.826724097053
 20
0.9474473587421026
 30
0.0
 10
179.9460809643161
 20
3.118302895734344
 30
0.0
 10
177.5210048724037
 20
7.030931496873352
 30
0.0
 10
173.6782503144387
 20
12.26642423412413
 30
0.0
 10
169.049140639831
 20
17.22929600926346
 30
0.0
 10
163.7367624108363
 20
21.95012245238582
 30
0.0
 10
157.6930173218376
 20
26.44228574135905
 30
0.0
 10
153.114046532362
 20
29.20359921568875
 30
0.0
 10
150.8242687776552
 20
30.58443225830709
 30
0.0
  0
SPLINE
  5
127
330
100
100
AcDbEntity
  8
0
  6
Continuous
 62
     8
370
    25
100
AcDbSpline
210
0.0
220
0.0
230
1.0
 70
     8
 71
     3
 72
    33
 73
    29
 74
     0
 42
0.000000001
 43
0.00000001
 40
0.0
 40
0.0
 40
0.0
 40
0.0
 40
0.027304377780494
 40
0.054604367585359
 40
0.0950657575276134
 40
0.1356705543598528
 40
0.1762750282333055
 40
0.2167359762156588
 40
0.2571789711156096
 40
0.2977653968149869
 40
0.3383515512853965
 40
0.3787941750155034
 40
0.4192103511961575
 40
0.4597701033532203
 40
0.5003299841282786
 40
0.54074633632006
 40
0.5811621086211269
 40
0.621721689875931
 40
0.6622812846413528
 40
0.7026970754315439
 40
0.7431300180091486
 40
0.7837069032582537
 40
0.8242835454103643
 40
0.8647161553115584
 40
0.9051289717615949
 40
0.9456853599459579
 40
0.986241800240614
 40
1.0
 40
1.0
 40
1.0
 40
1.0
 10
12.93844647950418
 20
110.1842231418426
 30
0.0
 10
11.36457839811587
 20
111.0692070182024
 30
0.0
 10
8.217095165284723
 20
112.8390325487583
 30
0.0
 10
2.399838076326627
 20
115.70676288734
 30
0.0
 10
-4.616452322623768
 20
118.6940618558201
 30
0.0
 10
-12.9488156368619
 20
121.6527566100258
 30
0.0
 10
-21.67269213174923
 20
124.2010074633373
 30
0.0
 10
-30.72045910184625
 20
126.314481265631
 30
0.0
 10
-40.04525640270784
 20
127.9686995049926
 30
0.0
 10
-49.58342955503228
 20
129.1672751969205
 30
0.0
 10
-59.25857719650655
 20
129.9042720065394
 30
0.0
 10
-68.99167151845711
 20
130.1702001543319
 30
0.0
 10
-78.72446657620677
 20
129.9500645024403
 30
0.0
 10
-88.39860131936311
 20
129.2591498292039
 30
0.0
 10
-97.93916617564268
 20
128.1068758214244
 30
0.0
 10
-107.2682046746884
 20
126.4993133562582
 30
0.0
 10
-116.3220588058282
 20
124.4331090178435
 30
0.0
 10
-125.0538247224536
 20
121.9331312885302
 30
0.0
 10
-133.3961109436623
 20
119.0229822286293
 30
0.0
 10
-141.2794440554968
 20
115.7224901752063
 30
0.0
 10
-148.6420976588886
 20
112.0409135863293
 30
0.0
 10
-155.4539389200129
 20
108.0107694977179
 30
0.0
 10
-161.6645791676413
 20
103.6676365250421
 30
0.0
 10
-167.2127170427438
 20
99.04394020323716
 30
0.0
 10
-172.0643971581338
 20
94.1635521591008
 30
0.0
 10
-176.14219520658
 20
89.05187708524912
 30
0.0
 10
-178.9029668343325
 20
84.9466022235455
 30
0.0
 10
-180.0225755664163
 20
82.51504685369727
 30
0.0
 10
-180.3061786718228
 20
81.89912038394452
 30
0.0
  0
SPLINE
  5
129
330
100
100
AcDbEntity
  8
0
  6
Continuous
 62
     8
370
    25
100
AcDbSpline
210
0.0
220
0.0
230
1.0
 70
     8
 71
     3
 72
    26
 73
    22
 74
     0
 42
0.000000001
 43
0.00000001
 40
0.0
 40
0.0
 40
0.0
 40
0.0
 40
0.0356185151777862
 40
0.0885328665157451
 40
0.1429812177378022
 40
0.1958943949686406
 40
0.2503420988663696
 40
0.3174010972433169
 40
0.3703216784417898
 40
0.4247772544864561
 40
0.4776965866977003
 40
0.5321504565143538
 40
0.585069626742036
 40
0.6395234967014047
 40
0.6924426005824817
 40
0.7468963798697879
 40
0.7998152739336436
 40
0.8542688232789305
 40
0.9071888407058067
 40
0.9616436264904937
 40
1.0
 40
1.0
 40
1.0
 40
1.0
 10
22.42553209296992
 20
15.78731425905248
 30
0.0
 10
22.42852817446255
 20
16.2769649935874
 30
0.0
 10
22.43597519131694
 20
17.49403378220864
 30
0.0
 10
21.71684538152546
 20
19.437193569365
 30
0.0
 10
20.39162680562936
 20
21.50544242402886
 30
0.0
 10
18.44674968122028
 20
23.42431007868418
 30
0.0
 10
15.79095234903505
 20
25.25069866836268
 30
0.0
 10
12.57166022649129
 20
26.74522976222115
 30
0.0
 10
8.935530652347548
 20
27.84928200685008
 30
0.0
 10
5.339215884112464
 20
28.5181690713698
 30
0.0
 10
1.558279946154671
 20
28.82508128684005
 30
0.0
 10
-2.232713045553591
 20
28.77199026209915
 30
0.0
 10
-5.994562643754989
 20
28.35364066691182
 30
0.0
 10
-9.553140765599752
 20
27.58854920872771
 30
0.0
 10
-12.87160924206599
 20
26.48332439971529
 30
0.0
 10
-15.79684416873359
 20
25.08858322488632
 30
0.0
 10
-18.2966858022941
 20
23.41854885174936
 30
0.0
 10
-20.26289392470608
 20
21.55061083903721
 30
0.0
 10
-21.64717137988011
 20
19.50468441331025
 30
0.0
 10
-22.41324751790934
 20
17.56948792849304
 30
0.0
 10
-22.43078568732456
 20
16.31850931408917
 30
0.0
 10
-22.43803374436726
 20
15.80151326155219
 30
0.0
  0
LWPOLYLINE
  5
12A
330
100
100
AcDbEntity
  8
0
  6
Continuous
 62
     8
370
    25
100
AcDbPolyline
 90
       21
 70
   128
 43
0.0
 10
-20.8082248199
 20
11.4737130506
 10
-20.0476467942
 20
12.4291970754
 10
-18.6093129212
 20
13.8332126071
 10
-16.8774990667
 20
15.1220888035
 10
-14.8795169698
 20
16.275499317
 10
-12.6468760017
 20
17.2752541748
 10
-10.2147862441
 20
18.1055866456
 10
-7.6216032055
 20
18.7534018903
 10
-4.9082229314
 20
19.2084834755
 10
-2.1174370497
 20
19.4636544928
 10
0.7067420793
 20
19.5148907427
 10
3.5197754634
 20
19.361384199
 10
6.2772998859
 20
19.0055557516
 10
8.9358275393
 20
18.4530170277
 10
11.4534318544
 20
17.712481893
 10
13.7904087072
 20
16.795629029
 10
15.9099025767
 20
15.7169177531
 10
17.7784877785
 20
14.4933599864
 10
19.3666956076
 20
13.1442519658
 10
20.6494790779
 20
11.6908699308
 10
20.8480164498
 20
11.4174976869
  0
LINE
  5
12B
330
100
100
AcDbEntity
  8
0
  6
Continuous
 62
     7
370
    25
100
AcDbLine
 10
238.2930356998
 20
53.4277509142
 30
0.0
 11
237.9746488094
 21
52.741136837
 31
0.0
  0
LINE
  5
12C
330
100
100
AcDbEntity
  8
0
  6
Continuous
 62
     7
370
    25
100
AcDbLine
 10
252.7029828791
 20
72.1815862712
 30
0.0
 11
252.6995880743
 21
72.667795081
 31
0.0
  0
LINE
  5
12D
330
100
100
AcDbEntity
  8
0
  6
Continuous
 62
     7
370
    25
100
AcDbLine
 10
-252.6717948875
 20
154.5802024967
 30
0.0
 11
-252.6927830609
 21
154.823555914
 31
0.0
  0
LINE
  5
12E
330
100
100
AcDbEntity
  8
0
  6
Continuous
 62
     7
370
    25
100
AcDbLine
 10
252.6168590691
 20
72.6377551148
 30
0.0
 11
252.6027749853
 21
72.1777038611
 31
0.0
  0
LINE
  5
12F
330
100
100
AcDbEntity
  8
0
  6
Continuous
 62
     7
370
    25
100
AcDbLine
 10
237.6822518727
 20
52.1105711358
 30
0.0
 11
238.171741021
 21
53.4543839141
 31
0.0
  0
LINE
  5
130
330
100
100
AcDbEntity
  8
0
  6
Continuous
 62
     7
370
    25
100
AcDbLine
 10
-238.5164113974
 20
136.424911583
 30
0.0
 11
-238.0065806776
 21
135.281791734
 31
0.0
  0
LINE
  5
131
330
100
100
AcDbEntity
  8
0
  6
Continuous
 62
     7
370
    25
100
AcDbLine
 10
-195.5507337432
 20
-30.0646069279
 30
0.0
 11
-59.0791249932
 21
-108.8479897079
 31
0.0
  0
ARC
  5
132
330
100
100
AcDbEntity
  8
0
  6
Continuous
 62
     7
370
    25
100
AcDbCircle
 10
-13.3044630193
 20
149.4009807164
 30
0.0
 40
47.18733276658881
100
AcDbArc
 50
303.7894847731
 51
347.2975974388
  0
ARC
  5
133
330
100
100
AcDbEntity
  8
0
  6
Continuous
 62
     8
370
    25
100
AcDbCircle
 10
-56.601719368
 20
-109.0675543424
 30
0.0
 40
2.487116253890292
100
AcDbArc
 50
174.9352890189
 51
234.8984456949
  0
ARC
  5
134
330
100
100
AcDbEntity
  8
0
  6
Continuous
 62
     8
370
    25
100
AcDbCircle
 10
-193.0661441689
 20
-30.2828039141
 30
0.0
 40
2.494152216172082
100
AcDbArc
 50
174.9811530207
 51
234.3624415006
  0
VIEWPORT
  5
13B
330
100
100
AcDbEntity
  8
0
100
AcDbViewport
 10
0.0
 20
0.0
 30
0.0
 40
205.6
 41
156.0
 68
     1
 69
     1
 12
0.0000003357
 22
73.4999932029
 13
0.0
 23
0.0
 14
10.0
 24
10.0
 15
10.0
 25
10.0
 16
0.0
 26
0.0
 36
1.0
 17
0.0
 27
0.0
 37
0.0
 42
50.0
 43
0.0
 44
0.0
 45
436.9361346937
 50
0.0
 51
0.0
 72
   100
 90
   557152
  1

281
     0
 71
     1
 74
     0
110
0.0
120
0.0
130
0.0
111
1.0
121
0.0
131
0.0
112
0.0
122
1.0
132
0.0
 79
     0
146
0.0
  0
ENDBLK
  5
103
330
100
100
AcDbEntity
  8
0
100
AcDbBlockEnd
  0
ENDSEC
  0
SECTION
  2
ENTITIES
  0
SPLINE
  5
75
330
1F
100
AcDbEntity
  8
0
  6
Continuous
 62
     7
370
    25
100
AcDbSpline
210
0.0
220
0.0
230
1.0
 70
     8
 71
     3
 72
    12
 73
     8
 74
     0
 42
0.000000001
 43
0.00000001
 40
0.0
 40
0.0
 40
0.0
 40
0.0
 40
0.1925897853759311
 40
0.426773066015827
 40
0.7001177971419147
 40
0.848321152234915
 40
1.0
 40
1.0
 40
1.0
 40
1.0
 10
282.2840287669347
 20
141.6997143944624
 30
0.0
 10
282.2650874630017
 20
142.1689114764298
 30
0.0
 10
282.2231141135945
 20
143.2086378401414
 30
0.0
 10
281.518158573079
 20
144.8021747793728
 30
0.0
 10
280.389938431831
 20
145.9707991148586
 30
0.0
 10
279.1647314002031
 20
146.6569853759599
 30
0.0
 10
278.4561892811877
 20
146.8312926402324
 30
0.0
 10
278.0978123879243
 20
146.9194563416791
 30
0.0
  0
SPLINE
  5
76
330
1F
100
AcDbEntity
  8
0
  6
Continuous
 62
     7
370
    25
100
AcDbSpline
210
0.0
220
0.0
230
1.0
 70
     8
 71
     3
 72
    67
 73
    63
 74
     0
 42
0.000000001
 43
0.00000001
 40
0.0
 40
0.0
 40
0.0
 40
0.0
 40
0.0153177834009481
 40
0.0297005690418738
 40
0.0431539379136185
 40
0.0556821865071654
 40
0.0672888257755568
 40
0.07797629428414
 40
0.0877455050766493
 40
0.0965969762332038
 40
0.1055894816334011
 40
0.1134598595937967
 40
0.1211221909340928
 40
0.1288446885632892
 40
0.1366277899636112
 40
0.1444719295595071
 40
0.1523775276767538
 40
0.1710613789933386
 40
0.1899223509549348
 40
0.2087830974796459
 40
0.227643916080159
 40
0.246510283894596
 40
0.2653942799396167
 40
0.2842994932105945
 40
0.3032293218291373
 40
0.3222321445582896
 40
0.3382667672343128
 40
0.3543666834504615
 40
0.3704464992577078
 40
0.3862599624881875
 40
0.4020360367545718
 40
0.4177918137814672
 40
0.4920846135637576
 40
0.5551446686132037
 40
0.6181720868574297
 40
0.6347990855179158
 40
0.6517337580245632
 40
0.6685637640712521
 40
0.6853148315445351
 40
0.7020233250116503
 40
0.7186923907745694
 40
0.7375878509969129
 40
0.756459761476047
 40
0.7753247018298899
 40
0.7941881703130939
 40
0.8127374464107681
 40
0.8304080911757533
 40
0.8377113892415047
 40
0.8448528953976385
 40
0.8518331711121604
 40
0.8588785343215692
 40
0.8670887296273998
 40
0.8766093818877178
 40
0.8874400390077339
 40
0.8979917367251506
 40
0.9095465807834683
 40
0.9221046753395596
 40
0.935666173583715
 40
0.9502321301302199
 40
0.965806315657995
 40
0.9823935380127822
 40
1.0
 40
1.0
 40
1.0
 40
1.0
 10
278.097812242883
 20
146.9194563677858
 30
0.0
 10
277.9666766436181
 20
146.9293400090141
 30
0.0
 10
277.7124099643037
 20
146.9485039938415
 30
0.0
 10
276.4727366153938
 20
146.9681385876432
 30
0.0
 10
274.7692508541519
 20
146.9818674333931
 30
0.0
 10
272.6649340752393
 20
146.9905939906699
 30
0.0
 10
270.2869258267804
 20
146.9957743195953
 30
0.0
 10
267.7368012379952
 20
146.9984897768796
 30
0.0
 10
265.1123466884949
 20
146.9996620511612
 30
0.0
 10
262.3954543173174
 20
147.000013433049
 30
0.0
 10
259.6528360619903
 20
146.9999956618067
 30
0.0
 10
256.8605155199513
 20
146.999984187096
 30
0.0
 10
254.0418723203074
 20
146.999986873761
 30
0.0
 10
251.0654132566324
 20
146.9999860405893
 30
0.0
 10
247.8984511652986
 20
146.9999861928344
 30
0.0
 10
244.5408298727751
 20
146.9999860917235
 30
0.0
 10
239.3898128212772
 20
146.9999860369548
 30
0.0
 10
232.070323944274
 20
146.9999859105629
 30
0.0
 10
222.1362388988462
 20
146.9999856852721
 30
0.0
 10
211.3743707866414
 20
146.9999852769444
 30
0.0
 10
199.8910895300041
 20
146.9999849654671
 30
0.0
 10
187.7565428702443
 20
146.9999849336804
 30
0.0
 10
175.040373690587
 20
146.9999844497109
 30
0.0
 10
161.823461679246
 20
146.9999837212413
 30
0.0
 10
148.1790651845109
 20
146.9999843351678
 30
0.0
 10
134.9250744525687
 20
146.9999810537598
 30
0.0
 10
122.1847077227666
 20
146.9999738423751
 30
0.0
 10
110.0704588599516
 20
146.9999613818723
 30
0.0
 10
97.97127151466337
 20
146.9999456293947
 30
0.0
 10
85.96079269194203
 20
146.9999731386423
 30
0.0
 10
74.03009647795275
 20
146.9999788118166
 30
0.0
 10
47.36407334628073
 20
146.9999869197524
 30
0.0
 10
8.782798522062116
 20
146.9999821313567
 30
0.0
 10
-41.70978848800401
 20
146.9999791101021
 30
0.0
 10
-77.67218026895195
 20
146.9999910221139
 30
0.0
 10
-102.0105296516591
 20
146.9999448635822
 30
0.0
 10
-114.7099593132544
 20
146.9999756322687
 30
0.0
 10
-127.3663289642918
 20
146.9999780549383
 30
0.0
 10
-139.8294072227908
 20
146.9999810470508
 30
0.0
 10
-152.0514464436894
 20
146.9999827702468
 30
0.0
 10
-164.5222705476415
 20
146.9999840164129
 30
0.0
 10
-177.1375488283552
 20
146.9999845119099
 30
0.0
 10
-189.7613409901082
 20
146.9999848242942
 30
0.0
 10
-201.7940848461597
 20
146.9999851060588
 30
0.0
 10
-213.1036262433503
 20
146.9999854191651
 30
0.0
 10
-223.4653344655681
 20
146.9999855423341
 30
0.0
 10
-231.0574907793084
 20
146.9999856815726
 30
0.0
 10
-236.3338624164872
 20
146.9999857480986
 30
0.0
 10
-239.7258374218658
 20
146.9999860385131
 30
0.0
 10
-242.9500438715173
 20
146.999985536054
 30
0.0
 10
-246.2014807139673
 20
146.9999883327031
 30
0.0
 10
-249.6727186724999
 20
147.0000172465164
 30
0.0
 10
-253.4542467755758
 20
146.9998802082254
 30
0.0
 10
-257.261712375571
 20
146.9992723106385
 30
0.0
 10
-260.9913654298203
 20
146.9978472852709
 30
0.0
 10
-264.550339746514
 20
146.9952814231994
 30
0.0
 10
-267.9733455588884
 20
146.9909993269025
 30
0.0
 10
-271.1351453751661
 20
146.9843881433894
 30
0.0
 10
-273.9008992104546
 20
146.9747792897156
 30
0.0
 10
-276.1057903975116
 20
146.9613130947639
 30
0.0
 10
-277.6742765698219
 20
146.9435271714226
 30
0.0
 10
-277.95385025027
 20
146.9276377674072
 30
0.0
 10
-278.0978038332827
 20
146.9194562510489
 30
0.0
  0
SPLINE
  5
77
330
1F
100
AcDbEntity
  8
0
  6
Continuous
 62
     7
370
    25
100
AcDbSpline
210
0.0
220
0.0
230
1.0
 70
     8
 71
     3
 72
    12
 73
     8
 74
     0
 42
0.000000001
 43
0.00000001
 40
0.0
 40
0.0
 40
0.0
 40
0.0
 40
0.1516788508400477
 40
0.299882208487854
 40
0.5732269416200945
 40
0.8074102199954482
 40
1.0
 40
1.0
 40
1.0
 40
1.0
 10
-278.0978038329674
 20
146.9194562511056
 30
0.0
 10
-278.4561814249427
 20
146.8312924013856
 30
0.0
 10
-279.1647249243093
 20
146.6569848442253
 30
0.0
 10
-280.3899343490805
 20
145.9707973147466
 30
0.0
 10
-281.5181566888807
 20
144.8021707676311
 30
0.0
 10
-282.2231135918727
 20
143.2086307970043
 30
0.0
 10
-282.2650870224977
 20
142.1689024621716
 30
0.0
 10
-282.2840283628925
 20
141.6997044953878
 30
0.0
  0
SPLINE
  5
7B
330
1F
100
AcDbEntity
  8
0
  6
Continuous
 62
     7
370
    25
100
AcDbSpline
210
0.0
220
0.0
230
1.0
 70
    24
 71
     3
 72
    26
 73
    22
 74
     0
 42
0.000000001
 43
0.00000001
 40
0.0
 40
0.0
 40
0.0
 40
0.0
 40
0.0529927922473493
 40
0.1059838300974448
 40
0.1605132808383037
 40
0.2150430638178885
 40
0.2680395409892301
 40
0.3210362351459016
 40
0.3755791186983305
 40
0.430122018452345
 40
0.483006865687529
 40
0.5358915163235983
 40
0.5903118071560874
 40
0.644731777926818
 40
0.6976219956247744
 40
0.7505120351229294
 40
0.8049377096522806
 40
0.8593635211731319
 40
0.9122795853080459
 40
0.9651959514897236
 40
1.0
 40
1.0
 40
1.0
 40
1.0
 10
-96.49999997278472
 20
0.0
 30
0.0
 10
-101.3595961235854
 20
0.0
 30
0.0
 10
-111.0786275417575
 20
0.0
 30
0.0
 10
-125.699001434909
 20
0.0
 30
0.0
 10
-140.2503456365647
 20
0.0
 30
0.0
 10
-154.4870124680103
 20
0.0
 30
0.0
 10
-168.1749215912081
 20
0.0
 30
0.0
 10
-181.3655558879776
 20
0.0
 30
0.0
 10
-194.074213714613
 20
0.0
 30
0.0
 10
-206.0691149170212
 20
0.0
 30
0.0
 10
-217.1612988306634
 20
0.0
 30
0.0
 10
-227.4087993100767
 20
0.0
 30
0.0
 10
-236.8172005196274
 20
0.0
 30
0.0
 10
-245.2163091226917
 20
0.0
 30
0.0
 10
-252.478077290173
 20
0.0
 30
0.0
 10
-258.6613403385823
 20
0.0
 30
0.0
 10
-263.736174844097
 20
0.0
 30
0.0
 10
-267.6229814978612
 20
0.0
 30
0.0
 10
-270.2050350698975
 20
0.0
 30
0.0
 10
-271.5804658688502
 20
0.0
 30
0.0
 10
-271.5595572675248
 20
0.0
 30
0.0
 10
-271.5512615477957
 20
0.0
 30
0.0
  0
SPLINE
  5
7C
330
1F
100
AcDbEntity
  8
0
  6
Continuous
 62
     7
370
    25
100
AcDbSpline
210
0.0
220
0.0
230
1.0
 70
    24
 71
     3
 72
    27
 73
    23
 74
     0
 42
0.000000001
 43
0.00000001
 40
0.0
 40
0.0
 40
0.0
 40
0.0
 40
0.019652913947614
 40
0.0741058980505505
 40
0.1269971758018775
 40
0.1798884761714193
 40
0.2343164192879306
 40
0.2887441563947616
 40
0.3416260541300716
 40
0.3945076485171424
 40
0.4489244122521205
 40
0.5033409764679244
 40
0.556242734687019
 40
0.6091446079771126
 40
0.663583664195879
 40
0.7180230406262087
 40
0.7709290155673909
 40
0.8238352167316231
 40
0.8782798101525943
 40
0.9327244512284747
 40
0.9690509958240805
 40
1.0
 40
1.0
 40
1.0
 40
1.0
 10
271.5512528063481
 20
0.0
 30
0.0
 10
271.5904637655279
 20
0.0
 30
0.0
 10
271.7383178369996
 20
0.0
 30
0.0
 10
270.6865184603001
 20
0.0
 30
0.0
 10
268.4347274606426
 20
0.0
 30
0.0
 10
264.9082477007283
 20
0.0
 30
0.0
 10
260.1628069639479
 20
0.0
 30
0.0
 10
254.2326192751511
 20
0.0
 30
0.0
 10
247.241345862686
 20
0.0
 30
0.0
 10
239.205846416157
 20
0.0
 30
0.0
 10
230.0690442376994
 20
0.0
 30
0.0
 10
219.9706797152525
 20
0.0
 30
0.0
 10
209.0897261554082
 20
0.0
 30
0.0
 10
197.4278500750219
 20
0.0
 30
0.0
 10
184.9284732739036
 20
0.0
 30
0.0
 10
171.7925137212451
 20
0.0
 30
0.0
 10
158.2476876626375
 20
0.0
 30
0.0
 10
144.2746131938308
 20
0.0
 30
0.0
 10
129.8244314566526
 20
0.0
 30
0.0
 10
116.639054342191
 20
0.0
 30
0.0
 10
105.5063379401871
 20
0.0
 30
0.0
 10
99.33775473829552
 20
0.0
 30
0.0
 10
96.50000000034153
 20
0.0
 30
0.0
  0
SPLINE
  5
80
330
1F
100
AcDbEntity
  8
0
  6
Continuous
 62
     8
370
    25
100
AcDbSpline
210
0.0
220
0.0
230
1.0
 70
     8
 71
     3
 72
    27
 73
    23
 74
     0
 42
0.000000001
 43
0.00000001
 40
0.0
 40
0.0
 40
0.0
 40
0.0
 40
0.0317211520942298
 40
0.0861759931150172
 40
0.1406305260641998
 40
0.1935201574889085
 40
0.2464096951456188
 40
0.3008347699528053
 40
0.3552600584534962
 40
0.4081446893679514
 40
0.4610296123700619
 40
0.5154505413292366
 40
0.5698716540009487
 40
0.6228694012643029
 40
0.6758671133047991
 40
0.7304109022398987
 40
0.7849544550336764
 40
0.8407974054519003
 40
0.868943525364311
 40
0.8970896266263859
 40
0.9483767043124437
 40
1.0
 40
1.0
 40
1.0
 40
1.0
 10
-276.5456112446793
 20
4.796216085226387
 30
0.0
 10
-276.5609761812974
 20
4.796203093975701
 30
0.0
 10
-276.6027176876677
 20
4.79616780099748
 30
0.0
 10
-275.2262627055795
 20
4.797334462537036
 30
0.0
 10
-272.5664339974734
 20
4.799598647258333
 30
0.0
 10
-268.6242730052156
 20
4.802934417037108
 30
0.0
 10
-263.5062469325504
 20
4.80728364563146
 30
0.0
 10
-257.1354296990028
 20
4.812692639450944
 30
0.0
 10
-249.6105888763242
 20
4.819069800218304
 30
0.0
 10
-241.0698798528609
 20
4.826330414853198
 30
0.0
 10
-231.5279643844868
 20
4.834419393459203
 30
0.0
 10
-220.9258777838246
 20
4.843431016164537
 30
0.0
 10
-209.4200005452322
 20
4.853194461249724
 30
0.0
 10
-197.2132109177825
 20
4.863564728530459
 30
0.0
 10
-184.2961791751109
 20
4.874538246757015
 30
0.0
 10
-170.6219472856729
 20
4.886143256004353
 30
0.0
 10
-156.1633366402197
 20
4.898441353542601
 30
0.0
 10
-143.6402883904612
 20
4.909040856106023
 30
0.0
 10
-133.3357126823143
 20
4.917810952627597
 30
0.0
 10
-123.358092124952
 20
4.926304771181264
 30
0.0
 10
-111.0756009852909
 20
4.936748409793315
 30
0.0
 10
-101.3691043269602
 20
4.944895429458099
 30
0.0
 10
-96.49999997278472
 20
4.948982247835493
 30
0.0
  0
SPLINE
  5
81
330
1F
100
AcDbEntity
  8
0
  6
Continuous
 62
     8
370
    25
100
AcDbSpline
210
0.0
220
0.0
230
1.0
 70
     8
 71
     3
 72
    27
 73
    23
 74
     0
 42
0.000000001
 43
0.00000001
 40
0.0
 40
0.0
 40
0.0
 40
0.0
 40
0.0335845400816323
 40
0.067261568260785
 40
0.1201694344299859
 40
0.1730772369889083
 40
0.2275233963779251
 40
0.2819693129154142
 40
0.3348720804693993
 40
0.3877745595800835
 40
0.4422140378111833
 40
0.496653419054784
 40
0.5495349586289904
 40
0.6024166963178517
 40
0.6568338756798142
 40
0.7112513651849015
 40
0.764143041282464
 40
0.8170348926602332
 40
0.8714634554026515
 40
0.925891974945087
 40
0.9788067440942041
 40
1.0
 40
1.0
 40
1.0
 40
1.0
 10
96.50000000034152
 20
4.948982247835493
 30
0.0
 10
99.66737234291755
 20
4.946340055167045
 30
0.0
 10
106.0108396201132
 20
4.941048393524647
 30
0.0
 10
117.3125245812142
 20
4.931422034581093
 30
0.0
 10
130.3412739390431
 20
4.920358784516771
 30
0.0
 10
145.0742456755592
 20
4.907830417266876
 30
0.0
 10
159.60264447445
 20
4.895500299995997
 30
0.0
 10
173.6763809077293
 20
4.883534847487658
 30
0.0
 10
187.0665797914127
 20
4.872182868889532
 30
0.0
 10
199.8289725103041
 20
4.861331077727363
 30
0.0
 10
211.9731214563392
 20
4.851034960557943
 30
0.0
 10
223.2852946132267
 20
4.841432493323985
 30
0.0
 10
233.5859250016119
 20
4.832674914616419
 30
0.0
 10
242.9363202372002
 20
4.824756800007101
 30
0.0
 10
251.3269965969053
 20
4.817621428294255
 30
0.0
 10
258.6034366937712
 20
4.811450558981647
 30
0.0
 10
264.6610815928941
 20
4.806304791636226
 30
0.0
 10
269.5472879159785
 20
4.802154305394255
 30
0.0
 10
273.2618723088202
 20
4.799004687809874
 30
0.0
 10
275.6230542952641
 20
4.796995509200181
 30
0.0
 10
276.7124755541485
 20
4.796074766699215
 30
0.0
 10
276.5827212348781
 20
4.796184656516961
 30
0.0
 10
276.5456143697155
 20
4.796216082574093
 30
0.0
  0
SPLINE
  5
82
330
1F
100
AcDbEntity
  8
0
  6
Continuous
 62
     8
370
    25
100
AcDbSpline
210
0.0
220
0.0
230
1.0
 70
     8
 71
     3
 72
   269
 73
   265
 74
     0
 42
0.000000001
 43
0.00000001
 40
0.0
 40
0.0
 40
0.0
 40
0.0
 40
0.0017182013526956
 40
0.0034392698723145
 40
0.0051632066460946
 40
0.0068900126054526
 40
0.0086196885382104
 40
0.0103522351011758
 40
0.0120876528330787
 40
0.0138259421678691
 40
0.0155671034483807
 40
0.0173111369403634
 40
0.0190580428468884
 40
0.020807821323134
 40
0.0225604724915519
 40
0.0243159964574205
 40
0.0260743933247898
 40
0.0278356632128227
 40
0.0295998062725352
 40
0.0313668227039429
 40
0.0331367127736167
 40
0.0349094768326513
 40
0.0366851153350536
 40
0.0384636288565541
 40
0.0402450181138458
 40
0.0420292839842555
 40
0.0438164275258517
 40
0.0456064499979943
 40
0.0473993528713234
 40
0.049195137636896
 40
0.0509938055857369
 40
0.0527953578246931
 40
0.0545997952923124
 40
0.0564071187746897
 40
0.0582173289217372
 40
0.0600304262638832
 40
0.0618464112292065
 40
0.0636652841610068
 40
0.0654870453358205
 40
0.0673116949818837
 40
0.0691392332980483
 40
0.0709696604731579
 40
0.0728029767058843
 40
0.074639182225035
 40
0.0764782773103323
 40
0.0783202623136713
 40
0.0801651376808626
 40
0.0820129039738622
 40
0.0838635618934969
 40
0.085717112302687
 40
0.0875735562501749
 40
0.0894328949947616
 40
0.091295130030058
 40
0.0931602631013786
 40
0.0950282959765906
 40
0.0968992301411446
 40
0.0987730668621249
 40
0.1006498072122184
 40
0.1025294520893314
 40
0.1044120022367029
 40
0.1062974582635233
 40
0.1081858206660602
 40
0.1100770898492996
 40
0.1119712661491062
 40
0.1138683498549084
 40
0.1157683412329149
 40
0.1176712405498657
 40
0.1195770480973278
 40
0.1214857642165355
 40
0.1233973893237851
 40
0.1253119239363894
 40
0.127229368699195
 40
0.1291497244116719
 40
0.1310729920555765
 40
0.1329991728231993
 40
0.1349282681461971
 40
0.1368602797250194
 40
0.1387952095572835
 40
0.1407330597552239
 40
0.1426738320762983
 40
0.1446175280064353
 40
0.1465641488082611
 40
0.1485136955449525
 40
0.150466169104667
 40
0.1524215702255577
 40
0.1543798995213771
 40
0.1563411575076769
 40
0.1583053446286088
 40
0.160272461284333
 40
0.1622425078590405
 40
0.1642154847495945
 40
0.1661913923947992
 40
0.1681702313053001
 40
0.1701520020941226
 40
0.1721367055078568
 40
0.1741243424584926
 40
0.176114914055912
 40
0.178108421641046
 40
0.1801048668197001
 40
0.1821042514970564
 40
0.1841065779128565
 40
0.186111848581433
 40
0.1881200656219792
 40
0.1901312307181892
 40
0.1921453452937445
 40
0.1941624105411699
 40
0.1961824274510546
 40
0.1982053968419421
 40
0.2002313193908983
 40
0.2022601956647611
 40
0.2042920261520798
 40
0.2063268112957503
 40
0.2083645515263543
 40
0.2104052472962065
 40
0.2124488991141198
 40
0.2144955075808935
 40
0.2165450734255319
 40
0.2185975975422001
 40
0.2206530810279243
 40
0.222711525221043
 40
0.2247729317404159
 40
0.226837302525396
 40
0.2289046398765742
 40
0.2309749464959092
 40
0.2330482252099051
 40
0.2351244782352306
 40
0.237203707414762
 40
0.2392859143156066
 40
0.2413711002633869
 40
0.2434592663772841
 40
0.2455504136058467
 40
0.2476445427635738
 40
0.2497416545682788
 40
0.2518417496792403
 40
0.2677942693930307
 40
0.2837534136771648
 40
0.2997198560078211
 40
0.3156937534328282
 40
0.331675453983348
 40
0.3476656796375545
 40
0.3636646798372554
 40
0.3796889127274747
 40
0.3830573138649014
 40
0.386428699807804
 40
0.3898029893850203
 40
0.3931801013266569
 40
0.3965599542687885
 40
0.3999424667581557
 40
0.4033275572568636
 40
0.4067151441470801
 40
0.4101051457357343
 40
0.4251398670338687
 40
0.4402129265475008
 40
0.4551681201008406
 40
0.4701463588636661
 40
0.4850681717542598
 40
0.4999974975251725
 40
0.5149268656623549
 40
0.529848636206024
 40
0.5448267501987729
 40
0.559782068584645
 40
0.5748553283646837
 40
0.5898898494972731
 40
0.6051250414122232
 40
0.6203060821612921
 40
0.6231794957250893
 40
0.6266367451944341
 40
0.6306760382271104
 40
0.6329473387931388
 40
0.6352184425208812
 40
0.6374893527510733
 40
0.6397600722615089
 40
0.6420306033253452
 40
0.6443009477694401
 40
0.6465711070327138
 40
0.6488410822245378
 40
0.6511108741831476
 40
0.6533804835340785
 40
0.6556499107486258
 40
0.6579191562023261
 40
0.6601882202334605
 40
0.6624571032015834
 40
0.6647258055460676
 40
0.6669943278446764
 40
0.6692626708721535
 40
0.6715308356588374
 40
0.673798823549293
 40
0.6760666362609654
 40
0.6783342759904032
 40
0.680601745936042
 40
0.6828690494435912
 40
0.6851361892814882
 40
0.6874031676815012
 40
0.6896699863968483
 40
0.6958764905679459
 40
0.70769911848688
 40
0.7251303951730383
 40
0.7481602887756051
 40
0.7523602430125405
 40
0.7565481806823072
 40
0.7607241079980234
 40
0.7648880333187097
 40
0.7690399683107868
 40
0.7731799296987
 40
0.7773079387778642
 40
0.7814240125863455
 40
0.7855281630227905
 40
0.7896203981163988
 40
0.793700723248993
 40
0.7977691423290012
 40
0.8018256589182534
 40
0.8058702773124776
 40
0.8099030035763992
 40
0.8139238465343094
 40
0.8179328189019195
 40
0.821929938742641
 40
0.8259152225909703
 40
0.829888682266176
 40
0.8338503258904728
 40
0.8378001589413808
 40
0.8417381852616448
 40
0.8456644080275197
 40
0.8495788306762452
 40
0.8534814577935139
 40
0.857372295961744
 40
0.8612513545699306
 40
0.8651186468518693
 40
0.8689741887174343
 40
0.8728179926979255
 40
0.876650067499931
 40
0.8804704189184237
 40
0.8842790507132892
 40
0.888075965449078
 40
0.8918611652987163
 40
0.8956346528119197
 40
0.8993964316490392
 40
0.9031465072810685
 40
0.9068848876565131
 40
0.9106115839517298
 40
0.9143266098033067
 40
0.9180299762071543
 40
0.9217216908098964
 40
0.9254017586708952
 40
0.9290701829969112
 40
0.9327269658449414
 40
0.9363721087939073
 40
0.9400056135858528
 40
0.9436274827373125
 40
0.947237720121504
 40
0.9508363315219797
 40
0.9544233251591564
 40
0.9579987120488737
 40
0.9615625029413007
 40
0.9651147055743811
 40
0.9686553251216492
 40
0.9721843648136631
 40
0.9757018265319077
 40
0.97920771137577
 40
0.9827020202031695
 40
0.9861847541454458
 40
0.9896559150970784
 40
0.9931155061808185
 40
0.9965635321887988
 40
1.0
 40
1.0
 40
1.0
 40
1.0
 10
282.2840287669347
 20
141.6997143944624
 30
0.0
 10
282.2830934265156
 20
141.6997151025389
 30
0.0
 10
282.2812211848724
 20
141.6997165198733
 30
0.0
 10
282.2660652954661
 20
141.6997279325217
 30
0.0
 10
282.2418226305271
 20
141.6997461394789
 30
0.0
 10
282.2075635629913
 20
141.6997718107109
 30
0.0
 10
282.1634846961447
 20
141.6998047662512
 30
0.0
 10
282.1094800910328
 20
141.6998450544412
 30
0.0
 10
282.0455250615742
 20
141.6998926622953
 30
0.0
 10
281.9715730807966
 20
141.6999475933008
 30
0.0
 10
281.8875834738949
 20
141.7000098465207
 30
0.0
 10
281.793513979798
 20
141.7000794222068
 30
0.0
 10
281.689322749597
 20
141.7001563202911
 30
0.0
 10
281.5749678100977
 20
141.7002405407926
 30
0.0
 10
281.4504072082756
 20
141.700332083706
 30
0.0
 10
281.3155989728319
 20
141.7004309490337
 30
0.0
 10
281.1705011248768
 20
141.7005371367754
 30
0.0
 10
281.0150716754225
 20
141.7006506469324
 30
0.0
 10
280.8492686264112
 20
141.7007714795052
 30
0.0
 10
280.673049970814
 20
141.7008996344949
 30
0.0
 10
280.4863736929085
 20
141.701035111903
 30
0.0
 10
280.2891977687805
 20
141.7011779117304
 30
0.0
 10
280.0814801657455
 20
141.701328033979
 30
0.0
 10
279.863178845879
 20
141.7014854786499
 30
0.0
 10
279.6342517541576
 20
141.7016502457458
 30
0.0
 10
279.3946568641909
 20
141.7018223352679
 30
0.0
 10
279.1443520084778
 20
141.7020017472186
 30
0.0
 10
278.883295515341
 20
141.7021884816006
 30
0.0
 10
278.6114438408659
 20
141.7023825384042
 30
0.0
 10
278.3287667209905
 20
141.7025839176154
 30
0.0
 10
278.0352382113651
 20
141.7027926192356
 30
0.0
 10
277.7308314512401
 20
141.7030086432643
 30
0.0
 10
277.415520005427
 20
141.7032319897015
 30
0.0
 10
277.0892775049218
 20
141.7034626585479
 30
0.0
 10
276.7520777445337
 20
141.7037006498035
 30
0.0
 10
276.403894657776
 20
141.7039459634689
 30
0.0
 10
276.0447023247211
 20
141.7041985995451
 30
0.0
 10
275.674474971007
 20
141.7044585580327
 30
0.0
 10
275.29318696922
 20
141.704725838933
 30
0.0
 10
274.9008128396404
 20
141.7050004422472
 30
0.0
 10
274.4973272511641
 20
141.7052823679765
 30
0.0
 10
274.0827050221741
 20
141.7055716161229
 30
0.0
 10
273.6569211214321
 20
141.7058681866879
 30
0.0
 10
273.2199506689585
 20
141.7061720796736
 30
0.0
 10
272.7717689369407
 20
141.706483295082
 30
0.0
 10
272.3123513505515
 20
141.7068018329156
 30
0.0
 10
271.8416734891038
 20
141.7071276931771
 30
0.0
 10
271.3597110859575
 20
141.707460875869
 30
0.0
 10
270.866440033098
 20
141.7078013809943
 30
0.0
 10
270.3618363682493
 20
141.7081492085564
 30
0.0
 10
269.8458763273279
 20
141.7085043585585
 30
0.0
 10
269.318536152466
 20
141.7088668310038
 30
0.0
 10
268.7797928152328
 20
141.7092366258975
 30
0.0
 10
268.2296213444789
 20
141.7096137432174
 30
0.0
 10
267.6680075961472
 20
141.7099981829264
 30
0.0
 10
267.0949463836509
 20
141.7103899450354
 30
0.0
 10
266.5104309144589
 20
141.7107890295439
 30
0.0
 10
265.9144552274573
 20
141.7111954364537
 30
0.0
 10
265.3070135384194
 20
141.7116091657658
 30
0.0
 10
264.6881004175482
 20
141.712030217482
 30
0.0
 10
264.0577107436778
 20
141.712458591604
 30
0.0
 10
263.4158397184631
 20
141.712894288134
 30
0.0
 10
262.7624828644599
 20
141.7133373070737
 30
0.0
 10
262.0976360275349
 20
141.7137876484261
 30
0.0
 10
261.4212953781163
 20
141.7142453121936
 30
0.0
 10
260.7334574127561
 20
141.714710298379
 30
0.0
 10
260.0341189556166
 20
141.7151826069855
 30
0.0
 10
259.3232771599721
 20
141.7156622380165
 30
0.0
 10
258.6009295097251
 20
141.7161491914755
 30
0.0
 10
257.8670738208716
 20
141.7166434673661
 30
0.0
 10
257.1217082431689
 20
141.7171450656928
 30
0.0
 10
256.3648312610558
 20
141.7176539864594
 30
0.0
 10
255.5964416973772
 20
141.718170229671
 30
0.0
 10
254.8165387066346
 20
141.7186937953318
 30
0.0
 10
254.0251218074233
 20
141.7192246834475
 30
0.0
 10
253.2221907682997
 20
141.7197628940224
 30
0.0
 10
252.407746042145
 20
141.7203084270643
 30
0.0
 10
251.5817871800948
 20
141.7208612825517
 30
0.0
 10
250.744319377393
 20
141.7214214604039
 30
0.0
 10
249.8953619747586
 20
141.7219889606421
 30
0.0
 10
249.0349327092023
 20
141.722563783269
 30
0.0
 10
248.163050386194
 20
141.7231459282882
 30
0.0
 10
247.2797341578781
 20
141.7237353957018
 30
0.0
 10
246.3850037185867
 20
141.7243321855136
 30
0.0
 10
245.4788792549774
 20
141.7249362977261
 30
0.0
 10
244.5613814620711
 20
141.7255477323435
 30
0.0
 10
243.6325315415966
 20
141.7261664893692
 30
0.0
 10
242.6923512050899
 20
141.7267925688077
 30
0.0
 10
241.7408626757215
 20
141.7274259706631
 30
0.0
 10
240.7780886904681
 20
141.7280666949402
 30
0.0
 10
239.8040525021975
 20
141.728714741644
 30
0.0
 10
238.8187778817766
 20
141.7293701107795
 30
0.0
 10
237.8222891201905
 20
141.7300328023522
 30
0.0
 10
236.8146110306153
 20
141.7307028163683
 30
0.0
 10
235.7957689506828
 20
141.7313801528336
 30
0.0
 10
234.7657887440407
 20
141.7320648117544
 30
0.0
 10
233.7246968045646
 20
141.7327567931377
 30
0.0
 10
232.672520050667
 20
141.7334560969904
 30
0.0
 10
231.6092859566594
 20
141.7341627233201
 30
0.0
 10
230.5350224455411
 20
141.7348766721325
 30
0.0
 10
229.4497583174254
 20
141.7355979434328
 30
0.0
 10
228.353521868977
 20
141.7363265370751
 30
0.0
 10
227.2463569296896
 20
141.7370624530615
 30
0.0
 10
226.1283098816328
 20
141.7378056914262
 30
0.0
 10
224.9994273313023
 20
141.7385562521701
 30
0.0
 10
223.8597566992244
 20
141.739314135299
 30
0.0
 10
222.7093460576776
 20
141.7400793408169
 30
0.0
 10
221.5482441776088
 20
141.7408518687295
 30
0.0
 10
220.3765005193889
 20
141.7416317190421
 30
0.0
 10
219.1941652386563
 20
141.7424188917603
 30
0.0
 10
218.0012891881145
 20
141.7432133868905
 30
0.0
 10
216.7979239204186
 20
141.7440152044389
 30
0.0
 10
215.5841216907772
 20
141.7448243444126
 30
0.0
 10
214.3599354596315
 20
141.7456408068182
 30
0.0
 10
213.1254188953287
 20
141.7464645916639
 30
0.0
 10
211.8806263767696
 20
141.7472956989567
 30
0.0
 10
210.6256129961845
 20
141.7481341287054
 30
0.0
 10
209.3604345614487
 20
141.7489798809181
 30
0.0
 10
208.0851476001332
 20
141.749832955604
 30
0.0
 10
206.799809357092
 20
141.750693352772
 30
0.0
 10
205.5044778162368
 20
141.7515610724321
 30
0.0
 10
204.1992116318685
 20
141.7524361145935
 30
0.0
 10
202.8840703985913
 20
141.7533184792692
 30
0.0
 10
201.5591137241066
 20
141.754208166414
 30
0.0
 10
200.2244053412638
 20
141.755105175824
 30
0.0
 10
198.8800219833661
 20
141.7560095076153
 30
0.0
 10
197.5260397443315
 20
141.756921161662
 30
0.0
 10
196.1625360274016
 20
141.7578401384833
 30
0.0
 10
194.7895889222845
 20
141.7587664361738
 30
0.0
 10
193.4072776512387
 20
141.7597000618906
 30
0.0
 10
192.0156814113802
 20
141.7606409889013
 30
0.0
 10
190.6148835862219
 20
141.7615893172219
 30
0.0
 10
189.2049560450157
 20
141.7625446728283
 30
0.0
 10
184.6668737298815
 20
141.7656270630066
 30
0.0
 10
176.843629830543
 20
141.7708722410692
 30
0.0
 10
165.4821204506164
 20
141.7783152458805
 30
0.0
 10
153.8167127041434
 20
141.7858320704936
 30
0.0
 10
141.9021073054305
 20
141.7934221847974
 30
0.0
 10
129.7913297454097
 20
141.8010770670139
 30
0.0
 10
117.5408874605113
 20
141.8088315487559
 30
0.0
 10
105.2003343193254
 20
141.8165564897396
 30
0.0
 10
96.09462564013705
 20
141.822587229315
 30
0.0
 10
90.23924530241128
 20
141.8260552381334
 30
0.0
 10
87.63763410182464
 20
141.8271437305858
 30
0.0
 10
85.03379814225134
 20
141.8278855728529
 30
0.0
 10
82.42777987962255
 20
141.828253016992
 30
0.0
 10
79.8196476011601
 20
141.8282525926605
 30
0.0
 10
77.20946274868207
 20
141.8278859664734
 30
0.0
 10
74.59728869671397
 20
141.8271399188075
 30
0.0
 10
71.98318833338406
 20
141.8260657168823
 30
0.0
 10
66.372506308903
 20
141.8226460736108
 30
0.0
 10
57.75602102725787
 20
141.8191693201595
 30
0.0
 10
46.16467404850648
 20
141.8244491262511
 30
0.0
 10
34.58785552384716
 20
141.8299709378948
 30
0.0
 10
23.04994156750939
 20
141.8245059933357
 30
0.0
 10
11.51868144303266
 20
141.8190777399619
 30
0.0
 10
-0.000007904145088
 20
141.8245045066166
 30
0.0
 10
-11.51868636000843
 20
141.8299326539041
 30
0.0
 10
-23.0499143912424
 20
141.8245002236643
 30
0.0
 10
-34.5878174862475
 20
141.8190506791158
 30
0.0
 10
-46.16468748337086
 20
141.824514938207
 30
0.0
 10
-57.75606681319639
 20
141.8300109330647
 30
0.0
 10
-69.41943683421552
 20
141.8244949480967
 30
0.0
 10
-81.11053057051413
 20
141.8188768223272
 30
0.0
 10
-89.67347790951581
 20
141.8230574165031
 30
0.0
 10
-95.20683643774058
 20
141.8255932420293
 30
0.0
 10
-97.87425527347237
 20
141.8254255095453
 30
0.0
 10
-100.386789152345
 20
141.8246893343042
 30
0.0
 10
-102.5942315454109
 20
141.8237821411971
 30
0.0
 10
-104.3466318019888
 20
141.8230481643634
 30
0.0
 10
-106.0985550334886
 20
141.8222643213988
 30
0.0
 10
-107.8498392636907
 20
141.8214403120591
 30
0.0
 10
-109.6003235174912
 20
141.8205735376373
 30
0.0
 10
-111.3498465547227
 20
141.8196646943688
 30
0.0
 10
-113.0982472093642
 20
141.8187135957191
 30
0.0
 10
-114.8453642986432
 20
141.81772029166
 30
0.0
 10
-116.5910366473698
 20
141.8166847687959
 30
0.0
 10
-118.3351030813995
 20
141.8156070307059
 30
0.0
 10
-120.0774024293657
 20
141.8144870764188
 30
0.0
 10
-121.8177735222031
 20
141.8133249061785
 30
0.0
 10
-123.5560551932329
 20
141.8121205199051
 30
0.0
 10
-125.2920862782205
 20
141.8108739175848
 30
0.0
 10
-127.0257056149698
 20
141.8095850992523
 30
0.0
 10
-128.7567520448072
 20
141.8082540646672
 30
0.0
 10
-130.4850644069671
 20
141.8068808146278
 30
0.0
 10
-132.2104815594745
 20
141.8054653460404
 30
0.0
 10
-133.9328423011565
 20
141.8040076703264
 30
0.0
 10
-135.6519856746049
 20
141.8025077447205
 30
0.0
 10
-137.3677500093272
 20
141.8009657284837
 30
0.0
 10
-139.0799781117999
 20
141.7993810266459
 30
0.0
 10
-140.78851669291
 20
141.7977558609179
 30
0.0
 10
-142.493211309916
 20
141.7960819416605
 30
0.0
 10
-144.1939101708619
 20
141.7943902028145
 30
0.0
 10
-146.8733436313957
 20
141.7915079000751
 30
0.0
 10
-151.9134353995799
 20
141.7877201770749
 30
0.0
 10
-160.6245517080171
 20
141.781677829875
 30
0.0
 10
-173.1999755990613
 20
141.7733363468376
 30
0.0
 10
-183.5598229985125
 20
141.7664041423639
 30
0.0
 10
-190.618233191182
 20
141.7616106186483
 30
0.0
 10
-193.4125560320366
 20
141.7597211138315
 30
0.0
 10
-196.1695971938587
 20
141.7578599544692
 30
0.0
 10
-198.8887832490358
 20
141.756028355955
 30
0.0
 10
-201.5694783273907
 20
141.7542259936105
 30
0.0
 10
-204.211073202923
 20
141.7524529539062
 30
0.0
 10
-206.8130710909654
 20
141.7507092160424
 30
0.0
 10
-209.3750030230294
 20
141.7489947861148
 30
0.0
 10
-211.8964087993421
 20
141.7473096621912
 30
0.0
 10
-214.3768407384439
 20
141.7456538444273
 30
0.0
 10
-216.8158624335306
 20
141.7440273324508
 30
0.0
 10
-219.2130490017626
 20
141.7424301260593
 30
0.0
 10
-221.5679868048927
 20
141.7408622250315
 30
0.0
 10
-223.880273797396
 20
141.7393236291822
 30
0.0
 10
-226.1495179014245
 20
141.7378143383283
 30
0.0
 10
-228.375342653505
 20
141.7363343523423
 30
0.0
 10
-230.5573660825378
 20
141.7348836707933
 30
0.0
 10
-232.695300806568
 20
141.7334622951883
 30
0.0
 10
-234.7889332653268
 20
141.7320702260196
 30
0.0
 10
-236.8380453502488
 20
141.7307074630149
 30
0.0
 10
-238.8424312215734
 20
141.7293740059771
 30
0.0
 10
-240.8018925093349
 20
141.728069854712
 30
0.0
 10
-242.7162394982383
 20
141.7267950090483
 30
0.0
 10
-244.5852907436784
 20
141.7255494688323
 30
0.0
 10
-246.4088730195491
 20
141.7243332339278
 30
0.0
 10
-248.1868215010064
 20
141.723146304215
 30
0.0
 10
-249.9189786841409
 20
141.7219886795985
 30
0.0
 10
-251.6051981421139
 20
141.72086035994
 30
0.0
 10
-253.2453301543379
 20
141.7197613453758
 30
0.0
 10
-254.8393569408178
 20
141.718691636926
 30
0.0
 10
-256.3872846437521
 20
141.7176512345186
 30
0.0
 10
-257.8891206352915
 20
141.7166401380034
 30
0.0
 10
-259.3448788961221
 20
141.7156583472368
 30
0.0
 10
-260.7545784682598
 20
141.7147058620933
 30
0.0
 10
-262.1182437989597
 20
141.7137826824626
 30
0.0
 10
-263.4359046147629
 20
141.7128888082489
 30
0.0
 10
-264.7075957935778
 20
141.7120242393712
 30
0.0
 10
-265.9333577110089
 20
141.711188975762
 30
0.0
 10
-267.1132347013244
 20
141.7103830173688
 30
0.0
 10
-268.2472805674459
 20
141.7096063641369
 30
0.0
 10
-269.3355378057062
 20
141.7088590161314
 30
0.0
 10
-270.3781649775323
 20
141.7081409739587
 30
0.0
 10
-271.375360741078
 20
141.7074522376009
 30
0.0
 10
-272.3273172769124
 20
141.7067928069535
 30
0.0
 10
-273.2342317047576
 20
141.7061626819251
 30
0.0
 10
-274.0963029634665
 20
141.7055618624368
 30
0.0
 10
-274.9137326051792
 20
141.7049903484226
 30
0.0
 10
-275.6867245547436
 20
141.704448139828
 30
0.0
 10
-276.4154851121531
 20
141.7039352366102
 30
0.0
 10
-277.1002230129482
 20
141.7034516387381
 30
0.0
 10
-277.7411490176217
 20
141.7029973461895
 30
0.0
 10
-278.3384773190368
 20
141.7025723589586
 30
0.0
 10
-278.8924201727601
 20
141.7021766770325
 30
0.0
 10
-279.4032078175285
 20
141.7018103006183
 30
0.0
 10
-279.8711876376802
 20
141.7014732298375
 30
0.0
 10
-280.2966968343979
 20
141.7011654646361
 30
0.0
 10
-280.6800753289165
 20
141.7008870048876
 30
0.0
 10
-281.02166170328
 20
141.700637850822
 30
0.0
 10
-281.3217963011128
 20
141.7004180013766
 30
0.0
 10
-281.5808128439327
 20
141.7002274603416
 30
0.0
 10
-281.7990686784619
 20
141.7000662135277
 30
0.0
 10
-281.9768326358727
 20
141.699934313558
 30
0.0
 10
-282.1147013673112
 20
141.6998315649876
 30
0.0
 10
-282.2120532754001
 20
141.6997586935999
 30
0.0
 10
-282.2727896412446
 20
141.6997130043364
 30
0.0
 10
-282.2802863176678
 20
141.6997073285276
 30
0.0
 10
-282.2840283628923
 20
141.6997044953877
 30
0.0
  0
LINE
  5
83
330
1F
100
AcDbEntity
  8
0
  6
Continuous
 62
     7
370
    25
100
AcDbLine
 10
276.6959012026
 20
4.7900801144
 30
0.0
 11
282.2840290343
 21
141.6997287704
 31
0.0
  0
LINE
  5
84
330
1F
100
AcDbEntity
  8
0
  6
Continuous
 62
     7
370
    25
100
AcDbLine
 10
-282.2840274577
 20
141.6996901438
 30
0.0
 11
-276.6959012026
 21
4.7900801144
 31
0.0
  0
LINE
  5
85
330
1F
100
AcDbEntity
  8
0
  6
Continuous
 62
     7
370
    25
100
AcDbLine
 10
-96.4999999728
 20
0.0
 30
0.0
 11
-96.4999999728
 21
4.9489822478
 31
0.0
  0
LINE
  5
86
330
1F
100
AcDbEntity
  8
0
  6
Continuous
 62
     7
370
    25
100
AcDbLine
 10
96.5000000003
 20
0.0
 30
0.0
 11
96.5000000003
 21
4.9489822478
 31
0.0
  0
LINE
  5
87
330
1F
100
AcDbEntity
  8
0
  6
Continuous
 62
     7
370
    25
100
AcDbLine
 10
-96.4999999728
 20
4.9489822478
 30
0.0
 11
96.5000000003
 21
4.9489822478
 31
0.0
  0
LINE
  5
88
330
1F
100
AcDbEntity
  8
0
  6
Continuous
 62
     7
370
    25
100
AcDbLine
 10
96.5000000003
 20
0.0
 30
0.0
 11
-96.4999999728
 21
0.0
 31
0.0
  0
ARC
  5
89
330
1F
100
AcDbEntity
  8
0
  6
Continuous
 62
     7
370
    25
100
AcDbCircle
 10
-271.7003064327
 20
4.9999999987
 30
0.0
 40
4.999999998664911
100
AcDbArc
 50
182.5978331829
 51
270.0000216728
  0
ARC
  5
8A
330
1F
100
AcDbEntity
  8
0
  6
Continuous
 62
     7
370
    25
100
AcDbCircle
 10
271.7003064327
 20
4.9999999987
 30
0.0
 40
4.999999998658203
100
AcDbArc
 50
269.9999783271
 51
357.2708848974
  0
SPLINE
  5
8B
330
1B
100
AcDbEntity
 67
     1
  8
0
  6
Continuous
 62
     7
370
    25
100
AcDbSpline
210
0.0
220
0.0
230
1.0
 70
    11
 71
     3
 72
   162
 73
   158
 74
     0
 42
0.000000001
 43
0.00000001
 40
0.0
 40
0.0
 40
0.0
 40
0.0
 40
0.0104025986448636
 40
0.0210118594368939
 40
0.0318282042573076
 40
0.042852296808448
 40
0.0540846195753477
 40
0.0655259946711284
 40
0.0771770054522212
 40
0.0890386265443352
 40
0.1011116212010448
 40
0.113397061114124
 40
0.1258959038472177
 40
0.1338737427473311
 40
0.1418548945883424
 40
0.1498396961750042
 40
0.1578282260467759
 40
0.1658206582536881
 40
0.1738173538562919
 40
0.1818184376001821
 40
0.1898321401869625
 40
0.1915166741732843
 40
0.1932027008577919
 40
0.1948901796468694
 40
0.1965790698975259
 40
0.1982693309197449
 40
0.1999609219788342
 40
0.2016538022977753
 40
0.2033479310595734
 40
0.2050432674096067
 40
0.2125621162545908
 40
0.2201001380021913
 40
0.2275792151028088
 40
0.2350698170892747
 40
0.2425322005543697
 40
0.2499983412032787
 40
0.2574645030395161
 40
0.2649268653269571
 40
0.2724174049160346
 40
0.2798965444452746
 40
0.2874346663459015
 40
0.2949534150883
 40
0.3025725190850631
 40
0.3101645421387899
 40
0.3116015333424778
 40
0.3133305002893164
 40
0.3153505466307847
 40
0.3164864217360727
 40
0.3176221984027339
 40
0.3187578783014667
 40
0.3198934628214432
 40
0.3210289530994668
 40
0.3221643500491474
 40
0.3232996543900874
 40
0.3244348666770825
 40
0.3255699873293333
 40
0.3267050166596694
 40
0.3278399549037852
 40
0.328974802249486
 40
0.330109558865946
 40
0.3312442249329779
 40
0.3323788006703117
 40
0.333513286366886
 40
0.3346476824101496
 40
0.3357819893153736
 40
0.3369162077549735
 40
0.338050338587842
 40
0.3391843829124707
 40
0.340318342328394
 40
0.3414522185087978
 40
0.3425860128381749
 40
0.3437197264326302
 40
0.3448533601689464
 40
0.3479572265987176
 40
0.3538697108084505
 40
0.362587074567936
 40
0.3741043009587739
 40
0.3866108543133174
 40
0.3989024565767301
 40
0.410980068137888
 40
0.4228447643470142
 40
0.4344973097377337
 40
0.4459386813978142
 40
0.4571694628166243
 40
0.4681904775303554
 40
0.479002207323873
 40
0.4896053162757479
 40
0.5000002251069074
 40
0.5103949834514304
 40
0.5209979720044409
 40
0.5318096114641321
 40
0.5428305659163538
 40
0.5540613171322457
 40
0.5655026886757182
 40
0.577155264038721
 40
0.5890200203570736
 40
0.6010977221894073
 40
0.6133894449574682
 40
0.6258961491053556
 40
0.6338739849185419
 40
0.6418551337062577
 40
0.6498399322723473
 40
0.657828459155063
 40
0.6658208884039581
 40
0.6738175810777133
 40
0.6818186619198754
 40
0.6898323616384366
 40
0.6915168956505552
 40
0.693202922355893
 40
0.694890401160966
 40
0.6965792914229466
 40
0.6982695524520133
 40
0.6999611435136973
 40
0.701654023831232
 40
0.7033481525878996
 40
0.7050434889293805
 40
0.712562337767308
 40
0.7201003595713831
 40
0.7275794367085128
 40
0.7350700386888761
 40
0.7425324221525259
 40
0.7499985628118524
 40
0.7574647246371788
 40
0.7649270869255596
 40
0.7724176265199663
 40
0.7798967660119331
 40
0.7874348878552985
 40
0.7949536366039699
 40
0.7987663465940279
 40
0.8025727407038346
 40
0.8063723648337696
 40
0.8101647637741836
 40
0.8109241628752748
 40
0.8122270009961818
 40
0.8140720831731769
 40
0.8164579527148476
 40
0.8193854742705788
 40
0.8228547548193126
 40
0.826865402305551
 40
0.8314169615489214
 40
0.8365089189868601
 40
0.842140751396909
 40
0.8508982022666656
 40
0.8591440256244472
 40
0.8668790167515997
 40
0.8741040962639892
 40
0.8866030493034476
 40
0.8988885773665484
 40
0.9109616380572942
 40
0.9228233031197894
 40
0.9344743358258184
 40
0.9459157108363013
 40
0.9571480115094428
 40
0.9681720599786954
 40
0.9789883387189534
 40
0.9895975114378829
 40
1.0
 40
1.0
 40
1.0
 40
1.0
 10
282.2840287669347
 20
-0.0000000002144374
 30
0.0
 10
282.2840287677087
 20
-5.352272326370836
 30
0.0
 10
281.8040962140671
 20
-16.16314740753508
 30
0.0
 10
279.6220004171181
 20
-32.41031766598423
 30
0.0
 10
275.8955048798268
 20
-48.70366201638606
 30
0.0
 10
270.5759668181676
 20
-64.88772704928552
 30
0.0
 10
263.6185370761368
 20
-80.7912981084375
 30
0.0
 10
255.0063133794335
 20
-96.235076879546
 30
0.0
 10
244.7335362117904
 20
-111.0255969483293
 30
0.0
 10
232.8250700471396
 20
-124.9662689173819
 30
0.0
 10
219.3219688194307
 20
-137.8489079928219
 30
0.0
 10
204.3007703112941
 20
-149.4694927042933
 30
0.0
 10
189.9304994468519
 20
-158.3353909538046
 30
0.0
 10
176.8440721211652
 20
-164.9147773783788
 30
0.0
 10
165.4820018600473
 20
-169.691262013775
 30
0.0
 10
153.8167445025265
 20
-173.6862143640732
 30
0.0
 10
141.9020987787917
 20
-176.8836625291296
 30
0.0
 10
129.7913320324063
 20
-179.2644338145064
 30
0.0
 10
117.5408868453181
 20
-180.8165961087924
 30
0.0
 10
105.2003344916454
 20
-181.5354943161431
 30
0.0
 10
96.09462563179588
 20
-181.4428909378391
 30
0.0
 10
90.23924530327577
 20
-181.4476480527376
 30
0.0
 10
87.6376341015927
 20
-181.4470967868126
 30
0.0
 10
85.03379814231351
 20
-181.4472552392541
 30
0.0
 10
82.42777987960586
 20
-181.4472185089441
 30
0.0
 10
79.81964760116458
 20
-181.4472293643281
 30
0.0
 10
77.20946274868089
 20
-181.4472227101171
 30
0.0
 10
74.59728869671426
 20
-181.4472158782182
 30
0.0
 10
71.98318833338402
 20
-181.4472047098836
 30
0.0
 10
66.3725063089031
 20
-181.4471699157533
 30
0.0
 10
57.75602102725781
 20
-181.4471343577127
 30
0.0
 10
46.16467404850647
 20
-181.4471882624925
 30
0.0
 10
34.5878555238472
 20
-181.4472445999274
 30
0.0
 10
23.04994156750935
 20
-181.4471888364899
 30
0.0
 10
11.51868144303267
 20
-181.4471334484974
 30
0.0
 10
-0.0000079041450702
 20
-181.4471888129793
 30
0.0
 10
-11.51868636000844
 20
-181.4472442426413
 30
0.0
 10
-23.0499143912424
 20
-181.4471886586359
 30
0.0
 10
-34.58781748624747
 20
-181.4471336164915
 30
0.0
 10
-46.16468748337086
 20
-181.4471872598253
 30
0.0
 10
-57.75606681319643
 20
-181.4472512831318
 30
0.0
 10
-69.4194368342155
 20
-181.4471652518891
 30
0.0
 10
-81.11053057051411
 20
-181.4472201700428
 30
0.0
 10
-89.6734779095158
 20
-181.446957197232
 30
0.0
 10
-95.20683643774059
 20
-181.4473414505611
 30
0.0
 10
-97.87425527347246
 20
-181.4464645931182
 30
0.0
 10
-100.386789152345
 20
-181.4498262397573
 30
0.0
 10
-102.5942315454109
 20
-181.4420050496772
 30
0.0
 10
-104.3466318019888
 20
-181.4159331715173
 30
0.0
 10
-106.0985550334886
 20
-181.3736956612134
 30
0.0
 10
-107.8498392636907
 20
-181.3143271455767
 30
0.0
 10
-109.6003235174911
 20
-181.238111150852
 30
0.0
 10
-111.3498465547227
 20
-181.1449966034503
 30
0.0
 10
-113.0982472093642
 20
-181.035022073567
 30
0.0
 10
-114.8453642986432
 20
-180.9082021136244
 30
0.0
 10
-116.5910366473697
 20
-180.7645577099964
 30
0.0
 10
-118.3351030813997
 20
-180.6041081244671
 30
0.0
 10
-120.0774024293655
 20
-180.42687308
 30
0.0
 10
-121.8177735222031
 20
-180.23287217514
 30
0.0
 10
-123.5560551932329
 20
-180.0221250407414
 30
0.0
 10
-125.2920862782204
 20
-179.7946512984459
 30
0.0
 10
-127.0257056149702
 20
-179.5504705699235
 30
0.0
 10
-128.7567520448062
 20
-179.2896024812794
 30
0.0
 10
-130.4850644069703
 20
-179.0120666360557
 30
0.0
 10
-132.2104815594631
 20
-178.7178827186623
 30
0.0
 10
-133.9328423011991
 20
-178.4070701075546
 30
0.0
 10
-135.6519856744461
 20
-178.0796493165079
 30
0.0
 10
-137.3677500099198
 20
-177.7356365811128
 30
0.0
 10
-139.0799781095889
 20
-177.3750701648078
 30
0.0
 10
-140.7885167011607
 20
-176.9980035886656
 30
0.0
 10
-142.4932112791274
 20
-176.6044868384116
 30
0.0
 10
-144.1939102857546
 20
-176.1945707756348
 30
0.0
 10
-146.8733428877019
 20
-175.5213499593729
 30
0.0
 10
-151.913447382908
 20
-174.1580759981698
 30
0.0
 10
-160.6244454918229
 20
-171.4401290918373
 30
0.0
 10
-173.2006528187313
 20
-166.6403875858741
 30
0.0
 10
-188.3830968928635
 20
-159.2907426736503
 30
0.0
 10
-204.309696285791
 20
-149.4636895957015
 30
0.0
 10
-219.3379164894015
 20
-137.8356227281922
 30
0.0
 10
-232.8442866662847
 20
-124.946242523282
 30
0.0
 10
-244.7535179373029
 20
-110.9999031240676
 30
0.0
 10
-255.0248258033712
 20
-96.20547519628875
 30
0.0
 10
-263.6340236293125
 20
-80.76001294001445
 30
0.0
 10
-270.5874672881656
 20
-64.8573059701551
 30
0.0
 10
-275.9027684766618
 20
-48.67687022656242
 30
0.0
 10
-279.6254257670947
 20
-32.38998389801526
 30
0.0
 10
-281.8047666745333
 20
-16.15206125100284
 30
0.0
 10
-282.521279778989
 20
-0.0000773822297035
 30
0.0
 10
-281.804779791581
 20
16.15184427289165
 30
0.0
 10
-279.6254927894033
 20
32.38958595450292
 30
0.0
 10
-275.9029105559952
 20
48.67634587810713
 30
0.0
 10
-270.5876924521933
 20
64.85671046572998
 30
0.0
 10
-263.6343261831661
 20
80.7594007802823
 30
0.0
 10
-255.0251900960278
 20
96.2048947011572
 30
0.0
 10
-244.7539015965272
 20
110.9994037061153
 30
0.0
 10
-232.8446917858552
 20
124.9458360819797
 30
0.0
 10
-219.3381185613228
 20
137.8354167075182
 30
0.0
 10
-204.3102945403467
 20
149.4633673626571
 30
0.0
 10
-189.9340778465921
 20
158.3335955484908
 30
0.0
 10
-176.8440381545039
 20
164.9147933049929
 30
0.0
 10
-165.4819709625748
 20
169.6912742147658
 30
0.0
 10
-153.8167174050487
 20
173.6862228872961
 30
0.0
 10
-141.9020756404872
 20
176.883668091934
 30
0.0
 10
-129.7913130893491
 20
179.2644369579733
 30
0.0
 10
-117.5408722391327
 20
180.8165974995401
 30
0.0
 10
-105.2003243082926
 20
181.5354944218222
 30
0.0
 10
-96.09461840988074
 20
181.4428909463298
 30
0.0
 10
-90.2392395308777
 20
181.4476480429946
 30
0.0
 10
-87.63762829675379
 20
181.4470967691075
 30
0.0
 10
-85.03379231256724
 20
181.4472552168073
 30
0.0
 10
-82.42777403226786
 20
181.4472184840011
 30
0.0
 10
-79.81964174315456
 20
181.4472293394007
 30
0.0
 10
-77.2094568865177
 20
181.4472226876235
 30
0.0
 10
-74.59728283644563
 20
181.4472158606863
 30
0.0
 10
-71.98318248061527
 20
181.4472046994946
 30
0.0
 10
-66.37250046540389
 20
181.4471699281058
 30
0.0
 10
-57.75601516300961
 20
181.4471343931722
 30
0.0
 10
-46.164668139006
 20
181.447188262914
 30
0.0
 10
-34.58784956899223
 20
181.4472445633925
 30
0.0
 10
-23.04993559698001
 20
181.4471888371961
 30
0.0
 10
-11.51867547033391
 20
181.4471334819394
 30
0.0
 10
0.000013876748654
 20
181.4471888228627
 30
0.0
 10
11.51869233298473
 20
181.4472441696754
 30
0.0
 10
23.04992036480148
 20
181.4471887964251
 30
0.0
 10
34.58782343626279
 20
181.4471331368291
 30
0.0
 10
46.16469341944072
 20
181.447189188173
 30
0.0
 10
57.75607258747758
 20
181.4472439939363
 30
0.0
 10
67.4616271340897
 20
181.4472010495062
 30
0.0
 10
75.24776913951739
 20
181.4471550939918
 30
0.0
 10
81.12098355852098
 20
181.4471515433673
 30
0.0
 10
86.98375089680702
 20
181.4471433059293
 30
0.0
 10
91.27929817129612
 20
181.4472118113241
 30
0.0
 10
94.29062528167306
 20
181.4471711431053
 30
0.0
 10
96.30035477171478
 20
181.4473585502635
 30
0.0
 10
99.1466375911965
 20
181.4461079813755
 30
0.0
 10
102.8286886622434
 20
181.4528734840017
 30
0.0
 10
107.3454883984327
 20
181.3523596802304
 30
0.0
 10
112.692847512661
 20
181.0899692003508
 30
0.0
 10
118.8621980503867
 20
180.5896337411476
 30
0.0
 10
125.8387075359877
 20
179.7679619514308
 30
0.0
 10
133.5999508379637
 20
178.5297218646595
 30
0.0
 10
143.4159144371449
 20
176.4998379893149
 30
0.0
 10
154.6624516068993
 20
173.4455415521705
 30
0.0
 10
166.6789924971118
 20
169.2308978494151
 30
0.0
 10
177.655559957716
 20
164.5195950923259
 30
0.0
 10
190.2604782203702
 20
158.1318088790067
 30
0.0
 10
204.3009846874188
 20
149.469358049459
 30
0.0
 10
219.3221749187651
 20
137.8487309356035
 30
0.0
 10
232.825351233185
 20
124.9659785211093
 30
0.0
 10
244.733820885904
 20
111.025229872384
 30
0.0
 10
255.0065789044703
 20
96.23465275662642
 30
0.0
 10
263.6187587453609
 20
80.79085022398611
 30
0.0
 10
270.5761315288389
 20
64.88729148886415
 30
0.0
 10
275.8956088819418
 20
48.70327845358677
 30
0.0
 10
279.6220494664728
 20
32.41002657025249
 30
0.0
 10
281.8041058141874
 20
16.16298868284852
 30
0.0
 10
282.2840287661606
 20
5.352215686936849
 30
0.0
 10
282.2840287669347
 20
-0.0000000002144747
 30
0.0
  0
SPLINE
  5
8C
330
1B
100
AcDbEntity
 67
     1
  8
0
  6
Continuous
 62
     7
370
    25
100
AcDbSpline
210
0.0
220
0.0
230
1.0
 70
    11
 71
     3
 72
   150
 73
   146
 74
     0
 42
0.000000001
 43
0.00000001
 40
0.0
 40
0.0
 40
0.0
 40
0.0
 40
0.0103317134364739
 40
0.0208634356873182
 40
0.0315918562868385
 40
0.0425137694172637
 40
0.0536250785736611
 40
0.0649220137659042
 40
0.076399780370571
 40
0.0880540066474271
 40
0.0998792504929914
 40
0.1118705777765592
 40
0.1240219126154891
 40
0.1316303990193046
 40
0.1387407354723836
 40
0.1453554370008282
 40
0.1514773219980592
 40
0.1571089054046712
 40
0.162252601864608
 40
0.166910991998599
 40
0.1710865657557497
 40
0.1747815196995122
 40
0.1779978258776857
 40
0.1807372539574962
 40
0.1829997518748131
 40
0.1847809469857695
 40
0.1860867569305194
 40
0.1869224544519478
 40
0.1872913145322384
 40
0.1916503159014384
 40
0.19601427587409
 40
0.2003860904062355
 40
0.2047689778034079
 40
0.2091664891711756
 40
0.2135825189917758
 40
0.218021306629369
 40
0.222486668683545
 40
0.2269813481203815
 40
0.2315081807869525
 40
0.2360702350018404
 40
0.2406708182868212
 40
0.2453134841734434
 40
0.2500020390845015
 40
0.2655031093419862
 40
0.2790532212121824
 40
0.2906804727348489
 40
0.3003644436692912
 40
0.3080407789175357
 40
0.3136181195245705
 40
0.3170089120322385
 40
0.3181516551863511
 40
0.3191660532152019
 40
0.3215257158749025
 40
0.3252345205481071
 40
0.3302983456995143
 40
0.3367248987400498
 40
0.3445237995705543
 40
0.353705916603678
 40
0.3642823658124877
 40
0.3763065791599083
 40
0.3879135843542156
 40
0.3990959674967526
 40
0.4098461883174127
 40
0.4217942572391917
 40
0.4335574473230822
 40
0.445131011573321
 40
0.4565097927912151
 40
0.4676896811601484
 40
0.4786663261795573
 40
0.489436245481594
 40
0.4999959157608474
 40
0.5103320395298617
 40
0.5208672856394418
 40
0.531598335601328
 40
0.5425219866808259
 40
0.5536341565123649
 40
0.5649310763982865
 40
0.5764079425848256
 40
0.5880603924685208
 40
0.5998830044394129
 40
0.6118708519900952
 40
0.6240178625412022
 40
0.6316276191836685
 40
0.6387390413292994
 40
0.6453546480489994
 40
0.6514772680235852
 40
0.6571094231224976
 40
0.662253531492741
 40
0.6669121717843283
 40
0.6710878296357277
 40
0.6747826995566082
 40
0.6779987531744958
 40
0.6807377606887145
 40
0.6829996599441677
 40
0.6847800909852263
 40
0.6860849833838957
 40
0.6869196076220263
 40
0.6872872354547382
 40
0.6916823773162912
 40
0.6960286942529432
 40
0.7003307463569426
 40
0.7045930937205386
 40
0.7088202964359791
 40
0.7130169145955131
 40
0.717187507875566
 40
0.7213362150740231
 40
0.7254659620075454
 40
0.7295794572856013
 40
0.7336794095176588
 40
0.7377685273131864
 40
0.7418495192816522
 40
0.7459250940325245
 40
0.7499979601752715
 40
0.7655481326169605
 40
0.7795641160207327
 40
0.7920961225518695
 40
0.803156381553236
 40
0.8127086847258032
 40
0.8130778002530922
 40
0.8139137202639134
 40
0.8152197204091914
 40
0.8170010739004046
 40
0.8192636959429531
 40
0.8220032116322104
 40
0.8252195711559943
 40
0.8289145440619219
 40
0.8330901022492851
 40
0.8377484421126191
 40
0.8428920534045758
 40
0.8485235164382597
 40
0.8546452455887102
 40
0.8612597555501006
 40
0.868369864437508
 40
0.8759780869677523
 40
0.8881291036795647
 40
0.9001201746974867
 40
0.9119452250016702
 40
0.9235993211995748
 40
0.9350770217504076
 40
0.9463739553768089
 40
0.9574853277572756
 40
0.9684073690851467
 40
0.9791359829400417
 40
0.9896679634392368
 40
1.0
 40
1.0
 40
1.0
 40
1.0
 10
272.3542477277813
 20
-0.0000000002028404
 30
0.0
 10
272.3542477211199
 20
5.100133094548514
 30
0.0
 10
271.8927686839053
 20
15.39913117745645
 30
0.0
 10
269.7972874031133
 20
30.86930166268826
 30
0.0
 10
266.2223605741106
 20
46.36626132445939
 30
0.0
 10
261.1284247435967
 20
61.73525709781364
 30
0.0
 10
254.4806877650241
 20
76.80737675874646
 30
0.0
 10
246.274255955899
 20
91.4077212025542
 30
0.0
 10
236.517315269327
 20
105.3507853210504
 30
0.0
 10
225.2487273796125
 20
118.4508168611012
 30
0.0
 10
212.5250126316304
 20
130.5162046918777
 30
0.0
 10
198.4361572878375
 20
141.3630526881745
 30
0.0
 10
185.0654314594493
 20
149.590674048601
 30
0.0
 10
173.2141177157217
 20
155.5569546942355
 30
0.0
 10
163.523093724388
 20
159.6872716858219
 30
0.0
 10
154.2960284887707
 20
162.9870010261914
 30
0.0
 10
145.602407747309
 20
165.5674958057588
 30
0.0
 10
137.4956127886418
 20
167.5330954936534
 30
0.0
 10
130.0158096836501
 20
168.981308342118
 30
0.0
 10
123.1925385660015
 20
170.0044089873627
 30
0.0
 10
117.0463223464446
 20
170.6877354883
 30
0.0
 10
111.5904031525459
 20
171.1077861246594
 30
0.0
 10
106.8326540887635
 20
171.3310074266736
 30
0.0
 10
102.7776220006849
 20
171.4189211879306
 30
0.0
 10
99.43020694801191
 20
171.4131485007912
 30
0.0
 10
96.79035564210733
 20
171.4134814372674
 30
0.0
 10
94.85458130544497
 20
171.4128976572483
 30
0.0
 10
93.61576787267028
 20
171.4126413622718
 30
0.0
 10
90.87026748875289
 20
171.4122045549112
 30
0.0
 10
86.38364235119332
 20
171.4126602146306
 30
0.0
 10
79.9216428413202
 20
171.4124842824161
 30
0.0
 10
73.44785592480719
 20
171.4125315466898
 30
0.0
 10
66.95751213230282
 20
171.4125188352687
 30
0.0
 10
60.44534900353861
 20
171.4125222579674
 30
0.0
 10
53.90560027129682
 20
171.4125213351526
 30
0.0
 10
47.33236863528596
 20
171.4125215842696
 30
0.0
 10
40.72032504915808
 20
171.4125215170075
 30
0.0
 10
34.06483307180675
 20
171.4125215349348
 30
0.0
 10
27.36162552358646
 20
171.4125215311674
 30
0.0
 10
20.60615662825426
 20
171.4125215281855
 30
0.0
 10
13.79352644725059
 20
171.4125215442711
 30
0.0
 10
6.918470802833778
 20
171.4125214822849
 30
0.0
 10
-5.335748518956879
 20
171.4125218976446
 30
0.0
 10
-21.9856072339708
 20
171.4125167186958
 30
0.0
 10
-42.05956843930296
 20
171.4125361163815
 30
0.0
 10
-59.26291213340454
 20
171.4124805723827
 30
0.0
 10
-73.56766903397843
 20
171.4126398631658
 30
0.0
 10
-84.88692111229156
 20
171.4122234879364
 30
0.0
 10
-93.10061946565952
 20
171.4131892507289
 30
0.0
 10
-98.0901279472736
 20
171.4114703272136
 30
0.0
 10
-100.827916246704
 20
171.4136736627214
 30
0.0
 10
-103.0568702964852
 20
171.4065391862216
 30
0.0
 10
-106.5517460783808
 20
171.339703628572
 30
0.0
 10
-112.0406850328377
 20
171.0934430063398
 30
0.0
 10
-119.5178393625224
 20
170.4726477592599
 30
0.0
 10
-128.9583463657927
 20
169.2163856750361
 30
0.0
 10
-140.3017382923389
 20
166.989427242235
 30
0.0
 10
-153.431801549984
 20
163.3945974347873
 30
0.0
 10
-168.1723774307902
 20
157.9734820704069
 30
0.0
 10
-183.3987753880154
 20
150.613608086346
 30
0.0
 10
-198.050003213131
 20
141.5875374472454
 30
0.0
 10
-211.2387216465353
 20
131.5447710953557
 30
0.0
 10
-223.5423992640131
 20
120.1895332625613
 30
0.0
 10
-234.8680820723182
 20
107.4621820488495
 30
0.0
 10
-245.0728504373755
 20
93.31681963164384
 30
0.0
 10
-253.6579485339369
 20
78.45875422799281
 30
0.0
 10
-260.6139148740082
 20
63.08881226098756
 30
0.0
 10
-265.9427306201655
 20
47.39406006132886
 30
0.0
 10
-269.681637054919
 20
31.55650054131795
 30
0.0
 10
-271.8720247775318
 20
15.74201291188551
 30
0.0
 10
-272.587900933312
 20
0.1102897053809482
 30
0.0
 10
-271.8923695063603
 20
-15.40521269297122
 30
0.0
 10
-269.7953501213235
 20
-30.88047789142066
 30
0.0
 10
-266.2183187312396
 20
-46.38095879889829
 30
0.0
 10
-261.1220785063682
 20
-61.75192280121485
 30
0.0
 10
-254.472164627446
 20
-76.82448220541548
 30
0.0
 10
-246.2640846636336
 20
-91.42386921233508
 30
0.0
 10
-236.5063649689552
 20
-105.3647586795629
 30
0.0
 10
-225.2382066809926
 20
-118.461685821331
 30
0.0
 10
-212.5163857521727
 20
-130.5233824047623
 30
0.0
 10
-198.4310828023395
 20
-141.3663591317436
 30
0.0
 10
-185.0629762214658
 20
-149.5920287866102
 30
0.0
 10
-173.2124890497737
 20
-155.5577999666899
 30
0.0
 10
-163.5199092203605
 20
-159.688578911847
 30
0.0
 10
-154.2914856023558
 20
-162.9885115139759
 30
0.0
 10
-145.5967285786396
 20
-165.5690191113072
 30
0.0
 10
-137.4890313878648
 20
-167.5345003977835
 30
0.0
 10
-130.0085693658176
 20
-168.9825150365582
 30
0.0
 10
-123.184889979278
 20
-170.0053768494875
 30
0.0
 10
-117.0385211986418
 20
-170.6884498246536
 30
0.0
 10
-111.5827080163093
 20
-171.1082511861655
 30
0.0
 10
-106.8253228177394
 20
-171.3312599428845
 30
0.0
 10
-102.7709147097627
 20
-171.4189740231393
 30
0.0
 10
-99.42438020058077
 20
-171.4131391331903
 30
0.0
 10
-96.78565406309023
 20
-171.4134833551992
 30
0.0
 10
-94.85123923090802
 20
-171.4128976077852
 30
0.0
 10
-93.61401631728646
 20
-171.4126415746917
 30
0.0
 10
-90.85181908916263
 20
-171.4122004811479
 30
0.0
 10
-86.35667392419109
 20
-171.4126603529647
 30
0.0
 10
-79.91997261283126
 20
-171.4124849176537
 30
0.0
 10
-73.54880247618001
 20
-171.4125312020815
 30
0.0
 10
-67.23641277038396
 20
-171.4125189733204
 30
0.0
 10
-60.97605251360635
 20
-171.4125222090407
 30
0.0
 10
-54.76097099205402
 20
-171.412521351537
 30
0.0
 10
-48.5846253753231
 20
-171.4125215791352
 30
0.0
 10
-42.44127931843457
 20
-171.4125215185955
 30
0.0
 10
-36.32610993829692
 20
-171.4125215348693
 30
0.0
 10
-30.23500012037637
 20
-171.4125215299396
 30
0.0
 10
-24.16393993729222
 20
-171.4125215335054
 30
0.0
 10
-18.10891946167478
 20
-171.4125215242474
 30
0.0
 10
-12.06592876619265
 20
-171.4125215577199
 30
0.0
 10
-6.030957923348666
 20
-171.4125214334097
 30
0.0
 10
5.663815014861761
 20
-171.4125223322902
 30
0.0
 10
22.26397295145592
 20
-171.4125090633025
 30
0.0
 10
43.03854074459874
 20
-171.4125597515647
 30
0.0
 10
61.59742974791455
 20
-171.4124017039712
 30
0.0
 10
77.95358493709263
 20
-171.4128898296381
 30
0.0
 10
88.30760734250346
 20
-171.4118182257162
 30
0.0
 10
93.61612978376772
 20
-171.412640039213
 30
0.0
 10
94.85527292635997
 20
-171.4128984119273
 30
0.0
 10
96.79132907890292
 20
-171.4134807629941
 30
0.0
 10
99.43141363368578
 20
-171.4131506413469
 30
0.0
 10
102.77901144061
 20
-171.4189103062694
 30
0.0
 10
106.8341735786445
 20
-171.3309543785232
 30
0.0
 10
111.5919994518015
 20
-171.1076871340533
 30
0.0
 10
117.0479425862149
 20
-170.6875820489901
 30
0.0
 10
123.1941293021311
 20
-170.0041998265796
 30
0.0
 10
130.0173172188402
 20
-168.9810471758584
 30
0.0
 10
137.4969836856863
 20
-167.5327933959889
 30
0.0
 10
145.6035898755521
 20
-165.5671729112509
 30
0.0
 10
154.2969720976976
 20
-162.9866869356382
 30
0.0
 10
163.5237530079732
 20
-159.6870065284795
 30
0.0
 10
173.2144528550265
 20
-155.556790312762
 30
0.0
 10
185.0654022414369
 20
-149.5906763255277
 30
0.0
 10
198.4357851363984
 20
-141.3632915909309
 30
0.0
 10
212.5243803942925
 20
-130.5167302769298
 30
0.0
 10
225.2479567358553
 20
-118.4516145414505
 30
0.0
 10
236.5165126359137
 20
-105.3518104320803
 30
0.0
 10
246.2735098010467
 20
-91.40890549344265
 30
0.0
 10
254.4800619081591
 20
-76.8086311658298
 30
0.0
 10
261.1279590263168
 20
-61.73647927007478
 30
0.0
 10
266.2220658755627
 20
-46.36733929923584
 30
0.0
 10
269.7971483114215
 20
-30.87012067788375
 30
0.0
 10
271.8927414315756
 20
-15.3995780487792
 30
0.0
 10
272.354247734443
 20
-5.10029260159282
 30
0.0
 10
272.3542477277814
 20
-0.0000000002027942
 30
0.0
  0
SPLINE
  5
8D
330
1B
100
AcDbEntity
 67
     1
  8
0
  6
Continuous
 62
     7
370
    25
100
AcDbSpline
210
0.0
220
0.0
230
1.0
 70
     8
 71
     3
 72
    21
 73
    17
 74
     0
 42
0.000000001
 43
0.00000001
 40
0.0
 40
0.0
 40
0.0
 40
0.0
 40
0.0625000000000001
 40
0.0625000000000001
 40
0.1250000000000002
 40
0.1250000000000002
 40
0.2500000000000002
 40
0.2500000000000002
 40
0.5000000000000001
 40
0.75
 40
0.75
 40
0.8749999999999999
 40
0.8749999999999999
 40
0.9375
 40
0.9375
 40
1.0
 40
1.0
 40
1.0
 40
1.0
 10
97.37446583557107
 20
-143.6588120506404
 30
0.0
 10
93.31719642574761
 20
-143.6537287554298
 30
0.0
 10
89.25992701592413
 20
-143.6501755368574
 30
0.0
 10
81.14538819627718
 20
-143.6469902767924
 30
0.0
 10
77.08811878645378
 20
-143.6470496390171
 30
0.0
 10
64.91631055698333
 20
-143.6453433522942
 30
0.0
 10
56.80177173733632
 20
-143.6442261422796
 30
0.0
 10
32.45815527839548
 20
-143.6412762494862
 30
0.0
 10
-0.0000000001921842
 20
-143.6385961318933
 30
0.0
 10
-32.4581552787801
 20
-143.6412762494861
 30
0.0
 10
-56.80177173772095
 20
-143.6442261422796
 30
0.0
 10
-64.91631055736799
 20
-143.6453433522941
 30
0.0
 10
-77.08811878683842
 20
-143.647049639021
 30
0.0
 10
-81.14538819666176
 20
-143.6469902767984
 30
0.0
 10
-89.25992701630868
 20
-143.6501755368701
 30
0.0
 10
-93.31719642613223
 20
-143.6537287554471
 30
0.0
 10
-97.37446583595572
 20
-143.658812050664
 30
0.0
  0
SPLINE
  5
8E
330
1B
100
AcDbEntity
 67
     1
  8
0
  6
Continuous
 62
     7
370
    25
100
AcDbSpline
210
0.0
220
0.0
230
1.0
 70
     8
 71
     3
 72
   115
 73
   111
 74
     0
 42
0.000000001
 43
0.00000001
 40
0.0
 40
0.0
 40
0.0
 40
0.0
 40
0.001953125
 40
0.001953125
 40
0.00390625
 40
0.0078125
 40
0.0156249999999999
 40
0.0156249999999999
 40
0.0312499999999998
 40
0.0312499999999998
 40
0.0624999999999997
 40
0.0624999999999997
 40
0.0937499999999995
 40
0.0937499999999995
 40
0.1015624999999996
 40
0.1015624999999996
 40
0.1093749999999996
 40
0.1093749999999996
 40
0.1249999999999997
 40
0.1249999999999997
 40
0.1562499999999998
 40
0.1562499999999998
 40
0.1874999999999999
 40
0.1874999999999999
 40
0.2031249999999999
 40
0.2031249999999999
 40
0.2109374999999998
 40
0.2109374999999998
 40
0.2187499999999997
 40
0.2187499999999997
 40
0.2499999999999996
 40
0.2499999999999996
 40
0.2812499999999994
 40
0.2812499999999994
 40
0.3124999999999992
 40
0.3124999999999992
 40
0.3203124999999992
 40
0.3203124999999992
 40
0.3281249999999992
 40
0.3281249999999992
 40
0.3437499999999991
 40
0.3437499999999991
 40
0.3749999999999988
 40
0.3749999999999988
 40
0.4062499999999987
 40
0.4062499999999987
 40
0.4218749999999986
 40
0.4218749999999986
 40
0.4374999999999985
 40
0.4374999999999985
 40
0.4687499999999984
 40
0.4687499999999984
 40
0.4999999999999983
 40
0.4999999999999983
 40
0.5312499999999982
 40
0.5312499999999982
 40
0.5390624999999982
 40
0.5390624999999982
 40
0.5468749999999982
 40
0.5468749999999982
 40
0.5624999999999982
 40
0.5624999999999982
 40
0.5937499999999982
 40
0.5937499999999982
 40
0.6249999999999982
 40
0.6249999999999982
 40
0.6406249999999983
 40
0.6406249999999983
 40
0.6484374999999983
 40
0.6484374999999983
 40
0.6562499999999983
 40
0.6562499999999983
 40
0.6874999999999983
 40
0.6874999999999983
 40
0.7187499999999983
 40
0.7187499999999983
 40
0.7499999999999983
 40
0.7499999999999983
 40
0.7656249999999983
 40
0.7656249999999983
 40
0.7812499999999983
 40
0.7812499999999983
 40
0.8124999999999982
 40
0.8124999999999982
 40
0.8437499999999981
 40
0.8437499999999981
 40
0.8515624999999982
 40
0.8515624999999982
 40
0.8593749999999983
 40
0.8593749999999983
 40
0.8749999999999984
 40
0.8749999999999984
 40
0.9062499999999989
 40
0.9062499999999989
 40
0.9374999999999993
 40
0.9374999999999993
 40
0.9531249999999997
 40
0.9531249999999997
 40
0.9609374999999998
 40
0.9609374999999998
 40
0.9687499999999999
 40
0.9687499999999999
 40
0.9843749999999999
 40
0.9843749999999999
 40
0.9921874999999999
 40
0.9921874999999999
 40
0.99609375
 40
0.998046875
 40
0.998046875
 40
1.0
 40
1.0
 40
1.0
 40
1.0
 10
97.37446582270735
 20
143.6588120506243
 30
0.0
 10
97.671653146801
 20
143.6591843924009
 30
0.0
 10
97.96892955888856
 20
143.660077150692
 30
0.0
 10
98.56300930299902
 20
143.6591060965953
 30
0.0
 10
99.45366658381357
 20
143.6548747937652
 30
0.0
 10
101.5286418995137
 20
143.6256467756929
 30
0.0
 10
103.3017008199962
 20
143.5676376996868
 30
0.0
 10
106.8405794480321
 20
143.4081732321022
 30
0.0
 10
109.1901853883012
 20
143.2439699997731
 30
0.0
 10
116.210508744873
 20
142.5803500031458
 30
0.0
 10
120.8528192147665
 20
141.9104483728985
 30
0.0
 10
130.0618466020399
 20
140.1169643389025
 30
0.0
 10
134.6285262819293
 20
138.993156647405
 30
0.0
 10
140.2887438562676
 20
137.299525675358
 30
0.0
 10
141.4183738927784
 20
136.9463146485748
 30
0.0
 10
143.6727571893947
 20
136.2106238944966
 30
0.0
 10
144.798932280807
 20
135.8276342362361
 30
0.0
 10
148.159344260848
 20
134.6380298572298
 30
0.0
 10
150.370723558036
 20
133.7926842221869
 30
0.0
 10
156.919742274255
 20
131.1026534233393
 30
0.0
 10
161.1724010157826
 20
129.1042245724882
 30
0.0
 10
169.4564409733601
 20
124.7070404301836
 30
0.0
 10
173.4878292680997
 20
122.3082980152894
 30
0.0
 10
179.366820385158
 20
118.4060789736352
 30
0.0
 10
181.2983746465649
 20
117.0544845160838
 30
0.0
 10
184.1529979248191
 20
114.9498266212069
 30
0.0
 10
185.0974183683217
 20
114.2353915323589
 30
0.0
 10
186.9718803805819
 20
112.7805075423146
 30
0.0
 10
187.9031765676998
 20
112.0390098144721
 30
0.0
 10
192.5018808532455
 20
108.2834140005199
 30
0.0
 10
196.0034424716383
 20
105.1210392421483
 30
0.0
 10
202.6619275602037
 20
98.48954027195003
 30
0.0
 10
205.8186260681509
 20
95.02021575993206
 30
0.0
 10
211.7896583287712
 20
87.77684104508795
 30
0.0
 10
214.6040394492478
 20
84.00283295898353
 30
0.0
 10
217.9017231081973
 20
79.08924799808712
 30
0.0
 10
218.5502046523699
 20
78.09669116397068
 30
0.0
 10
219.8248362392347
 20
76.09170101725951
 30
0.0
 10
220.4507370506544
 20
75.07956942982327
 30
0.0
 10
222.2845494838433
 20
72.03038550230183
 30
0.0
 10
223.4521952430705
 20
69.97499278810373
 30
0.0
 10
226.793733441231
 20
63.74235841071016
 30
0.0
 10
228.8067236600639
 20
59.49886510797663
 30
0.0
 10
232.4083114399342
 20
50.83713383003544
 30
0.0
 10
233.996736594615
 20
46.41882487692018
 30
0.0
 10
236.057977731506
 20
39.65902596633462
 30
0.0
 10
236.6913718921149
 20
37.38365428154133
 30
0.0
 10
237.8487733081868
 20
32.787870639967
 30
0.0
 10
238.3734905406707
 20
30.46260929638422
 30
0.0
 10
239.7654715022932
 20
23.49213328151739
 30
0.0
 10
240.4570249823439
 20
18.83241710461275
 30
0.0
 10
241.3823006361971
 20
9.48833020064599
 30
0.0
 10
241.6159876792602
 20
4.803957581367302
 30
0.0
 10
241.623014044711
 20
-4.589577792929187
 30
0.0
 10
241.3963528342749
 20
-9.29874057784313
 30
0.0
 10
240.8177019420289
 20
-15.20109749345944
 30
0.0
 10
240.6869445729998
 20
-16.38402093622305
 30
0.0
 10
240.3966708369477
 20
-18.74184049720141
 30
0.0
 10
240.2372268300882
 20
-19.91658952939234
 30
0.0
 10
239.7164103425062
 20
-23.42848144729539
 30
0.0
 10
239.3125862444934
 20
-25.75327870913235
 30
0.0
 10
237.9335163183183
 20
-32.67893026334723
 30
0.0
 10
236.7912715613604
 20
-37.23121844675687
 30
0.0
 10
234.0677051127281
 20
-46.20810424521568
 30
0.0
 10
232.4863847289223
 20
-50.63270224774743
 30
0.0
 10
229.77764407997
 20
-57.17166385557505
 30
0.0
 10
228.8185046560457
 20
-59.33496630503868
 30
0.0
 10
227.2940088174567
 20
-62.55497182571716
 30
0.0
 10
226.7713240204869
 20
-63.62446012227892
 30
0.0
 10
225.7031666965229
 20
-65.74319525129876
 30
0.0
 10
225.1570040664545
 20
-66.7939398992927
 30
0.0
 10
222.3664082781533
 20
-72.00500327746524
 30
0.0
 10
219.943179658653
 20
-76.03773671377854
 30
0.0
 10
214.7222950343282
 20
-83.83601829305078
 30
0.0
 10
211.9247993927937
 20
-87.60168087132614
 30
0.0
 10
205.9549773561239
 20
-94.8655338216942
 30
0.0
 10
202.7826770967765
 20
-98.36374288582793
 30
0.0
 10
197.7317815002251
 20
-103.4023728503225
 30
0.0
 10
196.0117550273914
 20
-105.034611011934
 30
0.0
 10
192.5059153279353
 20
-108.2015492906929
 30
0.0
 10
190.7192281124924
 20
-109.737117571532
 30
0.0
 10
185.2593581875853
 20
-114.2022391124412
 30
0.0
 10
181.4866557951106
 20
-116.9906185596944
 30
0.0
 10
173.6761597191569
 20
-122.1913314552841
 30
0.0
 10
169.6385229265815
 20
-124.6038876513573
 30
0.0
 10
164.422841287598
 20
-127.3803655793088
 30
0.0
 10
163.3712481474906
 20
-127.9236647864328
 30
0.0
 10
161.2509661550423
 20
-128.9860121559871
 30
0.0
 10
160.180888590132
 20
-129.5057060432682
 30
0.0
 10
156.9552680868653
 20
-131.0229913484292
 30
0.0
 10
154.7885334258608
 20
-131.9770405968871
 30
0.0
 10
148.2402240648636
 20
-134.6697856413316
 30
0.0
 10
143.8107529445851
 20
-136.2398152602116
 30
0.0
 10
134.8267565470974
 20
-138.939501879107
 30
0.0
 10
130.2722231610931
 20
-140.0691300808273
 30
0.0
 10
123.3452048578304
 20
-141.4282658380503
 30
0.0
 10
121.0203054368136
 20
-141.8253438011702
 30
0.0
 10
117.5088026651967
 20
-142.3359056543574
 30
0.0
 10
116.3342737090016
 20
-142.4919085472274
 30
0.0
 10
113.9770773706916
 20
-142.775255564685
 30
0.0
 10
112.7936595858135
 20
-142.9026480910787
 30
0.0
 10
109.243825220305
 20
-143.2402140866571
 30
0.0
 10
106.8742187979878
 20
-143.4063202293923
 30
0.0
 10
103.3152401758751
 20
-143.5671940527688
 30
0.0
 10
102.1281520154276
 20
-143.6060956425316
 30
0.0
 10
100.346373587053
 20
-143.6423005200872
 30
0.0
 10
99.4551977842129
 20
-143.6548652748693
 30
0.0
 10
98.56359110905291
 20
-143.6591043731819
 30
0.0
 10
97.96909077332795
 20
-143.660077658635
 30
0.0
 10
97.67176392354558
 20
-143.6591845311918
 30
0.0
 10
97.37446583557097
 20
-143.6588120506404
 30
0.0
  0
SPLINE
  5
8F
330
1B
100
AcDbEntity
 67
     1
  8
0
  6
Continuous
 62
     7
370
    25
100
AcDbSpline
210
0.0
220
0.0
230
1.0
 70
     8
 71
     3
 72
    21
 73
    17
 74
     0
 42
0.000000001
 43
0.00000001
 40
0.0
 40
0.0
 40
0.0
 40
0.0
 40
0.0625
 40
0.0625
 40
0.125
 40
0.125
 40
0.2499999999999999
 40
0.2499999999999999
 40
0.5
 40
0.75
 40
0.75
 40
0.875
 40
0.875
 40
0.9375
 40
0.9375
 40
1.0
 40
1.0
 40
1.0
 40
1.0
 10
-97.37446581820369
 20
143.6588120506186
 30
0.0
 10
-93.31719640901807
 20
143.6537287554132
 30
0.0
 10
-89.25992699983226
 20
143.6501755368461
 30
0.0
 10
-81.14538818146096
 20
143.6469902767916
 30
0.0
 10
-77.08811877227532
 20
143.6470496390151
 30
0.0
 10
-64.9163105447184
 20
143.6453433522925
 30
0.0
 10
-56.80177172634708
 20
143.644226142278
 30
0.0
 10
-32.45815527123321
 20
143.6412762494855
 30
0.0
 10
0.0000000022519347
 20
143.6385961318941
 30
0.0
 10
32.45815527573711
 20
143.6412762494859
 30
0.0
 10
56.80177173085096
 20
143.6442261422786
 30
0.0
 10
64.91631054922223
 20
143.645343352293
 30
0.0
 10
77.08811877677917
 20
143.6470496390157
 30
0.0
 10
81.14538818596478
 20
143.6469902767919
 30
0.0
 10
89.25992700433609
 20
143.6501755368492
 30
0.0
 10
93.31719641352174
 20
143.6537287554177
 30
0.0
 10
97.3744658227074
 20
143.6588120506243
 30
0.0
  0
SPLINE
  5
90
330
1B
100
AcDbEntity
 67
     1
  8
0
  6
Continuous
 62
     7
370
    25
100
AcDbSpline
210
0.0
220
0.0
230
1.0
 70
     8
 71
     3
 72
   115
 73
   111
 74
     0
 42
0.000000001
 43
0.00000001
 40
0.0
 40
0.0
 40
0.0
 40
0.0
 40
0.0019531250000001
 40
0.0019531250000001
 40
0.0039062500000001
 40
0.0078125000000003
 40
0.0156250000000004
 40
0.0156250000000004
 40
0.0312500000000007
 40
0.0312500000000007
 40
0.0625000000000012
 40
0.0625000000000012
 40
0.0937500000000017
 40
0.0937500000000017
 40
0.1015625000000018
 40
0.1015625000000018
 40
0.109375000000002
 40
0.109375000000002
 40
0.1250000000000022
 40
0.1250000000000022
 40
0.1562500000000027
 40
0.1562500000000027
 40
0.1875000000000032
 40
0.1875000000000032
 40
0.2031250000000034
 40
0.2031250000000034
 40
0.2109375000000034
 40
0.2109375000000034
 40
0.2187500000000034
 40
0.2187500000000034
 40
0.2500000000000036
 40
0.2500000000000036
 40
0.2812500000000039
 40
0.2812500000000039
 40
0.3125000000000042
 40
0.3125000000000042
 40
0.3203125000000041
 40
0.3203125000000041
 40
0.3281250000000041
 40
0.3281250000000041
 40
0.3437500000000039
 40
0.3437500000000039
 40
0.3750000000000036
 40
0.3750000000000036
 40
0.4062500000000032
 40
0.4062500000000032
 40
0.421875000000003
 40
0.421875000000003
 40
0.4375000000000028
 40
0.4375000000000028
 40
0.4687500000000024
 40
0.4687500000000024
 40
0.5000000000000021
 40
0.5000000000000021
 40
0.5312500000000018
 40
0.5312500000000018
 40
0.5390625000000017
 40
0.5390625000000017
 40
0.5468750000000017
 40
0.5468750000000017
 40
0.5625000000000014
 40
0.5625000000000014
 40
0.5937500000000013
 40
0.5937500000000013
 40
0.6250000000000012
 40
0.6250000000000012
 40
0.6406250000000011
 40
0.6406250000000011
 40
0.648437500000001
 40
0.648437500000001
 40
0.656250000000001
 40
0.656250000000001
 40
0.6875000000000009
 40
0.6875000000000009
 40
0.7187500000000009
 40
0.7187500000000009
 40
0.7500000000000009
 40
0.7500000000000009
 40
0.7656250000000008
 40
0.7656250000000008
 40
0.7812500000000007
 40
0.7812500000000007
 40
0.8125000000000002
 40
0.8125000000000002
 40
0.8437499999999999
 40
0.8437499999999999
 40
0.8515624999999999
 40
0.8515624999999999
 40
0.8593749999999998
 40
0.8593749999999998
 40
0.8749999999999998
 40
0.8749999999999998
 40
0.9062499999999997
 40
0.9062499999999997
 40
0.9374999999999994
 40
0.9374999999999994
 40
0.9531249999999996
 40
0.9531249999999996
 40
0.9609374999999997
 40
0.9609374999999997
 40
0.9687499999999997
 40
0.9687499999999997
 40
0.9843749999999998
 40
0.9843749999999998
 40
0.9921874999999999
 40
0.9921874999999999
 40
0.9960937499999999
 40
0.9980468749999999
 40
0.9980468749999999
 40
1.0
 40
1.0
 40
1.0
 40
1.0
 10
-97.37446583595573
 20
-143.658812050664
 30
0.0
 10
-97.6716531658394
 20
-143.6591843924485
 30
0.0
 10
-97.96892958437904
 20
-143.6600771551905
 30
0.0
 10
-98.56300933761993
 20
-143.6591060849701
 30
0.0
 10
-99.45366662972555
 20
-143.6548747402953
 30
0.0
 10
-101.5286419565939
 20
-143.6256465112691
 30
0.0
 10
-103.3017008661578
 20
-143.5676370946275
 30
0.0
 10
-106.8405794585017
 20
-143.4081718165732
 30
0.0
 10
-109.190185356885
 20
-143.2439678740604
 30
0.0
 10
-116.2105086259834
 20
-142.5803458130931
 30
0.0
 10
-120.8528190932845
 20
-141.9104429252675
 30
0.0
 10
-130.0618469469253
 20
-140.1169588495972
 30
0.0
 10
-134.6285271014322
 20
-138.9931524113011
 30
0.0
 10
-140.2887453504432
 20
-137.2995232291534
 30
0.0
 10
-141.4183755262042
 20
-136.9463125729704
 30
0.0
 10
-143.6727591055277
 20
-136.2106225576145
 30
0.0
 10
-144.7989343819025
 20
-135.8276332524945
 30
0.0
 10
-148.159346411138
 20
-134.6380300717591
 30
0.0
 10
-150.3707257361302
 20
-133.7926851874039
 30
0.0
 10
-156.9197444149757
 20
-131.1026563038254
 30
0.0
 10
-161.1724029646096
 20
-129.1042282698415
 30
0.0
 10
-169.4564423371292
 20
-124.7070450920928
 30
0.0
 10
-173.4878302394451
 20
-122.3083028262975
 30
0.0
 10
-179.3668205856298
 20
-118.4060834465774
 30
0.0
 10
-181.2983745533753
 20
-117.0544887709671
 30
0.0
 10
-184.152997375118
 20
-114.9498304619521
 30
0.0
 10
-185.0974176640059
 20
-114.2353952209615
 30
0.0
 10
-186.9718793693188
 20
-112.7805109114325
 30
0.0
 10
-187.9031753901212
 20
-112.0390130262458
 30
0.0
 10
-192.5018786360431
 20
-108.2834166259361
 30
0.0
 10
-196.0034396487039
 20
-105.1210413303519
 30
0.0
 10
-202.6619244871838
 20
-98.48954162456333
 30
0.0
 10
-205.8186233703051
 20
-95.02021693141296
 30
0.0
 10
-211.7896567983146
 20
-87.77684170772422
 30
0.0
 10
-214.6040387093567
 20
-84.00283329247996
 30
0.0
 10
-217.9017233897845
 20
-79.08924761481833
 30
0.0
 10
-218.5502051404579
 20
-78.09669062250799
 30
0.0
 10
-219.8248371417109
 20
-76.0917001266829
 30
0.0
 10
-220.4507377968787
 20
-75.07956893284954
 30
0.0
 10
-222.2845499220535
 20
-72.03038598047554
 30
0.0
 10
-223.4521955269203
 20
-69.97499386668868
 30
0.0
 10
-226.7937333261346
 20
-63.74236110889885
 30
0.0
 10
-228.8067233731454
 20
-59.49886864795352
 30
0.0
 10
-232.4083103289535
 20
-50.83713830677463
 30
0.0
 10
-233.9967347742237
 20
-46.41882942466191
 30
0.0
 10
-236.0579748974351
 20
-39.65903022762819
 30
0.0
 10
-236.6913687315402
 20
-37.38365838294646
 30
0.0
 10
-237.8487696362895
 20
-32.78787433968424
 30
0.0
 10
-238.3734866030244
 20
-30.46261308276894
 30
0.0
 10
-239.7654671446045
 20
-23.49213803768427
 30
0.0
 10
-240.4570211012476
 20
-18.83242230458063
 30
0.0
 10
-241.3822979575468
 20
-9.48833582968905
 30
0.0
 10
-241.6159857298986
 20
-4.803963195832805
 30
0.0
 10
-241.623012461436
 20
4.589572741579037
 30
0.0
 10
-241.39635087217
 20
9.298736075878983
 30
0.0
 10
-240.8176994739047
 20
15.20109398441678
 30
0.0
 10
-240.6869419956138
 20
16.3840176600564
 30
0.0
 10
-240.3966681955509
 20
18.74183670119457
 30
0.0
 10
-240.2372241745343
 20
19.91658549921847
 30
0.0
 10
-239.7164077180688
 20
23.4284767971485
 30
0.0
 10
-239.312583739647
 20
25.75327375587419
 30
0.0
 10
-237.9335146092759
 20
32.67892476949812
 30
0.0
 10
-236.7912709235141
 20
37.23121307098667
 30
0.0
 10
-234.0677063610528
 20
46.20809966081193
 30
0.0
 10
-232.4863867955405
 20
50.63269833759196
 30
0.0
 10
-229.7776464035367
 20
57.17166115583208
 30
0.0
 10
-228.8185069126381
 20
59.33496404476085
 30
0.0
 10
-227.2940107833972
 20
62.55497029212323
 30
0.0
 10
-226.7713260440177
 20
63.62445845539964
 30
0.0
 10
-225.703168866663
 20
65.7431932315419
 30
0.0
 10
-225.1570062954578
 20
66.7939377132339
 30
0.0
 10
-222.3664107406769
 20
72.00500031775907
 30
0.0
 10
-219.9431821255335
 20
76.03773332808773
 30
0.0
 10
-214.7222972383282
 20
83.83601449740014
 30
0.0
 10
-211.9248013068143
 20
87.60167707503936
 30
0.0
 10
-205.9549785525459
 20
94.86553056437644
 30
0.0
 10
-202.7826778667154
 20
98.36374016889853
 30
0.0
 10
-197.7317818647361
 20
103.4023716123643
 30
0.0
 10
-196.0117564938292
 20
105.0346092286147
 30
0.0
 10
-192.5059178618035
 20
108.2015477732979
 30
0.0
 10
-190.7192311814872
 20
109.7371162954872
 30
0.0
 10
-185.2593627554525
 20
114.2022387219865
 30
0.0
 10
-181.4866612216176
 20
116.9906189760972
 30
0.0
 10
-173.6761659480102
 20
122.1913330073571
 30
0.0
 10
-169.6385291270766
 20
124.6038895719139
 30
0.0
 10
-164.4228468635065
 20
127.3803676471451
 30
0.0
 10
-163.3712535684203
 20
127.9236668672709
 30
0.0
 10
-161.2509712020208
 20
128.9860142249667
 30
0.0
 10
-160.1808933326146
 20
129.5057081254084
 30
0.0
 10
-156.9552729148278
 20
131.022992898502
 30
0.0
 10
-154.7885382293633
 20
131.9770417135927
 30
0.0
 10
-148.2402285329791
 20
134.6697851478377
 30
0.0
 10
-143.8107568392195
 20
136.2398132753177
 30
0.0
 10
-134.8267589430863
 20
138.9394972965221
 30
0.0
 10
-130.2722246313068
 20
140.0691243901852
 30
0.0
 10
-123.3452051004288
 20
141.4282603244544
 30
0.0
 10
-121.0203052949052
 20
141.8253386452604
 30
0.0
 10
-117.5088019304931
 20
142.3359012959744
 30
0.0
 10
-116.3342727738584
 20
142.4919044976113
 30
0.0
 10
-113.9770760179685
 20
142.7752521798694
 30
0.0
 10
-112.7936582389362
 20
142.9026450362183
 30
0.0
 10
-109.2438243440902
 20
143.2402120061849
 30
0.0
 10
-106.8742181828839
 20
143.406318840873
 30
0.0
 10
-103.3152398588107
 20
143.5671934577755
 30
0.0
 10
-102.1281517820753
 20
143.6060952708619
 30
0.0
 10
-100.346373453703
 20
143.6423003787144
 30
0.0
 10
-99.4551976944698
 20
143.6548652224239
 30
0.0
 10
-98.56359105289809
 20
143.6591043618217
 30
0.0
 10
-97.96909073728983
 20
143.6600776630539
 30
0.0
 10
-97.67176389666113
 20
143.6591845311577
 30
0.0
 10
-97.37446581820338
 20
143.6588120506186
 30
0.0
  0
SPLINE
  5
92
330
1B
100
AcDbEntity
 67
     1
  8
0
  6
Continuous
 62
     7
370
    25
100
AcDbSpline
210
0.0
220
0.0
230
1.0
 70
     8
 71
     3
 72
   109
 73
   105
 74
     0
 42
0.000000001
 43
0.00000001
 40
0.0
 40
0.0
 40
0.0
 40
0.0
 40
0.00390625
 40
0.00390625
 40
0.0078125
 40
0.0156249999999999
 40
0.0156249999999999
 40
0.0312499999999998
 40
0.0312499999999998
 40
0.0468749999999998
 40
0.0468749999999998
 40
0.0624999999999997
 40
0.0624999999999997
 40
0.0937499999999994
 40
0.0937499999999994
 40
0.1249999999999991
 40
0.1249999999999991
 40
0.1406249999999991
 40
0.1406249999999991
 40
0.1484374999999991
 40
0.1484374999999991
 40
0.156249999999999
 40
0.156249999999999
 40
0.1874999999999993
 40
0.1874999999999993
 40
0.2187499999999996
 40
0.2187499999999996
 40
0.2499999999999998
 40
0.2499999999999998
 40
0.2812500000000001
 40
0.2812500000000001
 40
0.3125000000000004
 40
0.3125000000000004
 40
0.3437500000000007
 40
0.3437500000000007
 40
0.3515625000000007
 40
0.3515625000000007
 40
0.3593750000000007
 40
0.3593750000000007
 40
0.3750000000000006
 40
0.3750000000000006
 40
0.4062500000000006
 40
0.4062500000000006
 40
0.4375000000000004
 40
0.4375000000000004
 40
0.4531250000000004
 40
0.4531250000000004
 40
0.4609375000000004
 40
0.4609375000000004
 40
0.4687500000000004
 40
0.4687500000000004
 40
0.5000000000000003
 40
0.5000000000000003
 40
0.5312500000000003
 40
0.5312500000000003
 40
0.5625000000000002
 40
0.5625000000000002
 40
0.5781250000000001
 40
0.5781250000000001
 40
0.5937500000000001
 40
0.5937500000000001
 40
0.6249999999999999
 40
0.6249999999999999
 40
0.6562499999999998
 40
0.6562499999999998
 40
0.6718749999999997
 40
0.6718749999999997
 40
0.6796874999999998
 40
0.6796874999999998
 40
0.6874999999999998
 40
0.6874999999999998
 40
0.7187499999999999
 40
0.7187499999999999
 40
0.7499999999999999
 40
0.7499999999999999
 40
0.78125
 40
0.78125
 40
0.7890625000000001
 40
0.7890625000000001
 40
0.7968750000000001
 40
0.7968750000000001
 40
0.8125000000000002
 40
0.8125000000000002
 40
0.8437500000000003
 40
0.8437500000000003
 40
0.8750000000000007
 40
0.8750000000000007
 40
0.8906250000000009
 40
0.8906250000000009
 40
0.8984375000000009
 40
0.8984375000000009
 40
0.9062500000000008
 40
0.9062500000000008
 40
0.9375000000000007
 40
0.9375000000000007
 40
0.9687500000000003
 40
0.9687500000000003
 40
0.9843750000000002
 40
0.9843750000000002
 40
0.9921875000000001
 40
0.9921875000000001
 40
0.9960937500000001
 40
0.9960937500000001
 40
1.0
 40
1.0
 40
1.0
 40
1.0
 10
-97.49999997425044
 20
115.7977264616033
 30
0.0
 10
-97.9787880513736
 20
115.7955407265505
 30
0.0
 10
-98.45762219196443
 20
115.7942020271885
 30
0.0
 10
-99.41488980702401
 20
115.7842116574247
 30
0.0
 10
-100.8503037167651
 20
115.7603309358464
 30
0.0
 10
-102.284259008825
 20
115.7098366510646
 30
0.0
 10
-105.1502307590444
 20
115.5734736216782
 30
0.0
 10
-107.0582951778972
 20
115.4354300829996
 30
0.0
 10
-110.8692559261321
 20
115.0650543174657
 30
0.0
 10
-112.7710471865218
 20
114.8325987980575
 30
0.0
 10
-116.5416285495388
 20
114.2774442726849
 30
0.0
 10
-118.413909015625
 20
113.9544474174596
 30
0.0
 10
-123.9921740330914
 20
112.8507845536784
 30
0.0
 10
-127.6596238407115
 20
111.935591596904
 30
0.0
 10
-134.893409943856
 20
109.7522170863342
 30
0.0
 10
-138.4597653603079
 20
108.4841021567895
 30
0.0
 10
-143.7316693379276
 20
106.3109268621746
 30
0.0
 10
-145.4759831836125
 20
105.5411958641066
 30
0.0
 10
-148.0726369594949
 20
104.3174186708353
 30
0.0
 10
-148.9343567222546
 20
103.898163916573
 30
0.0
 10
-150.6416937489655
 20
103.041273363646
 30
0.0
 10
-151.4884828799605
 20
102.603091324146
 30
0.0
 10
-155.6884142937048
 20
100.3640389629623
 30
0.0
 10
-158.9398809052234
 20
98.41926165746547
 30
0.0
 10
-165.2295262575213
 20
94.22782974209989
 30
0.0
 10
-168.2675306472635
 20
91.9809283489541
 30
0.0
 10
-174.1297331315243
 20
87.18451522258786
 30
0.0
 10
-176.9549329764033
 20
84.6341926483917
 30
0.0
 10
-182.379117672317
 20
79.22235904822165
 30
0.0
 10
-184.9341481910846
 20
76.40446634347207
 30
0.0
 10
-189.7425940465248
 20
70.55364715772706
 30
0.0
 10
-191.9959987570836
 20
67.52071311461657
 30
0.0
 10
-196.201442463745
 20
61.23998917976996
 30
0.0
 10
-198.1532834241968
 20
57.99205808756276
 30
0.0
 10
-200.4011487224526
 20
53.79530540884909
 30
0.0
 10
-200.8410956460439
 20
52.94909201405832
 30
0.0
 10
-201.7015307777213
 20
51.24279232679885
 30
0.0
 10
-202.1225796192724
 20
50.38149212062785
 30
0.0
 10
-203.3507676437398
 20
47.78804587290183
 30
0.0
 10
-204.1235068320275
 20
46.04569487506576
 30
0.0
 10
-206.3057647345934
 20
40.77912054162394
 30
0.0
 10
-207.579630373597
 20
37.21546498508357
 30
0.0
 10
-209.7738536214264
 20
29.98539466687101
 30
0.0
 10
-210.6942072102237
 20
26.31897873799446
 30
0.0
 10
-211.8052646929789
 20
20.74102334003557
 30
0.0
 10
-212.1305718626907
 20
18.86861091014644
 30
0.0
 10
-212.5501241695799
 20
16.04010701212366
 30
0.0
 10
-212.6785665561812
 20
15.09395614323151
 30
0.0
 10
-212.912405397982
 20
13.19495531808239
 30
0.0
 10
-213.0177460859125
 20
12.24220212506902
 30
0.0
 10
-213.4839362007241
 20
7.488309926721851
 30
0.0
 10
-213.6666480337452
 20
3.695435184592372
 30
0.0
 10
-213.6609085726475
 20
-3.870337743699812
 30
0.0
 10
-213.4724668219741
 20
-7.643236443497125
 30
0.0
 10
-212.7268724732594
 20
-15.16918927130162
 30
0.0
 10
-212.1697494279162
 20
-18.92224498987982
 30
0.0
 10
-211.0481337750024
 20
-24.53643932536217
 30
0.0
 10
-210.6253169398566
 20
-26.40920530019537
 30
0.0
 10
-209.6927498844427
 20
-30.1105474219153
 30
0.0
 10
-209.1824134877214
 20
-31.94308917493722
 30
0.0
 10
-207.5217171181186
 20
-37.38734358239403
 30
0.0
 10
-206.2420800200458
 20
-40.94585413721953
 30
0.0
 10
-203.3404221764385
 20
-47.92197224398694
 30
0.0
 10
-201.7185982775633
 20
-51.33966081477803
 30
0.0
 10
-199.0266098144073
 20
-56.35950202914384
 30
0.0
 10
-198.0859667661929
 20
-58.014957366794
 30
0.0
 10
-196.6086885537342
 20
-60.47084994966534
 30
0.0
 10
-196.1044739837202
 20
-61.28605751201364
 30
0.0
 10
-195.0778006413872
 20
-62.90072359105731
 30
0.0
 10
-194.5554671261078
 20
-63.70005795028842
 30
0.0
 10
-191.8992503000987
 20
-67.65712305090864
 30
0.0
 10
-189.6323173784709
 20
-70.69656549936913
 30
0.0
 10
-184.82300103019
 20
-76.53055994786374
 30
0.0
 10
-182.2805672625787
 20
-79.32506717314503
 30
0.0
 10
-176.9176585648035
 20
-84.66688760902771
 30
0.0
 10
-174.0974379859011
 20
-87.21442696315157
 30
0.0
 10
-170.3938191828452
 20
-90.24029421614054
 30
0.0
 10
-169.6439496401895
 20
-90.83761374780157
 30
0.0
 10
-168.1346823471364
 20
-92.00964774412185
 30
0.0
 10
-167.3742560385124
 20
-92.58521928530041
 30
0.0
 10
-165.0757605130059
 20
-94.28088852907517
 30
0.0
 10
-163.5204811342317
 20
-95.36995245953172
 30
0.0
 10
-158.7866335377128
 20
-98.51450778345932
 30
0.0
 10
-155.5404066996671
 20
-100.4479953774541
 30
0.0
 10
-148.8698825275093
 20
-103.9938686575437
 30
0.0
 10
-145.4455253715126
 20
-105.6061464806238
 30
0.0
 10
-140.1719466149841
 20
-107.7774422029546
 30
0.0
 10
-138.3912286841432
 20
-108.4599884398233
 30
0.0
 10
-135.6852767611569
 20
-109.4209197889234
 30
0.0
 10
-134.7788572943302
 20
-109.7302197677968
 30
0.0
 10
-132.9640930470885
 20
-110.324636166006
 30
0.0
 10
-132.0547294047764
 20
-110.6101178901708
 30
0.0
 10
-127.4981064008634
 20
-111.9795023260416
 30
0.0
 10
-123.8215172300388
 20
-112.8898331853394
 30
0.0
 10
-116.4067567816534
 20
-114.3460476113976
 30
0.0
 10
-112.6686412638785
 20
-114.8922612643261
 30
0.0
 10
-107.0153313236229
 20
-115.4385369535826
 30
0.0
 10
-105.1231894035029
 20
-115.5750277219392
 30
0.0
 10
-102.2732267894581
 20
-115.710226092891
 30
0.0
 10
-101.3212796773069
 20
-115.7436949713304
 30
0.0
 10
-99.8903857680077
 20
-115.7763017698309
 30
0.0
 10
-99.41292551071389
 20
-115.7842374718616
 30
0.0
 10
-98.457007118726
 20
-115.7942031176375
 30
0.0
 10
-97.97843233443275
 20
-115.7955423504868
 30
0.0
 10
-97.49999999217994
 20
-115.7977264615578
 30
0.0
  0
SPLINE
  5
94
330
1B
100
AcDbEntity
 67
     1
  8
0
  6
Continuous
 62
     7
370
    25
100
AcDbSpline
210
0.0
220
0.0
230
1.0
 70
     8
 71
     3
 72
   109
 73
   105
 74
     0
 42
0.000000001
 43
0.00000001
 40
0.0
 40
0.0
 40
0.0
 40
0.0
 40
0.0039062499999999
 40
0.0039062499999999
 40
0.0078124999999998
 40
0.0156249999999996
 40
0.0156249999999996
 40
0.0312499999999992
 40
0.0312499999999992
 40
0.0468749999999988
 40
0.0468749999999988
 40
0.0624999999999983
 40
0.0624999999999983
 40
0.0937499999999976
 40
0.0937499999999976
 40
0.1249999999999969
 40
0.1249999999999969
 40
0.1406249999999965
 40
0.1406249999999965
 40
0.1484374999999964
 40
0.1484374999999964
 40
0.1562499999999963
 40
0.1562499999999963
 40
0.1874999999999962
 40
0.1874999999999962
 40
0.2187499999999961
 40
0.2187499999999961
 40
0.249999999999996
 40
0.249999999999996
 40
0.2812499999999959
 40
0.2812499999999959
 40
0.3124999999999958
 40
0.3124999999999958
 40
0.3437499999999957
 40
0.3437499999999957
 40
0.3515624999999957
 40
0.3515624999999957
 40
0.3593749999999957
 40
0.3593749999999957
 40
0.3749999999999957
 40
0.3749999999999957
 40
0.4062499999999957
 40
0.4062499999999957
 40
0.4374999999999958
 40
0.4374999999999958
 40
0.4531249999999958
 40
0.4531249999999958
 40
0.4609374999999958
 40
0.4609374999999958
 40
0.4687499999999958
 40
0.4687499999999958
 40
0.4999999999999959
 40
0.4999999999999959
 40
0.5312499999999958
 40
0.5312499999999958
 40
0.5624999999999959
 40
0.5624999999999959
 40
0.5781249999999959
 40
0.5781249999999959
 40
0.5937499999999959
 40
0.5937499999999959
 40
0.6249999999999959
 40
0.6249999999999959
 40
0.6562499999999958
 40
0.6562499999999958
 40
0.6718749999999958
 40
0.6718749999999958
 40
0.6796874999999958
 40
0.6796874999999958
 40
0.6874999999999959
 40
0.6874999999999959
 40
0.7187499999999959
 40
0.7187499999999959
 40
0.749999999999996
 40
0.749999999999996
 40
0.781249999999996
 40
0.781249999999996
 40
0.7890624999999962
 40
0.7890624999999962
 40
0.7968749999999963
 40
0.7968749999999963
 40
0.8124999999999966
 40
0.8124999999999966
 40
0.8437499999999971
 40
0.8437499999999971
 40
0.8749999999999978
 40
0.8749999999999978
 40
0.890624999999998
 40
0.890624999999998
 40
0.8984374999999981
 40
0.8984374999999981
 40
0.9062499999999982
 40
0.9062499999999982
 40
0.9374999999999988
 40
0.9374999999999988
 40
0.9687499999999993
 40
0.9687499999999993
 40
0.9843749999999997
 40
0.9843749999999997
 40
0.9921874999999998
 40
0.9921874999999998
 40
0.9960937499999999
 40
0.9960937499999999
 40
1.0
 40
1.0
 40
1.0
 40
1.0
 10
97.49999999172675
 20
-115.7977264615235
 30
0.0
 10
97.9787880910452
 20
-115.7955407263703
 30
0.0
 10
98.45762225237723
 20
-115.7942020168261
 30
0.0
 10
99.41488992183476
 20
-115.7842117205512
 30
0.0
 10
100.8503039287174
 20
-115.7603312203501
 30
0.0
 10
102.2842593613924
 20
-115.7098374340053
 30
0.0
 10
105.1502314430278
 20
-115.5734756308462
 30
0.0
 10
107.0582961495449
 20
-115.4354332125103
 30
0.0
 10
110.8692575699815
 20
-115.0650596246927
 30
0.0
 10
112.7710485689254
 20
-114.8326052344802
 30
0.0
 10
116.5416294741085
 20
-114.2774524064694
 30
0.0
 10
118.4139096699364
 20
-113.9544561213439
 30
0.0
 10
123.9921735751445
 20
-112.8507935171606
 30
0.0
 10
127.659622200725
 20
-111.9355986649911
 30
0.0
 10
134.8934060533621
 20
-109.7522197172848
 30
0.0
 10
138.4597604031942
 20
-108.4841022526449
 30
0.0
 10
143.7316633438955
 20
-106.310924320622
 30
0.0
 10
145.4759769384831
 20
-105.541192639583
 30
0.0
 10
148.0726304688195
 20
-104.3174146752231
 30
0.0
 10
148.9343498969967
 20
-103.8981598387178
 30
0.0
 10
150.6416864414259
 20
-103.0412691466868
 30
0.0
 10
151.4884753726264
 20
-102.6030870725062
 30
0.0
 10
155.688405981141
 20
-100.3640346952122
 30
0.0
 10
158.9398725525986
 20
-98.41925785897718
 30
0.0
 10
165.2295189698446
 20
-94.22782776962566
 30
0.0
 10
168.2675245158244
 20
-91.98092780514355
 30
0.0
 10
174.1297295581983
 20
-87.18451714870824
 30
0.0
 10
176.9549317371248
 20
-84.6341946842211
 30
0.0
 10
182.3791166293126
 20
-79.22236335638256
 30
0.0
 10
184.9341467409302
 20
-76.40447117571904
 30
0.0
 10
189.7425916591912
 20
-70.55365246694778
 30
0.0
 10
191.9959958415239
 20
-67.52071837799349
 30
0.0
 10
196.2014387927729
 20
-61.23999408290568
 30
0.0
 10
198.1532794882419
 20
-57.99206264903575
 30
0.0
 10
200.4011447656144
 20
-53.79530945677693
 30
0.0
 10
200.8410917018404
 20
-52.94909595582951
 30
0.0
 10
201.7015269020532
 20
-51.24279605590542
 30
0.0
 10
202.1225757811371
 20
-50.38149577423916
 30
0.0
 10
203.3507635837445
 20
-47.78805023950546
 30
0.0
 10
204.1235027917949
 20
-46.04569969415115
 30
0.0
 10
206.305761421693
 20
-40.77912670100889
 30
0.0
 10
207.5796284976032
 20
-37.21547203343446
 30
0.0
 10
209.7738549019872
 20
-29.98540302583561
 30
0.0
 10
210.6942102165595
 20
-26.31898752038178
 30
0.0
 10
211.8052689072
 20
-20.74103193729358
 30
0.0
 10
212.1305762308813
 20
-18.86861930339066
 30
0.0
 10
212.5501285296897
 20
-16.04011492352452
 30
0.0
 10
212.6785708740744
 20
-15.09396386479517
 30
0.0
 10
212.9124095776016
 20
-13.19496260849712
 30
0.0
 10
213.0177501219996
 20
-12.2422095877758
 30
0.0
 10
213.4839395259145
 20
-7.488318135288403
 30
0.0
 10
213.6666507363821
 20
-3.695443788891722
 30
0.0
 10
213.6609118775903
 20
3.870328845087014
 30
0.0
 10
213.4724713237718
 20
7.643227644786164
 30
0.0
 10
212.7268789846906
 20
15.16918104681637
 30
0.0
 10
212.1697567584479
 20
18.92223724002695
 30
0.0
 10
211.048140539736
 20
24.53643249726804
 30
0.0
 10
210.6253232746707
 20
26.40919858077723
 30
0.0
 10
209.6927552669848
 20
30.11054038205342
 30
0.0
 10
209.1824182810493
 20
31.9430819817724
 30
0.0
 10
207.5217201321073
 20
37.38733608187499
 30
0.0
 10
206.2420818519825
 20
40.94584664284278
 30
0.0
 10
203.3404229016541
 20
47.92196569483296
 30
0.0
 10
201.7185989796392
 20
51.33965516394048
 30
0.0
 10
199.0266105236725
 20
56.35949805761653
 30
0.0
 10
198.0859674888051
 20
58.01495401210258
 30
0.0
 10
196.6086892526185
 20
60.47084758269227
 30
0.0
 10
196.104474648536
 20
61.28605550828671
 30
0.0
 10
195.0778017774366
 20
62.900721475811
 30
0.0
 10
194.5554684977959
 20
63.70005579284517
 30
0.0
 10
191.8992528399413
 20
67.6571207406194
 30
0.0
 10
189.6323208352048
 20
70.69656326482784
 30
0.0
 10
184.8230057537551
 20
76.53055777540285
 30
0.0
 10
182.2805723321724
 20
79.3250649836148
 30
0.0
 10
176.9176628488748
 20
84.66688449020775
 30
0.0
 10
174.09744117708
 20
87.21442296609904
 30
0.0
 10
170.3938207317784
 20
90.24028914426634
 30
0.0
 10
169.6439509126795
 20
90.83760841025664
 30
0.0
 10
168.1346830870059
 20
92.0096418860762
 30
0.0
 10
167.37425651356
 20
92.58521317778651
 30
0.0
 10
165.0757602165563
 20
94.28088173864897
 30
0.0
 10
163.5204803559049
 20
95.36994530444265
 30
0.0
 10
158.7866315427503
 20
98.51450004244049
 30
0.0
 10
155.5404041537243
 20
100.447987841189
 30
0.0
 10
148.8698793382977
 20
103.9938626069805
 30
0.0
 10
145.4455220932402
 20
105.6061417169127
 30
0.0
 10
140.1719437268749
 20
107.7774405057034
 30
0.0
 10
138.3912260084432
 20
108.4599879452099
 30
0.0
 10
135.6852744377992
 20
109.420921207862
 30
0.0
 10
134.7788551799423
 20
109.7302218113738
 30
0.0
 10
132.9640912919558
 20
110.3246394712611
 30
0.0
 10
132.0547278277633
 20
110.6101218230317
 30
0.0
 10
127.4981056876998
 20
111.9795092667383
 30
0.0
 10
123.8215171264115
 20
112.889842139464
 30
0.0
 10
116.4067571413242
 20
114.3460562944402
 30
0.0
 10
112.6686415016905
 20
114.8922678070011
 30
0.0
 10
107.0153313301234
 20
115.4385401307143
 30
0.0
 10
105.123189326783
 20
115.5750297631074
 30
0.0
 10
102.2732266598987
 20
115.710226890093
 30
0.0
 10
101.3212795422976
 20
115.7436954315208
 30
0.0
 10
99.89038565486133
 20
115.7763019108939
 30
0.0
 10
99.41292540987382
 20
115.7842375376873
 30
0.0
 10
98.4570070546581
 20
115.7942031078538
 30
0.0
 10
97.97843229651225
 20
115.7955423506219
 30
0.0
 10
97.49999997878238
 20
115.7977264615827
 30
0.0
  0
SPLINE
  5
97
330
1B
100
AcDbEntity
 67
     1
  8
0
  6
Continuous
 62
     7
370
    25
100
AcDbSpline
210
0.0
220
0.0
230
1.0
 70
     8
 71
     3
 72
    32
 73
    28
 74
     0
 42
0.000000001
 43
0.00000001
 40
0.0
 40
0.0
 40
0.0
 40
0.0
 40
0.0624999999999996
 40
0.0624999999999996
 40
0.0781249999999994
 40
0.0781249999999994
 40
0.0859374999999994
 40
0.0859374999999994
 40
0.0937499999999993
 40
0.1249999999999993
 40
0.1249999999999993
 40
0.2499999999999993
 40
0.2499999999999993
 40
0.4999999999999991
 40
0.4999999999999991
 40
0.7499999999999989
 40
0.7499999999999989
 40
0.8749999999999988
 40
0.8749999999999988
 40
0.9062499999999987
 40
0.9140624999999987
 40
0.9140624999999987
 40
0.9218749999999988
 40
0.9218749999999988
 40
0.9374999999999991
 40
0.9374999999999991
 40
1.0
 40
1.0
 40
1.0
 40
1.0
 10
-97.49999999218001
 20
-115.7977264615576
 30
0.0
 10
-93.4375364082273
 20
-115.8162721803674
 30
0.0
 10
-89.37507372385593
 20
-115.8377354401048
 30
0.0
 10
-84.2969964740281
 20
-115.8690465413624
 30
0.0
 10
-83.28138107918046
 20
-115.8755338996464
 30
0.0
 10
-81.75795806862156
 20
-115.8856217039219
 30
0.0
 10
-81.25014015826979
 20
-115.8834644682063
 30
0.0
 10
-80.23451353444379
 20
-115.884106782476
 30
0.0
 10
-77.69544698241774
 20
-115.8857166476456
 30
0.0
 10
-75.15638046395472
 20
-115.8873453194875
 30
0.0
 10
-65.00011442626841
 20
-115.8938917990359
 30
0.0
 10
-56.87510177964227
 20
-115.8992610350482
 30
0.0
 10
-32.50006005417898
 20
-115.9139634419234
 30
0.0
 10
-16.25002731963676
 20
-115.9213016898442
 30
0.0
 10
16.25001661623041
 20
-115.9213016927961
 30
0.0
 10
32.50003079851431
 20
-115.9139634557951
 30
0.0
 10
56.87504780124778
 20
-115.8992610694938
 30
0.0
 10
65.00005290799193
 20
-115.893891839256
 30
0.0
 10
75.15630939337849
 20
-115.8873453651511
 30
0.0
 10
77.69537351874345
 20
-115.8857166945671
 30
0.0
 10
80.23443765902537
 20
-115.8841068305351
 30
0.0
 10
81.25006331647837
 20
-115.883464516711
 30
0.0
 10
81.75787818937157
 20
-115.8856222388872
 30
0.0
 10
83.28130915313098
 20
-115.8755343638527
 30
0.0
 10
84.29692981984908
 20
-115.8690469614141
 30
0.0
 10
89.37503327592684
 20
-115.837735653167
 30
0.0
 10
93.43751643391458
 20
-115.8162722715263
 30
0.0
 10
97.49999999172678
 20
-115.7977264615235
 30
0.0
  0
SPLINE
  5
98
330
1B
100
AcDbEntity
 67
     1
  8
0
  6
Continuous
 62
     7
370
    25
100
AcDbSpline
210
0.0
220
0.0
230
1.0
 70
     8
 71
     3
 72
    32
 73
    28
 74
     0
 42
0.000000001
 43
0.00000001
 40
0.0
 40
0.0
 40
0.0
 40
0.0
 40
0.0624999999999998
 40
0.0624999999999998
 40
0.0781249999999997
 40
0.0781249999999997
 40
0.0859374999999998
 40
0.0859374999999998
 40
0.0937499999999999
 40
0.1249999999999998
 40
0.1249999999999998
 40
0.2499999999999998
 40
0.2499999999999998
 40
0.4999999999999997
 40
0.4999999999999997
 40
0.7499999999999997
 40
0.7499999999999997
 40
0.8749999999999998
 40
0.8749999999999998
 40
0.9062499999999998
 40
0.9140624999999998
 40
0.9140624999999998
 40
0.9218749999999997
 40
0.9218749999999997
 40
0.9374999999999997
 40
0.9374999999999997
 40
1.0
 40
1.0
 40
1.0
 40
1.0
 10
97.49999997878237
 20
115.7977264615826
 30
0.0
 10
93.43753639547282
 20
115.8162721804053
 30
0.0
 10
89.37507371174473
 20
115.837735440153
 30
0.0
 10
84.29699646272093
 20
115.8690465414204
 30
0.0
 10
83.28138106803405
 20
115.8755338997061
 30
0.0
 10
81.75795805771635
 20
115.8856217039843
 30
0.0
 10
81.25014014744485
 20
115.883464468203
 30
0.0
 10
80.23451352377961
 20
115.8841067824735
 30
0.0
 10
77.69544697215572
 20
115.8857166476452
 30
0.0
 10
75.15638045409466
 20
115.8873453194888
 30
0.0
 10
65.00011441801642
 20
115.8938917990415
 30
0.0
 10
56.87510177267668
 20
115.8992610350525
 30
0.0
 10
32.50006005107263
 20
115.9139634419248
 30
0.0
 10
16.25002731910325
 20
115.9213016898438
 30
0.0
 10
-16.25001661161826
 20
115.9213016927968
 30
0.0
 10
-32.50003079132923
 20
115.9139634557987
 30
0.0
 10
-56.87504779020345
 20
115.8992610695008
 30
0.0
 10
-65.00005289566117
 20
115.8938918392639
 30
0.0
 10
-75.15630937943968
 20
115.88734536516
 30
0.0
 10
-77.69537350440261
 20
115.8857166945763
 30
0.0
 10
-80.23443764428247
 20
115.8841068305446
 30
0.0
 10
-81.25006330157468
 20
115.8834645167205
 30
0.0
 10
-81.7578781743876
 20
115.8856222389876
 30
0.0
 10
-83.28130913790581
 20
115.8755343639513
 30
0.0
 10
-84.29692980446316
 20
115.8690469615113
 30
0.0
 10
-89.37503325973694
 20
115.8377356532578
 30
0.0
 10
-93.4375164170815
 20
115.8162722716116
 30
0.0
 10
-97.49999997425039
 20
115.7977264616033
 30
0.0
  0
SPLINE
  5
99
330
1B
100
AcDbEntity
 67
     1
  8
0
  6
Continuous
 62
     7
370
    25
100
AcDbSpline
210
0.0
220
0.0
230
1.0
 70
    11
 71
     3
 72
    63
 73
    59
 74
     0
 42
0.000000001
 43
0.00000001
 40
0.0
 40
0.0
 40
0.0
 40
0.0
 40
0.0156699340420949
 40
0.0313645905312378
 40
0.046941722349118
 40
0.0625504220425393
 40
0.0782803194983697
 40
0.0938926734879527
 40
0.0977862857548222
 40
0.1016720767343741
 40
0.1094527006580582
 40
0.12511970725147
 40
0.1562931605133493
 40
0.1875851989076573
 40
0.2187174632318007
 40
0.2500342186863188
 40
0.281201120823481
 40
0.3124578966402423
 40
0.3437140155615812
 40
0.3748467183656454
 40
0.3904813552085022
 40
0.3983438601623044
 40
0.3999099737935591
 40
0.4022582405897127
 40
0.4061685830196957
 40
0.4217505758363791
 40
0.4373541884326966
 40
0.4530824049363051
 40
0.4686994857785226
 40
0.4842736650788604
 40
0.4999556161794746
 40
0.5156880280835456
 40
0.5314094968394983
 40
0.5471151923204663
 40
0.5626956176041659
 40
0.5782984283061696
 40
0.5940284101261256
 40
0.5981649543776107
 40
0.625153098074852
 40
0.656445907585666
 40
0.6875790962382751
 40
0.7188628748285721
 40
0.7500987513807574
 40
0.7812884860641027
 40
0.8125936442290789
 40
0.8437161053487512
 40
0.8750026646415945
 40
0.8905484456104407
 40
0.8983410657243988
 40
0.8999030234615257
 40
0.9022512144334317
 40
0.906181398000896
 40
0.9218954169578918
 40
0.9374801632927185
 40
0.95307669183044
 40
0.9688024135063014
 40
0.9844275315830173
 40
1.0
 40
1.0
 40
1.0
 40
1.0
 10
0.0000000000000014
 20
-32.26469490963999
 30
0.0
 10
-1.059401873375136
 20
-32.26469471875286
 30
0.0
 10
-3.179885264801023
 20
-32.16070144005682
 30
0.0
 10
-6.323021309193307
 20
-31.69500017620312
 30
0.0
 10
-9.401527505964374
 20
-30.92561891858219
 30
0.0
 10
-12.39275734074947
 20
-29.85918328743254
 30
0.0
 10
-15.26725026345926
 20
-28.50409386283191
 30
0.0
 10
-17.31497347901642
 20
-27.28036508885845
 30
0.0
 10
-18.61999537171064
 20
-26.38814007515799
 30
0.0
 10
-19.47338948602181
 20
-25.77360157024336
 30
0.0
 10
-20.93216580341466
 20
-24.63923252519263
 30
0.0
 10
-23.6749869830664
 20
-22.16098652738139
 30
0.0
 10
-27.05266040770569
 20
-18.05453762458753
 30
0.0
 10
-30.05609314867429
 20
-12.44195477317937
 30
0.0
 10
-31.9092483347798
 20
-6.341359699976316
 30
0.0
 10
-32.53453588152374
 20
-0.0043804423916033
 30
0.0
 10
-31.9092299349179
 20
6.340549341655858
 30
0.0
 10
-30.05840010563551
 20
12.43796716964995
 30
0.0
 10
-27.05304060798261
 20
18.05303266040218
 30
0.0
 10
-23.68079449021542
 20
22.15425516390154
 30
0.0
 10
-20.9385620045839
 20
24.63394570835478
 30
0.0
 10
-19.60114548469309
 20
25.67445120955598
 30
0.0
 10
-18.95871730668771
 20
26.14424230847109
 30
0.0
 10
-18.52804344976401
 20
26.45110188595881
 30
0.0
 10
-17.3093531433464
 20
27.28385563435345
 30
0.0
 10
-15.26951404213645
 20
28.50229787933386
 30
0.0
 10
-12.39777126362589
 20
29.85708807903343
 30
0.0
 10
-9.404661744315321
 20
30.92522451054812
 30
0.0
 10
-6.323417584762032
 20
31.6946488381428
 30
0.0
 10
-3.184985130167218
 20
32.15983727534872
 30
0.0
 10
-0.0082584630190039
 20
32.31689804036865
 30
0.0
 10
3.178545609726279
 20
32.16113136053919
 30
0.0
 10
6.336223928011965
 20
31.69290270649456
 30
0.0
 10
9.422703580566482
 20
30.91955619216981
 30
0.0
 10
12.41123218616289
 20
29.85098453428018
 30
0.0
 10
15.28272440050561
 20
28.49582726920672
 30
0.0
 10
17.34363953862145
 20
27.26303272977204
 30
0.0
 10
19.95479367709815
 20
25.47210874071219
 30
0.0
 10
23.20059091276915
 20
22.74244084300023
 30
0.0
 10
27.06018476636126
 20
18.04232011863094
 30
0.0
 10
30.06471880773136
 20
12.42129400755011
 30
0.0
 10
31.91292817583064
 20
6.325125884998609
 30
0.0
 10
32.53414191548412
 20
-0.0183818675763753
 30
0.0
 10
31.90537281198993
 20
-6.362380229837615
 30
0.0
 10
30.05092808734078
 20
-12.45445727119164
 30
0.0
 10
27.04072139044552
 20
-18.07167747666882
 30
0.0
 10
23.66877799881875
 20
-22.16771324495398
 30
0.0
 10
20.92491492661224
 20
-24.64497137184081
 30
0.0
 10
19.59589467625553
 20
-25.67831471869646
 30
0.0
 10
18.95749597223402
 20
-26.14513059911292
 30
0.0
 10
18.52594361469944
 20
-26.45257533577929
 30
0.0
 10
17.29870749618726
 20
-27.29100507383509
 30
0.0
 10
15.25036005412964
 20
-28.51291906348649
 30
0.0
 10
12.37850616642568
 20
-29.86449845096369
 30
0.0
 10
9.387678079933123
 20
-30.9302777120759
 30
0.0
 10
6.304222179747851
 20
-31.69899350116774
 30
0.0
 10
3.161988826918703
 20
-32.16189968646177
 30
0.0
 10
1.052812485981669
 20
-32.26469509933981
 30
0.0
 10
0.0000000000000051
 20
-32.26469490963999
 30
0.0
  0
SPLINE
  5
9A
330
1B
100
AcDbEntity
 67
     1
  8
0
  6
Continuous
 62
     7
370
    25
100
AcDbSpline
210
0.0
220
0.0
230
1.0
 70
    11
 71
     3
 72
   120
 73
   116
 74
     0
 42
0.000000001
 43
0.00000001
 40
0.0
 40
0.0
 40
0.0
 40
0.0
 40
0.0312500000000001
 40
0.0312500000000001
 40
0.0468750000000002
 40
0.0468750000000002
 40
0.0625000000000002
 40
0.0625000000000002
 40
0.0781250000000002
 40
0.0781250000000002
 40
0.0859375000000002
 40
0.0859375000000002
 40
0.0937500000000003
 40
0.0937500000000003
 40
0.1250000000000004
 40
0.1250000000000004
 40
0.1406250000000005
 40
0.1406250000000005
 40
0.1484375000000005
 40
0.1484375000000005
 40
0.1562500000000005
 40
0.1562500000000005
 40
0.1875000000000005
 40
0.1875000000000005
 40
0.1953125000000005
 40
0.1953125000000005
 40
0.2031250000000005
 40
0.2031250000000005
 40
0.2187500000000005
 40
0.2187500000000005
 40
0.2500000000000006
 40
0.2500000000000006
 40
0.2656250000000006
 40
0.2656250000000006
 40
0.2812500000000006
 40
0.2812500000000006
 40
0.2968750000000006
 40
0.2968750000000006
 40
0.3125000000000006
 40
0.3125000000000006
 40
0.3437500000000006
 40
0.3437500000000006
 40
0.3593750000000006
 40
0.3593750000000006
 40
0.3750000000000006
 40
0.3750000000000006
 40
0.4062500000000007
 40
0.4062500000000007
 40
0.4218750000000007
 40
0.4218750000000007
 40
0.4375000000000007
 40
0.4375000000000007
 40
0.4531250000000007
 40
0.4531250000000007
 40
0.4687500000000007
 40
0.4687500000000007
 40
0.5000000000000007
 40
0.5000000000000007
 40
0.5312500000000008
 40
0.5312500000000008
 40
0.5468750000000009
 40
0.5468750000000009
 40
0.5625000000000009
 40
0.5625000000000009
 40
0.5937500000000009
 40
0.5937500000000009
 40
0.6015625000000009
 40
0.6015625000000009
 40
0.609375000000001
 40
0.609375000000001
 40
0.625000000000001
 40
0.625000000000001
 40
0.656250000000001
 40
0.656250000000001
 40
0.6640625000000011
 40
0.6640625000000011
 40
0.6718750000000011
 40
0.6718750000000011
 40
0.687500000000001
 40
0.687500000000001
 40
0.703125000000001
 40
0.703125000000001
 40
0.7109375000000009
 40
0.7109375000000009
 40
0.7187500000000009
 40
0.7187500000000009
 40
0.7500000000000008
 40
0.7500000000000008
 40
0.7656250000000008
 40
0.7656250000000008
 40
0.7734375000000008
 40
0.7734375000000008
 40
0.7812500000000009
 40
0.7812500000000009
 40
0.8125000000000009
 40
0.8125000000000009
 40
0.8281250000000008
 40
0.8281250000000008
 40
0.8437500000000008
 40
0.8437500000000008
 40
0.8750000000000007
 40
0.8750000000000007
 40
0.8906250000000006
 40
0.8906250000000006
 40
0.9062500000000006
 40
0.9062500000000006
 40
0.9218750000000004
 40
0.9218750000000004
 40
0.9375000000000004
 40
0.9375000000000004
 40
0.9687500000000002
 40
0.9687500000000002
 40
0.9843750000000001
 40
0.9843750000000001
 40
1.0
 40
1.0
 40
1.0
 40
1.0
 10
0.0000018665932594
 20
-24.40129109023911
 30
0.0
 10
-1.611759149668711
 20
-24.40129110512925
 30
0.0
 10
-3.205108992353681
 20
-24.24324218181074
 30
0.0
 10
-5.567801040410162
 20
-23.77153002903812
 30
0.0
 10
-6.351059548188669
 20
-23.5743255310618
 30
0.0
 10
-7.879333219278174
 20
-23.10874341662008
 30
0.0
 10
-8.62812775231838
 20
-22.83974350788256
 30
0.0
 10
-10.09553419036359
 20
-22.23050981846664
 30
0.0
 10
-10.81414576068347
 20
-21.89027527803427
 30
0.0
 10
-11.86914721707602
 20
-21.32583890167257
 30
0.0
 10
-12.21698829204916
 20
-21.12866339188289
 30
0.0
 10
-12.90488672764311
 20
-20.71594162934776
 30
0.0
 10
-13.24582040930768
 20
-20.49977567994818
 30
0.0
 10
-14.91464671551255
 20
-19.38285437065275
 30
0.0
 10
-16.14282741931768
 20
-18.37179685789911
 30
0.0
 10
-17.8293956624532
 20
-16.68397505878276
 30
0.0
 10
-18.3654513751765
 20
-16.09262950080894
 30
0.0
 10
-19.12919730740203
 20
-15.16125478417511
 30
0.0
 10
-19.37741547449767
 20
-14.8428065939986
 30
0.0
 10
-19.85497824371359
 20
-14.1978700761903
 30
0.0
 10
-20.08496885018
 20
-13.87064892117464
 30
0.0
 10
-21.19173171315264
 20
-12.21119203603952
 30
0.0
 10
-21.94015514943318
 20
-10.80956311728093
 30
0.0
 10
-22.7039319513902
 20
-8.964669144360547
 30
0.0
 10
-22.84802260508763
 20
-8.591005779847345
 30
0.0
 10
-23.11854266084499
 20
-7.834130531087294
 30
0.0
 10
-23.24489016856386
 20
-7.450928435382042
 30
0.0
 10
-23.59321928263514
 20
-6.299787718893919
 30
0.0
 10
-23.78615187480911
 20
-5.526082946373018
 30
0.0
 10
-24.2500577163509
 20
-3.186610143552105
 30
0.0
 10
-24.40725456424595
 20
-1.60266189531497
 30
0.0
 10
-24.40661446769068
 20
0.8110401719415592
 30
0.0
 10
-24.36647228231929
 20
1.613412173742877
 30
0.0
 10
-24.20926791511777
 20
3.199645575446099
 30
0.0
 10
-24.09220875755608
 20
3.985813686766913
 30
0.0
 10
-23.78187918940165
 20
5.544379730244614
 30
0.0
 10
-23.58860759008896
 20
6.316777408357255
 30
0.0
 10
-23.12434110340001
 20
7.847529312465438
 30
0.0
 10
-22.85161097324162
 20
8.609338646709991
 30
0.0
 10
-21.93155058746613
 20
10.82753154575406
 30
0.0
 10
-21.1814061024489
 20
12.22875331327175
 30
0.0
 10
-19.85399800751181
 20
14.21590464942576
 30
0.0
 10
-19.37711040391783
 20
14.85962861485137
 30
0.0
 10
-18.35492916269965
 20
16.10474979900106
 30
0.0
 10
-17.81730904098429
 20
16.6969192893808
 30
0.0
 10
-16.12756187082534
 20
18.38534642599977
 30
0.0
 10
-14.8992510661999
 20
19.39431863176677
 30
0.0
 10
-12.9013547233709
 20
20.72973343714152
 30
0.0
 10
-12.20750690107047
 20
21.14543618140627
 30
0.0
 10
-10.79753582739114
 20
21.89852528361241
 30
0.0
 10
-10.07792451549098
 20
22.23849469578279
 30
0.0
 10
-8.609972689073668
 20
22.84659071383422
 30
0.0
 10
-7.861632340845301
 20
23.11471801750714
 30
0.0
 10
-6.335909341492766
 20
23.57834632701084
 30
0.0
 10
-5.555991395954774
 20
23.77434479505733
 30
0.0
 10
-3.188387843871792
 20
24.24565485048279
 30
0.0
 10
-1.592755267974
 20
24.40251736105316
 30
0.0
 10
1.630137447519229
 20
24.40005051474102
 30
0.0
 10
3.214704625533927
 20
24.24086714486474
 30
0.0
 10
5.552866121165381
 20
23.77473993137831
 30
0.0
 10
6.325757141057094
 20
23.58119039033981
 30
0.0
 10
7.85824783951858
 20
23.11598526051185
 30
0.0
 10
8.619841155780968
 20
22.84304703896592
 30
0.0
 10
10.83513688491367
 20
21.92371640778259
 30
0.0
 10
12.23607918604022
 20
21.17388362093335
 30
0.0
 10
13.8931900508534
 20
20.06691069580334
 30
0.0
 10
14.21986764019059
 20
19.83695886546861
 30
0.0
 10
14.86357224948375
 20
19.35963714075703
 30
0.0
 10
15.18142053156815
 20
19.11158231176244
 30
0.0
 10
16.11369472852782
 20
18.34606760783284
 30
0.0
 10
16.70521740396199
 20
17.80902006663506
 30
0.0
 10
18.39261925135712
 20
16.12027042316933
 30
0.0
 10
19.40215531552943
 20
14.89169517033917
 30
0.0
 10
20.51637048959009
 20
13.2244773839721
 30
0.0
 10
20.7323078476786
 20
12.88343978619138
 30
0.0
 10
21.14515685610884
 20
12.19422870808927
 30
0.0
 10
21.34230886600478
 20
11.84580857857216
 30
0.0
 10
21.906462437138
 20
10.78931647409405
 30
0.0
 10
22.24622148919499
 20
10.0700372915589
 30
0.0
 10
22.85415561528246
 20
8.602030972972027
 30
0.0
 10
23.12232214228962
 20
7.853300057556289
 30
0.0
 10
23.47014176850055
 20
6.707812429921112
 30
0.0
 10
23.57699345338388
 20
6.322244545677793
 30
0.0
 10
23.77219374792514
 20
5.543497041228204
 30
0.0
 10
23.86065350396567
 20
5.149530432992969
 30
0.0
 10
24.2517519579544
 20
3.181381179797484
 30
0.0
 10
24.40634980926861
 20
1.598451910007626
 30
0.0
 10
24.40706649184525
 20
-0.7882251605209377
 30
0.0
 10
24.36849881714549
 20
-1.585846071376499
 30
0.0
 10
24.25065450029192
 20
-2.785465003591583
 30
0.0
 10
24.20126529628767
 20
-3.18600924182548
 30
0.0
 10
24.08352401350159
 20
-3.979258275256671
 30
0.0
 10
24.01508236699448
 20
-4.373087848574682
 30
0.0
 10
23.62581391932134
 20
-6.32849322096032
 30
0.0
 10
23.1651385205729
 20
-7.8492303216093
 30
0.0
 10
22.24887163234797
 20
-10.06455656666961
 30
0.0
 10
21.90338212235957
 20
-10.7957741775686
 30
0.0
 10
21.14796425929695
 20
-12.2090605158734
 30
0.0
 10
20.73796696587302
 20
-12.89259012696797
 30
0.0
 10
19.41340355404794
 20
-14.8754790904994
 30
0.0
 10
18.40519099128532
 20
-16.10780096166625
 30
0.0
 10
16.69765625304031
 20
-17.81653103124026
 30
0.0
 10
16.10342784660127
 20
-18.35474630136547
 30
0.0
 10
14.87181050045985
 20
-19.36556112873752
 30
0.0
 10
14.23355953178493
 20
-19.83900192324232
 30
0.0
 10
12.9125489832976
 20
-20.72252058190445
 30
0.0
 10
12.22979105981678
 20
-21.13260151528594
 30
0.0
 10
10.81882203862516
 20
-21.88805994191431
 30
0.0
 10
10.087499474699
 20
-22.23435303457829
 30
0.0
 10
7.870502639225021
 20
-23.15326355166028
 30
0.0
 10
6.349931201721873
 20
-23.6149004976733
 30
0.0
 10
4.005969532400008
 20
-24.08358714449123
 30
0.0
 10
3.21293553733977
 20
-24.20237089045547
 30
0.0
 10
1.609632052470789
 20
-24.3614904959625
 30
0.0
 10
0.805882374724236
 20
-24.40129108279404
 30
0.0
 10
0.0000018665932612
 20
-24.40129109023911
 30
0.0
  0
SPLINE
  5
9B
330
1B
100
AcDbEntity
 67
     1
  8
0
  6
Continuous
 62
     7
370
    25
100
AcDbSpline
210
0.0
220
0.0
230
1.0
 70
    11
 71
     3
 72
   118
 73
   114
 74
     0
 42
0.000000001
 43
0.00000001
 40
0.0
 40
0.0
 40
0.0
 40
0.0
 40
0.0156250000000001
 40
0.0156250000000001
 40
0.0312500000000001
 40
0.0312500000000001
 40
0.0625000000000002
 40
0.0625000000000002
 40
0.0781250000000002
 40
0.0781250000000002
 40
0.0937500000000003
 40
0.0937500000000003
 40
0.1093750000000003
 40
0.1093750000000003
 40
0.1250000000000004
 40
0.1250000000000004
 40
0.1562500000000005
 40
0.1562500000000005
 40
0.1718750000000005
 40
0.1718750000000005
 40
0.1875000000000006
 40
0.1875000000000006
 40
0.2187500000000006
 40
0.2187500000000006
 40
0.2265625000000006
 40
0.2265625000000006
 40
0.2343750000000006
 40
0.2343750000000006
 40
0.2500000000000006
 40
0.2500000000000006
 40
0.2812500000000007
 40
0.2812500000000007
 40
0.2890625000000007
 40
0.2890625000000007
 40
0.2968750000000007
 40
0.2968750000000007
 40
0.3125000000000007
 40
0.3125000000000007
 40
0.3281250000000007
 40
0.3281250000000007
 40
0.3359375000000007
 40
0.3359375000000007
 40
0.3437500000000008
 40
0.3437500000000008
 40
0.3750000000000008
 40
0.3750000000000008
 40
0.3906250000000008
 40
0.3906250000000008
 40
0.4062500000000009
 40
0.4062500000000009
 40
0.437500000000001
 40
0.437500000000001
 40
0.4531250000000011
 40
0.4531250000000011
 40
0.4687500000000011
 40
0.4687500000000011
 40
0.5000000000000012
 40
0.5000000000000012
 40
0.5312500000000013
 40
0.5312500000000013
 40
0.5468750000000013
 40
0.5468750000000013
 40
0.5625000000000014
 40
0.5625000000000014
 40
0.5781250000000014
 40
0.5781250000000014
 40
0.5937500000000016
 40
0.5937500000000016
 40
0.6250000000000016
 40
0.6250000000000016
 40
0.6406250000000014
 40
0.6406250000000014
 40
0.6562500000000014
 40
0.6562500000000014
 40
0.6875000000000014
 40
0.6875000000000014
 40
0.7031250000000014
 40
0.7031250000000014
 40
0.7187500000000016
 40
0.7187500000000016
 40
0.7343750000000016
 40
0.7343750000000016
 40
0.7500000000000016
 40
0.7500000000000016
 40
0.7812500000000016
 40
0.7812500000000016
 40
0.7968750000000017
 40
0.7968750000000017
 40
0.8046875000000017
 40
0.8046875000000017
 40
0.8125000000000017
 40
0.8125000000000017
 40
0.8437500000000017
 40
0.8437500000000017
 40
0.8515625000000017
 40
0.8515625000000017
 40
0.8593750000000016
 40
0.8593750000000016
 40
0.8750000000000013
 40
0.8750000000000013
 40
0.906250000000001
 40
0.906250000000001
 40
0.9140625000000009
 40
0.9140625000000009
 40
0.9218750000000009
 40
0.9218750000000009
 40
0.9375000000000007
 40
0.9375000000000007
 40
0.9531250000000006
 40
0.9531250000000006
 40
0.9687500000000003
 40
0.9687500000000003
 40
1.0
 40
1.0
 40
1.0
 40
1.0
 10
-0.0000000676157089
 20
-22.5
 30
0.0
 10
0.7429935879895465
 20
-22.50000000223281
 30
0.0
 10
1.484043110078442
 20
-22.46328741522553
 30
0.0
 10
2.962257808176612
 20
-22.31651169267942
 30
0.0
 10
3.693369839681094
 20
-22.20695122392531
 30
0.0
 10
5.85440455584038
 20
-21.7746320527905
 30
0.0
 10
7.256337066551839
 20
-21.34881443535616
 30
0.0
 10
9.300387157640673
 20
-20.50114326257596
 30
0.0
 10
9.974581804225341
 20
-20.18172346136475
 30
0.0
 10
11.27517211568211
 20
-19.48498749812091
 30
0.0
 10
11.90452501316748
 20
-19.10677832602896
 30
0.0
 10
13.12221627278981
 20
-18.29191443997239
 30
0.0
 10
13.71055414662496
 20
-17.8552577355535
 30
0.0
 10
14.84590697949992
 20
-16.92301893181631
 30
0.0
 10
15.39381350004076
 20
-16.42654901347921
 30
0.0
 10
16.96762259555427
 20
-14.85105416190798
 30
0.0
 10
17.89696123424678
 20
-13.71484410949335
 30
0.0
 10
19.11795696737752
 20
-11.88657915404852
 30
0.0
 10
19.49590759270358
 20
-11.25634684550061
 30
0.0
 10
20.19229274393396
 20
-9.953244240584098
 30
0.0
 10
20.51076283426438
 20
-9.27908266691598
 30
0.0
 10
21.35537371361361
 20
-7.236648553267353
 30
0.0
 10
21.78003993768579
 20
-5.834586142418625
 30
0.0
 10
22.13888198046577
 20
-4.031756825664059
 30
0.0
 10
22.20197357074523
 20
-3.668655831660567
 30
0.0
 10
22.31051195768534
 20
-2.93729845831599
 30
0.0
 10
22.35604112404206
 20
-2.568005215144367
 30
0.0
 10
22.46467079699714
 20
-1.462008235960165
 30
0.0
 10
22.50022170231012
 20
-0.7266368616822582
 30
0.0
 10
22.49955348291032
 20
1.473772098090119
 30
0.0
 10
22.35703464627388
 20
2.933158804348813
 30
0.0
 10
21.99650598711009
 20
4.747696865920225
 30
0.0
 10
21.91495939238732
 20
5.110922642482342
 30
0.0
 10
21.73501020758467
 20
5.82891985736758
 30
0.0
 10
21.63650740299569
 20
6.184408041673638
 30
0.0
 10
21.31586690478528
 20
7.240527591322237
 30
0.0
 10
21.06865633361686
 20
7.930838387697944
 30
0.0
 10
20.50824927297531
 20
9.284297980641556
 30
0.0
 10
20.19505286850295
 20
9.947447118563982
 30
0.0
 10
19.67502183460314
 20
10.92149174529074
 30
0.0
 10
19.49329055813515
 20
11.24272070119557
 30
0.0
 10
19.11273994800504
 20
11.87814451961689
 30
0.0
 10
18.9136769554686
 20
12.19260259225656
 30
0.0
 10
17.88651753474725
 20
13.72990290044251
 30
0.0
 10
16.95590235289074
 20
14.86271056795839
 30
0.0
 10
15.4005509995275
 20
16.41984246020253
 30
0.0
 10
14.8553392316613
 20
16.91503698091841
 30
0.0
 10
13.70968633930434
 20
17.85620565045846
 30
0.0
 10
13.11400586141309
 20
18.29789744649268
 30
0.0
 10
11.28082795074565
 20
19.52315864628051
 30
0.0
 10
9.98934908716903
 20
20.21474530628168
 30
0.0
 10
7.947203234038046
 20
21.06264979775066
 30
0.0
 10
7.245108431305535
 20
21.31439791414164
 30
0.0
 10
5.832146414206912
 20
21.74353289663374
 30
0.0
 10
5.119541734397668
 20
21.92207119966632
 30
0.0
 10
2.963771401402846
 20
22.35204044587745
 30
0.0
 10
1.502825722388311
 20
22.49886324980021
 30
0.0
 10
-1.468592395373255
 20
22.50112372885704
 30
0.0
 10
-2.939728408550256
 20
22.35642634354799
 30
0.0
 10
-5.122623875555101
 20
21.92165995362176
 30
0.0
 10
-5.841585661336797
 20
21.74088801964354
 30
0.0
 10
-7.248163785981466
 20
21.31324603745291
 30
0.0
 10
-7.938076146259196
 20
21.06593203566851
 30
0.0
 10
-9.291427997909329
 20
20.50502160922735
 30
0.0
 10
-9.954868096320965
 20
20.19142637187187
 30
0.0
 10
-11.25479069048983
 20
19.49673778505356
 30
0.0
 10
-11.89444245246278
 20
19.11328143832645
 30
0.0
 10
-13.73588353893525
 20
17.88174090482521
 30
0.0
 10
-14.86807752668622
 20
16.95128424285872
 30
0.0
 10
-16.42572694792585
 20
15.39429881279489
 30
0.0
 10
-16.92133609163271
 20
14.84823121546378
 30
0.0
 10
-17.86366733696686
 20
13.70003557032054
 30
0.0
 10
-18.30315727461499
 20
13.10662979943617
 30
0.0
 10
-19.52672103343881
 20
11.27450262128212
 30
0.0
 10
-20.21822660564516
 20
9.9825884762362
 30
0.0
 10
-21.06638403424573
 20
7.937389600016646
 30
0.0
 10
-21.31779156972318
 20
7.235017427349955
 30
0.0
 10
-21.74575315700986
 20
5.82373885219913
 30
0.0
 10
-21.92391280376696
 20
5.111623824522968
 30
0.0
 10
-22.20998144563852
 20
3.674693855955829
 30
0.0
 10
-22.31788866370974
 20
2.949878640612286
 30
0.0
 10
-22.4628023176343
 20
1.48743081821211
 30
0.0
 10
-22.49980517979193
 20
0.7476687909286691
 30
0.0
 10
-22.50038733075127
 20
-1.477679587816469
 30
0.0
 10
-22.35546861754706
 20
-2.938014639834988
 30
0.0
 10
-21.92781832446866
 20
-5.094900422245826
 30
0.0
 10
-21.74996594678166
 20
-5.808218472787967
 30
0.0
 10
-21.4288687904756
 20
-6.869511444712066
 30
0.0
 10
-21.31240015869415
 20
-7.222803813736327
 30
0.0
 10
-21.06301506397558
 20
-7.9206497126668
 30
0.0
 10
-20.93018269267739
 20
-8.26516892583811
 30
0.0
 10
-20.22608881816316
 20
-9.966161240098913
 30
0.0
 10
-19.53616694320971
 20
-11.25843759073883
 30
0.0
 10
-18.5159825773891
 20
-12.78841874245673
 30
0.0
 10
-18.30398575950122
 20
-13.09010845756488
 30
0.0
 10
-17.86379447103963
 20
-13.68472437469198
 30
0.0
 10
-17.63499078758015
 20
-13.9783453646892
 30
0.0
 10
-16.93091137449788
 20
-14.83719639551748
 30
0.0
 10
-16.43674851671853
 20
-15.38249050862396
 30
0.0
 10
-14.88204530583549
 20
-16.9388781126165
 30
0.0
 10
-13.74998675719511
 20
-17.87123295639823
 30
0.0
 10
-12.21187389221052
 20
-18.90124876803259
 30
0.0
 10
-11.89757573485731
 20
-19.10064088163269
 30
0.0
 10
-11.26337009903841
 20
-19.48135735691566
 30
0.0
 10
-10.94268039690142
 20
-19.66323933251849
 30
0.0
 10
-9.97003356662616
 20
-20.18388892029681
 30
0.0
 10
-9.307523605210285
 20
-20.49771906053887
 30
0.0
 10
-7.954693173498388
 20
-21.05966141375076
 30
0.0
 10
-7.264372970399535
 20
-21.30777424249996
 30
0.0
 10
-5.855464123414484
 20
-21.7372007793511
 30
0.0
 10
-5.133389998329092
 20
-21.91909206400447
 30
0.0
 10
-2.955024798629585
 20
-22.35421632669059
 30
0.0
 10
-1.485987378826199
 20
-22.4999999955344
 30
0.0
 10
-0.0000000676157073
 20
-22.5
 30
0.0
  0
LINE
  5
9C
330
1B
100
AcDbEntity
 67
     1
  8
0
  6
Continuous
 62
     7
370
    25
100
AcDbLine
 10
-97.3744658182
 20
143.6588120506
 30
0.0
 11
-97.4999999743
 21
115.7977264616
 31
0.0
  0
LINE
  5
9D
330
1B
100
AcDbEntity
 67
     1
  8
0
  6
Continuous
 62
     7
370
    25
100
AcDbLine
 10
-97.4999999922
 20
-115.7977264616
 30
0.0
 11
-97.374465836
 21
-143.6588120507
 31
0.0
  0
LINE
  5
9E
330
1B
100
AcDbEntity
 67
     1
  8
0
  6
Continuous
 62
     7
370
    25
100
AcDbLine
 10
97.4999999788
 20
115.7977264616
 30
0.0
 11
97.3744658227
 21
143.6588120506
 31
0.0
  0
LINE
  5
9F
330
1B
100
AcDbEntity
 67
     1
  8
0
  6
Continuous
 62
     7
370
    25
100
AcDbLine
 10
97.3744658356
 20
-143.6588120506
 30
0.0
 11
97.4999999917
 21
-115.7977264615
 31
0.0
  0
VIEWPORT
  5
135
330
1B
100
AcDbEntity
 67
     1
  8
0
100
AcDbViewport
 10
0.0
 20
0.0
 30
0.0
 40
205.6
 41
156.0
 68
     1
 69
     1
 12
0.0000003357
 22
73.4999932029
 13
0.0
 23
0.0
 14
10.0
 24
10.0
 15
10.0
 25
10.0
 16
0.0
 26
0.0
 36
1.0
 17
0.0
 27
0.0
 37
0.0
 42
50.0
 43
0.0
 44
0.0
 45
436.9361346937
 50
0.0
 51
0.0
 72
   100
 90
   557152
  1

281
     0
 71
     1
 74
     0
110
0.0
120
0.0
130
0.0
111
1.0
121
0.0
131
0.0
112
0.0
122
1.0
132
0.0
 79
     0
146
0.0
  0
ENDSEC
  0
SECTION
  2
OBJECTS
  0
DICTIONARY
  5
C
330
0
100
AcDbDictionary
281
     1
  3
ACAD_GROUP
350
D
  3
ACAD_LAYOUT
350
1A
  3
ACAD_MLINESTYLE
350
17
  3
ACAD_PLOTSETTINGS
350
19
  3
ACAD_PLOTSTYLENAME
350
E
  3
ACAD_SCALELIST
350
47
  0
DICTIONARY
  5
D
102
{ACAD_REACTORS
330
C
102
}
330
C
100
AcDbDictionary
281
     1
  0
DICTIONARY
  5
1A
102
{ACAD_REACTORS
330
C
102
}
330
C
100
AcDbDictionary
281
     1
  3
_Bottom
350
B0
  3
_Isometric
350
101
  3
_Right
350
26
  3
_Top
350
1E
  3
Model
350
22
  0
DICTIONARY
  5
17
102
{ACAD_REACTORS
330
C
102
}
330
C
100
AcDbDictionary
281
     1
  3
Standard
350
18
  0
DICTIONARY
  5
19
102
{ACAD_REACTORS
330
C
102
}
330
C
100
AcDbDictionary
281
     1
  0
ACDBDICTIONARYWDFLT
  5
E
102
{ACAD_REACTORS
330
C
102
}
330
C
100
AcDbDictionary
281
     1
  3
Normal
350
F
100
AcDbDictionaryWithDefault
340
F
  0
DICTIONARY
  5
47
102
{ACAD_REACTORS
330
C
102
}
330
C
100
AcDbDictionary
281
     1
  3
A0
350
48
  3
A1
350
49
  3
A2
350
4A
  3
A3
350
4B
  3
A4
350
4C
  3
A5
350
4D
  3
A6
350
4E
  3
A7
350
4F
  3
A8
350
50
  3
A9
350
51
  3
B0
350
52
  3
B1
350
53
  3
B2
350
54
  3
B3
350
55
  3
B4
350
56
  3
B5
350
57
  3
B6
350
58
  3
B7
350
59
  3
B8
350
5A
  3
B9
350
5B
  3
C0
350
5C
  3
C1
350
5D
  3
C2
350
5E
  3
C3
350
5F
  3
C4
350
60
  3
C5
350
61
  3
C6
350
62
  3
C7
350
63
  3
C8
350
64
  3
C9
350
65
  3
D0
350
66
  3
D1
350
67
  3
D2
350
68
  0
LAYOUT
  5
B0
102
{ACAD_REACTORS
330
1A
102
}
330
1A
100
AcDbPlotSettings
  1

  2
none_device
  4
ISO_A4_(210.00_x_297.00_MM)
  6

 40
7.5
 41
20.0
 42
7.5
 43
20.0
 44
210.0
 45
297.0
 46
0.0
 47
0.0
 48
0.0
 49
0.0
140
0.0
141
0.0
142
1.0
143
2.1967628682
 70
   688
 72
     1
 73
     1
 74
     1
  7

 75
     0
147
0.455215269
148
282.2840283626
149
181.4562385198
100
AcDbLayout
  1
_Bottom
 70
     1
 71
     3
 10
0.0
 20
0.0
 11
0.0
 21
0.0
 12
0.0
 22
0.0
 32
0.0
 14
0.0
 24
0.0
 34
0.0
 15
0.0
 25
0.0
 35
0.0
146
0.0
 13
0.0
 23
0.0
 33
0.0
 16
1.0
 26
0.0
 36
0.0
 17
0.0
 27
1.0
 37
0.0
 76
     0
330
AF
331
139
  0
LAYOUT
  5
101
102
{ACAD_REACTORS
330
1A
102
}
330
1A
100
AcDbPlotSettings
  1

  2
none_device
  4
ISO_A4_(210.00_x_297.00_MM)
  6

 40
7.5
 41
20.0
 42
7.5
 43
20.0
 44
210.0
 45
297.0
 46
0.0
 47
0.0
 48
0.0
 49
0.0
140
0.0
141
0.0
142
1.0
143
2.1967628682
 70
   688
 72
     1
 73
     1
 74
     1
  7

 75
     0
147
0.455215269
148
282.2840283626
149
181.4562385198
100
AcDbLayout
  1
_Isometric
 70
     1
 71
     4
 10
0.0
 20
0.0
 11
0.0
 21
0.0
 12
0.0
 22
0.0
 32
0.0
 14
0.0
 24
0.0
 34
0.0
 15
0.0
 25
0.0
 35
0.0
146
0.0
 13
0.0
 23
0.0
 33
0.0
 16
1.0
 26
0.0
 36
0.0
 17
0.0
 27
1.0
 37
0.0
 76
     0
330
100
331
13B
  0
LAYOUT
  5
26
102
{ACAD_REACTORS
330
1A
102
}
330
1A
100
AcDbPlotSettings
  1

  2
none_device
  4
ISO_A4_(210.00_x_297.00_MM)
  6

 40
7.5
 41
20.0
 42
7.5
 43
20.0
 44
210.0
 45
297.0
 46
0.0
 47
0.0
 48
0.0
 49
0.0
140
0.0
141
0.0
142
1.0
143
2.1967628682
 70
   688
 72
     1
 73
     1
 74
     1
  7

 75
     0
147
0.455215269
148
282.2840283626
149
181.4562385198
100
AcDbLayout
  1
_Right
 70
     1
 71
     2
 10
0.0
 20
0.0
 11
0.0
 21
0.0
 12
0.0
 22
0.0
 32
0.0
 14
0.0
 24
0.0
 34
0.0
 15
0.0
 25
0.0
 35
0.0
146
0.0
 13
0.0
 23
0.0
 33
0.0
 16
1.0
 26
0.0
 36
0.0
 17
0.0
 27
1.0
 37
0.0
 76
     0
330
23
331
137
  0
LAYOUT
  5
1E
102
{ACAD_REACTORS
330
1A
102
}
330
1A
100
AcDbPlotSettings
  1

  2
none_device
  4
ISO_A4_(210.00_x_297.00_MM)
  6

 40
7.5
 41
20.0
 42
7.5
 43
20.0
 44
210.0
 45
297.0
 46
0.0
 47
0.0
 48
0.0
 49
0.0
140
0.0
141
0.0
142
1.0
143
2.1967628682
 70
   688
 72
     1
 73
     1
 74
     1
  7

 75
     0
147
0.455215269
148
282.2840283626
149
181.4562385198
100
AcDbLayout
  1
_Top
 70
     1
 71
     1
 10
-326.2192857267
 20
-197.9319600314
 11
326.2192861311
 21
263.3882422923
 12
0.0
 22
0.0
 32
0.0
 14
-282.2840283626
 24
-181.4562385198
 34
0.0
 15
282.2840287669
 25
181.4562394778
 35
0.0
146
0.0
 13
0.0
 23
0.0
 33
0.0
 16
1.0
 26
0.0
 36
0.0
 17
0.0
 27
1.0
 37
0.0
 76
     0
330
1B
331
135
  0
LAYOUT
  5
22
102
{ACAD_REACTORS
330
1A
102
}
330
1A
100
AcDbPlotSettings
  1

  2
none_device
  4
ANSI_A_(11.00_x_8.50_Inches)
  6

 40
6.35
 41
19.05
 42
6.35000508
 43
19.05000254
 44
279.4
 45
215.9
 46
133.3499972955
 47
52.8892133986
 48
0.0
 49
0.0
140
0.0
141
0.0
142
0.0192890828
143
1.0
 70
  1696
 72
     0
 73
     0
 74
     0
  7

 75
     0
147
0.0179189148
148
-1300.4909072572
149
0.0
100
AcDbLayout
  1
Model
 70
     1
 71
     0
 10
0.0
 20
0.0
 11
420.0
 21
297.0
 12
0.0
 22
0.0
 32
0.0
 14
-282.2840283629
 24
0.0
 34
0.0
 15
282.2840290343
 25
146.9999864058
 35
0.0
146
0.0
 13
0.0
 23
0.0
 33
0.0
 16
1.0
 26
0.0
 36
0.0
 17
0.0
 27
1.0
 37
0.0
 76
     0
330
1F
331
29
  0
MLINESTYLE
  5
18
102
{ACAD_REACTORS
330
17
102
}
330
17
100
AcDbMlineStyle
  2
Standard
 70
     0
  3

 62
   256
 51
90.0
 52
90.0
 71
     2
 49
0.5
 62
   256
  6
BYLAYER
 49
-0.5
 62
   256
  6
BYLAYER
  0
ACDBPLACEHOLDER
  5
F
102
{ACAD_REACTORS
330
E
102
}
330
E
  0
SCALE
  5
48
102
{ACAD_REACTORS
330
47
102
}
330
47
100
AcDbScale
 70
     0
300
1:1
140
1.0
141
1.0
290
     1
  0
SCALE
  5
49
102
{ACAD_REACTORS
330
47
102
}
330
47
100
AcDbScale
 70
     0
300
1:2
140
1.0
141
2.0
290
     0
  0
SCALE
  5
4A
102
{ACAD_REACTORS
330
47
102
}
330
47
100
AcDbScale
 70
     0
300
1:4
140
1.0
141
4.0
290
     0
  0
SCALE
  5
4B
102
{ACAD_REACTORS
330
47
102
}
330
47
100
AcDbScale
 70
     0
300
1:5
140
1.0
141
5.0
290
     0
  0
SCALE
  5
4C
102
{ACAD_REACTORS
330
47
102
}
330
47
100
AcDbScale
 70
     0
300
1:8
140
1.0
141
8.0
290
     0
  0
SCALE
  5
4D
102
{ACAD_REACTORS
330
47
102
}
330
47
100
AcDbScale
 70
     0
300
1:10
140
1.0
141
10.0
290
     0
  0
SCALE
  5
4E
102
{ACAD_REACTORS
330
47
102
}
330
47
100
AcDbScale
 70
     0
300
1:16
140
1.0
141
16.0
290
     0
  0
SCALE
  5
4F
102
{ACAD_REACTORS
330
47
102
}
330
47
100
AcDbScale
 70
     0
300
1:20
140
1.0
141
20.0
290
     0
  0
SCALE
  5
50
102
{ACAD_REACTORS
330
47
102
}
330
47
100
AcDbScale
 70
     0
300
1:30
140
1.0
141
30.0
290
     0
  0
SCALE
  5
51
102
{ACAD_REACTORS
330
47
102
}
330
47
100
AcDbScale
 70
     0
300
1:40
140
1.0
141
40.0
290
     0
  0
SCALE
  5
52
102
{ACAD_REACTORS
330
47
102
}
330
47
100
AcDbScale
 70
     0
300
1:50
140
1.0
141
50.0
290
     0
  0
SCALE
  5
53
102
{ACAD_REACTORS
330
47
102
}
330
47
100
AcDbScale
 70
     0
300
1:100
140
1.0
141
100.0
290
     0
  0
SCALE
  5
54
102
{ACAD_REACTORS
330
47
102
}
330
47
100
AcDbScale
 70
     0
300
2:1
140
2.0
141
1.0
290
     0
  0
SCALE
  5
55
102
{ACAD_REACTORS
330
47
102
}
330
47
100
AcDbScale
 70
     0
300
4:1
140
4.0
141
1.0
290
     0
  0
SCALE
  5
56
102
{ACAD_REACTORS
330
47
102
}
330
47
100
AcDbScale
 70
     0
300
8:1
140
8.0
141
1.0
290
     0
  0
SCALE
  5
57
102
{ACAD_REACTORS
330
47
102
}
330
47
100
AcDbScale
 70
     0
300
10:1
140
10.0
141
1.0
290
     0
  0
SCALE
  5
58
102
{ACAD_REACTORS
330
47
102
}
330
47
100
AcDbScale
 70
     0
300
100:1
140
100.0
141
1.0
290
     0
  0
SCALE
  5
59
102
{ACAD_REACTORS
330
47
102
}
330
47
100
AcDbScale
 70
     0
300
1/128" = 1'-0"
140
0.0078125
141
12.0
290
     0
  0
SCALE
  5
5A
102
{ACAD_REACTORS
330
47
102
}
330
47
100
AcDbScale
 70
     0
300
1/64" = 1'-0"
140
0.015625
141
12.0
290
     0
  0
SCALE
  5
5B
102
{ACAD_REACTORS
330
47
102
}
330
47
100
AcDbScale
 70
     0
300
1/32" = 1'-0"
140
0.03125
141
12.0
290
     0
  0
SCALE
  5
5C
102
{ACAD_REACTORS
330
47
102
}
330
47
100
AcDbScale
 70
     0
300
1/16" = 1'-0"
140
0.0625
141
12.0
290
     0
  0
SCALE
  5
5D
102
{ACAD_REACTORS
330
47
102
}
330
47
100
AcDbScale
 70
     0
300
3/32" = 1'-0"
140
0.09375
141
12.0
290
     0
  0
SCALE
  5
5E
102
{ACAD_REACTORS
330
47
102
}
330
47
100
AcDbScale
 70
     0
300
1/8" = 1'-0"
140
0.125
141
12.0
290
     0
  0
SCALE
  5
5F
102
{ACAD_REACTORS
330
47
102
}
330
47
100
AcDbScale
 70
     0
300
3/16" = 1'-0"
140
0.1875
141
12.0
290
     0
  0
SCALE
  5
60
102
{ACAD_REACTORS
330
47
102
}
330
47
100
AcDbScale
 70
     0
300
1/4" = 1'-0"
140
0.25
141
12.0
290
     0
  0
SCALE
  5
61
102
{ACAD_REACTORS
330
47
102
}
330
47
100
AcDbScale
 70
     0
300
3/8" = 1'-0"
140
0.375
141
12.0
290
     0
  0
SCALE
  5
62
102
{ACAD_REACTORS
330
47
102
}
330
47
100
AcDbScale
 70
     0
300
1/2" = 1'-0"
140
0.5
141
12.0
290
     0
  0
SCALE
  5
63
102
{ACAD_REACTORS
330
47
102
}
330
47
100
AcDbScale
 70
     0
300
3/4" = 1'-0"
140
0.75
141
12.0
290
     0
  0
SCALE
  5
64
102
{ACAD_REACTORS
330
47
102
}
330
47
100
AcDbScale
 70
     0
300
1" = 1'-0"
140
1.0
141
12.0
290
     0
  0
SCALE
  5
65
102
{ACAD_REACTORS
330
47
102
}
330
47
100
AcDbScale
 70
     0
300
1-1/2" = 1'-0"
140
1.5
141
12.0
290
     0
  0
SCALE
  5
66
102
{ACAD_REACTORS
330
47
102
}
330
47
100
AcDbScale
 70
     0
300
3" = 1'-0"
140
3.0
141
12.0
290
     0
  0
SCALE
  5
67
102
{ACAD_REACTORS
330
47
102
}
330
47
100
AcDbScale
 70
     0
300
6" = 1'-0"
140
6.0
141
12.0
290
     0
  0
SCALE
  5
68
102
{ACAD_REACTORS
330
47
102
}
330
47
100
AcDbScale
 70
     0
300
1'-0" = 1'-0"
140
12.0
141
12.0
290
     0
  0
ENDSEC
  0
EOF
