  0
SECTION
  2
HEADER
  9
$ACADVER
  1
AC1015
  9
$ACADMAINTVER
 70
     6
  9
$DWGCODEPAGE
  3
ANSI_1252
  9
$INSBASE
 10
0.0
 20
0.0
 30
0.0
  9
$EXTMIN
 10
-179.8696860869
 20
-179.9302854857
 30
0.0
  9
$EXTMAX
 10
179.8693688495
 20
179.9417161576
 30
0.0
  9
$LIMMIN
 10
0.0
 20
0.0
  9
$LIMMAX
 10
420.0
 20
297.0
  9
$ORTHOMODE
 70
     0
  9
$REGENMODE
 70
     1
  9
$FILLMODE
 70
     1
  9
$QTEXTMODE
 70
     0
  9
$MIRRTEXT
 70
     1
  9
$LTSCALE
 40
1.0
  9
$ATTMODE
 70
     1
  9
$TEXTSIZE
 40
3.5
  9
$TRACEWID
 40
1.0
  9
$TEXTSTYLE
  7
Standard
  9
$CLAYER
  8
0
  9
$CELTYPE
  6
ByLayer
  9
$CECOLOR
 62
   256
  9
$CELTSCALE
 40
1.0
  9
$DISPSILH
 70
     0
  9
$DIMSCALE
 40
1.0
  9
$DIMASZ
 40
3.302
  9
$DIMEXO
 40
1.0
  9
$DIMDLI
 40
3.75
  9
$DIMRND
 40
0.0
  9
$DIMDLE
 40
0.0
  9
$DIMEXE
 40
1.0
  9
$DIMTP
 40
0.0
  9
$DIMTM
 40
0.0
  9
$DIMTXT
 40
3.5
  9
$DIMCEN
 40
2.5
  9
$DIMTSZ
 40
0.0
  9
$DIMTOL
 70
     0
  9
$DIMLIM
 70
     0
  9
$DIMTIH
 70
     1
  9
$DIMTOH
 70
     1
  9
$DIMSE1
 70
     0
  9
$DIMSE2
 70
     0
  9
$DIMTAD
 70
     1
  9
$DIMZIN
 70
     1
  9
$DIMBLK
  1

  9
$DIMASO
 70
     1
  9
$DIMSHO
 70
     1
  9
$DIMPOST
  1

  9
$DIMAPOST
  1

  9
$DIMALT
 70
     0
  9
$DIMALTD
 70
     3
  9
$DIMALTF
 40
0.0393700787
  9
$DIMLFAC
 40
1.0
  9
$DIMTOFL
 70
     1
  9
$DIMTVP
 40
0.0
  9
$DIMTIX
 70
     0
  9
$DIMSOXD
 70
     0
  9
$DIMSAH
 70
     0
  9
$DIMBLK1
  1

  9
$DIMBLK2
  1

  9
$DIMSTYLE
  2
ISO-25
  9
$DIMCLRD
 70
     0
  9
$DIMCLRE
 70
     0
  9
$DIMCLRT
 70
     0
  9
$DIMTFAC
 40
1.0
  9
$DIMGAP
 40
1.524
  9
$DIMJUST
 70
     0
  9
$DIMSD1
 70
     0
  9
$DIMSD2
 70
     0
  9
$DIMTOLJ
 70
     0
  9
$DIMTZIN
 70
     1
  9
$DIMALTZ
 70
     0
  9
$DIMALTTZ
 70
     0
  9
$DIMUPT
 70
     0
  9
$DIMDEC
 70
     2
  9
$DIMTDEC
 70
     2
  9
$DIMALTU
 70
     2
  9
$DIMALTTD
 70
     3
  9
$DIMTXSTY
  7
Standard
  9
$DIMAUNIT
 70
     0
  9
$DIMADEC
 70
     2
  9
$DIMALTRND
 40
0.0
  9
$DIMAZIN
 70
     0
  9
$DIMDSEP
 70
    44
  9
$DIMATFIT
 70
     3
  9
$DIMFRAC
 70
     0
  9
$DIMLDRBLK
  1

  9
$DIMLUNIT
 70
     2
  9
$DIMLWD
 70
    -2
  9
$DIMLWE
 70
    -2
  9
$DIMTMOVE
 70
     0
  9
$LUNITS
 70
     2
  9
$LUPREC
 70
     2
  9
$SKETCHINC
 40
1.0
  9
$FILLETRAD
 40
10.0
  9
$AUNITS
 70
     0
  9
$AUPREC
 70
     2
  9
$MENU
  1
.
  9
$ELEVATION
 40
0.0
  9
$PELEVATION
 40
0.0
  9
$THICKNESS
 40
0.0
  9
$LIMCHECK
 70
     0
  9
$CHAMFERA
 40
0.0
  9
$CHAMFERB
 40
0.0
  9
$CHAMFERC
 40
0.0
  9
$CHAMFERD
 40
0.0
  9
$SKPOLY
 70
     0
  9
$TDCREATE
 40
2460292.475306678
  9
$TDUCREATE
 40
2460292.475306678
  9
$TDUPDATE
 40
2460292.475412002
  9
$TDUUPDATE
 40
2460292.475412002
  9
$TDINDWG
 40
0.0000000116
  9
$TDUSRTIMER
 40
0.0000000116
  9
$USRTIMER
 70
     1
  9
$ANGBASE
 50
0.0
  9
$ANGDIR
 70
     0
  9
$PDMODE
 70
     0
  9
$PDSIZE
 40
-1.0
  9
$PLINEWID
 40
0.0
  9
$SPLFRAME
 70
     0
  9
$SPLINETYPE
 70
     6
  9
$SPLINESEGS
 70
     8
  9
$HANDSEED
  5
10B
  9
$SURFTAB1
 70
     6
  9
$SURFTAB2
 70
     6
  9
$SURFTYPE
 70
     6
  9
$SURFU
 70
     6
  9
$SURFV
 70
     6
  9
$UCSBASE
  2

  9
$UCSNAME
  2

  9
$UCSORG
 10
0.0
 20
0.0
 30
0.0
  9
$UCSXDIR
 10
1.0
 20
0.0
 30
0.0
  9
$UCSYDIR
 10
0.0
 20
1.0
 30
0.0
  9
$UCSORTHOREF
  2

  9
$UCSORTHOVIEW
 70
     0
  9
$UCSORGTOP
 10
0.0
 20
0.0
 30
0.0
  9
$UCSORGBOTTOM
 10
0.0
 20
0.0
 30
0.0
  9
$UCSORGLEFT
 10
0.0
 20
0.0
 30
0.0
  9
$UCSORGRIGHT
 10
0.0
 20
0.0
 30
0.0
  9
$UCSORGFRONT
 10
0.0
 20
0.0
 30
0.0
  9
$UCSORGBACK
 10
0.0
 20
0.0
 30
0.0
  9
$PUCSBASE
  2

  9
$PUCSNAME
  2

  9
$PUCSORG
 10
0.0
 20
0.0
 30
0.0
  9
$PUCSXDIR
 10
1.0
 20
0.0
 30
0.0
  9
$PUCSYDIR
 10
0.0
 20
1.0
 30
0.0
  9
$PUCSORTHOREF
  2

  9
$PUCSORTHOVIEW
 70
     0
  9
$PUCSORGTOP
 10
0.0
 20
0.0
 30
0.0
  9
$PUCSORGBOTTOM
 10
0.0
 20
0.0
 30
0.0
  9
$PUCSORGLEFT
 10
0.0
 20
0.0
 30
0.0
  9
$PUCSORGRIGHT
 10
0.0
 20
0.0
 30
0.0
  9
$PUCSORGFRONT
 10
0.0
 20
0.0
 30
0.0
  9
$PUCSORGBACK
 10
0.0
 20
0.0
 30
0.0
  9
$USERI1
 70
     0
  9
$USERI2
 70
     0
  9
$USERI3
 70
     0
  9
$USERI4
 70
     0
  9
$USERI5
 70
     0
  9
$USERR1
 40
0.0
  9
$USERR2
 40
0.0
  9
$USERR3
 40
0.0
  9
$USERR4
 40
0.0
  9
$USERR5
 40
0.0
  9
$WORLDVIEW
 70
     1
  9
$SHADEDGE
 70
     3
  9
$SHADEDIF
 70
    70
  9
$TILEMODE
 70
     1
  9
$MAXACTVP
 70
    64
  9
$PINSBASE
 10
0.0
 20
0.0
 30
0.0
  9
$PLIMCHECK
 70
     0
  9
$PEXTMIN
 10
-179.9443563436
 20
0.0
 30
0.0
  9
$PEXTMAX
 10
179.9443563436
 20
117.0000006165
 30
0.0
  9
$PLIMMIN
 10
-207.9512600547
 20
-10.5025888917
  9
$PLIMMAX
 10
207.9512600547
 20
283.5699000746
  9
$UNITMODE
 70
     0
  9
$VISRETAIN
 70
     1
  9
$PLINEGEN
 70
     0
  9
$PSLTSCALE
 70
     1
  9
$TREEDEPTH
 70
  3020
  9
$CMLSTYLE
  2
Standard
  9
$CMLJUST
 70
     0
  9
$CMLSCALE
 40
20.0
  9
$PROXYGRAPHICS
 70
     1
  9
$MEASUREMENT
 70
     1
  9
$CELWEIGHT
370
    -1
  9
$ENDCAPS
280
     0
  9
$JOINSTYLE
280
     0
  9
$LWDISPLAY
290
     1
  9
$INSUNITS
 70
     4
  9
$HYPERLINKBASE
  1

  9
$STYLESHEET
  1

  9
$XEDIT
290
     1
  9
$CEPSNTYPE
380
     0
  9
$PSTYLEMODE
290
     1
  9
$FINGERPRINTGUID
  2
{9438d066-02d5-4a4c-82c1-8d46037c747b}
  9
$VERSIONGUID
  2
{FAEB1C32-E019-11D5-929B-00C0DF256EC4}
  9
$EXTNAMES
290
     1
  9
$PSVPSCALE
 40
0.0
  9
$OLESTARTUP
290
     0
  0
ENDSEC
  0
SECTION
  2
CLASSES
  0
CLASS
  1
ACDBDICTIONARYWDFLT
  2
AcDbDictionaryWithDefault
  3
ObjectDBX Classes
 90
        0
280
     0
281
     0
  0
CLASS
  1
VISUALSTYLE
  2
AcDbVisualStyle
  3
ObjectDBX Classes
 90
     4095
280
     0
281
     0
  0
CLASS
  1
MATERIAL
  2
AcDbMaterial
  3
ObjectDBX Classes
 90
     1153
280
     0
281
     0
  0
CLASS
  1
SCALE
  2
AcDbScale
  3
ObjectDBX Classes
 90
     1153
280
     0
281
     0
  0
CLASS
  1
TABLESTYLE
  2
AcDbTableStyle
  3
ObjectDBX Classes
 90
     4095
280
     0
281
     0
  0
CLASS
  1
MLEADERSTYLE
  2
AcDbMLeaderStyle
  3
ACDB_MLEADERSTYLE_CLASS
 90
     4095
280
     0
281
     0
  0
CLASS
  1
SUN
  2
AcDbSun
  3
SCENEOE
 90
     1153
280
     0
281
     0
  0
CLASS
  1
ACDBPLACEHOLDER
  2
AcDbPlaceHolder
  3
ObjectDBX Classes
 90
        0
280
     0
281
     0
  0
CLASS
  1
LAYOUT
  2
AcDbLayout
  3
ObjectDBX Classes
 90
        0
280
     0
281
     0
  0
ENDSEC
  0
SECTION
  2
TABLES
  0
TABLE
  2
VPORT
  5
8
330
0
100
AcDbSymbolTable
 70
     1
  0
VPORT
  5
29
330
8
100
AcDbSymbolTableRecord
100
AcDbViewportTableRecord
  2
*Active
 70
     0
 10
0.0
 20
0.0
 11
1.0
 21
1.0
 12
-0.0001586187
 22
0.005715336
 13
0.0
 23
0.0
 14
10.0
 24
10.0
 15
10.0
 25
10.0
 16
0.0
 26
0.0
 36
1.0
 17
0.0
 27
0.0
 37
0.0
 40
367.0694416761
 41
0.9996305722
 42
50.0
 43
0.0
 44
0.0
 50
0.0
 51
0.0
 71
     0
 72
   100
 73
     1
 74
     3
 75
     0
 76
     0
 77
     0
 78
     0
281
     0
 65
     1
110
0.0
120
0.0
130
0.0
111
1.0
121
0.0
131
0.0
112
0.0
122
1.0
132
0.0
 79
     0
146
0.0
  0
ENDTAB
  0
TABLE
  2
LTYPE
  5
5
330
0
100
AcDbSymbolTable
 70
     6
  0
LTYPE
  5
14
330
5
100
AcDbSymbolTableRecord
100
AcDbLinetypeTableRecord
  2
ByBlock
 70
     0
  3

 72
    65
 73
     0
 40
0.0
  0
LTYPE
  5
15
330
5
100
AcDbSymbolTableRecord
100
AcDbLinetypeTableRecord
  2
ByLayer
 70
     0
  3

 72
    65
 73
     0
 40
0.0
  0
LTYPE
  5
16
330
5
100
AcDbSymbolTableRecord
100
AcDbLinetypeTableRecord
  2
Continuous
 70
     0
  3
Solid line
 72
    65
 73
     0
 40
0.0
  0
LTYPE
  5
6E
330
5
100
AcDbSymbolTableRecord
100
AcDbLinetypeTableRecord
  2
HIDDEN
 70
     0
  3
Hidden __ __ __ __ __ __ __ __ __ __ __ __ __ __
 72
    65
 73
     2
 40
1.905
 49
1.27
 74
     0
 49
-0.635
 74
     0
  0
LTYPE
  5
6F
330
5
100
AcDbSymbolTableRecord
100
AcDbLinetypeTableRecord
  2
PHANTOM
 70
     0
  3
Phantom ______  __  __  ______  __  __  ______
 72
    65
 73
     6
 40
12.7
 49
6.35
 74
     0
 49
-1.27
 74
     0
 49
1.27
 74
     0
 49
-1.27
 74
     0
 49
1.27
 74
     0
 49
-1.27
 74
     0
  0
LTYPE
  5
70
330
5
100
AcDbSymbolTableRecord
100
AcDbLinetypeTableRecord
  2
CENTER
 70
     0
  3
Center ____ _ ____ _ ____ _ ____ _ ____ _ ____
 72
    65
 73
     4
 40
10.16
 49
6.35
 74
     0
 49
-1.27
 74
     0
 49
1.27
 74
     0
 49
-1.27
 74
     0
  0
LTYPE
  5
71
330
5
100
AcDbSymbolTableRecord
100
AcDbLinetypeTableRecord
  2
CENTERX2
 70
     0
  3
Center (2x) ________  __  ________  __  _____
 72
    65
 73
     4
 40
20.32
 49
12.7
 74
     0
 49
-2.54
 74
     0
 49
2.54
 74
     0
 49
-2.54
 74
     0
  0
LTYPE
  5
72
330
5
100
AcDbSymbolTableRecord
100
AcDbLinetypeTableRecord
  2
DOT2
 70
     0
  3
Dot (.5x) ........................................
 72
    65
 73
     2
 40
0.635
 49
0.0
 74
     0
 49
-0.635
 74
     0
  0
ENDTAB
  0
TABLE
  2
LAYER
  5
2
330
0
100
AcDbSymbolTable
 70
     1
  0
LAYER
  5
10
330
2
100
AcDbSymbolTableRecord
100
AcDbLayerTableRecord
  2
0
 70
     0
 62
     7
  6
Continuous
370
    -3
390
F
  0
ENDTAB
  0
TABLE
  2
STYLE
  5
3
330
0
100
AcDbSymbolTable
 70
     1
  0
STYLE
  5
11
330
3
100
AcDbSymbolTableRecord
100
AcDbTextStyleTableRecord
  2
Standard
 70
     0
 40
0.0
 41
1.0
 50
0.0
 71
     0
 42
3.5
  3
txt
  4

  0
ENDTAB
  0
TABLE
  2
VIEW
  5
6
330
0
100
AcDbSymbolTable
 70
     0
  0
ENDTAB
  0
TABLE
  2
UCS
  5
7
330
0
100
AcDbSymbolTable
 70
     0
  0
ENDTAB
  0
TABLE
  2
APPID
  5
9
330
0
100
AcDbSymbolTable
 70
     1
  0
APPID
  5
12
330
9
100
AcDbSymbolTableRecord
100
AcDbRegAppTableRecord
  2
ACAD
 70
     0
  0
ENDTAB
  0
TABLE
  2
DIMSTYLE
  5
A
330
0
100
AcDbSymbolTable
 70
     1
100
AcDbDimStyleTable
  0
DIMSTYLE
105
27
330
A
100
AcDbSymbolTableRecord
100
AcDbDimStyleTableRecord
  2
ISO-25
 70
     0
 41
2.5
 42
0.625
 43
3.75
 44
1.25
 73
     0
 74
     0
 77
     1
 78
     8
140
2.5
141
2.5
143
0.0393700787
147
0.625
171
     3
172
     1
178
     0
271
     2
272
     2
274
     3
278
    44
283
     0
284
     8
340
11
  0
ENDTAB
  0
TABLE
  2
BLOCK_RECORD
  5
1
330
0
100
AcDbSymbolTable
 70
     3
  0
BLOCK_RECORD
  5
1F
330
1
100
AcDbSymbolTableRecord
100
AcDbBlockTableRecord
  2
*Model_Space
340
22
  0
BLOCK_RECORD
  5
1B
330
1
100
AcDbSymbolTableRecord
100
AcDbBlockTableRecord
  2
*Paper_Space
340
1E
  0
BLOCK_RECORD
  5
23
330
1
100
AcDbSymbolTableRecord
100
AcDbBlockTableRecord
  2
*Paper_Space0
340
26
  0
BLOCK_RECORD
  5
C2
330
1
100
AcDbSymbolTableRecord
100
AcDbBlockTableRecord
  2
*Paper_Space1
340
C3
  0
BLOCK_RECORD
  5
D1
330
1
100
AcDbSymbolTableRecord
100
AcDbBlockTableRecord
  2
*Paper_Space2
340
D2
  0
ENDTAB
  0
ENDSEC
  0
SECTION
  2
BLOCKS
  0
BLOCK
  5
20
330
1F
100
AcDbEntity
  8
0
100
AcDbBlockBegin
  2
*Model_Space
 70
     0
 10
0.0
 20
0.0
 30
0.0
  3
*Model_Space
  1

  0
ENDBLK
  5
21
330
1F
100
AcDbEntity
  8
0
100
AcDbBlockEnd
  0
BLOCK
  5
1C
330
1B
100
AcDbEntity
 67
     1
  8
0
100
AcDbBlockBegin
  2
*Paper_Space
 70
     0
 10
0.0
 20
0.0
 30
0.0
  3
*Paper_Space
  1

  0
ENDBLK
  5
1D
330
1B
100
AcDbEntity
 67
     1
  8
0
100
AcDbBlockEnd
  0
BLOCK
  5
24
330
23
100
AcDbEntity
  8
0
100
AcDbBlockBegin
  2
*Paper_Space0
 70
     0
 10
0.0
 20
0.0
 30
0.0
  3
*Paper_Space0
  1

  0
SPLINE
  5
A8
330
23
100
AcDbEntity
  8
0
  6
Continuous
 62
     7
370
    25
100
AcDbSpline
210
0.0
220
0.0
230
1.0
 70
     8
 71
     3
 72
    13
 73
     9
 74
     0
 42
0.000000001
 43
0.00000001
 40
0.0
 40
0.0
 40
0.0
 40
0.0
 40
0.1809347188376812
 40
0.409571423810019
 40
0.5432652050031299
 40
0.6882082035852919
 40
0.8417567759564955
 40
1.0
 40
1.0
 40
1.0
 40
1.0
 10
179.9417161562461
 20
114.4355109343666
 30
0.0
 10
179.9274144542559
 20
114.6728547250543
 30
0.0
 10
179.8950405213556
 20
115.2101160915235
 30
0.0
 10
179.5711956592841
 20
115.8673129843204
 30
0.0
 10
179.1313474164495
 20
116.3666667324839
 30
0.0
 10
178.6700034279518
 20
116.6992974597431
 30
0.0
 10
178.1143125476211
 20
116.9389482393208
 30
0.0
 10
177.7069455202514
 20
116.9788812391039
 30
0.0
 10
177.5001951422067
 20
116.9991483747505
 30
0.0
  0
SPLINE
  5
A9
330
23
100
AcDbEntity
  8
0
  6
Continuous
 62
     7
370
    25
100
AcDbSpline
210
0.0
220
0.0
230
1.0
 70
     8
 71
     3
 72
    13
 73
     9
 74
     0
 42
0.000000001
 43
0.00000001
 40
0.0
 40
0.0
 40
0.0
 40
0.0
 40
0.1582434907729713
 40
0.3117922965050324
 40
0.4567354674889938
 40
0.5904293376934407
 40
0.8190659028202106
 40
1.0
 40
1.0
 40
1.0
 40
1.0
 10
-177.5001954752798
 20
116.9991483747116
 30
0.0
 10
-177.7069458215735
 20
116.9788812412093
 30
0.0
 10
-178.1143127531248
 20
116.9389482489112
 30
0.0
 10
-178.6700035299385
 20
116.6992975035527
 30
0.0
 10
-179.1313474473729
 20
116.3666668331358
 30
0.0
 10
-179.5711954239653
 20
115.867313311121
 30
0.0
 10
-179.895040280786
 20
115.2101173713951
 30
0.0
 10
-179.9274143970981
 20
114.6728548566622
 30
0.0
 10
-179.9417161575658
 20
114.4355109328951
 30
0.0
  0
SPLINE
  5
AA
330
23
100
AcDbEntity
  8
0
  6
Continuous
 62
     7
370
    25
100
AcDbSpline
210
0.0
220
0.0
230
1.0
 70
     8
 71
     3
 72
    61
 73
    57
 74
     0
 42
0.000000001
 43
0.00000001
 40
0.0
 40
0.0
 40
0.0
 40
0.0
 40
0.0155401674728531
 40
0.0290572654420752
 40
0.0405546427703297
 40
0.050031741551583
 40
0.0575702911401605
 40
0.0646596304105882
 40
0.0718522305466525
 40
0.0791490377321675
 40
0.0989588576872163
 40
0.118818736884843
 40
0.1386757230976674
 40
0.1625021560512577
 40
0.1863317321760898
 40
0.2101590986335971
 40
0.2339901177937375
 40
0.2578206352768023
 40
0.2816515189288081
 40
0.3054797107843432
 40
0.3293088494237122
 40
0.353138441776423
 40
0.3769623671897073
 40
0.4007909259704111
 40
0.4246134150104385
 40
0.4484359811002483
 40
0.4722633045478967
 40
0.4960815951460704
 40
0.5198993747353842
 40
0.5437254029432608
 40
0.56754875194967
 40
0.5913696153955835
 40
0.6151992622180085
 40
0.6390222026468703
 40
0.6628506409964473
 40
0.6866809315257625
 40
0.7105079654394171
 40
0.7343403166199772
 40
0.7581680623603408
 40
0.7819999797018449
 40
0.8058294688429684
 40
0.8296571135472456
 40
0.853487845350537
 40
0.8683798492849898
 40
0.8832712020494674
 40
0.8981672178022851
 40
0.9125217673348854
 40
0.9185888914931172
 40
0.9244307443765578
 40
0.9303053037851896
 40
0.9377055726754712
 40
0.9468740528754834
 40
0.9576010222769029
 40
0.9700324009456209
 40
0.984165414868844
 40
0.9999999999999999
 40
0.9999999999999999
 40
0.9999999999999999
 40
0.9999999999999999
 10
177.5000094614417
 20
116.9991532064542
 30
0.0
 10
177.4513953933518
 20
116.9993405000796
 30
0.0
 10
177.3604959945403
 20
116.9996907048376
 30
0.0
 10
176.7945662316974
 20
116.9999150485175
 30
0.0
 10
176.0878560262334
 20
116.9999939608969
 30
0.0
 10
175.3300055667332
 20
117.000001123531
 30
0.0
 10
174.5783909470873
 20
116.9999995925172
 30
0.0
 10
173.8070534858349
 20
116.9999999734811
 30
0.0
 10
172.9556728344139
 20
116.9999994866881
 30
0.0
 10
171.4612932776584
 20
116.9999986459106
 30
0.0
 10
169.0548028017507
 20
116.9999979611029
 30
0.0
 10
165.3502960819232
 20
117.0000001268556
 30
0.0
 10
160.7078275143134
 20
116.999999479722
 30
0.0
 10
154.9930445222336
 20
116.9999992340587
 30
0.0
 10
148.0735618160415
 20
116.9999999285684
 30
0.0
 10
140.321651417414
 20
117.0000006715621
 30
0.0
 10
131.7820747128421
 20
117.0000004333528
 30
0.0
 10
122.502076854015
 20
116.9999997982975
 30
0.0
 10
112.5345372476708
 20
117.0000009893377
 30
0.0
 10
101.9358637414693
 20
116.9999998699122
 30
0.0
 10
90.76530336914337
 20
116.9999996078613
 30
0.0
 10
79.08686650647712
 20
116.9999989562595
 30
0.0
 10
66.96614797252812
 20
117.0000004755444
 30
0.0
 10
54.47114376858934
 20
116.9999975754099
 30
0.0
 10
41.6731468085508
 20
116.9999993499268
 30
0.0
 10
28.64238783684163
 20
116.9999997385238
 30
0.0
 10
15.45273492720116
 20
117.0000005090653
 30
0.0
 10
2.178429140785464
 20
116.9999995122727
 30
0.0
 10
-11.10794078729389
 20
117.0000006193342
 30
0.0
 10
-24.33335638129157
 20
116.999999793534
 30
0.0
 10
-37.42448015805164
 20
117.0000000745056
 30
0.0
 10
-50.30648946361644
 20
116.9999974884076
 30
0.0
 10
-62.90863131372071
 20
116.9999997507854
 30
0.0
 10
-75.15990335733609
 20
116.9999995076715
 30
0.0
 10
-86.99031441226394
 20
116.9999991615996
 30
0.0
 10
-98.33484187183728
 20
116.9999998947509
 30
0.0
 10
-109.1276638058846
 20
117.0000006793569
 30
0.0
 10
-119.30820589082
 20
117.000000422126
 30
0.0
 10
-128.8197314891243
 20
116.9999998092716
 30
0.0
 10
-137.6070814564015
 20
117.0000009804131
 30
0.0
 10
-145.622539139036
 20
116.9999998970427
 30
0.0
 10
-152.8193719258882
 20
116.9999996245451
 30
0.0
 10
-158.3666368722531
 20
116.9999991340441
 30
0.0
 10
-162.5771288876741
 20
116.9999999018795
 30
0.0
 10
-165.7295491124682
 20
116.9999997460613
 30
0.0
 10
-168.4846217550888
 20
116.9999983454289
 30
0.0
 10
-170.4035287810734
 20
116.9999983132188
 30
0.0
 10
-171.680111642353
 20
116.9999988136145
 30
0.0
 10
-172.4848594267599
 20
116.9999991853124
 30
0.0
 10
-173.2863826732157
 20
116.9999998740712
 30
0.0
 10
-174.1466828639246
 20
116.9999999879422
 30
0.0
 10
-175.0646072919244
 20
116.9999830651303
 30
0.0
 10
-175.9697366621481
 20
116.9999232496908
 30
0.0
 10
-176.7607138460639
 20
116.9997856176964
 30
0.0
 10
-177.3624666062549
 20
116.9995410215412
 30
0.0
 10
-177.4525802138391
 20
116.9992841212987
 30
0.0
 10
-177.5001953593895
 20
116.9991483777328
 30
0.0
  0
SPLINE
  5
B3
330
23
100
AcDbEntity
  8
0
  6
Continuous
 62
     8
370
    25
100
AcDbSpline
210
0.0
220
0.0
230
1.0
 70
     8
 71
     3
 72
    80
 73
    76
 74
     0
 42
0.000000001
 43
0.00000001
 40
0.0
 40
0.0
 40
0.0
 40
0.0
 40
0.0000215956959105
 40
0.0071646795656498
 40
0.0163912138323418
 40
0.0277011018057531
 40
0.0410942252031883
 40
0.0533089797174232
 40
0.0668569877479821
 40
0.0817381923846651
 40
0.0979525311906071
 40
0.115499936203457
 40
0.1311417268917275
 40
0.1461773372142446
 40
0.1576062616850488
 40
0.1688685466328499
 40
0.1799641905929045
 40
0.1908931921393248
 40
0.2122482580487363
 40
0.2329370107856961
 40
0.2529594233425145
 40
0.2692640268267958
 40
0.2850983652618387
 40
0.28648198460919
 40
0.2875495387932562
 40
0.2887867715099384
 40
0.2901936826514463
 40
0.2917702720932758
 40
0.2935165396944304
 40
0.2954324852975442
 40
0.3026573837157921
 40
0.311599962842938
 40
0.3222601556682959
 40
0.334637882256845
 40
0.3487330497508569
 40
0.363438152532324
 40
0.3796392141965593
 40
0.3973361420216754
 40
0.4036327586621715
 40
0.4100990430482574
 40
0.4167349945728582
 40
0.4235406126127546
 40
0.4296679881372171
 40
0.4335959593837789
 40
0.4375239852020105
 40
0.4583517551152062
 40
0.4791810663109141
 40
0.5000119250250589
 40
0.525009043779385
 40
0.5500084101932489
 40
0.5750092180709233
 40
0.6000061103517214
 40
0.6250030309482942
 40
0.6458354562938524
 40
0.666667902035306
 40
0.6861819111779642
 40
0.7048700495580291
 40
0.7248631921536871
 40
0.7461612515319229
 40
0.7654563332012245
 40
0.7857101642682282
 40
0.7989610568392147
 40
0.8140544008827724
 40
0.8309900660134306
 40
0.8497679055138473
 40
0.8703877563496839
 40
0.885919154084484
 40
0.9022201823139466
 40
0.9178500199773882
 40
0.9325064380859658
 40
0.9461894050523941
 40
0.9619235774555088
 40
0.9761367845199276
 40
0.9888289485715985
 40
1.0
 40
1.0
 40
1.0
 40
1.0
 10
179.9416292543087
 20
114.4355115921873
 30
0.0
 10
179.9416581795483
 20
114.435511371789
 30
0.0
 10
179.9512545395991
 20
114.435438251496
 30
0.0
 10
179.9010695698882
 20
114.4360309565508
 30
0.0
 10
179.7160507139835
 20
114.4375458287697
 30
0.0
 10
179.2707907139076
 20
114.4401276604012
 30
0.0
 10
178.5214350560154
 20
114.4433818796102
 30
0.0
 10
177.4311189335621
 20
114.4471760241485
 30
0.0
 10
175.9940721989549
 20
114.451364962469
 30
0.0
 10
174.048042934284
 20
114.4561959431681
 30
0.0
 10
171.4945965648121
 20
114.4616654710058
 30
0.0
 10
168.4304755008081
 20
114.4674108359793
 30
0.0
 10
164.9966420764373
 20
114.47312128292
 30
0.0
 10
161.6480162940901
 20
114.4783121074958
 30
0.0
 10
158.3829582382697
 20
114.4826237002658
 30
0.0
 10
155.2591873165204
 20
114.4861125610321
 30
0.0
 10
151.9915957905447
 20
114.4891981557222
 30
0.0
 10
147.4946960651053
 20
114.4927377756307
 30
0.0
 10
141.5839166261678
 20
114.4961636190588
 30
0.0
 10
134.0519208189181
 20
114.4986724896405
 30
0.0
 10
126.6211097668987
 20
114.499503086971
 30
0.0
 10
119.4307767106566
 20
114.4989344277584
 30
0.0
 10
114.597788110077
 20
114.4977417062128
 30
0.0
 10
111.9037699774439
 20
114.4968308481801
 30
0.0
 10
111.3586867531259
 20
114.4965837053255
 30
0.0
 10
110.8085948528595
 20
114.4963089294112
 30
0.0
 10
110.1810265344291
 20
114.4959698972314
 30
0.0
 10
109.4752137206248
 20
114.4955677619364
 30
0.0
 10
108.6903030169645
 20
114.4951020867575
 30
0.0
 10
107.0520033783637
 20
114.4940994352611
 30
0.0
 10
104.3013952323471
 20
114.4923286736905
 30
0.0
 10
100.1461394497597
 20
114.4895685830745
 30
0.0
 10
95.08917098193496
 20
114.4861662512818
 30
0.0
 10
89.08319830897462
 20
114.4821213655511
 30
0.0
 10
82.2626396738568
 20
114.4775557710919
 30
0.0
 10
74.63321912310273
 20
114.4725000272554
 30
0.0
 10
66.20816532325908
 20
114.466982758971
 30
0.0
 10
59.0909763029077
 20
114.4623805503852
 30
0.0
 10
53.63003102962201
 20
114.4588770682391
 30
0.0
 10
50.13018782255092
 20
114.456641242787
 30
0.0
 10
46.51702289600673
 20
114.454339244377
 30
0.0
 10
42.94521853055859
 20
114.4520811804945
 30
0.0
 10
39.85234402241429
 20
114.4501032149937
 30
0.0
 10
37.27821504030656
 20
114.4485441221505
 30
0.0
 10
31.98427003628569
 20
114.4455426961386
 30
0.0
 10
23.50331624587204
 20
114.4416822102735
 30
0.0
 10
11.77847563501223
 20
114.4385125071675
 30
0.0
 10
-0.7824799951585248
 20
114.4373783649901
 30
0.0
 10
-14.13094810702207
 20
114.4388451186353
 30
0.0
 10
-28.17765068500879
 20
114.4433066743005
 30
0.0
 10
-42.05074879820647
 20
114.4513219075922
 30
0.0
 10
-55.66394122750677
 20
114.4603082361759
 30
0.0
 10
-68.1968535046605
 20
114.4687541559239
 30
0.0
 10
-79.64498807529668
 20
114.4769355782324
 30
0.0
 10
-89.81811398468162
 20
114.484433547877
 30
0.0
 10
-99.28164558230249
 20
114.4922148880539
 30
0.0
 10
-108.2470268027564
 20
114.4970687908126
 30
0.0
 10
-117.0752006381206
 20
114.4997858262285
 30
0.0
 10
-125.5121993258457
 20
114.5004860101761
 30
0.0
 10
-133.4738654575363
 20
114.4994721774002
 30
0.0
 10
-139.9252674260328
 20
114.4974809384358
 30
0.0
 10
-145.4852769366861
 20
114.4944849898185
 30
0.0
 10
-150.3593804955181
 20
114.4907278072738
 30
0.0
 10
-155.4266035518013
 20
114.4857775380051
 30
0.0
 10
-160.531468298386
 20
114.4795944270698
 30
0.0
 10
-164.938645524357
 20
114.4730153742636
 30
0.0
 10
-168.6309596471709
 20
114.4663707271798
 30
0.0
 10
-171.5533563023391
 20
114.4600843472421
 30
0.0
 10
-174.0019927209877
 20
114.4543674105364
 30
0.0
 10
-175.9319877637617
 20
114.4493585789837
 30
0.0
 10
-177.5046419959493
 20
114.4448109470292
 30
0.0
 10
-178.6888013288146
 20
114.4408866330698
 30
0.0
 10
-179.4645703211062
 20
114.4378705744645
 30
0.0
 10
-179.8741921748746
 20
114.4359223975102
 30
0.0
 10
-179.9201854121027
 20
114.4356421327969
 30
0.0
 10
-179.9417161575658
 20
114.4355109328951
 30
0.0
  0
LINE
  5
B6
330
23
100
AcDbEntity
  8
0
  6
Continuous
 62
     7
370
    25
100
AcDbLine
 10
-179.9443563436
 20
114.5516791186
 30
0.0
 11
-177.9418163756
 21
26.4399205253
 31
0.0
  0
LINE
  5
B7
330
23
100
AcDbEntity
  8
0
  6
Continuous
 62
     7
370
    25
100
AcDbLine
 10
177.9418163756
 20
26.4399205253
 30
0.0
 11
179.9443563436
 21
114.5516791186
 31
0.0
  0
LINE
  5
B8
330
23
100
AcDbEntity
  8
0
  6
Continuous
 62
     7
370
    25
100
AcDbLine
 10
156.0615328605
 20
0.0
 30
0.0
 11
-156.0615328572
 21
0.0
 31
0.0
  0
LINE
  5
B9
330
23
100
AcDbEntity
  8
0
  6
Continuous
 62
     8
370
    25
100
AcDbLine
 10
-177.9418163756
 20
26.4399205253
 30
0.0
 11
177.9418163756
 21
26.4399205253
 31
0.0
  0
LINE
  5
BA
330
23
100
AcDbEntity
  8
0
  6
Continuous
 62
     8
370
    25
100
AcDbLine
 10
-165.9708927518
 20
8.5745009591
 30
0.0
 11
165.9708927518
 21
8.5745009591
 31
0.0
  0
LINE
  5
BB
330
23
100
AcDbEntity
  8
0
  6
Continuous
 62
     8
370
    25
100
AcDbLine
 10
-160.7019716721
 20
3.1381923742
 30
0.0
 11
160.7019716721
 21
3.1381923742
 31
0.0
  0
ARC
  5
BC
330
23
100
AcDbEntity
  8
0
  6
Continuous
 62
     7
370
    25
100
AcDbCircle
 10
157.9469796647
 20
26.8943486323
 30
0.0
 40
20.00000000000002
100
AcDbArc
 50
293.6529459079
 51
358.6980473274
  0
ARC
  5
BD
330
23
100
AcDbEntity
  8
0
  6
Continuous
 62
     7
370
    25
100
AcDbCircle
 10
-157.9469796647
 20
26.8943486323
 30
0.0
 40
19.99999999999998
100
AcDbArc
 50
181.3019526726
 51
246.3470540921
  0
ARC
  5
BE
330
23
100
AcDbEntity
  8
0
  6
Continuous
 62
     7
370
    25
100
AcDbCircle
 10
169.9828492954
 20
-0.5854228775
 30
0.0
 40
9.999999999999968
100
AcDbArc
 50
113.6529459079
 51
158.138667429
  0
ARC
  5
BF
330
23
100
AcDbEntity
  8
0
  6
Continuous
 62
     7
370
    25
100
AcDbCircle
 10
-169.9828492954
 20
-0.5854228775
 30
0.0
 40
10.00000000000022
100
AcDbArc
 50
21.861332571
 51
66.3470540921
  0
ARC
  5
C0
330
23
100
AcDbEntity
  8
0
  6
Continuous
 62
     7
370
    25
100
AcDbCircle
 10
156.0615328605
 20
5.0
 30
0.0
 40
4.999999999999994
100
AcDbArc
 50
270.0
 51
338.138667429
  0
ARC
  5
C1
330
23
100
AcDbEntity
  8
0
  6
Continuous
 62
     7
370
    25
100
AcDbCircle
 10
-156.0615328605
 20
5.0
 30
0.0
 40
5.000000000000038
100
AcDbArc
 50
201.861332571
 51
270.0
  0
VIEWPORT
  5
105
330
23
100
AcDbEntity
  8
0
100
AcDbViewport
 10
0.0
 20
0.0
 30
0.0
 40
205.6
 41
156.0
 68
     1
 69
     1
 12
-0.0001586187
 22
0.005715336
 13
0.0
 23
0.0
 14
10.0
 24
10.0
 15
10.0
 25
10.0
 16
0.0
 26
0.0
 36
1.0
 17
0.0
 27
0.0
 37
0.0
 42
50.0
 43
0.0
 44
0.0
 45
367.0694416761
 50
0.0
 51
0.0
 72
   100
 90
   557152
  1

281
     0
 71
     1
 74
     0
110
0.0
120
0.0
130
0.0
111
1.0
121
0.0
131
0.0
112
0.0
122
1.0
132
0.0
 79
     0
146
0.0
  0
ENDBLK
  5
25
330
23
100
AcDbEntity
  8
0
100
AcDbBlockEnd
  0
BLOCK
  5
C4
330
C2
100
AcDbEntity
  8
0
100
AcDbBlockBegin
  2
*Paper_Space1
 70
     0
 10
0.0
 20
0.0
 30
0.0
  3
*Paper_Space1
  1

  0
SPLINE
  5
C6
330
C2
100
AcDbEntity
  8
0
  6
Continuous
 62
     7
370
    25
100
AcDbSpline
210
0.0
220
0.0
230
1.0
 70
    11
 71
     3
 72
    62
 73
    58
 74
     0
 42
0.000000001
 43
0.00000001
 40
0.0
 40
0.0
 40
0.0
 40
0.0
 40
0.0093112227936848
 40
0.0279422886014924
 40
0.0467020868951541
 40
0.0653319839954466
 40
0.0839755758435097
 40
0.1027064505326755
 40
0.1212796216716083
 40
0.1398759113343435
 40
0.1585775063635282
 40
0.1771247343807027
 40
0.1957212978901816
 40
0.2144248135351061
 40
0.2329860205765619
 40
0.2516363320446632
 40
0.270367065735129
 40
0.2889631725936909
 40
0.3076680881834376
 40
0.3263605699328583
 40
0.3449309807503013
 40
0.3636168519911768
 40
0.3822507881655026
 40
0.4008162819407281
 40
0.4194982662028048
 40
0.4381067438472483
 40
0.456715779718763
 40
0.4754279537668231
 40
0.494134621763278
 40
0.5128107681374633
 40
0.5314356519864405
 40
0.5501145549531735
 40
0.5688585889704404
 40
0.5874315772939983
 40
0.6060571806783932
 40
0.624759709196246
 40
0.6432935533765487
 40
0.6619154037497371
 40
0.6805841832598805
 40
0.6991234805969748
 40
0.7177868046682052
 40
0.7364580916885279
 40
0.755054917847233
 40
0.7737820427679537
 40
0.7924612060221252
 40
0.8110971102247172
 40
0.8298321395013908
 40
0.8484544177311033
 40
0.8670818178529524
 40
0.8857886561766698
 40
0.9043667491223439
 40
0.9229636460860623
 40
0.9416678258921628
 40
0.9602413913497726
 40
0.9788514747615762
 40
0.9964953499206258
 40
1.0
 40
1.0
 40
1.0
 40
1.0
 10
2.687996049485213
 20
-22.78980389237968
 30
0.0
 10
2.242740151596531
 20
-22.83391709989421
 30
0.0
 10
0.9065602452623734
 20
-22.96629756192595
 30
0.0
 10
-1.343667370983515
 20
-22.95446729347908
 30
0.0
 10
-4.022769042857337
 20
-22.64780797376322
 30
0.0
 10
-6.647553779993395
 20
-22.02061432037212
 30
0.0
 10
-9.17880574559009
 20
-21.09160030290933
 30
0.0
 10
-11.58490949072071
 20
-19.87966719524222
 30
0.0
 10
-13.82678671886976
 20
-18.3895218909095
 30
0.0
 10
-15.87816421750929
 20
-16.649383263039
 30
0.0
 10
-17.71560446579089
 20
-14.68578231681907
 30
0.0
 10
-19.3039070442299
 20
-12.51567166505658
 30
0.0
 10
-20.63025574475826
 20
-10.17674963177065
 30
0.0
 10
-21.67893456682297
 20
-7.699558577492873
 30
0.0
 10
-22.42355547937296
 20
-5.112078887594789
 30
0.0
 10
-22.86645094079479
 20
-2.455362842676966
 30
0.0
 10
-22.99960087356989
 20
0.236987279821952
 30
0.0
 10
-22.80988399288578
 20
2.928356040981705
 30
0.0
 10
-22.31405733291853
 20
5.578278245627676
 30
0.0
 10
-21.5130701084314
 20
8.151731970245459
 30
0.0
 10
-20.41053033632657
 20
10.60978732733773
 30
0.0
 10
-19.03570988510523
 20
12.92310698564265
 30
0.0
 10
-17.39847910722718
 20
15.05913108992903
 30
0.0
 10
-15.51861678488885
 20
16.98426560276194
 30
0.0
 10
-13.43209692195564
 20
18.68120398198115
 30
0.0
 10
-11.1575008396541
 20
20.12095731530958
 30
0.0
 10
-8.727481255519933
 20
21.28154986920452
 30
0.0
 10
-6.176249835518815
 20
22.15868542843047
 30
0.0
 10
-3.535484958659413
 20
22.7269706268991
 30
0.0
 10
-0.8509445875272785
 20
22.98395550178769
 30
0.0
 10
1.844034473904235
 20
22.92465275237597
 30
0.0
 10
4.516602056423813
 20
22.5508554381301
 30
0.0
 10
7.126548179382491
 20
21.87343948375439
 30
0.0
 10
9.63406603838616
 20
20.88887490735559
 30
0.0
 10
12.00894935694868
 20
19.62251584592352
 30
0.0
 10
14.22060245023579
 20
18.09107118881467
 30
0.0
 10
16.23177261113913
 20
16.30496317195779
 30
0.0
 10
18.02300606540507
 20
14.30106724797286
 30
0.0
 10
19.56983241273322
 20
12.10199325156879
 30
0.0
 10
20.84264086829804
 20
9.731810916351447
 30
0.0
 10
21.83598537961643
 20
7.231764224009128
 30
0.0
 10
22.53155170756776
 20
4.629666379720911
 30
0.0
 10
22.9126669364061
 20
1.960544890637625
 30
0.0
 10
22.9872007072759
 20
-0.7348797338966836
 30
0.0
 10
22.74490514226658
 20
-3.422788829145867
 30
0.0
 10
22.18555673036565
 20
-6.06296791499215
 30
0.0
 10
21.32937450805153
 20
-8.619475321764728
 30
0.0
 10
20.17632613408117
 20
-11.05651686301697
 30
0.0
 10
18.74408251698902
 20
-13.33855129651644
 30
0.0
 10
17.0613683211959
 20
-15.44019801182707
 30
0.0
 10
15.14085772895316
 20
-17.3253186979005
 30
0.0
 10
13.01280669274779
 20
-18.97154438034898
 30
0.0
 10
10.71021448038749
 20
-20.36322769104928
 30
0.0
 10
8.256960400650534
 20
-21.47027031942504
 30
0.0
 10
5.740756725560282
 20
-22.26696183258029
 30
0.0
 10
3.863283751751509
 20
-22.64320796139193
 30
0.0
 10
2.855072788523426
 20
-22.76896408434078
 30
0.0
 10
2.687996049485213
 20
-22.78980389237968
 30
0.0
  0
CIRCLE
  5
C7
330
C2
100
AcDbEntity
  8
0
  6
Continuous
 62
     7
370
    25
100
AcDbCircle
 10
0.0
 20
0.0
 30
0.0
 40
144.4280904158206
  0
CIRCLE
  5
C8
330
C2
100
AcDbEntity
  8
0
  6
Continuous
 62
     7
370
    25
100
AcDbCircle
 10
0.0
 20
0.0
 30
0.0
 40
149.1421356237309
  0
CIRCLE
  5
C9
330
C2
100
AcDbEntity
  8
0
  6
Continuous
 62
     7
370
    25
100
AcDbCircle
 10
0.0
 20
0.0
 30
0.0
 40
156.0615328605296
  0
CIRCLE
  5
CA
330
C2
100
AcDbEntity
  8
0
  6
Continuous
 62
     7
370
    25
100
AcDbCircle
 10
0.0
 20
0.0
 30
0.0
 40
160.7019716721496
  0
CIRCLE
  5
CB
330
C2
100
AcDbEntity
  8
0
  6
Continuous
 62
     7
370
    25
100
AcDbCircle
 10
0.0
 20
0.0
 30
0.0
 40
165.9708927518198
  0
CIRCLE
  5
CC
330
C2
100
AcDbEntity
  8
0
  6
Continuous
 62
     7
370
    25
100
AcDbCircle
 10
0.0
 20
0.0
 30
0.0
 40
134.9999999999999
  0
CIRCLE
  5
CD
330
C2
100
AcDbEntity
  8
0
  6
Continuous
 62
     7
370
    25
100
AcDbCircle
 10
0.0
 20
0.0
 30
0.0
 40
177.9418163755741
  0
SPLINE
  5
CE
330
C2
100
AcDbEntity
  8
0
  6
Continuous
 62
     7
370
    25
100
AcDbSpline
210
0.0
220
0.0
230
1.0
 70
    11
 71
     3
 72
    71
 73
    67
 74
     0
 42
0.000000001
 43
0.00000001
 40
0.0
 40
0.0
 40
0.0
 40
0.0
 40
0.0157417641396873
 40
0.031445018861832
 40
0.0470111545933049
 40
0.0625776410341246
 40
0.0782750529152863
 40
0.093889499932276
 40
0.1094372223255595
 40
0.1250672454140507
 40
0.1407529300965849
 40
0.1563129670648049
 40
0.1718896488521276
 40
0.1875933289603839
 40
0.203192311034277
 40
0.218743528836347
 40
0.234397345835743
 40
0.2500622542253056
 40
0.2656134072980007
 40
0.2812016596445721
 40
0.2969069665196514
 40
0.3124898796100658
 40
0.3280434043558315
 40
0.3437158370390926
 40
0.3593611644865405
 40
0.3749105927193463
 40
0.3905131753271079
 40
0.4062152945234112
 40
0.4217893203571191
 40
0.4373516300654466
 40
0.4530419179740924
 40
0.4686780196857752
 40
0.4842538353121132
 40
0.4999206930028518
 40
0.5156216587446182
 40
0.5312947953371329
 40
0.5470019671063893
 40
0.562573874553525
 40
0.5781337193359974
 40
0.5938218904481873
 40
0.6094483659677813
 40
0.6249964238521403
 40
0.6406149883344694
 40
0.6563089880208962
 40
0.6718741657981868
 40
0.6874448785412659
 40
0.7031449114577444
 40
0.7187527670722216
 40
0.7343015557388254
 40
0.7499418219063311
 40
0.7656190275211479
 40
0.7811735930356607
 40
0.7967535390664731
 40
0.8124584723305286
 40
0.8280504547521755
 40
0.8436013013311424
 40
0.8592604856614158
 40
0.8749201213794368
 40
0.8904721941471988
 40
0.9060659411901679
 40
0.9217709764674659
 40
0.937352061065645
 40
0.9529103787774168
 40
0.9685926653275893
 40
0.9842911664173678
 40
1.0
 40
1.0
 40
1.0
 40
1.0
 10
0.0000014180401922
 20
-32.23912901396282
 30
0.0
 10
-1.062689608150552
 20
-32.23912899631369
 30
0.0
 10
-3.185474904456423
 20
-32.13362991934992
 30
0.0
 10
-6.327884984186074
 20
-31.66270110655309
 30
0.0
 10
-9.397217704238058
 20
-30.88819578003399
 30
0.0
 10
-12.37579330868724
 20
-29.81760777520921
 30
0.0
 10
-15.23813847762236
 20
-28.45881588054701
 30
0.0
 10
-17.95226678549453
 20
-26.82653557277196
 30
0.0
 10
-20.4905343299964
 20
-24.94003900005932
 30
0.0
 10
-22.83627511462171
 20
-22.81166082792518
 30
0.0
 10
-24.96285407002381
 20
-20.46310531605188
 30
0.0
 10
-26.84744215265176
 20
-17.92086942164542
 30
0.0
 10
-28.47591227496189
 20
-15.20599794164124
 30
0.0
 10
-29.83171777996373
 20
-12.34215666662288
 30
0.0
 10
-30.89935003441935
 20
-9.36078257069196
 30
0.0
 10
-31.66953908476777
 20
-6.292594912328464
 30
0.0
 10
-32.13581237876951
 20
-3.159173660358709
 30
0.0
 10
-32.29104808172085
 20
0.0049630111734779
 30
0.0
 10
-32.13468290648589
 20
3.164520271354808
 30
0.0
 10
-31.66910758483565
 20
6.296269257314018
 30
0.0
 10
-30.89726723540872
 20
9.36921429940816
 30
0.0
 10
-29.82820158431429
 20
12.34919048937188
 30
0.0
 10
-28.47433985631672
 20
15.2085537577636
 30
0.0
 10
-26.8450858689778
 20
17.92547663830414
 30
0.0
 10
-24.95751355356198
 20
20.4693477851463
 30
0.0
 10
-22.8338841034637
 20
22.81328589026445
 30
0.0
 10
-20.4891063690058
 20
24.94175815706319
 30
0.0
 10
-17.94572361293089
 20
26.8313737103123
 30
0.0
 10
-15.23197669439469
 20
28.46145829265929
 30
0.0
 10
-12.37291261961899
 20
29.81876484135736
 30
0.0
 10
-9.390575688546837
 20
30.89089599949016
 30
0.0
 10
-6.316416776912194
 20
31.66480327001511
 30
0.0
 10
-3.182774038500434
 20
32.13321838568072
 30
0.0
 10
-0.0138004922893785
 20
32.29155264291162
 30
0.0
 10
3.161905877421352
 20
32.13572782445996
 30
0.0
 10
6.309374058960199
 20
31.6667849782359
 30
0.0
 10
9.386824514105513
 20
30.89187446631515
 30
0.0
 10
12.3660118349748
 20
29.82119900250884
 30
0.0
 10
15.22531224404274
 20
28.46545089213065
 30
0.0
 10
17.94142684396836
 20
26.83440396838315
 30
0.0
 10
20.48389769780392
 20
24.94547934243142
 30
0.0
 10
22.82647087558482
 20
22.82077192161383
 30
0.0
 10
24.95386598132972
 20
20.47440790529695
 30
0.0
 10
26.84187750863352
 20
17.92992538008458
 30
0.0
 10
28.47014024422975
 20
15.21576712465845
 30
0.0
 10
29.82611934817166
 20
12.35537128836963
 30
0.0
 10
30.89618220645798
 20
9.373007584946468
 30
0.0
 10
31.6676139680096
 20
6.301420579717423
 30
0.0
 10
32.134000998958
 20
3.173086254638846
 30
0.0
 10
32.29138592152071
 20
0.0093208851682096
 30
0.0
 10
32.13593611671735
 20
-3.154961457319625
 30
0.0
 10
31.67090998191558
 20
-6.284513295302316
 30
0.0
 10
30.90146111513613
 20
-9.355375389099665
 30
0.0
 10
29.83329611981449
 20
-12.33829894911208
 30
0.0
 10
28.47851378589322
 20
-15.20016443106074
 30
0.0
 10
26.85263022232842
 20
-17.91354190245486
 30
0.0
 10
24.9666718471858
 20
-20.45883229590936
 30
0.0
 10
22.84031998824443
 20
-22.80712252197228
 30
0.0
 10
20.49821189807888
 20
-24.93358837566878
 30
0.0
 10
17.95753996848966
 20
-26.82354811593577
 30
0.0
 10
15.24216572965879
 20
-28.45655869848293
 30
0.0
 10
12.38207684362191
 20
-29.81454452588766
 30
0.0
 10
9.40453888280172
 20
-30.88633668061619
 30
0.0
 10
6.328456300187393
 20
-31.66296566794315
 30
0.0
 10
3.180704851885744
 20
-32.13397688811435
 30
0.0
 10
1.060469376526489
 20
-32.23912903157504
 30
0.0
 10
0.0000014180401913
 20
-32.23912901396282
 30
0.0
  0
SPLINE
  5
CF
330
C2
100
AcDbEntity
  8
0
  6
Continuous
 62
     7
370
    25
100
AcDbSpline
210
0.0
220
0.0
230
1.0
 70
    11
 71
     3
 72
   114
 73
   110
 74
     0
 42
0.000000001
 43
0.00000001
 40
0.0
 40
0.0
 40
0.0
 40
0.0
 40
0.0312500000000002
 40
0.0312500000000002
 40
0.0468750000000002
 40
0.0468750000000002
 40
0.0625000000000003
 40
0.0625000000000003
 40
0.0781250000000004
 40
0.0781250000000004
 40
0.0859375000000004
 40
0.0859375000000004
 40
0.0937500000000005
 40
0.0937500000000005
 40
0.1250000000000007
 40
0.1250000000000007
 40
0.1406250000000008
 40
0.1406250000000008
 40
0.1562500000000009
 40
0.1562500000000009
 40
0.187500000000001
 40
0.187500000000001
 40
0.203125000000001
 40
0.203125000000001
 40
0.2187500000000011
 40
0.2187500000000011
 40
0.2500000000000012
 40
0.2500000000000012
 40
0.2812500000000013
 40
0.2812500000000013
 40
0.2968750000000013
 40
0.2968750000000013
 40
0.3125000000000013
 40
0.3125000000000013
 40
0.3437500000000014
 40
0.3437500000000014
 40
0.3593750000000014
 40
0.3593750000000014
 40
0.3750000000000014
 40
0.3750000000000014
 40
0.4062500000000016
 40
0.4062500000000016
 40
0.4140625000000016
 40
0.4140625000000016
 40
0.4218750000000017
 40
0.4218750000000017
 40
0.4375000000000017
 40
0.4375000000000017
 40
0.4531250000000017
 40
0.4531250000000017
 40
0.4687500000000017
 40
0.4687500000000017
 40
0.5000000000000018
 40
0.5000000000000018
 40
0.5312500000000018
 40
0.5312500000000018
 40
0.5468750000000018
 40
0.5468750000000018
 40
0.5546875000000018
 40
0.5546875000000018
 40
0.5625000000000019
 40
0.5625000000000019
 40
0.5937500000000018
 40
0.5937500000000018
 40
0.6015625000000017
 40
0.6015625000000017
 40
0.6093750000000017
 40
0.6093750000000017
 40
0.6250000000000016
 40
0.6250000000000016
 40
0.6562500000000016
 40
0.6562500000000016
 40
0.6640625000000016
 40
0.6640625000000016
 40
0.6718750000000017
 40
0.6718750000000017
 40
0.6875000000000016
 40
0.6875000000000016
 40
0.7031250000000016
 40
0.7031250000000016
 40
0.7187500000000016
 40
0.7187500000000016
 40
0.7500000000000014
 40
0.7500000000000014
 40
0.7656250000000014
 40
0.7656250000000014
 40
0.7812500000000013
 40
0.7812500000000013
 40
0.8125000000000013
 40
0.8125000000000013
 40
0.8281250000000012
 40
0.8281250000000012
 40
0.8437500000000012
 40
0.8437500000000012
 40
0.8593750000000012
 40
0.8593750000000012
 40
0.8750000000000011
 40
0.8750000000000011
 40
0.9062500000000009
 40
0.9062500000000009
 40
0.9218750000000008
 40
0.9218750000000008
 40
0.9375000000000006
 40
0.9375000000000006
 40
0.9687500000000004
 40
0.9687500000000004
 40
0.9843750000000002
 40
0.9843750000000002
 40
1.0
 40
1.0
 40
1.0
 40
1.0
 10
-0.0000009445483896
 20
-23.12405015104886
 30
0.0
 10
-1.527617631556331
 20
-23.12404979280368
 30
0.0
 10
-3.038877027493452
 20
-22.97529076714572
 30
0.0
 10
-5.28130772820862
 20
-22.52962950385729
 30
0.0
 10
-6.022157997091589
 20
-22.34383743004804
 30
0.0
 10
-7.469452381899617
 20
-21.90473759273418
 30
0.0
 10
-8.179046207658747
 20
-21.65082518488586
 30
0.0
 10
-9.570452177586908
 20
-21.07506395533143
 30
0.0
 10
-10.25226060928799
 20
-20.75320546071465
 30
0.0
 10
-11.25377613150964
 20
-20.21857822555149
 30
0.0
 10
-11.58407605662462
 20
-20.03171530745067
 30
0.0
 10
-12.23745716543108
 20
-19.64033461072617
 30
0.0
 10
-12.56066064139426
 20
-19.4356574100833
 30
0.0
 10
-14.14050383900705
 20
-18.37952463860834
 30
0.0
 10
-15.30441568471011
 20
-17.42226512705436
 30
0.0
 10
-16.90362580444045
 20
-15.82153800176749
 30
0.0
 10
-17.4120773355382
 20
-15.26029198907597
 30
0.0
 10
-18.37816298573777
 20
-14.08068332566993
 30
0.0
 10
-18.83099217965705
 20
-13.46775746200148
 30
0.0
 10
-20.08698705403824
 20
-11.58092511527573
 30
0.0
 10
-20.79509954988109
 20
-10.25154622102613
 30
0.0
 10
-21.66209659685986
 20
-8.149486461693042
 30
0.0
 10
-21.91919160104921
 20
-7.426981112678446
 30
0.0
 10
-22.35686901546699
 20
-5.973699547601885
 30
0.0
 10
-22.53875426537193
 20
-5.240754587180589
 30
0.0
 10
-22.97615574811356
 20
-3.023448797194631
 30
0.0
 10
-23.12452336816216
 20
-1.519905840107461
 30
0.0
 10
-23.1235746812014
 20
1.534370539263608
 30
0.0
 10
-22.97445847140408
 20
3.036484274037832
 30
0.0
 10
-22.53580206127175
 20
5.253474863453344
 30
0.0
 10
-22.35349664001441
 20
5.986398521134467
 30
0.0
 10
-21.91487316030268
 20
7.4397924338753
 30
0.0
 10
-21.65737277909767
 20
8.162064822625798
 30
0.0
 10
-20.78943500087024
 20
10.26299976999962
 30
0.0
 10
-20.08073024267661
 20
11.59178068122839
 30
0.0
 10
-18.82376962326683
 20
13.47787042647293
 30
0.0
 10
-18.37054492142835
 20
14.09063169315686
 30
0.0
 10
-17.40388610945738
 20
15.26963639014563
 30
0.0
 10
-16.89515077408985
 20
15.83059018474886
 30
0.0
 10
-15.29508362836123
 20
17.4304536723858
 30
0.0
 10
-14.13058983127429
 20
18.38715106043935
 30
0.0
 10
-12.54996470094522
 20
19.44255266847225
 30
0.0
 10
-12.22661369375539
 20
19.64706928438738
 30
0.0
 10
-11.57308736632223
 20
20.0380465991865
 30
0.0
 10
-11.24270571624028
 20
20.22471891986441
 30
0.0
 10
-10.24091140291216
 20
20.75878986893067
 30
0.0
 10
-9.558874399364678
 20
21.08030341044439
 30
0.0
 10
-8.166912537605445
 20
21.6553897828078
 30
0.0
 10
-7.456988877482304
 20
21.90896574208381
 30
0.0
 10
-6.008929177650396
 20
22.34739529469379
 30
0.0
 10
-5.267467067820549
 20
22.53284393167994
 30
0.0
 10
-3.02537839171191
 20
22.97703311084394
 30
0.0
 10
-1.513834319119401
 20
23.12493616721746
 30
0.0
 10
1.54101300769658
 20
23.12315621909651
 30
0.0
 10
3.044109742385769
 20
22.97355483722913
 30
0.0
 10
5.263491696511457
 20
22.53351515051919
 30
0.0
 10
5.997363015426213
 20
22.35061592507295
 30
0.0
 10
7.089052906688213
 20
22.0205042379127
 30
0.0
 10
7.452402108372484
 20
21.90078374569054
 30
0.0
 10
8.169610962121132
 20
21.64462471195334
 30
0.0
 10
8.523708637702937
 20
21.5081780806752
 30
0.0
 10
10.27206056625935
 20
20.78484521711985
 30
0.0
 10
11.6005268702777
 20
20.0758126976217
 30
0.0
 10
13.17331700903326
 20
19.02650315133634
 30
0.0
 10
13.4834474726311
 20
18.80842000551996
 30
0.0
 10
14.09468784979
 20
18.35550351889112
 30
0.0
 10
14.39646132149111
 20
18.1200800677558
 30
0.0
 10
15.27880146328319
 20
17.3957904103589
 30
0.0
 10
15.83889076639016
 20
16.8873532254978
 30
0.0
 10
17.43708319374885
 20
15.28743398255933
 30
0.0
 10
18.39389873417071
 20
14.12206047474068
 30
0.0
 10
19.45010528527143
 20
12.53825076761628
 30
0.0
 10
19.65442863254108
 20
12.21473394924418
 30
0.0
 10
20.0444047571624
 20
11.56202294147507
 30
0.0
 10
20.23065688305728
 20
11.23197432129409
 30
0.0
 10
20.76366089166861
 20
10.23094129420472
 30
0.0
 10
21.08472034628338
 20
9.549095086264009
 30
0.0
 10
21.65918599670031
 20
8.15679927683226
 30
0.0
 10
21.91259852329543
 20
7.446352210007973
 30
0.0
 10
22.35076238902206
 20
5.996425090210141
 30
0.0
 10
22.53617602984751
 20
5.252782477257838
 30
0.0
 10
22.97780798059965
 20
3.017143832559743
 30
0.0
 10
23.12353802548818
 20
1.517165438293983
 30
0.0
 10
23.12430424348669
 20
-0.7468018887753998
 30
0.0
 10
23.08799389801579
 20
-1.503807687050766
 30
0.0
 10
22.93963988872333
 20
-3.022685724160827
 30
0.0
 10
22.82840803881513
 20
-3.774808981018215
 30
0.0
 10
22.38856890211664
 20
-5.997240799334196
 30
0.0
 10
21.9542987538723
 20
-7.439506744254513
 30
0.0
 10
21.08770095918217
 20
-9.542881485207417
 30
0.0
 10
20.76087676531178
 20
-10.23678568657038
 30
0.0
 10
20.04743884974067
 20
-11.5754527303629
 30
0.0
 10
19.65993468992111
 20
-12.22324399258813
 30
0.0
 10
18.82458087520979
 20
-13.47660029447244
 30
0.0
 10
18.37672814599026
 20
-14.08216320088232
 30
0.0
 10
17.42015553859411
 20
-15.25069856688414
 30
0.0
 10
16.91063901587704
 20
-15.81447569532782
 30
0.0
 10
15.29228777393748
 20
-17.43448935047082
 30
0.0
 10
14.12463819106359
 20
-18.39056318250245
 30
0.0
 10
12.24536654255796
 20
-19.64621531915262
 30
0.0
 10
11.59747037526254
 20
-20.03478126359263
 30
0.0
 10
10.25776309820572
 20
-20.75059111001717
 30
0.0
 10
9.564586342715524
 20
-21.07787957924072
 30
0.0
 10
7.464500353189335
 20
-21.945717692149
 30
0.0
 10
6.022816473394127
 20
-22.38185098670281
 30
0.0
 10
3.798452477510207
 20
-22.82453676677781
 30
0.0
 10
3.044325190555219
 20
-22.93680051423518
 30
0.0
 10
1.525439698608191
 20
-23.08658647131967
 30
0.0
 10
0.7638073989555664
 20
-23.12405033017146
 30
0.0
 10
-0.0000009445483884
 20
-23.12405015104886
 30
0.0
  0
SPLINE
  5
D0
330
C2
100
AcDbEntity
  8
0
  6
Continuous
 62
     7
370
    25
100
AcDbSpline
210
0.0
220
0.0
230
1.0
 70
    11
 71
     3
 72
    62
 73
    58
 74
     0
 42
0.000000001
 43
0.00000001
 40
0.0
 40
0.0
 40
0.0
 40
0.0
 40
0.014588814859893
 40
0.0354230414490438
 40
0.0624946864796963
 40
0.0769100637144754
 40
0.0903710113109071
 40
0.1028774024839243
 40
0.1144291199150547
 40
0.1250260557694968
 40
0.1432121590875369
 40
0.1640467313387882
 40
0.1875283045821927
 40
0.2084273520104427
 40
0.2258147803407848
 40
0.2396884886449999
 40
0.2500467989002462
 40
0.2646337049001605
 40
0.2854683805636117
 40
0.3125428263739078
 40
0.3304109993182573
 40
0.3467878613577192
 40
0.3616730420021146
 40
0.3750662057194368
 40
0.4033185582973317
 40
0.4375073774142962
 40
0.4584019873456392
 40
0.4757872559863859
 40
0.4896610854131794
 40
0.5000217997792181
 40
0.5000326046777006
 40
0.5097317113089854
 40
0.5248729690446057
 40
0.5454519731199317
 40
0.571462739834186
 40
0.5970045585329051
 40
0.6208090096840214
 40
0.6428753545359833
 40
0.6542269999648618
 40
0.6780315539879025
 40
0.7142524501758316
 40
0.728540811512961
 40
0.742830622171189
 40
0.7571218901971007
 40
0.7714146236392184
 40
0.7857088305480002
 40
0.8035701814232411
 40
0.8214315613700036
 40
0.8392929712250955
 40
0.8552370801189821
 40
0.8730981272452399
 40
0.8928754537158053
 40
0.9155127013355707
 40
0.9464186047560382
 40
0.9682489851011755
 40
0.9861103699158763
 40
1.0
 40
1.0
 40
1.0
 40
1.0
 10
-0.0000001911364045
 20
-179.9417161575658
 30
0.0
 10
5.495527003353891
 20
-179.9416775696029
 30
0.0
 10
18.83961940975147
 20
-179.3300879350004
 30
0.0
 10
42.14861115914026
 20
-175.6409967968528
 30
0.0
 10
64.63746902819891
 20
-168.495633912823
 30
0.0
 10
83.3976967153093
 20
-159.7090535807815
 30
0.0
 10
96.57000936769266
 20
-152.0710000079679
 30
0.0
 10
108.1864816016343
 20
-144.0030461474051
 30
0.0
 10
118.3221868918153
 20
-135.7632303881171
 30
0.0
 10
129.421353890374
 20
-125.3793484366153
 30
0.0
 10
141.886879996627
 20
-111.4022642966546
 30
0.0
 10
155.3253923857935
 20
-91.99805079904196
 30
0.0
 10
166.4118389281541
 20
-69.98027851526405
 30
0.0
 10
173.9044237925152
 20
-47.88867831346018
 30
0.0
 10
177.9446068615592
 20
-28.62602805600311
 30
0.0
 10
179.645076469991
 20
-13.02499290949808
 30
0.0
 10
180.1204423064179
 20
1.595235853603919
 30
0.0
 10
179.3299230112085
 20
18.84156767984071
 30
0.0
 10
175.6402988628411
 20
42.15129834353602
 30
0.0
 10
168.0996058903127
 20
65.8844635776865
 30
0.0
 10
158.059231940992
 20
86.72807823816726
 30
0.0
 10
148.2707151628728
 20
102.4676318465216
 30
0.0
 10
138.0167905419011
 20
115.8280513205521
 30
0.0
 10
123.5954009505681
 20
131.5163401823359
 30
0.0
 10
101.5750773827762
 20
149.9427174562218
 30
0.0
 10
73.80428735614917
 20
165.1170000472754
 30
0.0
 10
47.8921778841317
 20
173.9028706486378
 30
0.0
 10
28.63062841371518
 20
177.9438966368861
 30
0.0
 10
13.03045469269259
 20
179.644749952173
 30
0.0
 10
3.897624389985273
 20
179.9418485188061
 30
0.0
 10
-3.660679504481153
 20
179.9415921106722
 30
0.0
 10
-13.02110986185633
 20
179.6559911738318
 30
0.0
 10
-30.05031612150814
 20
177.8011203827046
 30
0.0
 10
-52.79635913251889
 20
172.6990495189647
 30
0.0
 10
-78.26717739019053
 20
162.90580454623
 30
0.0
 10
-102.8702233897011
 20
148.5187030921983
 30
0.0
 10
-123.7870898917644
 20
131.4590928231005
 30
0.0
 10
-138.4067027191694
 20
115.5260557445134
 30
0.0
 10
-151.2404156338463
 20
98.1978044625314
 30
0.0
 10
-164.8150122352109
 20
74.88827807472052
 30
0.0
 10
-174.1950334985811
 20
48.21991922867227
 30
0.0
 10
-178.5522005674587
 20
24.18730876073053
 30
0.0
 10
-180.0022141641539
 20
8.08491386522805
 30
0.0
 10
-180.0021816756906
 20
-8.08188956174048
 30
0.0
 10
-178.5530266071522
 20
-24.18620577300803
 30
0.0
 10
-175.426105262155
 20
-41.41895747627461
 30
0.0
 10
-170.2006687921182
 20
-59.55800419645015
 30
0.0
 10
-162.4625760869647
 20
-78.23953883766207
 30
0.0
 10
-153.0305834527559
 20
-95.3054282309554
 30
0.0
 10
-141.8492544977495
 20
-111.266876360384
 30
0.0
 10
-128.5580537547571
 20
-126.50600095942
 30
0.0
 10
-111.6799642452863
 20
-141.7724216974046
 30
0.0
 10
-88.85353289951917
 20
-157.4616931835426
 30
0.0
 10
-62.91897475055837
 20
-169.4738858332653
 30
0.0
 10
-37.20654585252775
 20
-176.5316742703891
 30
0.0
 10
-17.19221984808383
 20
-179.4199985093038
 30
0.0
 10
-5.232148284163329
 20
-179.9417528961587
 30
0.0
 10
-0.0000001911363832
 20
-179.9417161575658
 30
0.0
  0
VIEWPORT
  5
107
330
C2
100
AcDbEntity
  8
0
100
AcDbViewport
 10
0.0
 20
0.0
 30
0.0
 40
205.6
 41
156.0
 68
     1
 69
     1
 12
-0.0001586187
 22
0.005715336
 13
0.0
 23
0.0
 14
10.0
 24
10.0
 15
10.0
 25
10.0
 16
0.0
 26
0.0
 36
1.0
 17
0.0
 27
0.0
 37
0.0
 42
50.0
 43
0.0
 44
0.0
 45
367.0694416761
 50
0.0
 51
0.0
 72
   100
 90
   557152
  1

281
     0
 71
     1
 74
     0
110
0.0
120
0.0
130
0.0
111
1.0
121
0.0
131
0.0
112
0.0
122
1.0
132
0.0
 79
     0
146
0.0
  0
ENDBLK
  5
C5
330
C2
100
AcDbEntity
  8
0
100
AcDbBlockEnd
  0
BLOCK
  5
D3
330
D1
100
AcDbEntity
  8
0
100
AcDbBlockBegin
  2
*Paper_Space2
 70
     0
 10
0.0
 20
0.0
 30
0.0
  3
*Paper_Space2
  1

  0
SPLINE
  5
D6
330
D1
100
AcDbEntity
  8
0
  6
Continuous
 62
     7
370
    25
100
AcDbSpline
210
0.0
220
0.0
230
1.0
 70
     8
 71
     3
 72
    83
 73
    79
 74
     0
 42
0.000000001
 43
0.00000001
 40
0.0
 40
0.0
 40
0.0
 40
0.0
 40
0.0081259609739757
 40
0.0186394616829079
 40
0.0296854812772798
 40
0.0396922270617926
 40
0.048219147479521
 40
0.0555902968615782
 40
0.0637168156266837
 40
0.0729125302714877
 40
0.0828398069805897
 40
0.0929427467472639
 40
0.1032126234890686
 40
0.1127844886240807
 40
0.1208272449639184
 40
0.1275356873505581
 40
0.134849914548012
 40
0.1434521939470936
 40
0.1532777391932416
 40
0.1626821776838155
 40
0.1709477689667646
 40
0.1781658030659235
 40
0.1856925642878497
 40
0.1939800823585977
 40
0.2126880926758618
 40
0.2314005821648681
 40
0.2498634817187301
 40
0.2676373310538385
 40
0.28594970772344
 40
0.3041443071476159
 40
0.3201335065716123
 40
0.336415231083781
 40
0.3540930359054035
 40
0.3726147594899936
 40
0.3979606259029946
 40
0.4226090623533852
 40
0.4472546579201822
 40
0.4719065288968779
 40
0.4965598101189244
 40
0.5212105237783865
 40
0.545864401152485
 40
0.5705100860443902
 40
0.5951584703638513
 40
0.6198127480797166
 40
0.6383233424165428
 40
0.6576950780776899
 40
0.6722742095171504
 40
0.6874891558595163
 40
0.7070365103080752
 40
0.7254622920523143
 40
0.7431218257278367
 40
0.7546579089054437
 40
0.7663246081223519
 40
0.7784207204205577
 40
0.7909507363259911
 40
0.8027386397256123
 40
0.8129258098147853
 40
0.8245704872348695
 40
0.838054028760011
 40
0.8527753980801811
 40
0.8684203733842458
 40
0.875966966190474
 40
0.8824518463845946
 40
0.8878757402879359
 40
0.8928451248951307
 40
0.8989853398213399
 40
0.9062420897594609
 40
0.9146041753682256
 40
0.9225672927948564
 40
0.9296525501923222
 40
0.9366386918149385
 40
0.9430225243207394
 40
0.9499709188115594
 40
0.9575255916003098
 40
0.9660458887354593
 40
0.9763592748885546
 40
0.988497672084289
 40
1.0
 40
1.0
 40
1.0
 40
1.0
 10
175.0352681370807
 20
94.51329264474576
 30
0.0
 10
175.0446817389399
 20
93.70441084734047
 30
0.0
 10
175.0662748122654
 20
91.84898460089119
 30
0.0
 10
174.8942459507732
 20
88.80509771015879
 30
0.0
 10
174.5164773825011
 20
85.49057025973036
 30
0.0
 10
173.9767783040541
 20
82.39295131204388
 30
0.0
 10
173.3669929429729
 20
79.69188895277834
 30
0.0
 10
172.691845640808
 20
77.19819317870275
 30
0.0
 10
171.8889392390404
 20
74.64816369755691
 30
0.0
 10
170.8685833675743
 20
71.85113756004823
 30
0.0
 10
169.6170221195061
 20
68.87420241368383
 30
0.0
 10
168.1515833284815
 20
65.81696290345826
 30
0.0
 10
166.5371625718153
 20
62.82793240220565
 30
0.0
 10
164.8836785484019
 20
60.0735092137163
 30
0.0
 10
163.3243907970628
 20
57.69223874274329
 30
0.0
 10
161.8204879411443
 20
55.54816381323532
 30
0.0
 10
160.1911471630892
 20
53.36611071365574
 30
0.0
 10
158.2273662621664
 20
50.90844935956357
 30
0.0
 10
155.9689481173531
 20
48.28538592252135
 30
0.0
 10
153.6010589680374
 20
45.73217704273019
 30
0.0
 10
151.3451281064733
 20
43.45422372540575
 30
0.0
 10
149.168290095552
 20
41.37548518488647
 30
0.0
 10
146.903704748889
 20
39.32238434927644
 30
0.0
 10
143.3742650844439
 20
36.29266674629135
 30
0.0
 10
138.4005984032682
 20
32.39352372636211
 30
0.0
 10
131.8366093129669
 20
27.83395851005443
 30
0.0
 10
124.9330289373686
 20
23.57028038160639
 30
0.0
 10
117.6645052708581
 20
19.5669442656975
 30
0.0
 10
110.0458918333477
 20
15.82266788428981
 30
0.0
 10
102.3263797684624
 20
12.44803198579655
 30
0.0
 10
94.60979994884427
 20
9.438231555168707
 30
0.0
 10
86.71658819377103
 20
6.686957327721024
 30
0.0
 10
78.16460200983467
 20
4.054700261095904
 30
0.0
 10
67.84297446267989
 20
1.300853189411158
 30
0.0
 10
55.99999380156355
 20
-1.2998386645676
 30
0.0
 10
42.74913310760066
 20
-3.538541589533151
 30
0.0
 10
29.35861094877039
 20
-5.160839093322184
 30
0.0
 10
15.78670895026194
 20
-6.176191694841147
 30
0.0
 10
2.116961901626607
 20
-6.579636086270206
 30
0.0
 10
-11.56623150697664
 20
-6.366559097881121
 30
0.0
 10
-25.17687725449001
 20
-5.539895632538615
 30
0.0
 10
-38.63260010932476
 20
-4.104611836102085
 30
0.0
 10
-51.85039998398935
 20
-2.069089784447351
 30
0.0
 10
-63.68117711280209
 20
0.3341028922850681
 30
0.0
 10
-74.29430425802182
 20
2.972316617250212
 30
0.0
 10
-82.95061110339685
 20
5.487783631822646
 30
0.0
 10
-90.82891943046519
 20
8.08990724183939
 30
0.0
 10
-98.51181613607892
 20
10.91135193858339
 30
0.0
 10
-106.4910931152246
 20
14.21098535911376
 30
0.0
 10
-114.4597337980049
 20
17.9399535035267
 30
0.0
 10
-120.9524007481403
 20
21.34658779659987
 30
0.0
 10
-126.2790835096182
 20
24.41111517426189
 30
0.0
 10
-130.7069731630466
 20
27.15201351057381
 30
0.0
 10
-135.070811136238
 20
30.06368390983793
 30
0.0
 10
-139.2474294282967
 20
33.07813908474682
 30
0.0
 10
-143.0101064453952
 20
36.01717457703246
 30
0.0
 10
-146.4985438804471
 20
38.94957442751261
 30
0.0
 10
-149.9712446646769
 20
42.09645982202595
 30
0.0
 10
-153.6384821895027
 20
45.72956309133885
 30
0.0
 10
-157.35544136359
 20
49.81922734766278
 30
0.0
 10
-160.2671130067256
 20
53.43314987338834
 30
0.0
 10
-162.3613300631743
 20
56.3035325949557
 30
0.0
 10
-163.6599014582428
 20
58.20021334485914
 30
0.0
 10
-164.730790670306
 20
59.85481395973583
 30
0.0
 10
-165.7316814001884
 20
61.48205795928322
 30
0.0
 10
-166.7899825894423
 20
63.30348937496037
 30
0.0
 10
-167.9646386962167
 20
65.4770992587498
 30
0.0
 10
-169.1368967839998
 20
67.85154429302928
 30
0.0
 10
-170.1947627183923
 20
70.22629808794768
 30
0.0
 10
-171.09788607712
 20
72.47587199769886
 30
0.0
 10
-171.8553302124072
 20
74.57606699150601
 30
0.0
 10
-172.530889296393
 20
76.67331532088939
 30
0.0
 10
-173.1458709991489
 20
78.83814109969167
 30
0.0
 10
-173.7285106025377
 20
81.23657777451665
 30
0.0
 10
-174.272562641999
 20
83.98594404784674
 30
0.0
 10
-174.7282799303213
 20
87.17761800830789
 30
0.0
 10
-175.0380915576981
 20
90.66713097115156
 30
0.0
 10
-175.0297876045045
 20
93.09211399929201
 30
0.0
 10
-175.0257473395728
 20
94.27198263057193
 30
0.0
  0
SPLINE
  5
D9
330
D1
100
AcDbEntity
  8
0
  6
Continuous
 62
     7
370
    25
100
AcDbSpline
210
0.0
220
0.0
230
1.0
 70
     8
 71
     3
 72
    87
 73
    83
 74
     0
 42
0.000000001
 43
0.00000001
 40
0.0
 40
0.0
 40
0.0
 40
0.0
 40
0.0086801157946428
 40
0.0192653508305356
 40
0.0303170878046065
 40
0.0403455917318445
 40
0.0489058281334548
 40
0.056272561115591
 40
0.0643386458198699
 40
0.0773746897181187
 40
0.0904331982717205
 40
0.1023599376536496
 40
0.1140512480358174
 40
0.1261382972105504
 40
0.1445848907531533
 40
0.1631786923345605
 40
0.1783467884258002
 40
0.1956982949846711
 40
0.2146487347777304
 40
0.2326088590971186
 40
0.2511499262515117
 40
0.2607495542346886
 40
0.2700901704508535
 40
0.277953962533337
 40
0.2843191245657457
 40
0.2909709149568916
 40
0.2991532308744073
 40
0.3087179065011768
 40
0.3182799144469667
 40
0.337206029568099
 40
0.3553200791979668
 40
0.3734301048665901
 40
0.3981128908774752
 40
0.422798503295868
 40
0.4474776188655214
 40
0.472157305805431
 40
0.4968365312651204
 40
0.5215133993045242
 40
0.5461940291062309
 40
0.570871440339256
 40
0.5955565849276726
 40
0.6202400250181508
 40
0.6317617469258823
 40
0.6432875348207693
 40
0.6548645825625409
 40
0.6667011610372051
 40
0.67882038048731
 40
0.6902342214381864
 40
0.6967221321273477
 40
0.7022376413628739
 40
0.7076592245534806
 40
0.714561326330667
 40
0.7229750233968012
 40
0.7322576053291475
 40
0.7412323021758809
 40
0.7600652062555717
 40
0.778201053554856
 40
0.796054213126355
 40
0.8139019740227693
 40
0.8231506775700885
 40
0.831662260418806
 40
0.8393456025810826
 40
0.8472837541118212
 40
0.8567704481409352
 40
0.8677617801913612
 40
0.8757082257760836
 40
0.8824029774852966
 40
0.8878458613397467
 40
0.8928825905362985
 40
0.8991277159380974
 40
0.9064762247866177
 40
0.9148599781116546
 40
0.9227434077758944
 40
0.9297576327825117
 40
0.9366727492245168
 40
0.9430570061124119
 40
0.9500172380890346
 40
0.9575788450165639
 40
0.966136996072626
 40
0.9765224349286454
 40
0.9887619655169351
 40
1.0
 40
1.0
 40
1.0
 40
1.0
 10
179.919327610439
 20
92.28407734923401
 30
0.0
 10
179.9289850543057
 20
93.29020237036994
 30
0.0
 10
179.950419566082
 20
95.52327759311372
 30
0.0
 10
179.7288045177904
 20
98.95315720115586
 30
0.0
 10
179.3274154280642
 20
102.4473520720234
 30
0.0
 10
178.7606012031405
 20
105.706836539162
 30
0.0
 10
178.1212593414692
 20
108.5538458898851
 30
0.0
 10
177.4158686297039
 20
111.1781930896537
 30
0.0
 10
176.4474097283856
 20
114.2832135567508
 30
0.0
 10
175.070020910715
 20
117.9888070418147
 30
0.0
 10
173.2434538151903
 20
122.0779060759276
 30
0.0
 10
171.2095103846989
 20
125.9891172643876
 30
0.0
 10
168.9859895425905
 20
129.7493974926313
 30
0.0
 10
166.0754502088965
 20
134.1260997314961
 30
0.0
 10
162.2735420061204
 20
139.1078080453229
 30
0.0
 10
157.7138870250002
 20
144.2455146148636
 30
0.0
 10
152.8049242934737
 20
149.1195609142608
 30
0.0
 10
147.4428620381592
 20
153.8648379482354
 30
0.0
 10
141.3071386271968
 20
158.6667561444905
 30
0.0
 10
134.5646115329994
 20
163.3487785677392
 30
0.0
 10
128.5875547767671
 20
167.045252844413
 30
0.0
 10
123.5065118782998
 20
169.9191886019284
 30
0.0
 10
119.769229453155
 20
171.9099954507688
 30
0.0
 10
116.4029840529691
 20
173.6079810422501
 30
0.0
 10
113.3645624775926
 20
175.0726603524793
 30
0.0
 10
110.2286424845495
 20
176.522479280996
 30
0.0
 10
106.5532156713041
 20
178.1418969668972
 30
0.0
 10
102.3535052738012
 20
179.887158582016
 30
0.0
 10
96.37821230985467
 20
182.2146373775099
 30
0.0
 10
88.8440751663984
 20
184.8714616349753
 30
0.0
 10
79.63076654870451
 20
187.7075780423478
 30
0.0
 10
69.16653915921148
 20
190.4977050592249
 30
0.0
 10
57.23440732151011
 20
193.1272993169042
 30
0.0
 10
43.79605660071635
 20
195.4131176723247
 30
0.0
 10
30.09300067197033
 20
197.0849573543678
 30
0.0
 10
16.20884267859846
 20
198.1319016237096
 30
0.0
 10
2.227066487696896
 20
198.5493620006414
 30
0.0
 10
-11.76843380603663
 20
198.3331838791544
 30
0.0
 10
-25.69226339897376
 20
197.4859694205782
 30
0.0
 10
-39.46232867161247
 20
196.0122154607245
 30
0.0
 10
-52.99323734098804
 20
193.9200938275008
 30
0.0
 10
-63.85847669407688
 20
191.7027559705984
 30
0.0
 10
-72.18339529631099
 20
189.6863487679594
 30
0.0
 10
-78.12732366074164
 20
188.0966319763949
 30
0.0
 10
-84.021220782916
 20
186.3667713048693
 30
0.0
 10
-89.90039336604613
 20
184.4802728363346
 30
0.0
 10
-95.62719298167805
 20
182.4753119232732
 30
0.0
 10
-100.3760950444362
 20
180.6696570028462
 30
0.0
 10
-104.0096822474561
 20
179.2008053478972
 30
0.0
 10
-106.677648495444
 20
178.0781331092223
 30
0.0
 10
-109.3750201414607
 20
176.9013921602809
 30
0.0
 10
-112.4645237690327
 20
175.4983699254717
 30
0.0
 10
-116.0593542804151
 20
173.7833487406493
 30
0.0
 10
-119.8667378630287
 20
171.861482539412
 30
0.0
 10
-125.0281252976853
 20
169.1010284123665
 30
0.0
 10
-131.1618611862503
 20
165.5181446983457
 30
0.0
 10
-138.0424975492755
 20
160.9993499338938
 30
0.0
 10
-144.3611704076899
 20
156.3434356015927
 30
0.0
 10
-149.2568927566788
 20
152.2845666153358
 30
0.0
 10
-152.8948393004749
 20
148.9736835111403
 30
0.0
 10
-155.3806146362788
 20
146.5647215020879
 30
0.0
 10
-157.6385474698856
 20
144.243756631746
 30
0.0
 10
-159.8874953048997
 20
141.7925783600114
 30
0.0
 10
-162.3031337929054
 20
138.9751067477804
 30
0.0
 10
-164.5626431129519
 20
136.1103206740533
 30
0.0
 10
-166.4665640327655
 20
133.4908238844973
 30
0.0
 10
-167.876965780877
 20
131.4168311235077
 30
0.0
 10
-169.0256602799583
 20
129.6274172231418
 30
0.0
 10
-170.0958416612482
 20
127.8713572236879
 30
0.0
 10
-171.2263366694625
 20
125.9051075556833
 30
0.0
 10
-172.4734360441416
 20
123.5698981399919
 30
0.0
 10
-173.7052077040428
 20
121.0427131570717
 30
0.0
 10
-174.8081507323526
 20
118.5355869915149
 30
0.0
 10
-175.7452645026699
 20
116.1750413718763
 30
0.0
 10
-176.5335854183315
 20
113.9682780343849
 30
0.0
 10
-177.2388969230154
 20
111.7614348568741
 30
0.0
 10
-177.8837750322341
 20
109.4766592216905
 30
0.0
 10
-178.4946576060793
 20
106.9496721596422
 30
0.0
 10
-179.0733522831161
 20
104.0283488798519
 30
0.0
 10
-179.5782870080462
 20
100.5380438830583
 30
0.0
 10
-179.9244425021524
 20
96.721598491946
 30
0.0
 10
-179.9140854947055
 20
94.06570913262205
 30
0.0
 10
-179.9091278934179
 20
92.7944113590848
 30
0.0
  0
SPLINE
  5
DD
330
D1
100
AcDbEntity
  8
0
  6
Continuous
 62
     7
370
    25
100
AcDbSpline
210
0.0
220
0.0
230
1.0
 70
     8
 71
     3
 72
    81
 73
    77
 74
     0
 42
0.000000001
 43
0.00000001
 40
0.0
 40
0.0
 40
0.0
 40
0.0
 40
0.0078525841976472
 40
0.020567533689764
 40
0.0332974923114155
 40
0.0460662692230887
 40
0.0588960964435707
 40
0.071806829796852
 40
0.08481517354494
 40
0.0979339682501899
 40
0.1111716071311425
 40
0.1245316652589585
 40
0.138012826987762
 40
0.1516091716609272
 40
0.1653108252088865
 40
0.1791049170168292
 40
0.192976718990365
 40
0.2069108099733752
 40
0.2208921158066089
 40
0.2349067183569006
 40
0.2489423872288087
 40
0.2629888442130057
 40
0.2770364275966727
 40
0.2910784006632568
 40
0.3051105698975049
 40
0.3191300971256137
 40
0.333135254198153
 40
0.3471251989949124
 40
0.3610997818378298
 40
0.3750593843540604
 40
0.3890047891499913
 40
0.4029370768196122
 40
0.4168575461488199
 40
0.4307676533942195
 40
0.4446689668760033
 40
0.4585631336219744
 40
0.472451855313883
 40
0.4863368712553785
 40
0.5002199464741829
 40
0.5141028633797617
 40
0.5279871099628418
 40
0.5418741942947861
 40
0.5557659191370841
 40
0.5696640836142887
 40
0.5835704749281667
 40
0.597486856568529
 40
0.6114149513652012
 40
0.6253564174394793
 40
0.6393128146922437
 40
0.6532855589562544
 40
0.6672758603641532
 40
0.681284641894137
 40
0.6953124335594008
 40
0.7093592374978788
 40
0.7234243596173093
 40
0.7375062049532918
 40
0.751602037208072
 40
0.7657077089386884
 40
0.7798163423254821
 40
0.7939181068806141
 40
0.808002310701613
 40
0.8220560570485708
 40
0.8360644645332145
 40
0.8500111882805226
 40
0.8638792704415789
 40
0.8776522856321766
 40
0.891315668223182
 40
0.9048580425702412
 40
0.9182723538324054
 40
0.9315566309999388
 40
0.9447142943457111
 40
0.9577540150878
 40
0.970689211145024
 40
0.9835372995481789
 40
0.9963188233330997
 40
1.0
 40
1.0
 40
1.0
 40
1.0
 10
-177.8823897412808
 20
19.96995909303678
 30
0.0
 10
-177.8584009553436
 20
18.98425789275528
 30
0.0
 10
-177.7955693892603
 20
16.40250364032649
 30
0.0
 10
-177.3390612339826
 20
12.23760801235325
 30
0.0
 10
-176.5531555095085
 20
7.488661590329585
 30
0.0
 10
-175.4423660215878
 20
2.772649077072808
 30
0.0
 10
-174.0249914754809
 20
-1.904879545522674
 30
0.0
 10
-172.2971971846486
 20
-6.537790447663783
 30
0.0
 10
-170.2608347799224
 20
-11.11981729835964
 30
0.0
 10
-167.9162353087117
 20
-15.64419833871102
 30
0.0
 10
-165.2645384372247
 20
-20.10357981503723
 30
0.0
 10
-162.3074950646352
 20
-24.4899287414762
 30
0.0
 10
-159.0479551095815
 20
-28.79455407097029
 30
0.0
 10
-155.4901083696397
 20
-33.00822422237061
 30
0.0
 10
-151.6396721649199
 20
-37.12137662433994
 30
0.0
 10
-147.5039321074248
 20
-41.1243885243782
 30
0.0
 10
-143.0916507034401
 20
-45.00786706823568
 30
0.0
 10
-138.4128627798794
 20
-48.76291373673143
 30
0.0
 10
-133.4786019416437
 20
-52.38132747224741
 30
0.0
 10
-128.3006068403451
 20
-55.85572759061687
 30
0.0
 10
-122.8910500082932
 20
-59.17959585447043
 30
0.0
 10
-117.2625016936388
 20
-62.34714752716368
 30
0.0
 10
-111.4276650402322
 20
-65.35336302855478
 30
0.0
 10
-105.3991594022835
 20
-68.19395866810015
 30
0.0
 10
-99.18925503913084
 20
-70.86534824090788
 30
0.0
 10
-92.80999526327236
 20
-73.36444669364214
 30
0.0
 10
-86.2733458492556
 20
-75.68852486644528
 30
0.0
 10
-79.59122357323339
 20
-77.83514823566271
 30
0.0
 10
-72.77552685153174
 20
-79.802131743042
 30
0.0
 10
-65.83816392966024
 20
-81.5875085136462
 30
0.0
 10
-58.79107612187804
 20
-83.18950977653182
 30
0.0
 10
-51.64625498253346
 20
-84.60655333996918
 30
0.0
 10
-44.41575318842487
 20
-85.83723826033415
 30
0.0
 10
-37.11168945169275
 20
-86.8803437258663
 30
0.0
 10
-29.74624807503495
 20
-87.73483056562674
 30
0.0
 10
-22.33167389358384
 20
-88.3998441458561
 30
0.0
 10
-14.88026338544371
 20
-88.87471771363634
 30
0.0
 10
-7.4043527164738
 20
-89.15897548948897
 30
0.0
 10
0.0836965450070476
 20
-89.2523350027377
 30
0.0
 10
7.571458427316879
 20
-89.15470903006837
 30
0.0
 10
15.04646249204406
 20
-88.86621307929414
 30
0.0
 10
22.49626608219506
 20
-88.38716769830927
 30
0.0
 10
29.90852797600288
 20
-87.71808809528355
 30
0.0
 10
37.27102195643227
 20
-86.85967191597665
 30
0.0
 10
44.57159939430723
 20
-85.81279495910636
 30
0.0
 10
51.79820219698568
 20
-84.57850365549706
 30
0.0
 10
58.93887295286364
 20
-83.1580066770549
 30
0.0
 10
65.98176144041935
 20
-81.552666194653
 30
0.0
 10
72.91512661760063
 20
-79.76398953154411
 30
0.0
 10
79.72733315416056
 20
-77.7936222555165
 30
0.0
 10
86.4068415617149
 20
-75.6433441320995
 30
0.0
 10
92.94219105387441
 20
-73.31506983186422
 30
0.0
 10
99.32197449721325
 20
-70.81085684415106
 30
0.0
 10
105.5348052857427
 20
-68.13292366901476
 30
0.0
 10
111.5692768088926
 20
-65.28368196695912
 30
0.0
 10
117.4139165387473
 20
-62.26578679434948
 30
0.0
 10
123.0571387639321
 20
-59.08220910475011
 30
0.0
 10
128.4870698271913
 20
-55.73641586681062
 30
0.0
 10
133.6914303889529
 20
-52.23259877021537
 30
0.0
 10
138.6577567986836
 20
-48.57575160297241
 30
0.0
 10
143.3735924299275
 20
-44.77174634733124
 30
0.0
 10
147.826705541599
 20
-40.82738063917142
 30
0.0
 10
152.0051405757127
 20
-36.75059925088998
 30
0.0
 10
155.8975059618077
 20
-32.55053827563688
 30
0.0
 10
159.4933135638954
 20
-28.23747489321231
 30
0.0
 10
162.7833261781268
 20
-23.82266817519195
 30
0.0
 10
165.7598674751442
 20
-19.31809736444988
 30
0.0
 10
168.4170076835668
 20
-14.73612716797874
 30
0.0
 10
170.7507045834174
 20
-10.08914985848752
 30
0.0
 10
172.7584530200976
 20
-5.389250339108087
 30
0.0
 10
174.4400655648678
 20
-0.6479613366144956
 30
0.0
 10
175.7937249459618
 20
4.123959594375108
 30
0.0
 10
176.8290877691115
 20
8.916398805744942
 30
0.0
 10
177.5173540116173
 20
13.72064448159202
 30
0.0
 10
177.8664655338687
 20
17.39210458623889
 30
0.0
 10
177.8822620588201
 20
19.45883174394685
 30
0.0
 10
177.8857942739168
 20
19.92096660523944
 30
0.0
  0
SPLINE
  5
DE
330
D1
100
AcDbEntity
  8
0
  6
Continuous
 62
     7
370
    25
100
AcDbSpline
210
0.0
220
0.0
230
1.0
 70
     8
 71
     3
 72
    39
 73
    35
 74
     0
 42
0.000000001
 43
0.00000001
 40
0.0
 40
0.0
 40
0.0
 40
0.0
 40
0.0318012206043162
 40
0.0638702192940308
 40
0.0959292663296465
 40
0.1279777360529409
 40
0.1600154828469798
 40
0.1920427256486018
 40
0.22405995616549
 40
0.2560678672104498
 40
0.2880672976320912
 40
0.3200591906513405
 40
0.3520445628469169
 40
0.3840244814787908
 40
0.4160000482491038
 40
0.4479723879534437
 40
0.4799426407654384
 40
0.5119119571249955
 40
0.5438814943699255
 40
0.5758520894947203
 40
0.6078248454123321
 40
0.6398009279185087
 40
0.6717815007538013
 40
0.703767721092979
 40
0.7357607326987263
 40
0.7677616557391428
 40
0.7997715720609356
 40
0.8317915044288291
 40
0.8638223878923379
 40
0.8958650310258569
 40
0.9279200643201793
 40
0.9599878725178332
 40
0.9920685072524044
 40
1.0
 40
1.0
 40
1.0
 40
1.0
 10
-102.9979189597177
 20
-69.18585821141075
 30
0.0
 10
-101.1598623667104
 20
-70.06095205573654
 30
0.0
 10
-97.46827206170555
 20
-71.81850835948286
 30
0.0
 10
-91.67949685979087
 20
-74.26895862829443
 30
0.0
 10
-85.71102158316961
 20
-76.58157666334543
 30
0.0
 10
-79.57260813834631
 20
-78.73169686557445
 30
0.0
 10
-73.28133752217605
 20
-80.71924349709829
 30
0.0
 10
-66.84816761527107
 20
-82.53981140796466
 30
0.0
 10
-60.28598715725784
 20
-84.19052020614564
 30
0.0
 10
-53.6074416227336
 20
-85.66844946512896
 30
0.0
 10
-46.82549566453699
 20
-86.97106253388897
 30
0.0
 10
-39.95326009448547
 20
-88.09609869405573
 30
0.0
 10
-33.00401351888615
 20
-89.04160804699313
 30
0.0
 10
-25.99116980486012
 20
-89.80594805133839
 30
0.0
 10
-18.92825832474702
 20
-90.38778985759731
 30
0.0
 10
-11.82889935035448
 20
-90.78612127908963
 30
0.0
 10
-4.706779611195103
 20
-91.00024972912139
 30
0.0
 10
2.424373042289887
 20
-91.02980409122544
 30
0.0
 10
9.550791194300038
 20
-90.87473622664854
 30
0.0
 10
16.65871362139598
 20
-90.53532345595183
 30
0.0
 10
23.73441667501286
 20
-90.01216781941189
 30
0.0
 10
30.76426422069881
 20
-89.30619058397974
 30
0.0
 10
37.73471372906468
 20
-88.41862906745095
 30
0.0
 10
44.63233569726768
 20
-87.35103212553531
 30
0.0
 10
51.44384107115825
 20
-86.10525750288102
 30
0.0
 10
58.15609206951817
 20
-84.68345712082186
 30
0.0
 10
64.7561699769377
 20
-83.0881035801722
 30
0.0
 10
71.23122402696596
 20
-81.32185964337035
 30
0.0
 10
77.56913014951363
 20
-79.38803183156023
 30
0.0
 10
83.75611686529535
 20
-77.28884213789132
 30
0.0
 10
89.78570591848215
 20
-75.03184810866449
 30
0.0
 10
95.62538997057429
 20
-72.60593878960144
 30
0.0
 10
99.90617599937381
 20
-70.70736174719033
 30
0.0
 10
102.1719459302574
 20
-69.57260562670203
 30
0.0
 10
102.6210832020141
 20
-69.3476660769629
 30
0.0
  0
SPLINE
  5
DF
330
D1
100
AcDbEntity
  8
0
  6
Continuous
 62
     7
370
    25
100
AcDbSpline
210
0.0
220
0.0
230
1.0
 70
     8
 71
     3
 72
    27
 73
    23
 74
     0
 42
0.000000001
 43
0.00000001
 40
0.0
 40
0.0
 40
0.0
 40
0.0
 40
0.012854497647533
 40
0.0642295628410926
 40
0.1181883055790655
 40
0.1702741044027137
 40
0.2148836605129694
 40
0.2625227353963679
 40
0.3123305169276221
 40
0.364144979425717
 40
0.4175213462115221
 40
0.4718402159721585
 40
0.5263979903528492
 40
0.5803019914200722
 40
0.6336351778216621
 40
0.6870789536073499
 40
0.7416648741441344
 40
0.7967066049152132
 40
0.8516063780659546
 40
0.9057499270348083
 40
0.9587035221768904
 40
0.9999999999999999
 40
0.9999999999999999
 40
0.9999999999999999
 40
0.9999999999999999
 10
-21.833442062069
 20
17.29675558654045
 30
0.0
 10
-21.81218391786994
 20
17.33727739292393
 30
0.0
 10
-21.70596418481177
 20
17.53975110919883
 30
0.0
 10
-21.30605042207627
 20
18.07430146300803
 30
0.0
 10
-20.57122677584099
 20
18.85681565915378
 30
0.0
 10
-19.57634850045777
 20
19.68853940207655
 30
0.0
 10
-18.37557887857676
 20
20.50217405686207
 30
0.0
 10
-16.94611774571265
 20
21.30669914304817
 30
0.0
 10
-15.22455132001612
 20
22.10783874161491
 30
0.0
 10
-13.23510819658969
 20
22.86649681980302
 30
0.0
 10
-11.0114897666707
 20
23.54686799494634
 30
0.0
 10
-8.600066218174891
 20
24.11732118884026
 30
0.0
 10
-6.061554204307955
 20
24.55133467248007
 30
0.0
 10
-3.452291277699094
 20
24.83148328186607
 30
0.0
 10
-0.8118043726332794
 20
24.95047791125344
 30
0.0
 10
1.848958920233264
 20
24.91538977808774
 30
0.0
 10
4.512361352207971
 20
24.72543359108425
 30
0.0
 10
7.137636492851694
 20
24.38132971552735
 30
0.0
 10
9.659689319243466
 20
23.89317614845245
 30
0.0
 10
12.01230676452339
 20
23.27705541604835
 30
0.0
 10
14.02527010238536
 20
22.60925484404697
 30
0.0
 10
15.16153837460262
 20
22.1265646333142
 30
0.0
 10
15.65940406349237
 20
21.9150697775986
 30
0.0
  0
SPLINE
  5
E0
330
D1
100
AcDbEntity
  8
0
  6
Continuous
 62
     7
370
    25
100
AcDbSpline
210
0.0
220
0.0
230
1.0
 70
     8
 71
     3
 72
    14
 73
    10
 74
     0
 42
0.000000001
 43
0.00000001
 40
0.0
 40
0.0
 40
0.0
 40
0.0
 40
0.0877337642115574
 40
0.2574218446652835
 40
0.4277489593312905
 40
0.598805696877757
 40
0.7702872069571333
 40
0.9424858062934172
 40
1.0
 40
1.0
 40
1.0
 40
1.0
 10
15.65940406349237
 20
21.9150697775986
 30
0.0
 10
15.96241336570863
 20
21.77520097373026
 30
0.0
 10
16.85148058205607
 20
21.36480839766238
 30
0.0
 10
18.15614619359762
 20
20.63783907796687
 30
0.0
 10
19.47185329301452
 20
19.75172626026491
 30
0.0
 10
20.5250004892745
 20
18.87667916999667
 30
0.0
 10
21.29258212412032
 20
18.07988400659356
 30
0.0
 10
21.72542932345975
 20
17.51568565123949
 30
0.0
 10
21.84255766976633
 20
17.30003209989752
 30
0.0
 10
21.87188360459466
 20
17.24603797984396
 30
0.0
  0
SPLINE
  5
E1
330
D1
100
AcDbEntity
  8
0
  6
Continuous
 62
     7
370
    25
100
AcDbSpline
210
0.0
220
0.0
230
1.0
 70
     8
 71
     3
 72
    20
 73
    16
 74
     0
 42
0.000000001
 43
0.00000001
 40
0.0
 40
0.0
 40
0.0
 40
0.0
 40
0.0610577527633304
 40
0.1379490624346911
 40
0.2153950216561914
 40
0.2923047927277842
 40
0.3689077307901197
 40
0.4450050820245882
 40
0.5208072461944304
 40
0.5984086885008462
 40
0.6765684862562525
 40
0.7568333973711724
 40
0.8414915704390756
 40
0.9269696120859848
 40
1.0
 40
1.0
 40
1.0
 40
1.0
 10
-9.217569313563773
 20
2.307288742439837
 30
0.0
 10
-9.861921847554601
 20
2.471888892758733
 30
0.0
 10
-11.31772105271034
 20
2.843773467369831
 30
0.0
 10
-13.41459767494809
 20
3.607233563954565
 30
0.0
 10
-15.50103421355898
 20
4.539499623045673
 30
0.0
 10
-17.3639632229781
 20
5.589381658536764
 30
0.0
 10
-18.97973344565104
 20
6.726097677267839
 30
0.0
 10
-20.32572671906276
 20
7.924098009098455
 30
0.0
 10
-21.40118750471578
 20
9.17476237600856
 30
0.0
 10
-22.20746649532624
 20
10.45868378281384
 30
0.0
 10
-22.72963202873101
 20
11.75257908282399
 30
0.0
 10
-22.98303382944076
 20
13.08823648341079
 30
0.0
 10
-22.94645081774709
 20
14.45984755048115
 30
0.0
 10
-22.63835564247292
 20
15.79983933891619
 30
0.0
 10
-22.1749415464845
 20
16.69214756687046
 30
0.0
 10
-21.96143043361432
 20
17.10326523554511
 30
0.0
  0
SPLINE
  5
E2
330
D1
100
AcDbEntity
  8
0
  6
Continuous
 62
     7
370
    25
100
AcDbSpline
210
0.0
220
0.0
230
1.0
 70
     8
 71
     3
 72
    21
 73
    17
 74
     0
 42
0.000000001
 43
0.00000001
 40
0.0
 40
0.0
 40
0.0
 40
0.0
 40
0.0475997080079298
 40
0.1217816523384337
 40
0.1993924587708849
 40
0.2790691951785625
 40
0.3602316477836783
 40
0.4390734892886412
 40
0.5148709672539264
 40
0.5884622634903967
 40
0.6618630543698126
 40
0.7344126695385174
 40
0.8071051451853326
 40
0.8804589731644131
 40
0.9534870215762165
 40
1.0
 40
1.0
 40
1.0
 40
1.0
 10
21.78919867426878
 20
17.37252191315809
 30
0.0
 10
21.96116530949554
 20
17.09214524713495
 30
0.0
 10
22.40113399546955
 20
16.37481450931299
 30
0.0
 10
22.79179325731582
 20
15.19684189161082
 30
0.0
 10
23.00434591999559
 20
13.85175861648717
 30
0.0
 10
22.90790073258008
 20
12.48839101582834
 30
0.0
 10
22.50306923371764
 20
11.09178537251836
 30
0.0
 10
21.78937846350643
 20
9.720947153866968
 30
0.0
 10
20.77348452664408
 20
8.40033137849304
 30
0.0
 10
19.48847402679255
 20
7.145060814496611
 30
0.0
 10
17.95446865294556
 20
5.973933467281131
 30
0.0
 10
16.16943031531209
 20
4.89309158319854
 30
0.0
 10
14.16879909100004
 20
3.915787191074493
 30
0.0
 10
11.96662602768276
 20
3.069039483111907
 30
0.0
 10
9.894479687248833
 20
2.430417086888528
 30
0.0
 10
8.524971585204346
 20
2.144431352191299
 30
0.0
 10
7.992100967577782
 20
2.033155343781429
 30
0.0
  0
SPLINE
  5
E7
330
D1
100
AcDbEntity
  8
0
  6
Continuous
 62
     7
370
    25
100
AcDbSpline
210
0.0
220
0.0
230
1.0
 70
    11
 71
     3
 72
   128
 73
   124
 74
     0
 42
0.000000001
 43
0.00000001
 40
0.0
 40
0.0
 40
0.0
 40
0.0
 40
0.0156250000000002
 40
0.0156250000000002
 40
0.0312500000000003
 40
0.0312500000000003
 40
0.0625000000000006
 40
0.0625000000000006
 40
0.0781250000000008
 40
0.0781250000000008
 40
0.093750000000001
 40
0.093750000000001
 40
0.1250000000000013
 40
0.1250000000000013
 40
0.1562500000000016
 40
0.1562500000000016
 40
0.1718750000000018
 40
0.1718750000000018
 40
0.1796875000000019
 40
0.1796875000000019
 40
0.1875000000000019
 40
0.1875000000000019
 40
0.2187500000000021
 40
0.2187500000000021
 40
0.2265625000000022
 40
0.2265625000000022
 40
0.2343750000000022
 40
0.2343750000000022
 40
0.2500000000000023
 40
0.2500000000000023
 40
0.2812500000000026
 40
0.2812500000000026
 40
0.2890625000000026
 40
0.2890625000000026
 40
0.2968750000000026
 40
0.2968750000000026
 40
0.3125000000000027
 40
0.3125000000000027
 40
0.3281250000000028
 40
0.3281250000000028
 40
0.3359375000000028
 40
0.3359375000000028
 40
0.3437500000000028
 40
0.3437500000000028
 40
0.3750000000000028
 40
0.3750000000000028
 40
0.3906250000000028
 40
0.3906250000000028
 40
0.3984375000000028
 40
0.3984375000000028
 40
0.4062500000000028
 40
0.4062500000000028
 40
0.4375000000000027
 40
0.4375000000000027
 40
0.4531250000000027
 40
0.4531250000000027
 40
0.4687500000000026
 40
0.4687500000000026
 40
0.5000000000000024
 40
0.5000000000000024
 40
0.5312500000000023
 40
0.5312500000000023
 40
0.5390625000000023
 40
0.5390625000000023
 40
0.5468750000000022
 40
0.5468750000000022
 40
0.5625000000000022
 40
0.5625000000000022
 40
0.5781250000000021
 40
0.5781250000000021
 40
0.5859375000000021
 40
0.5859375000000021
 40
0.593750000000002
 40
0.593750000000002
 40
0.6250000000000018
 40
0.6250000000000018
 40
0.6406250000000018
 40
0.6406250000000018
 40
0.6562500000000017
 40
0.6562500000000017
 40
0.6875000000000014
 40
0.6875000000000014
 40
0.7031250000000013
 40
0.7031250000000013
 40
0.7187500000000013
 40
0.7187500000000013
 40
0.7343750000000012
 40
0.7343750000000012
 40
0.7421875000000012
 40
0.7421875000000012
 40
0.7500000000000011
 40
0.7500000000000011
 40
0.7812500000000009
 40
0.7812500000000009
 40
0.7968750000000009
 40
0.7968750000000009
 40
0.8046875000000008
 40
0.8046875000000008
 40
0.8125000000000008
 40
0.8125000000000008
 40
0.8437500000000007
 40
0.8437500000000007
 40
0.8515625000000007
 40
0.8515625000000007
 40
0.8593750000000006
 40
0.8593750000000006
 40
0.8750000000000006
 40
0.8750000000000006
 40
0.9062500000000004
 40
0.9062500000000004
 40
0.9140625000000003
 40
0.9140625000000003
 40
0.9218750000000003
 40
0.9218750000000003
 40
0.9375000000000002
 40
0.9375000000000002
 40
0.9531250000000002
 40
0.9531250000000002
 40
0.9609375000000001
 40
0.9609375000000001
 40
0.9687500000000001
 40
0.9687500000000001
 40
1.0
 40
1.0
 40
1.0
 40
1.0
 10
-25.77212920110657
 20
3.845205311850113
 30
0.0
 10
-26.62393413524414
 20
4.336943721593337
 30
0.0
 10
-27.43224856485979
 20
4.85027178076744
 30
0.0
 10
-28.96168853356802
 20
5.920669487363958
 30
0.0
 10
-29.67684151125707
 20
6.473723432272663
 30
0.0
 10
-31.66791124832556
 20
8.178344678662269
 30
0.0
 10
-32.79539621542629
 20
9.37806629889626
 30
0.0
 10
-34.1798684283053
 20
11.27818305836333
 30
0.0
 10
-34.59104643403334
 20
11.93159288888957
 30
0.0
 10
-35.29138748712131
 20
13.24615260152284
 30
0.0
 10
-35.58288048525793
 20
13.90969440972713
 30
0.0
 10
-36.28445118085191
 20
15.91924807386586
 30
0.0
 10
-36.52325037845838
 20
17.28515643984495
 30
0.0
 10
-36.52050492853428
 20
20.06653932945691
 30
0.0
 10
-36.27939227249318
 20
21.43665135719958
 30
0.0
 10
-35.57375259863595
 20
23.46127424940618
 30
0.0
 10
-35.28074676243877
 20
24.13100477285943
 30
0.0
 10
-34.75308490955625
 20
25.12752748914282
 30
0.0
 10
-34.56187329386776
 20
25.45916526261957
 30
0.0
 10
-34.15200453115641
 20
26.11551326470878
 30
0.0
 10
-33.93386392420617
 20
26.43953417953128
 30
0.0
 10
-32.77853257799214
 20
28.03917159354745
 30
0.0
 10
-31.64936131230509
 20
29.25395691277573
 30
0.0
 10
-29.98608638179066
 20
30.68991479756178
 30
0.0
 10
-29.64068694037
 20
30.97292806539107
 30
0.0
 10
-28.92417701999824
 20
31.53045930523406
 30
0.0
 10
-28.55195894532667
 20
31.80567426155369
 30
0.0
 10
-27.40623088140021
 20
32.61098820312574
 30
0.0
 10
-26.60301527238928
 20
33.1217917216626
 30
0.0
 10
-24.07887597299151
 20
34.57776593548191
 30
0.0
 10
-22.24455256475677
 20
35.44717236964175
 30
0.0
 10
-19.75588428077921
 20
36.4057207020765
 30
0.0
 10
-19.2469475434487
 20
36.59137154872379
 30
0.0
 10
-18.21910762177779
 20
36.94599535413015
 30
0.0
 10
-17.69947366359231
 20
37.11533497018442
 30
0.0
 10
-16.12364172350639
 20
37.59983077710087
 30
0.0
 10
-15.05057605337513
 20
37.89155339714492
 30
0.0
 10
-12.85982290278949
 20
38.41356990767351
 30
0.0
 10
-11.74213099395329
 20
38.64386930905914
 30
0.0
 10
-10.03145450345515
 20
38.94263042064183
 30
0.0
 10
-9.455524708709472
 20
39.03441456172374
 30
0.0
 10
-8.292048224081018
 20
39.20213920054652
 30
0.0
 10
-7.703383800784863
 20
39.27814230172049
 30
0.0
 10
-4.762904233627387
 20
39.61407226482962
 30
0.0
 10
-2.397271418559193
 20
39.74698874748211
 30
0.0
 10
1.170622970681781
 20
39.74803311759329
 30
0.0
 10
2.363184284682476
 20
39.71509149756901
 30
0.0
 10
4.157067870748137
 20
39.6141394670522
 30
0.0
 10
4.755711209571623
 20
39.57181817522357
 30
0.0
 10
5.941104742748214
 20
39.47090180113036
 30
0.0
 10
6.529584153868568
 20
39.41224198872496
 30
0.0
 10
9.451208007776378
 20
39.07846057860724
 30
0.0
 10
11.72274282271112
 20
38.683331874147
 30
0.0
 10
15.03154739045257
 20
37.89666866016008
 30
0.0
 10
16.1232387294889
 20
37.6000842876351
 30
0.0
 10
18.23117888219937
 20
36.9517300605097
 30
0.0
 10
19.25104666728229
 20
36.59970176203582
 30
0.0
 10
22.21068954954607
 20
35.461133161463
 30
0.0
 10
24.05167722677893
 20
34.59303564735148
 30
0.0
 10
27.46074504364637
 20
32.62745366597489
 30
0.0
 10
28.98416211945334
 20
31.55565613017414
 30
0.0
 10
30.66090953568705
 20
30.10712832503123
 30
0.0
 10
30.98468612933739
 20
29.81191978111
 30
0.0
 10
31.6035060202429
 20
29.21589806590223
 30
0.0
 10
31.89935766114663
 20
28.91444185750971
 30
0.0
 10
32.74668325190359
 20
27.99994775762615
 30
0.0
 10
33.25812196519472
 20
27.37683837598568
 30
0.0
 10
34.17464329067511
 20
26.1044154277716
 30
0.0
 10
34.57973454372654
 20
25.45511646276887
 30
0.0
 10
35.10576177331441
 20
24.46136852339016
 30
0.0
 10
35.26747875987751
 20
24.12681254873649
 30
0.0
 10
35.56305457094778
 20
23.45098290117757
 30
0.0
 10
35.69658895800119
 20
23.11030575904698
 30
0.0
 10
36.28687196956
 20
21.40915348861859
 30
0.0
 10
36.52151170459213
 20
20.04132322127323
 30
0.0
 10
36.52206875478074
 20
17.98034359582999
 30
0.0
 10
36.46332999651533
 20
17.2917974283571
 30
0.0
 10
36.22394564682187
 20
15.91134333680813
 30
0.0
 10
36.04479552162905
 20
15.22908873569238
 30
0.0
 10
35.33755997729368
 20
13.2145881706229
 30
0.0
 10
34.64040109691029
 20
11.91011190277605
 30
0.0
 10
33.25526855529174
 20
10.0092843133741
 30
0.0
 10
32.73392951661733
 20
9.383135686013691
 30
0.0
 10
31.59881890155104
 20
8.175511838233138
 30
0.0
 10
30.98309019377963
 20
7.59086717693043
 30
0.0
 10
29.65758867303319
 20
6.458456321452144
 30
0.0
 10
28.94780804908886
 20
5.910688112970922
 30
0.0
 10
27.81230290896294
 20
5.116393056308004
 30
0.0
 10
27.42195833500226
 20
4.856201849200444
 30
0.0
 10
26.61731615430116
 20
4.345012379032793
 30
0.0
 10
26.2019938129188
 20
4.09344557717202
 30
0.0
 10
24.07651978529972
 20
2.866013506719167
 30
0.0
 10
22.23861294510974
 20
1.989388504902094
 30
0.0
 10
19.28100569264117
 20
0.8311408577620638
 30
0.0
 10
18.26142491502821
 20
0.471385386555806
 30
0.0
 10
16.68002189205441
 20
-0.0271935262060458
 30
0.0
 10
16.14269323656731
 20
-0.1869222772898083
 30
0.0
 10
15.05815622866382
 20
-0.4900397105482152
 30
0.0
 10
14.5116094036133
 20
-0.6333126674467824
 30
0.0
 10
11.75781574385549
 20
-1.308718589143582
 30
0.0
 10
9.487987054798383
 20
-1.719050535078363
 30
0.0
 10
6.56680805567679
 20
-2.066967115093806
 30
0.0
 10
5.978335889889053
 20
-2.128221234044742
 30
0.0
 10
4.79278496608564
 20
-2.233773952664199
 30
0.0
 10
4.193984463565275
 20
-2.278127565390531
 30
0.0
 10
2.40116285564344
 20
-2.384125870705092
 30
0.0
 10
1.209041238266647
 20
-2.419189515135929
 30
0.0
 10
-2.358304398502403
 20
-2.420355298899765
 30
0.0
 10
-4.724593475737195
 20
-2.283369938777924
 30
0.0
 10
-7.667165940524618
 20
-1.936607806432303
 30
0.0
 10
-8.255926172755137
 20
-1.858199973290946
 30
0.0
 10
-9.419100455774432
 20
-1.685355632161059
 30
0.0
 10
-9.994988729626343
 20
-1.590802517798688
 30
0.0
 10
-11.70580458167174
 20
-1.283178699316323
 30
0.0
 10
-12.8240064994549
 20
-1.046302625888798
 30
0.0
 10
-15.01645018885541
 20
-0.5103781106433752
 30
0.0
 10
-16.09071148068411
 20
-0.2113663135884097
 30
0.0
 10
-17.66880559038002
 20
0.2838072339837738
 30
0.0
 10
-18.18927553266672
 20
0.4566573319372547
 30
0.0
 10
-19.21892344673129
 20
0.8181107620955225
 30
0.0
 10
-19.7276774746208
 20
1.006620752142931
 30
0.0
 10
-22.21969965139574
 20
1.979864948864735
 30
0.0
 10
-24.06851933283145
 20
2.861728492363679
 30
0.0
 10
-25.77212920110657
 20
3.845205311850111
 30
0.0
  0
SPLINE
  5
E8
330
D1
100
AcDbEntity
  8
0
  6
Continuous
 62
     7
370
    25
100
AcDbSpline
210
0.0
220
0.0
230
1.0
 70
    11
 71
     3
 72
   128
 73
   124
 74
     0
 42
0.000000001
 43
0.00000001
 40
0.0
 40
0.0
 40
0.0
 40
0.0
 40
0.0312500000000003
 40
0.0312500000000003
 40
0.0390625000000004
 40
0.0390625000000004
 40
0.0468750000000005
 40
0.0468750000000005
 40
0.0625000000000006
 40
0.0625000000000006
 40
0.0781250000000008
 40
0.0781250000000008
 40
0.0859375000000009
 40
0.0859375000000009
 40
0.093750000000001
 40
0.093750000000001
 40
0.1250000000000011
 40
0.1250000000000011
 40
0.1406250000000012
 40
0.1406250000000012
 40
0.1484375000000012
 40
0.1484375000000012
 40
0.1562500000000012
 40
0.1562500000000012
 40
0.1875000000000011
 40
0.1875000000000011
 40
0.1953125000000011
 40
0.1953125000000011
 40
0.2031250000000011
 40
0.2031250000000011
 40
0.218750000000001
 40
0.218750000000001
 40
0.2500000000000009
 40
0.2500000000000009
 40
0.2578125000000009
 40
0.2578125000000009
 40
0.2656250000000009
 40
0.2656250000000009
 40
0.2812500000000009
 40
0.2812500000000009
 40
0.2968750000000009
 40
0.2968750000000009
 40
0.3125000000000008
 40
0.3125000000000008
 40
0.3437500000000008
 40
0.3437500000000008
 40
0.3593750000000007
 40
0.3593750000000007
 40
0.3750000000000007
 40
0.3750000000000007
 40
0.4062500000000006
 40
0.4062500000000006
 40
0.4140625000000007
 40
0.4140625000000007
 40
0.4218750000000007
 40
0.4218750000000007
 40
0.4375000000000006
 40
0.4375000000000006
 40
0.4531250000000006
 40
0.4531250000000006
 40
0.4609375000000006
 40
0.4609375000000006
 40
0.4687500000000007
 40
0.4687500000000007
 40
0.5000000000000006
 40
0.5000000000000006
 40
0.5312500000000007
 40
0.5312500000000007
 40
0.5468750000000007
 40
0.5468750000000007
 40
0.5625000000000007
 40
0.5625000000000007
 40
0.5937500000000008
 40
0.5937500000000008
 40
0.6015625000000008
 40
0.6015625000000008
 40
0.6093750000000007
 40
0.6093750000000007
 40
0.6250000000000007
 40
0.6250000000000007
 40
0.6562500000000007
 40
0.6562500000000007
 40
0.6640625000000007
 40
0.6640625000000007
 40
0.6718750000000006
 40
0.6718750000000006
 40
0.6875000000000006
 40
0.6875000000000006
 40
0.7031250000000004
 40
0.7031250000000004
 40
0.7109375000000004
 40
0.7109375000000004
 40
0.7187500000000003
 40
0.7187500000000003
 40
0.7500000000000002
 40
0.7500000000000002
 40
0.7656250000000001
 40
0.7656250000000001
 40
0.7734375000000001
 40
0.7734375000000001
 40
0.7812500000000001
 40
0.7812500000000001
 40
0.8125
 40
0.8125
 40
0.8203125
 40
0.8203125
 40
0.828125
 40
0.828125
 40
0.84375
 40
0.84375
 40
0.8749999999999999
 40
0.8749999999999999
 40
0.9062499999999999
 40
0.9062499999999999
 40
0.9218749999999999
 40
0.9218749999999999
 40
0.9375
 40
0.9375
 40
0.9687499999999999
 40
0.9687499999999999
 40
0.984375
 40
0.984375
 40
1.0
 40
1.0
 40
1.0
 40
1.0
 10
-20.44375208007138
 20
5.26513058329775
 30
0.0
 10
-19.09396494651032
 20
4.485911757008042
 30
0.0
 10
-17.62664975793147
 20
3.788584420538074
 30
0.0
 10
-15.64774382148033
 20
3.020272133198707
 30
0.0
 10
-15.24365982736825
 20
2.871529282982933
 30
0.0
 10
-14.42584943774117
 20
2.586480350050296
 30
0.0
 10
-14.01248005836425
 20
2.450254408555535
 30
0.0
 10
-12.75921706248935
 20
2.060230117258588
 30
0.0
 10
-11.90620879676153
 20
1.825030781365269
 30
0.0
 10
-10.16581963751695
 20
1.403924248122579
 30
0.0
 10
-9.27841961627926
 20
1.218049802265343
 30
0.0
 10
-7.921294473522319
 20
0.9768686729082487
 30
0.0
 10
-7.464548125804791
 20
0.9027867176547855
 30
0.0
 10
-6.542239479230987
 20
0.767415379403287
 30
0.0
 10
-6.075520307743385
 20
0.7060435744549107
 30
0.0
 10
-3.742871709300682
 20
0.4346732302010006
 30
0.0
 10
-1.867373211036567
 20
0.3276313693036242
 30
0.0
 10
0.9595601827475757
 20
0.3286273851440119
 30
0.0
 10
1.904168985656445
 20
0.3560742012929732
 30
0.0
 10
3.324628037323758
 20
0.4389915128931304
 30
0.0
 10
3.799014724639858
 20
0.4736812481474853
 30
0.0
 10
4.738516772301148
 20
0.5562729128779781
 30
0.0
 10
5.204963911186515
 20
0.6042091085444734
 30
0.0
 10
7.520867884821191
 20
0.8766098704455771
 30
0.0
 10
9.3218802395315
 20
1.198195405851504
 30
0.0
 10
11.50799047750025
 20
1.729078705347088
 30
0.0
 10
11.94192407531878
 20
1.841755404865059
 30
0.0
 10
12.80308882320044
 20
2.080290797598
 30
0.0
 10
13.22975085963443
 20
2.206046826185457
 30
0.0
 10
14.48542545414175
 20
2.598799088811964
 30
0.0
 10
15.29500271410908
 20
2.882459934556575
 30
0.0
 10
17.64291842000838
 20
3.79667967625319
 30
0.0
 10
19.10125732110624
 20
4.489787121194189
 30
0.0
 10
20.78526658355327
 20
5.462367632932424
 30
0.0
 10
21.11414313849125
 20
5.661775226176815
 30
0.0
 10
21.750773849681
 20
6.066980776561967
 30
0.0
 10
22.05937995083691
 20
6.27324707497355
 30
0.0
 10
22.95644900136416
 20
6.902968808764697
 30
0.0
 10
23.51630847429033
 20
7.337298555324799
 30
0.0
 10
24.56039507625301
 20
8.23522844068688
 30
0.0
 10
25.04463517409719
 20
8.698829399341308
 30
0.0
 10
25.93612334538016
 20
9.656376261104167
 30
0.0
 10
26.34493995430909
 20
10.15285282100941
 30
0.0
 10
27.42944585202988
 20
11.6597413755346
 30
0.0
 10
27.97332708961701
 20
12.69352844363413
 30
0.0
 10
28.5242375176427
 20
14.28934907725566
 30
0.0
 10
28.66358821379633
 20
14.82967225271801
 30
0.0
 10
28.84969811886528
 20
15.9228286535625
 30
0.0
 10
28.89532701894794
 20
16.46826117658206
 30
0.0
 10
28.89473517875719
 20
18.10145888992613
 30
0.0
 10
28.71211321010358
 20
19.18614915532159
 30
0.0
 10
28.25203739768347
 20
20.5360008459079
 30
0.0
 10
28.14790108243848
 20
20.80634737281366
 30
0.0
 10
27.91732035229236
 20
21.34275927036651
 30
0.0
 10
27.79109789616342
 20
21.60838380668785
 30
0.0
 10
27.380238264261
 20
22.39759167803023
 30
0.0
 10
27.0634875068347
 20
22.91353211292943
 30
0.0
 10
26.34565328000224
 20
23.92496728303469
 30
0.0
 10
25.94454791141843
 20
24.42044263230842
 30
0.0
 10
25.2788519399858
 20
25.14770294121622
 30
0.0
 10
25.04623268333596
 20
25.38744885685165
 30
0.0
 10
24.55926598063163
 20
25.86146373069956
 30
0.0
 10
24.3042573558774
 20
26.09625093602503
 30
0.0
 10
22.98276177255557
 20
27.24795483556852
 30
0.0
 10
21.77912774205555
 20
28.09930143677327
 30
0.0
 10
19.07764095793602
 20
29.65642428131303
 30
0.0
 10
17.61666046239524
 20
30.34104805446102
 30
0.0
 10
15.26692961303226
 20
31.23597904962717
 30
0.0
 10
14.45705618746925
 20
31.51208062851688
 30
0.0
 10
12.78323817718178
 20
32.01979067326382
 30
0.0
 10
11.91632223371365
 20
32.25150019959538
 30
0.0
 10
9.289621437108519
 20
32.86509279772158
 30
0.0
 10
7.48725995145377
 20
33.17181888825639
 30
0.0
 10
5.170995090709734
 20
33.43049801794
 30
0.0
 10
4.704538505670607
 20
33.4759164806045
 30
0.0
 10
3.765148521711158
 20
33.55402421509402
 30
0.0
 10
3.290884601699689
 20
33.58675139266171
 30
0.0
 10
1.869676069904978
 20
33.66478675055992
 30
0.0
 10
0.9247722853467123
 20
33.69021693751475
 30
0.0
 10
-1.902458335567542
 20
33.68925620515442
 30
0.0
 10
-3.777374663638207
 20
33.58636436824405
 30
0.0
 10
-6.108318338241426
 20
33.32576103640653
 30
0.0
 10
-6.574940959017199
 20
33.26678015590986
 30
0.0
 10
-7.497401425301618
 20
33.13651761233822
 30
0.0
 10
-7.954136064334918
 20
33.06519706610586
 30
0.0
 10
-9.311033217600052
 20
32.8328359853605
 30
0.0
 10
-10.19794366960021
 20
32.65348288317495
 30
0.0
 10
-11.93683237499451
 20
32.2461187576685
 30
0.0
 10
-12.78881132957319
 20
32.01809717431707
 30
0.0
 10
-14.04015460488358
 20
31.63853899945546
 30
0.0
 10
-14.45281773369064
 20
31.50574399707001
 30
0.0
 10
-15.26910876721061
 20
31.22735861623527
 30
0.0
 10
-15.67330503865695
 20
31.08146869005102
 30
0.0
 10
-17.64921584061227
 20
30.32756231439826
 30
0.0
 10
-19.10438517824875
 20
29.6416680468925
 30
0.0
 10
-21.10311126336665
 20
28.48862119275622
 30
0.0
 10
-21.73846300046702
 20
28.08343779943151
 30
0.0
 10
-22.64383327425108
 20
27.44385590894612
 30
0.0
 10
-22.93780654504504
 20
27.22514009817823
 30
0.0
 10
-23.50317432768117
 20
26.78200721402209
 30
0.0
 10
-23.77549578862606
 20
26.55702729338754
 30
0.0
 10
-25.08577253927313
 20
25.41534232300634
 30
0.0
 10
-25.97198213256471
 20
24.44910555239099
 30
0.0
 10
-26.87646088730866
 20
23.17762795966332
 30
0.0
 10
-27.04709838421511
 20
22.92012076120644
 30
0.0
 10
-27.36750761230011
 20
22.39863441589639
 30
0.0
 10
-27.51688924582563
 20
22.13518314601034
 30
0.0
 10
-27.92883066561668
 20
21.34366470924532
 30
0.0
 10
-28.15729694788055
 20
20.81191517756098
 30
0.0
 10
-28.70702236362159
 20
19.20510101430157
 30
0.0
 10
-28.89420451948645
 20
18.11867421975268
 30
0.0
 10
-28.89604940844487
 20
15.91563085244827
 30
0.0
 10
-28.71039456340324
 20
14.83371968577405
 30
0.0
 10
-28.1634270503353
 20
13.24167935865116
 30
0.0
 10
-27.93602669527052
 20
12.71595964997992
 30
0.0
 10
-27.38894502983098
 20
11.67434981237017
 30
0.0
 10
-27.06758481286322
 20
11.15680880990087
 30
0.0
 10
-25.98406175617926
 20
9.651693659893859
 30
0.0
 10
-25.09947778428646
 20
8.700757029406244
 30
0.0
 10
-23.53120771520763
 20
7.349178543751028
 30
0.0
 10
-22.96699449177964
 20
6.910556668712778
 30
0.0
 10
-21.75826615469489
 20
6.061687722270122
 30
0.0
 10
-21.11864564685191
 20
5.654739996442601
 30
0.0
 10
-20.44375208007138
 20
5.26513058329775
 30
0.0
  0
SPLINE
  5
E9
330
D1
100
AcDbEntity
  8
0
  6
Continuous
 62
     7
370
    25
100
AcDbSpline
210
0.0
220
0.0
230
1.0
 70
     8
 71
     3
 72
    12
 73
     8
 74
     0
 42
0.000000001
 43
0.00000001
 40
0.0
 40
0.0
 40
0.0
 40
0.0
 40
0.1718914277050573
 40
0.3953675779423937
 40
0.6253355196277559
 40
0.8497491186954054
 40
1.0
 40
1.0
 40
1.0
 40
1.0
 10
8.077499888447123
 20
2.033839548692157
 30
0.0
 10
7.109467777877594
 20
1.837392676164923
 30
0.0
 10
4.882896528594292
 20
1.385545104576197
 30
0.0
 10
1.157771406459104
 20
1.124160616054928
 30
0.0
 10
-2.876935351257461
 20
1.211307104001178
 30
0.0
 10
-6.442720919465182
 20
1.607908118564226
 30
0.0
 10
-8.495990842328917
 20
2.12106891085078
 30
0.0
 10
-9.319409211638918
 20
2.326860666758399
 30
0.0
  0
SPLINE
  5
EB
330
D1
100
AcDbEntity
  8
0
  6
Continuous
 62
     7
370
    25
100
AcDbSpline
210
0.0
220
0.0
230
1.0
 70
     8
 71
     3
 72
     9
 73
     5
 74
     0
 42
0.000000001
 43
0.00000001
 40
0.0
 40
0.0
 40
0.0
 40
0.0
 40
0.2283198630530219
 40
1.0
 40
1.0
 40
1.0
 40
1.0
 10
21.889109208373
 20
17.25262398691544
 30
0.0
 10
21.88483535683902
 20
17.26329259466984
 30
0.0
 10
21.86611665459015
 20
17.31001918083604
 30
0.0
 10
21.82756603185325
 20
17.35292120933662
 30
0.0
 10
21.79781728202024
 20
17.38602785256524
 30
0.0
  0
SPLINE
  5
EC
330
D1
100
AcDbEntity
  8
0
  6
Continuous
 62
     8
370
    25
100
AcDbSpline
210
0.0
220
0.0
230
1.0
 70
     8
 71
     3
 72
    37
 73
    33
 74
     0
 42
0.000000001
 43
0.00000001
 40
0.0
 40
0.0
 40
0.0
 40
0.0
 40
0.033534666253056
 40
0.0670755774090658
 40
0.1006102646828011
 40
0.1341571056853738
 40
0.1677022935608754
 40
0.2012512797076916
 40
0.2348084275862798
 40
0.2683595126720644
 40
0.3019213378550751
 40
0.3354790643416774
 40
0.3690367547070921
 40
0.4025984718428161
 40
0.4361493758512227
 40
0.4697062715565711
 40
0.5032549325202768
 40
0.5367997228789877
 40
0.5703460954059272
 40
0.6038802390948285
 40
0.6374205371920627
 40
0.6709545158367479
 40
0.7044866996062756
 40
0.7380262961591912
 40
0.7715644843906032
 40
0.8051080385534096
 40
0.8386524515441596
 40
0.8722017577242427
 40
0.9057566346727237
 40
0.9393091442607497
 40
0.9728671577979313
 40
1.0
 40
1.0
 40
1.0
 40
1.0
 10
123.6930586580092
 20
164.9544774369367
 30
0.0
 10
120.3817616002531
 20
166.7812529696689
 30
0.0
 10
113.7585508473598
 20
170.4351442214895
 30
0.0
 10
102.9254036630136
 20
175.3250302613027
 30
0.0
 10
91.51180849476779
 20
179.7430050116399
 30
0.0
 10
79.51859131221339
 20
183.6211199381681
 30
0.0
 10
67.03775964189992
 20
186.9489511047712
 30
0.0
 10
54.13786650413363
 20
189.6986607227705
 30
0.0
 10
40.90282301495287
 20
191.8575623098642
 30
0.0
 10
27.41132792120687
 20
193.4092609453354
 30
0.0
 10
13.74921298058469
 20
194.3435520092349
 30
0.0
 10
0.0007310825019813
 20
194.6572077140921
 30
0.0
 10
-13.7477391647562
 20
194.3436182120186
 30
0.0
 10
-27.40982804617451
 20
193.4093994212341
 30
0.0
 10
-40.90125851863001
 20
191.8577692697678
 30
0.0
 10
-54.1362966158779
 20
189.6989896677823
 30
0.0
 10
-67.03589068569993
 20
186.9492523908634
 30
0.0
 10
-79.51746521876832
 20
183.6220212680296
 30
0.0
 10
-91.50750383955423
 20
179.7422431948366
 30
0.0
 10
-102.9325430319569
 20
175.3311404974314
 30
0.0
 10
-113.7225861340232
 20
170.4163766845478
 30
0.0
 10
-123.8174218236311
 20
165.0295085733113
 30
0.0
 10
-133.152479038767
 20
159.2002441797538
 30
0.0
 10
-141.6748895829915
 20
152.9664827847154
 30
0.0
 10
-149.3284184999652
 20
146.3641744836069
 30
0.0
 10
-156.0634623714535
 20
139.4346186590244
 30
0.0
 10
-161.8417822329192
 20
132.2211359836732
 30
0.0
 10
-166.6170895862407
 20
124.7669884653196
 30
0.0
 10
-170.375140169619
 20
117.1201032825034
 30
0.0
 10
-173.0466227804937
 20
109.326787175502
 30
0.0
 10
-174.6561408032487
 20
101.9414332924273
 30
0.0
 10
-174.8597196849119
 20
97.1569928163481
 30
0.0
 10
-174.9507329620285
 20
95.0180302513716
 30
0.0
  0
SPLINE
  5
ED
330
D1
100
AcDbEntity
  8
0
  6
Continuous
 62
     8
370
    25
100
AcDbSpline
210
0.0
220
0.0
230
1.0
 70
     8
 71
     3
 72
    17
 73
    13
 74
     0
 42
0.000000001
 43
0.00000001
 40
0.0
 40
0.0
 40
0.0
 40
0.0
 40
0.082444060479217
 40
0.1844412165509955
 40
0.2864055123079752
 40
0.3883880131312493
 40
0.4903454913524956
 40
0.5922912046736801
 40
0.6942417231093426
 40
0.7961550851637733
 40
0.898087141308255
 40
1.0
 40
1.0
 40
1.0
 40
1.0
 10
174.950749066066
 20
95.01459317037931
 30
0.0
 10
174.8598500214097
 20
97.15320939246028
 30
0.0
 10
174.6564935845447
 20
101.9376532376993
 30
0.0
 10
173.0476363978545
 20
109.3229821255462
 30
0.0
 10
170.3765068477572
 20
117.116857352847
 30
0.0
 10
166.6185830309638
 20
124.7638929639785
 30
0.0
 10
161.8439804920438
 20
132.2186057255517
 30
0.0
 10
156.0645761372213
 20
139.4319511768935
 30
0.0
 10
149.3329945669631
 20
146.3635419109892
 30
0.0
 10
141.6680781013112
 20
152.9593526254999
 30
0.0
 10
133.1888217227516
 20
159.2182900306935
 30
0.0
 10
126.8581142777606
 20
163.042535019851
 30
0.0
 10
123.6930586580092
 20
164.9544774369367
 30
0.0
  0
SPLINE
  5
EE
330
D1
100
AcDbEntity
  8
0
  6
Continuous
 62
     8
370
    25
100
AcDbSpline
210
0.0
220
0.0
230
1.0
 70
     8
 71
     3
 72
    84
 73
    80
 74
     0
 42
0.000000001
 43
0.00000001
 40
0.0
 40
0.0
 40
0.0
 40
0.0
 40
0.0147479553157026
 40
0.0363408793790423
 40
0.0596131361950478
 40
0.0758949343839833
 40
0.0929084442795824
 40
0.0984072751225557
 40
0.1039784023404978
 40
0.1096218257687919
 40
0.1153375452394486
 40
0.12112556058111
 40
0.1409212164229162
 40
0.1592916758018162
 40
0.1762368529044095
 40
0.1917566684491553
 40
0.2058510496894399
 40
0.2183062296323335
 40
0.2293863001964696
 40
0.2390912127665503
 40
0.24742092461947
 40
0.2582572427895098
 40
0.2713221999835715
 40
0.2866156430369936
 40
0.3041373930913018
 40
0.312730082811019
 40
0.3217720665848255
 40
0.3312633406540812
 40
0.3412039010874445
 40
0.351593743781023
 40
0.3624328644584929
 40
0.373721258671196
 40
0.3981179470078166
 40
0.4211751725297235
 40
0.4428928281912663
 40
0.4632708136176016
 40
0.4823090351161247
 40
0.5000074056919878
 40
0.519924163448765
 40
0.5415192942369743
 40
0.5647926445835479
 40
0.5719715973667816
 40
0.5792963223792605
 40
0.5867668190154253
 40
0.5943830866521098
 40
0.6021451246485754
 40
0.6100529323465413
 40
0.6181065090702134
 40
0.6263086605265842
 40
0.6461002705872839
 40
0.6644673647720389
 40
0.6814098573680789
 40
0.6969276691847471
 40
0.7110207275565685
 40
0.718306227117795
 40
0.7251428774053659
 40
0.7315306755190257
 40
0.737469618733111
 40
0.7429597044976513
 40
0.7480009304399614
 40
0.7526031825780521
 40
0.7598199277196257
 40
0.7691416083210242
 40
0.7805681266949203
 40
0.7940993633388578
 40
0.8064400794642217
 40
0.8201277979504535
 40
0.8351624613004812
 40
0.8515440064335751
 40
0.8692723646865392
 40
0.8850754574422186
 40
0.9002661187482265
 40
0.9118129011537223
 40
0.9231913256076728
 40
0.9344013906302295
 40
0.9454430947808007
 40
0.9670183794841781
 40
0.9879204798266064
 40
1.0
 40
1.0
 40
1.0
 40
1.0
 10
179.8536948717462
 20
91.82549693681632
 30
0.0
 10
179.7990140478303
 20
90.2375337409057
 30
0.0
 10
179.6642733882785
 20
86.32458596437534
 30
0.0
 10
178.5325728731087
 20
79.92971147034186
 30
0.0
 10
176.6760424892481
 20
73.42657013998422
 30
0.0
 10
174.2991709003456
 20
67.48620924040553
 30
0.0
 10
172.3098149719135
 20
63.46523377396792
 30
0.0
 10
170.6943861611477
 20
60.58659445106112
 30
0.0
 10
169.6821448360093
 20
58.88312698551407
 30
0.0
 10
168.6048534541437
 20
57.16809805716154
 30
0.0
 10
167.4608400005806
 20
55.44242604311304
 30
0.0
 10
165.2755586630941
 20
52.31452741218256
 30
0.0
 10
161.9045860884719
 20
47.99293897933644
 30
0.0
 10
157.1302074745133
 20
42.73000892192947
 30
0.0
 10
152.2721467465339
 20
38.0227612761721
 30
0.0
 10
147.4523704514966
 20
33.84722096901069
 30
0.0
 10
142.8018084735594
 20
30.19464465098248
 30
0.0
 10
138.4125797742432
 20
27.03002025664775
 30
0.0
 10
134.3611633042975
 20
24.31884824717964
 30
0.0
 10
130.6817835391704
 20
22.01214861982683
 30
0.0
 10
126.9238157366304
 20
19.7854193699177
 30
0.0
 10
122.6017442723048
 20
17.37374784196463
 30
0.0
 10
117.1602507075487
 20
14.55646142360679
 30
0.0
 10
110.544320571828
 20
11.42443024800487
 30
0.0
 10
104.3299346414895
 20
8.777225512668588
 30
0.0
 10
98.90237812472368
 20
6.656384890891355
 30
0.0
 10
94.63817420340048
 20
5.086911595132415
 30
0.0
 10
90.08158493842069
 20
3.514680351741406
 30
0.0
 10
85.22509809602522
 20
1.952064712283624
 30
0.0
 10
80.06203255076844
 20
0.4123247873881186
 30
0.0
 10
74.58647145325403
 20
-1.090473090831066
 30
0.0
 10
66.62891041018823
 20
-3.083540823948919
 30
0.0
 10
56.34541867292982
 20
-5.276734864773737
 30
0.0
 10
43.9412655595069
 20
-7.337358649244279
 30
0.0
 10
32.05227281489984
 20
-8.805236952774937
 30
0.0
 10
20.76514200259451
 20
-9.759307344646215
 30
0.0
 10
10.14580852121848
 20
-10.27716508192207
 30
0.0
 10
-0.4205140500762317
 20
-10.44408831383546
 30
0.0
 10
-11.46441573038315
 20
-10.247226040161
 30
0.0
 10
-23.49960698365834
 20
-9.58387306786558
 30
0.0
 10
-33.08300443596745
 20
-8.663895718398797
 30
0.0
 10
-39.96956009232175
 20
-7.80809753387713
 30
0.0
 10
-43.95501442746418
 20
-7.258381249395825
 30
0.0
 10
-47.99626811357955
 20
-6.644016304097625
 30
0.0
 10
-52.08975214709407
 20
-5.962159274748808
 30
0.0
 10
-56.2315456056338
 20
-5.209980285408901
 30
0.0
 10
-60.41745102931059
 20
-4.38467341015631
 30
0.0
 10
-64.64352725148994
 20
-3.483326051821722
 30
0.0
 10
-70.88679567276395
 20
-2.047396283222688
 30
0.0
 10
-78.77412544010923
 20
0.0005879889122817
 30
0.0
 10
-87.87965773000298
 20
2.751129294940133
 30
0.0
 10
-96.02423483233687
 20
5.550674754738721
 30
0.0
 10
-103.2493691539201
 20
8.328857870540107
 30
0.0
 10
-108.7936768996313
 20
10.68075316562779
 30
0.0
 10
-112.9263866381158
 20
12.55934262017477
 30
0.0
 10
-115.8778179985652
 20
13.96279264511242
 30
0.0
 10
-118.5881206226969
 20
15.3066739241063
 30
0.0
 10
-121.0659936862067
 20
16.5839119170553
 30
0.0
 10
-123.3198539858609
 20
17.78807529931145
 30
0.0
 10
-125.3591166206428
 20
18.91411302572868
 30
0.0
 10
-127.5981858004157
 20
20.18833521062226
 30
0.0
 10
-130.3545425101164
 20
21.81633154083226
 30
0.0
 10
-133.9037866155263
 20
24.02404483474169
 30
0.0
 10
-138.101388956554
 20
26.81052770093795
 30
0.0
 10
-142.4621052074107
 20
29.943125460698
 30
0.0
 10
-146.8518993996776
 20
33.3703366045221
 30
0.0
 10
-151.1560294107003
 20
37.03175481350339
 30
0.0
 10
-155.5685665379139
 20
41.17173854432487
 30
0.0
 10
-159.9898203665507
 20
45.81320036890352
 30
0.0
 10
-164.0418313442017
 20
50.65863844938954
 30
0.0
 10
-167.5647917381177
 20
55.50047639309255
 30
0.0
 10
-170.2848327017379
 20
59.80879494243084
 30
0.0
 10
-172.4417720377612
 20
63.7231423983161
 30
0.0
 10
-174.1562938211311
 20
67.26592438772852
 30
0.0
 10
-175.6313995418395
 20
70.78809887891447
 30
0.0
 10
-177.2820072901241
 20
75.41320838006551
 30
0.0
 10
-178.7717854907451
 20
81.11601901725668
 30
0.0
 10
-179.7323493743383
 20
86.97272099929464
 30
0.0
 10
-179.8069781441382
 20
90.52426776487054
 30
0.0
 10
-179.8343109348323
 20
91.82502194645919
 30
0.0
  0
LWPOLYLINE
  5
EF
330
D1
100
AcDbEntity
  8
0
  6
Continuous
 62
     8
370
    25
100
AcDbPolyline
 90
       54
 70
   128
 43
0.0
 10
-125.8238650158
 20
-51.0472969888
 10
-120.0939021723
 20
-54.2109209406
 10
-114.1255040025
 20
-57.2240506214
 10
-107.9305202085
 20
-60.0807037411
 10
-101.5212503571
 20
-62.7752086794
 10
-94.9104194604
 20
-65.3022157461
 10
-88.1111527111
 20
-67.6567078026
 10
-81.1369494241
 20
-69.834010223
 10
-74.0016562344
 20
-71.8298001747
 10
-66.7194396062
 20
-73.6401152016
 10
-59.3047577065
 20
-75.2613610907
 10
-51.7723316999
 20
-76.6903190085
 10
-44.1371165209
 20
-77.9241518912
 10
-36.4142711827
 20
-78.9604100778
 10
-28.6191286796
 20
-79.7970361737
 10
-20.7671655457
 20
-80.4323691351
 10
-12.8739711269
 20
-80.8651475674
 10
-4.9552166301
 20
-81.0945122289
 10
2.9733759907
 20
-81.1200077373
 10
10.8960652486
 20
-80.9415834738
 10
18.7971213776
 20
-80.5595936831
 10
26.6608575621
 20
-79.9747967706
 10
34.4716610817
 20
-79.1883537965
 10
42.214024309
 20
-78.2018261705
 10
49.8725754986
 20
-77.0171725519
 10
57.432109306
 20
-75.6367449607
 10
64.8776169766
 20
-74.0632841082
 10
72.1943161439
 20
-72.2999139553
 10
79.3676801792
 20
-70.3501355101
 10
86.3834670322
 20
-68.2178198774
 10
93.2277475073
 20
-65.9072005723
 10
99.8869329194
 20
-63.4228651157
 10
106.3478020721
 20
-60.7697459256
 10
112.5975275079
 20
-57.9531105247
 10
118.6237009752
 20
-54.9785510817
 10
124.4143580647
 20
-51.8519733091
 10
129.9580019625
 20
-48.5795847377
 10
135.2436262769
 20
-45.1678823921
 10
140.2607368901
 20
-41.6236398915
 10
144.9993727934
 20
-37.9538940012
 10
149.4501258637
 20
-34.1659306622
 10
153.604159543
 20
-30.2672705248
 10
157.4532263817
 20
-26.2656540181
 10
160.989684414
 20
-22.1690259811
 10
164.2065123298
 20
-17.9855198896
 10
167.097323415
 20
-13.7234417077
 10
169.6563782319
 20
-9.3912533971
 10
171.878596014
 20
-4.9975561167
 10
173.7595647534
 20
-0.5510731458
 10
175.2955499611
 20
3.9393674353
 10
176.4835020804
 20
8.4648502725
 10
177.3210625424
 20
13.0163904384
 10
177.8065684483
 20
17.5849512715
 10
177.9188443369
 20
19.9387112938
  0
LWPOLYLINE
  5
F0
330
D1
100
AcDbEntity
  8
0
  6
Continuous
 62
     8
370
    25
100
AcDbPolyline
 90
       19
 70
   128
 43
0.0
 10
-177.9188443369
 20
19.9387112938
 10
-177.8728080489
 20
18.7286885006
 10
-177.4754937518
 20
14.1572888346
 10
-176.7258182899
 20
9.6006446875
 10
-175.6252700743
 20
5.0678028546
 10
-174.1760341415
 20
0.5677628736
 10
-172.3809878155
 20
-3.8905408425
 10
-170.2436949945
 20
-8.2982567445
 10
-167.7683990757
 20
-12.6466337203
 10
-164.9600145298
 20
-16.92703847
 10
-161.8241171445
 20
-21.1309726462
 10
-158.3669329538
 20
-25.2500897268
 10
-154.5953258768
 20
-29.2762115859
 10
-150.5167840903
 20
-33.2013447314
 10
-146.1394051616
 20
-37.0176961748
 10
-141.4718799711
 20
-40.7176889035
 10
-136.5234754583
 20
-44.2939769243
 10
-131.3040162221
 20
-47.7394598486
 10
-125.8238650158
 20
-51.0472969888
  0
SPLINE
  5
F1
330
D1
100
AcDbEntity
  8
0
  6
Continuous
 62
     8
370
    25
100
AcDbSpline
210
0.0
220
0.0
230
1.0
 70
     8
 71
     3
 72
    40
 73
    36
 74
     0
 42
0.000000001
 43
0.00000001
 40
0.0
 40
0.0
 40
0.0
 40
0.0
 40
0.0094924180105526
 40
0.0431113973833544
 40
0.07698647205113
 40
0.1116572007107415
 40
0.1465970866657277
 40
0.1787830773597124
 40
0.2113878013408981
 40
0.2442035790656623
 40
0.277458917768388
 40
0.3090110339977784
 40
0.3409877704666488
 40
0.3731830304104393
 40
0.4058286526191585
 40
0.4377029467460714
 40
0.4700382956168213
 40
0.5026079012924176
 40
0.5356603500843689
 40
0.5688974491788186
 40
0.602656309309834
 40
0.6366796389695029
 40
0.6712443673073296
 40
0.7045495455730234
 40
0.7380961087642235
 40
0.7723892797679386
 40
0.8069325925446154
 40
0.8266629678993407
 40
0.8464876050575126
 40
0.8663599469970718
 40
0.8863294303870158
 40
0.91788638831761
 40
0.9498669896606441
 40
0.9820654513103813
 40
1.0
 40
1.0
 40
1.0
 40
1.0
 10
-165.8817760838429
 20
61.75997717205229
 30
0.0
 10
-165.508271008359
 20
62.54848501959467
 30
0.0
 10
-163.8119354997472
 20
66.12962473736766
 30
0.0
 10
-159.5262782669879
 20
72.31325385028687
 30
0.0
 10
-152.9946475671329
 20
80.27585395149993
 30
0.0
 10
-145.1073768764689
 20
87.94973393904112
 30
0.0
 10
-136.2720440931733
 20
95.05861176761267
 30
0.0
 10
-126.6502568573844
 20
101.547367349925
 30
0.0
 10
-116.399285676755
 20
107.4037067179272
 30
0.0
 10
-105.2477557654967
 20
112.7824925068442
 30
0.0
 10
-93.4890348091517
 20
117.5329066247005
 30
0.0
 10
-81.19374583922871
 20
121.6558354714747
 30
0.0
 10
-68.48868320533907
 20
125.1452183290752
 30
0.0
 10
-55.16139590490049
 20
128.0500891687884
 30
0.0
 10
-41.45773182916057
 20
130.308863714057
 30
0.0
 10
-27.44079918658705
 20
131.9171837660236
 30
0.0
 10
-13.23941129171473
 20
132.8667365959508
 30
0.0
 10
1.231257029482846
 20
133.1530139193589
 30
0.0
 10
15.82667257836814
 20
132.7487588702745
 30
0.0
 10
30.47810866236744
 20
131.6366316046066
 30
0.0
 10
45.03681271452874
 20
129.7979012319266
 30
0.0
 10
59.43300140190247
 20
127.2134628478967
 30
0.0
 10
73.29851312612335
 20
123.9269037648297
 30
0.0
 10
86.53534104648521
 20
119.9733798671981
 30
0.0
 10
99.09573660904444
 20
115.3855383385507
 30
0.0
 10
111.0654768313776
 20
110.1068072223206
 30
0.0
 10
120.7053975197529
 20
105.015342989032
 30
0.0
 10
128.2550676036787
 20
100.430795934103
 30
0.0
 10
133.9951445021499
 20
96.57327473393022
 30
0.0
 10
139.4251552361823
 20
92.52895465861256
 30
0.0
 10
145.4997361659982
 20
87.49618223517223
 30
0.0
 10
151.9520757307959
 20
81.33881053401804
 30
0.0
 10
158.2967563080979
 20
73.93972420983259
 30
0.0
 10
163.0024667514711
 20
67.38234124320398
 30
0.0
 10
165.1110113670979
 20
63.23768635303995
 30
0.0
 10
165.865320669835
 20
61.75498035900232
 30
0.0
  0
SPLINE
  5
F2
330
D1
100
AcDbEntity
  8
0
  6
Continuous
 62
     8
370
    25
100
AcDbSpline
210
0.0
220
0.0
230
1.0
 70
     8
 71
     3
 72
    39
 73
    35
 74
     0
 42
0.000000001
 43
0.00000001
 40
0.0
 40
0.0
 40
0.0
 40
0.0
 40
0.0252333626833669
 40
0.0568400792206142
 40
0.0884510036791144
 40
0.1199556312499286
 40
0.1460057779948899
 40
0.1720844005257159
 40
0.1981361952410894
 40
0.2314678096233541
 40
0.2649175775438376
 40
0.2983608699333877
 40
0.3316836224244532
 40
0.3649305638462589
 40
0.3983073619062222
 40
0.4316806281632981
 40
0.4649227345836831
 40
0.4967554018205948
 40
0.5287053432833347
 40
0.5606560805298751
 40
0.5924898369192656
 40
0.6239836478975423
 40
0.6555855900611677
 40
0.6871916949853966
 40
0.7186912018052202
 40
0.7508567111994344
 40
0.7831268168180363
 40
0.8153995895284465
 40
0.8475687476365326
 40
0.8812183961297547
 40
0.9149948366907773
 40
0.9487650433016896
 40
0.982406158628113
 40
1.0
 40
1.0
 40
1.0
 40
1.0
 10
158.10118446612
 20
50.79787603856457
 30
0.0
 10
157.0827396911914
 20
52.78537174934998
 30
0.0
 10
154.7886149478841
 20
57.26235783595428
 30
0.0
 10
149.9493820542496
 20
63.98034492351545
 30
0.0
 10
143.8966538333597
 20
70.93356044812222
 30
0.0
 10
137.2683786099595
 20
77.18391148876302
 30
0.0
 10
130.3229810723111
 20
82.76061334051258
 30
0.0
 10
123.2555870979684
 20
87.71743311004032
 30
0.0
 10
114.9446039589353
 20
92.83683345296461
 30
0.0
 10
105.222727920782
 20
97.99687040912488
 30
0.0
 10
93.96432798831741
 20
103.0443883924692
 30
0.0
 10
82.0184546862173
 20
107.5325078068656
 30
0.0
 10
69.47774722129472
 20
111.4090810328103
 30
0.0
 10
56.39585148241033
 20
114.6224618497106
 30
0.0
 10
42.87137344749633
 20
117.1666435219785
 30
0.0
 10
29.01467799531586
 20
119.0239104539256
 30
0.0
 10
15.14283067996489
 20
120.1505948711562
 30
0.0
 10
1.355094023937839
 20
120.549065210711
 30
0.0
 10
-12.25697653913754
 20
120.2743631657116
 30
0.0
 10
-25.7805349904543
 20
119.3408301232934
 30
0.0
 10
-39.05485889954241
 20
117.7571218285141
 30
0.0
 10
-51.99266467864727
 20
115.5250755913102
 30
0.0
 10
-64.53418536276548
 20
112.6904330079607
 30
0.0
 10
-76.63548437499061
 20
109.2773072487694
 30
0.0
 10
-88.28554079995246
 20
105.2842609405406
 30
0.0
 10
-99.39913389853683
 20
100.7148886015061
 30
0.0
 10
-109.9248737768809
 20
95.60330701758159
 30
0.0
 10
-119.7150701961576
 20
90.0238856737055
 30
0.0
 10
-128.841523683138
 20
83.92772270598836
 30
0.0
 10
-137.1737312746952
 20
77.3072185634362
 30
0.0
 10
-144.6292162944485
 20
70.18827437777665
 30
0.0
 10
-150.9430797607639
 20
62.71776700410495
 30
0.0
 10
-155.4656688441975
 20
56.22584515665461
 30
0.0
 10
-157.3864973521538
 20
52.16667134922383
 30
0.0
 10
-158.0461007606348
 20
50.77277029667916
 30
0.0
  0
LWPOLYLINE
  5
F3
330
D1
100
AcDbEntity
  8
0
  6
Continuous
 62
     8
370
    25
100
AcDbPolyline
 90
       26
 70
   128
 43
0.0
 10
-87.3985477804
 20
-75.2892701008
 10
-84.1271127239
 20
-76.4811758156
 10
-77.6167836897
 20
-78.6706754131
 10
-70.93583612
 20
-80.6816069443
 10
-64.0989561873
 20
-82.5095499453
 10
-57.1211728377
 20
-84.1504862006
 10
-50.0178247532
 20
-85.6008085763
 10
-42.8045266347
 20
-86.857328949
 10
-35.4971348767
 20
-87.9172852141
 10
-28.1117127125
 20
-88.7783473579
 10
-20.6644949026
 20
-89.4386225789
 10
-13.1718520482
 20
-89.8966594487
 10
-5.6502546042
 20
-90.151451103
 10
1.8837633256
 20
-90.2024374544
 10
9.4136403347
 20
-90.0495064238
 10
16.9228241194
 20
-89.6929941869
 10
24.394807864
 20
-89.1336844349
 10
31.8131665265
 20
-88.3728066519
 10
39.1615929446
 20
-87.4120334127
 10
46.4239336822
 20
-86.2534767051
 10
53.5842245383
 20
-84.8996832883
 10
60.6267256395
 20
-83.3536290941
 10
67.53595604
 20
-81.6187126851
 10
74.2967277519
 20
-79.6987477841
 10
80.8941791318
 20
-77.5979548906
 10
86.2974247267
 20
-75.6975656171
  0
SPLINE
  5
F4
330
D1
100
AcDbEntity
  8
0
  6
Continuous
 62
     8
370
    25
100
AcDbSpline
210
0.0
220
0.0
230
1.0
 70
     8
 71
     3
 72
    20
 73
    16
 74
     0
 42
0.000000001
 43
0.00000001
 40
0.0
 40
0.0
 40
0.0
 40
0.0
 40
0.0584151579397279
 40
0.1410223358950322
 40
0.226018335294972
 40
0.3081969351472976
 40
0.3927459909002595
 40
0.4753557863880826
 40
0.5603765354206599
 40
0.6432624973616455
 40
0.7285657975971044
 40
0.8112316862262826
 40
0.8962787051462443
 40
0.9786415659126071
 40
1.0
 40
1.0
 40
1.0
 40
1.0
 10
17.01333102575776
 20
24.92962841941809
 30
0.0
 10
17.65683681494599
 20
24.53089193116315
 30
0.0
 10
19.21034951188905
 20
23.56828645403147
 30
0.0
 10
21.21483792530323
 20
21.78280065309131
 30
0.0
 10
22.86077992029859
 20
19.63494702778178
 30
0.0
 10
23.86248259768172
 20
17.34070794510459
 30
0.0
 10
24.18687486176935
 20
15.01112862247515
 30
0.0
 10
23.82518368375828
 20
12.6658145811025
 30
0.0
 10
22.78978903162294
 20
10.41036467710149
 30
0.0
 10
21.09074060110001
 20
8.268668247838008
 30
0.0
 10
18.80670491588253
 20
6.339788780230782
 30
0.0
 10
15.972723709798
 20
4.626930780769742
 30
0.0
 10
12.70335854631266
 20
3.246864661253894
 30
0.0
 10
10.01457563758464
 20
2.368966848496357
 30
0.0
 10
8.40827214915219
 20
2.091065402988035
 30
0.0
 10
8.077499888447123
 20
2.033839548692157
 30
0.0
  0
LWPOLYLINE
  5
F5
330
D1
100
AcDbEntity
  8
0
  6
Continuous
 62
     8
370
    25
100
AcDbPolyline
 90
       23
 70
   128
 43
0.0
 10
-9.3194092116
 20
2.3268606668
 10
-10.660058599
 20
2.6354413506
 10
-13.9822185352
 20
3.7979018799
 10
-17.0171320057
 20
5.2886498597
 10
-20.3561383125
 20
7.6911172795
 10
-22.1985300566
 20
9.7183124352
 10
-23.4582266585
 20
11.958872864
 10
-24.028925881
 20
14.2303226827
 10
-23.9256390328
 20
16.5993313135
 10
-23.1525833868
 20
18.8756704166
 10
-21.6870792219
 20
21.1123348671
 10
-19.6509063318
 20
23.1187522382
 10
-16.9883980129
 20
24.9440004853
 10
-13.9361243891
 20
26.4263439994
 10
-10.396682582
 20
27.6193745953
 10
-6.6747657025
 20
28.4270342143
 10
-2.6543051948
 20
28.8799837972
 10
1.3356830028
 20
28.9422177452
 10
5.402404927
 20
28.614599905
 10
9.2195265446
 20
27.919195606
 10
12.8795712697
 20
26.8330585755
 10
17.0133310258
 20
24.9296284194
 10
17.0133310258
 20
24.9296284194
  0
SPLINE
  5
F6
330
D1
100
AcDbEntity
  8
0
  6
Continuous
 62
     8
370
    25
100
AcDbSpline
210
0.0
220
0.0
230
1.0
 70
     8
 71
     3
 72
    19
 73
    15
 74
     0
 42
0.000000001
 43
0.00000001
 40
0.0
 40
0.0
 40
0.0
 40
0.0
 40
0.1099646168343677
 40
0.1945589441805038
 40
0.2791507518345766
 40
0.3634754552553104
 40
0.4477996208408196
 40
0.5319051988403908
 40
0.6160125619050201
 40
0.7001613850432064
 40
0.784312805614057
 40
0.8687842241780795
 40
0.9532530038244144
 40
1.0
 40
1.0
 40
1.0
 40
1.0
 10
16.35117200240791
 20
22.41185744091565
 30
0.0
 10
15.07588706541709
 20
23.05945006585834
 30
0.0
 10
12.81954227003661
 20
24.20522714393163
 30
0.0
 10
8.955895408131289
 20
25.31806309351109
 30
0.0
 10
5.230863425909588
 20
26.00670360423838
 30
0.0
 10
1.347251613842583
 20
26.31563183828498
 30
0.0
 10
-2.564245257151871
 20
26.26153463968597
 30
0.0
 10
-6.397943014677646
 20
25.83058070536859
 30
0.0
 10
-10.05105188963194
 20
25.04803992998327
 30
0.0
 10
-13.41195718538971
 20
23.916059843471
 30
0.0
 10
-16.41431522862506
 20
22.4730273382539
 30
0.0
 10
-18.91878368051341
 20
20.73155186683732
 30
0.0
 10
-20.69935097303133
 20
19.07576413558201
 30
0.0
 10
-21.37215569069622
 20
17.96454999582264
 30
0.0
 10
-21.61184942696068
 20
17.56866830540695
 30
0.0
  0
SPLINE
  5
F7
330
D1
100
AcDbEntity
  8
0
  6
Continuous
 62
     8
370
    25
100
AcDbSpline
210
0.0
220
0.0
230
1.0
 70
     8
 71
     3
 72
    10
 73
     6
 74
     0
 42
0.000000001
 43
0.00000001
 40
0.0
 40
0.0
 40
0.0
 40
0.0
 40
0.3590447582169178
 40
0.7366466868637418
 40
1.0
 40
1.0
 40
1.0
 40
1.0
 10
21.79781728202024
 20
17.38602785256524
 30
0.0
 10
21.33473434972025
 20
18.05195883667494
 30
0.0
 10
20.38463411843977
 20
19.4182393404219
 30
0.0
 10
18.46630212323121
 20
21.0971628275043
 30
0.0
 10
16.967141542896
 20
22.02899123853283
 30
0.0
 10
16.35117200240791
 20
22.41185744091565
 30
0.0
  0
LINE
  5
F8
330
D1
100
AcDbEntity
  8
0
  6
Continuous
 62
     7
370
    25
100
AcDbLine
 10
-175.0257473396
 20
94.2719826306
 30
0.0
 11
-175.0344961243
 21
95.0291924931
 31
0.0
  0
LINE
  5
F9
330
D1
100
AcDbEntity
  8
0
  6
Continuous
 62
     7
370
    25
100
AcDbLine
 10
175.0345058373
 20
95.0282882912
 30
0.0
 11
175.0352681371
 21
94.5132926447
 31
0.0
  0
LINE
  5
FA
330
D1
100
AcDbEntity
  8
0
  6
Continuous
 62
     7
370
    25
100
AcDbLine
 10
-179.9091278934
 20
92.7944113591
 30
0.0
 11
-179.9199217704
 21
91.8261081532
 31
0.0
  0
LINE
  5
FB
330
D1
100
AcDbEntity
  8
0
  6
Continuous
 62
     7
370
    25
100
AcDbLine
 10
179.9199306989
 20
91.8268593193
 30
0.0
 11
179.9193276104
 21
92.2840773492
 31
0.0
  0
LINE
  5
FC
330
D1
100
AcDbEntity
  8
0
  6
Continuous
 62
     7
370
    25
100
AcDbLine
 10
-179.9211257798
 20
91.8669829176
 30
0.0
 11
-177.9188443369
 21
19.9387112938
 31
0.0
  0
LINE
  5
FD
330
D1
100
AcDbEntity
  8
0
  6
Continuous
 62
     7
370
    25
100
AcDbLine
 10
177.9188443369
 20
19.9387112938
 30
0.0
 11
179.9211257798
 21
91.8669829176
 31
0.0
  0
LINE
  5
FE
330
D1
100
AcDbEntity
  8
0
  6
Continuous
 62
     7
370
    25
100
AcDbLine
 10
-174.950732962
 20
95.0180302514
 30
0.0
 11
-175.0039746321
 21
94.2413918631
 31
0.0
  0
LINE
  5
FF
330
D1
100
AcDbEntity
  8
0
  6
Continuous
 62
     7
370
    25
100
AcDbLine
 10
174.9875026526
 20
94.4780218085
 30
0.0
 11
174.9507490661
 21
95.0145931704
 31
0.0
  0
LINE
  5
100
330
D1
100
AcDbEntity
  8
0
  6
Continuous
 62
     7
370
    25
100
AcDbLine
 10
179.876945848
 20
92.2588482189
 30
0.0
 11
179.8536948717
 21
91.8254969368
 31
0.0
  0
LINE
  5
101
330
D1
100
AcDbEntity
  8
0
  6
Continuous
 62
     7
370
    25
100
AcDbLine
 10
-179.8343109348
 20
91.8250219465
 30
0.0
 11
-179.8702298952
 21
92.7598418504
 31
0.0
  0
LINE
  5
102
330
D1
100
AcDbEntity
  8
0
  6
Continuous
 62
     7
370
    25
100
AcDbLine
 10
-21.8039548373
 20
17.2761011998
 30
0.0
 11
-21.9384719304
 21
17.0712382733
 31
0.0
  0
VIEWPORT
  5
109
330
D1
100
AcDbEntity
  8
0
100
AcDbViewport
 10
0.0
 20
0.0
 30
0.0
 40
205.6
 41
156.0
 68
     1
 69
     1
 12
-0.0001586187
 22
0.005715336
 13
0.0
 23
0.0
 14
10.0
 24
10.0
 15
10.0
 25
10.0
 16
0.0
 26
0.0
 36
1.0
 17
0.0
 27
0.0
 37
0.0
 42
50.0
 43
0.0
 44
0.0
 45
367.0694416761
 50
0.0
 51
0.0
 72
   100
 90
   557152
  1

281
     0
 71
     1
 74
     0
110
0.0
120
0.0
130
0.0
111
1.0
121
0.0
131
0.0
112
0.0
122
1.0
132
0.0
 79
     0
146
0.0
  0
ENDBLK
  5
D4
330
D1
100
AcDbEntity
  8
0
100
AcDbBlockEnd
  0
ENDSEC
  0
SECTION
  2
ENTITIES
  0
SPLINE
  5
73
330
1F
100
AcDbEntity
  8
0
  6
Continuous
 62
     7
370
    25
100
AcDbSpline
210
0.0
220
0.0
230
1.0
 70
    11
 71
     3
 72
   100
 73
    96
 74
     0
 42
0.000000001
 43
0.00000001
 40
0.0
 40
0.0
 40
0.0
 40
0.0
 40
0.0071992935495029
 40
0.0136018741010895
 40
0.0192077606747853
 40
0.0240170188506674
 40
0.0280296285760303
 40
0.0312455888762502
 40
0.0376494360090203
 40
0.0442113528117935
 40
0.0543716002218978
 40
0.0645447413583801
 40
0.0747167147474803
 40
0.0869242153865487
 40
0.0991302582390679
 40
0.1113368183983702
 40
0.1235441546903042
 40
0.1357495394111634
 40
0.1479570145753371
 40
0.1601632076875771
 40
0.1723696223299471
 40
0.1845769939417458
 40
0.1967824488817849
 40
0.2089899461371294
 40
0.2211963877077942
 40
0.2334026804867922
 40
0.2456103068659678
 40
0.2578159695920475
 40
0.2700231060781306
 40
0.2822304608517691
 40
0.2944359440358646
 40
0.3066433785467755
 40
0.3188495950555114
 40
0.33105633839818
 40
0.3432634746442398
 40
0.3554689015264151
 40
0.3676764511314761
 40
0.37988246434247
 40
0.3920889953383504
 40
0.4042963366720295
 40
0.4165017317267741
 40
0.4287092890359041
 40
0.4409154913822507
 40
0.4531218713746243
 40
0.4653293616308221
 40
0.4775347738844961
 40
0.4897424367747622
 40
0.5019491798852389
 40
0.5141549892386248
 40
0.5263628569990101
 40
0.5385686317271267
 40
0.550775486367149
 40
0.5629828140162079
 40
0.5751882686146285
 40
0.5873958521115387
 40
0.5996017551502012
 40
0.6118083989668524
 40
0.6240157032739391
 40
0.6362211148240158
 40
0.6484286493007838
 40
0.6606346688934902
 40
0.6728412098629787
 40
0.6850485733547249
 40
0.6972539730988172
 40
0.7094615901601582
 40
0.7216678887846839
 40
0.7338742567538182
 40
0.7460820533039693
 40
0.7582876126893323
 40
0.7704941831945747
 40
0.7827017522124979
 40
0.7949081947949842
 40
0.8071147751720955
 40
0.819321166775586
 40
0.8315278199142183
 40
0.8437348410857533
 40
0.8559409244681496
 40
0.8681474020939981
 40
0.8803540958858525
 40
0.8925610476084924
 40
0.9047677004320339
 40
0.9169736207881976
 40
0.9291799476191638
 40
0.9368102628815487
 40
0.9444411651921094
 40
0.952071967294096
 40
0.9594837262039759
 40
0.9633808490104914
 40
0.9670936576088359
 40
0.9711385621769142
 40
0.9763140231511381
 40
0.9811800563580924
 40
0.9867496578322599
 40
0.993022875490217
 40
1.0
 40
1.0
 40
1.0
 40
1.0
 10
-4.428304642234879
 20
-179.8696916386359
 30
0.0
 10
-1.715684234799143
 20
-179.9014293309936
 30
0.0
 10
3.409363245524071
 20
-179.9613924499775
 30
0.0
 10
10.64224310983987
 20
-179.6483126791198
 30
0.0
 10
16.96002886494852
 20
-179.1553808490487
 30
0.0
 10
22.36299149387719
 20
-178.5516744074437
 30
0.0
 10
26.85512470663858
 20
-177.9243485322033
 30
0.0
 10
31.9245890781498
 20
-177.0984959271455
 30
0.0
 10
37.91112424074726
 20
-175.9362679403928
 30
0.0
 10
46.39135205771663
 20
-173.9274369899998
 30
0.0
 10
56.12225796883696
 20
-171.0759678667475
 30
0.0
 10
66.93047482172089
 20
-167.1455784717185
 30
0.0
 10
78.17146851392744
 20
-162.2211533683855
 30
0.0
 10
89.72170389150602
 20
-156.1617224598025
 30
0.0
 10
101.4244264452681
 20
-148.8292545102488
 30
0.0
 10
112.5290018032221
 20
-140.6190085062034
 30
0.0
 10
122.9734922407667
 20
-131.5844545137618
 30
0.0
 10
132.6942583817039
 20
-121.774762457408
 30
0.0
 10
141.6339126517497
 20
-111.249052245448
 30
0.0
 10
149.7430891791259
 20
-100.0704004047946
 30
0.0
 10
156.9688804972208
 20
-88.30146552250629
 30
0.0
 10
163.2738039751981
 20
-76.01497894787192
 30
0.0
 10
168.6183781269281
 20
-63.28076442331564
 30
0.0
 10
172.9697646219161
 20
-50.17438992373004
 30
0.0
 10
176.3075373214168
 20
-36.77359646816891
 30
0.0
 10
178.6050052764554
 20
-23.15573923016447
 30
0.0
 10
179.8545750248543
 20
-9.402507865758462
 30
0.0
 10
180.04717515227
 20
4.406501044906127
 30
0.0
 10
179.1784141755411
 20
18.18929041572519
 30
0.0
 10
177.2601058261509
 20
31.86549845924016
 30
0.0
 10
174.2963374522067
 20
45.35401213444037
 30
0.0
 10
170.309041848458
 20
58.57557442150502
 30
0.0
 10
165.3214789504944
 20
71.45381744161422
 30
0.0
 10
159.3590766414463
 20
83.91054100500017
 30
0.0
 10
152.4626710651712
 20
95.87510543368187
 30
0.0
 10
144.6678182451845
 20
107.2752200672661
 30
0.0
 10
136.0226766190056
 20
118.0440969221494
 30
0.0
 10
126.5789724638829
 20
128.1206967705851
 30
0.0
 10
116.3887242110873
 20
137.4415052726046
 30
0.0
 10
105.516214881279
 20
145.956138533061
 30
0.0
 10
94.02213206126447
 20
153.6118825136829
 30
0.0
 10
81.97521853175523
 20
160.3632449077228
 30
0.0
 10
69.4472213107076
 20
166.1745008416181
 30
0.0
 10
56.50949632636599
 20
171.0052641465876
 30
0.0
 10
43.24078192390083
 20
174.8329477904593
 30
0.0
 10
29.71710899211718
 20
177.632522846217
 30
0.0
 10
16.01881493286777
 20
179.3854749891685
 30
0.0
 10
2.226478195650651
 20
180.0876251899874
 30
0.0
 10
-11.57914859517876
 20
179.72713823333
 30
0.0
 10
-25.31627954812224
 20
178.3120055004073
 30
0.0
 10
-38.90528668740542
 20
175.8492291109871
 30
0.0
 10
-52.26460054123297
 20
172.349656757852
 30
0.0
 10
-65.31758726978748
 20
167.8402879260184
 30
0.0
 10
-77.9858891850158
 20
162.341284012015
 30
0.0
 10
-90.1953302038469
 20
155.8886907029081
 30
0.0
 10
-101.8758091871708
 20
148.520620591846
 30
0.0
 10
-112.9553448716257
 20
140.2767260209452
 30
0.0
 10
-123.3724680345295
 20
131.210567244813
 30
0.0
 10
-133.0632948094939
 20
121.3712721872405
 30
0.0
 10
-141.9710303577254
 20
110.818583330218
 30
0.0
 10
-150.0461987682799
 20
99.61532742259124
 30
0.0
 10
-157.2361580038921
 20
87.82449913020055
 30
0.0
 10
-163.5039012853317
 20
75.51897363609729
 30
0.0
 10
-168.8096261922865
 20
62.76849896021711
 30
0.0
 10
-173.1212955618502
 20
49.64904265203185
 30
0.0
 10
-176.4184053185623
 20
36.23815834430803
 30
0.0
 10
-178.6743771406106
 20
22.61333206547718
 30
0.0
 10
-179.8823951382251
 20
8.856332151512994
 30
0.0
 10
-180.0328672595534
 20
-4.953011266567832
 30
0.0
 10
-179.1225350261431
 20
-18.73294091418749
 30
0.0
 10
-177.1625892729975
 20
-32.40348324585236
 30
0.0
 10
-174.1578654570111
 20
-45.88304870279531
 30
0.0
 10
-170.1305594245782
 20
-59.09259665765427
 30
0.0
 10
-165.1037414874031
 20
-71.95525451425522
 30
0.0
 10
-159.1037864323208
 20
-84.39391452271707
 30
0.0
 10
-152.1709176466173
 20
-96.33759440904859
 30
0.0
 10
-144.3415871816022
 20
-107.7138038939506
 30
0.0
 10
-135.663922585199
 20
-118.4566274191583
 30
0.0
 10
-126.1893891574916
 20
-128.5042669071247
 30
0.0
 10
-115.9709948173473
 20
-137.7944049177421
 30
0.0
 10
-105.0724644182559
 20
-146.2759911481953
 30
0.0
 10
-93.5558121979911
 20
-153.8963121199242
 30
0.0
 10
-82.99601496382984
 20
-159.7725065524798
 30
0.0
 10
-73.65496028696585
 20
-164.2342157669807
 30
0.0
 10
-65.7000481836558
 20
-167.575140293678
 30
0.0
 10
-57.67145614249032
 20
-170.5019043204321
 30
0.0
 10
-50.85703911902108
 20
-172.6277235691165
 30
0.0
 10
-45.39757922062442
 20
-174.1206260509256
 30
0.0
 10
-41.13526972960116
 20
-175.1774368192048
 30
0.0
 10
-36.37824553296304
 20
-176.2346234237996
 30
0.0
 10
-31.16534822068236
 20
-177.2349422256093
 30
0.0
 10
-25.35631883579653
 20
-178.1615789428689
 30
0.0
 10
-19.10922689311083
 20
-178.9446218451195
 30
0.0
 10
-12.04495756238479
 20
-179.5859859780199
 30
0.0
 10
-7.055540994612139
 20
-179.7718321414578
 30
0.0
 10
-4.428304642234878
 20
-179.8696916386358
 30
0.0
  0
SPLINE
  5
74
330
1F
100
AcDbEntity
  8
0
  6
Continuous
 62
     7
370
    25
100
AcDbSpline
210
0.0
220
0.0
230
1.0
 70
    11
 71
     3
 72
    62
 73
    58
 74
     0
 42
0.000000001
 43
0.00000001
 40
0.0
 40
0.0
 40
0.0
 40
0.0
 40
0.0093105631482794
 40
0.0279284870427326
 40
0.046668326091673
 40
0.0652685786433434
 40
0.0838820147188213
 40
0.1025903006438363
 40
0.1211475719619603
 40
0.1397363640224741
 40
0.1584402266930243
 40
0.176998738826578
 40
0.1956154736062477
 40
0.2143445787598088
 40
0.2329371262973796
 40
0.251615599586954
 40
0.2703466660587137
 40
0.2889246132697645
 40
0.3076011451288235
 40
0.3262648976702192
 40
0.34481478218045
 40
0.3634849798994117
 40
0.3821071053944579
 40
0.4006775902172831
 40
0.4193709226776758
 40
0.4380043230469952
 40
0.4566547146537306
 40
0.4753892029273566
 40
0.4941194739681478
 40
0.5127997406870154
 40
0.5313825526845163
 40
0.5500302912713426
 40
0.5687522390250991
 40
0.5873026847382715
 40
0.6059080580173307
 40
0.6245950749766734
 40
0.6431229627910642
 40
0.661754641499268
 40
0.6804366862861715
 40
0.6989985020880812
 40
0.7176903285087929
 40
0.7363902890646581
 40
0.755008047162812
 40
0.7737397828350409
 40
0.7923976293328683
 40
0.8110043940433954
 40
0.8297111984211054
 40
0.8483104253047217
 40
0.866922485814593
 40
0.8856211625782049
 40
0.9041991842094469
 40
0.9228036652822177
 40
0.941526640957237
 40
0.9601260018469963
 40
0.9787657459816639
 40
0.9964235029028143
 40
1.0
 40
1.0
 40
1.0
 40
1.0
 10
2.687996049485213
 20
22.78980389237968
 30
0.0
 10
3.131324149185094
 20
22.72955268877644
 30
0.0
 10
4.461155963970167
 20
22.54881980158762
 30
0.0
 10
6.645751274723424
 20
22.01602818046748
 30
0.0
 10
9.177753391499891
 20
21.09713687495409
 30
0.0
 10
11.58157551074566
 20
19.87898172208427
 30
0.0
 10
13.82434256402599
 20
18.3893420056306
 30
0.0
 10
15.88027141778143
 20
16.65334794912171
 30
0.0
 10
17.71263153775622
 20
14.68430968172282
 30
0.0
 10
19.30281995724179
 20
12.51590988478438
 30
0.0
 10
20.63386685362882
 20
10.17888665742448
 30
0.0
 10
21.67537194747212
 20
7.697785658386415
 30
0.0
 10
22.42363859929371
 20
5.112348632942293
 30
0.0
 10
22.87004332387462
 20
2.45587694426865
 30
0.0
 10
22.99545913138641
 20
-0.2377998905905353
 30
0.0
 10
22.81115460397203
 20
-2.927773093232483
 30
0.0
 10
22.31705020546563
 20
-5.578258340496825
 30
0.0
 10
21.50903030280847
 20
-8.150140134773636
 30
0.0
 10
20.41314027361918
 20
-10.60930645239175
 30
0.0
 10
19.03806819549989
 20
-12.92305528114735
 30
0.0
 10
17.39637984811255
 20
-15.05513626836152
 30
0.0
 10
15.52316137948083
 20
-16.98395801832775
 30
0.0
 10
13.43498246961704
 20
-18.68007040652436
 30
0.0
 10
11.1590969547939
 20
-20.11581407694916
 30
0.0
 10
8.73375490975384
 20
-21.28262740175001
 30
0.0
 10
6.183513316971075
 20
-22.15604406011547
 30
0.0
 10
3.546460419595358
 20
-22.72248159700098
 30
0.0
 10
0.8571518018646106
 20
-22.98449024056179
 30
0.0
 10
-1.84579611470103
 20
-22.92505647924891
 30
0.0
 10
-4.516297646718221
 20
-22.55408903844604
 30
0.0
 10
-7.120736397000149
 20
-21.87190087370722
 30
0.0
 10
-9.62960195655855
 20
-20.89058944258625
 30
0.0
 10
-12.00802549065433
 20
-19.62788497068003
 30
0.0
 10
-14.21571473064625
 20
-18.08955322671324
 30
0.0
 10
-16.22946419570776
 20
-16.30810277703792
 30
0.0
 10
-18.02343379700532
 20
-14.30618061608127
 30
0.0
 10
-19.56440347926174
 20
-12.10226802012552
 30
0.0
 10
-20.84198573401267
 20
-9.736641035277906
 30
0.0
 10
-21.83709790592937
 20
-7.236645079846144
 30
0.0
 10
-22.52650291427277
 20
-4.632983441760838
 30
0.0
 10
-22.91423889349509
 20
-1.967040191774917
 30
0.0
 10
-22.98885233126428
 20
0.7291573498099118
 30
0.0
 10
-22.74193457734729
 20
3.416649984529955
 30
0.0
 10
-22.19049215903825
 20
6.056334376822305
 30
0.0
 10
-21.33240930138766
 20
8.612774765135221
 30
0.0
 10
-20.17729596872091
 20
11.04767983858597
 30
0.0
 10
-18.75298216214231
 20
13.33228339062236
 30
0.0
 10
-17.06728121268471
 20
15.43227596934597
 30
0.0
 10
-15.14573803491571
 20
17.31765174950791
 30
0.0
 10
-13.02179610234611
 20
18.9702934658309
 30
0.0
 10
-10.71602717598663
 20
20.35778580455488
 30
0.0
 10
-8.262969777898043
 20
21.4658249204593
 30
0.0
 10
-5.698064013713624
 20
22.28640228204665
 30
0.0
 10
-3.051581156161515
 20
22.79562124935777
 30
0.0
 10
-0.4159722030333843
 20
22.98855213593738
 30
0.0
 10
1.503178167491307
 20
22.92016518076257
 30
0.0
 10
2.517203246965265
 20
22.80859561566593
 30
0.0
 10
2.687996049485213
 20
22.78980389237969
 30
0.0
  0
SPLINE
  5
75
330
1F
100
AcDbEntity
  8
0
  6
Continuous
 62
     7
370
    25
100
AcDbSpline
210
0.0
220
0.0
230
1.0
 70
     8
 71
     3
 72
    17
 73
    13
 74
     0
 42
0.000000001
 43
0.00000001
 40
0.0
 40
0.0
 40
0.0
 40
0.0
 40
0.0842890475412818
 40
0.1882160333744566
 40
0.2921242426481907
 40
0.3960657141626936
 40
0.4999944919534896
 40
0.6039231578764305
 40
0.7078642947668804
 40
0.811771943241283
 40
0.9156981480901853
 40
1.0
 40
1.0
 40
1.0
 40
1.0
 10
-69.32518582864083
 20
160.5933545012141
 30
0.0
 10
-72.72595252558793
 20
159.0921299443174
 30
0.0
 10
-80.319807679994
 20
155.7399206176546
 30
0.0
 10
-91.53982679119625
 20
149.374914021046
 30
0.0
 10
-102.9966506007813
 20
141.7648537327157
 30
0.0
 10
-113.8025877106315
 20
133.2462282313441
 30
0.0
 10
-123.9109251960707
 20
123.9119594979461
 30
0.0
 10
-133.2452690229522
 20
113.8037112099304
 30
0.0
 10
-141.763957312633
 20
102.9978808734198
 30
0.0
 10
-149.3740849228813
 20
91.54118958603341
 30
0.0
 10
-155.7394240875651
 20
80.32077929049365
 30
0.0
 10
-159.0919156789656
 20
72.7264687670856
 30
0.0
 10
-160.5933987975499
 20
69.32519877510902
 30
0.0
  0
SPLINE
  5
76
330
1F
100
AcDbEntity
  8
0
  6
Continuous
 62
     7
370
    25
100
AcDbSpline
210
0.0
220
0.0
230
1.0
 70
     8
 71
     3
 72
    17
 73
    13
 74
     0
 42
0.000000001
 43
0.00000001
 40
0.0
 40
0.0
 40
0.0
 40
0.0
 40
0.0842539699384985
 40
0.1881738637879546
 40
0.2920864258910426
 40
0.3960160337968284
 40
0.499947059327556
 40
0.6038801986606797
 40
0.7078119438725613
 40
0.8117202373133905
 40
0.9156321445274771
 40
1.0
 40
1.0
 40
1.0
 40
1.0
 10
-160.5932719033394
 20
-69.32513516346053
 30
0.0
 10
-159.0927926596819
 20
-72.72454271642584
 30
0.0
 10
-155.7416036650416
 20
-80.31682180189058
 30
0.0
 10
-149.3775710776967
 20
-91.53549067967674
 30
0.0
 10
-141.7682430884472
 20
-102.992022126234
 30
0.0
 10
-133.2502851640488
 20
-113.7982104921413
 30
0.0
 10
-123.916259087143
 20
-123.9064685187228
 30
0.0
 10
-113.8086544050399
 20
-133.2413427571364
 30
0.0
 10
-103.003135194076
 20
-141.7601430224115
 30
0.0
 10
-91.54762586378912
 20
-149.3702105779152
 30
0.0
 10
-80.32553640570218
 20
-155.7372873956577
 30
0.0
 10
-72.72919974490722
 20
-159.0908618708084
 30
0.0
 10
-69.32529364064189
 20
-160.5935931394196
 30
0.0
  0
SPLINE
  5
77
330
1F
100
AcDbEntity
  8
0
  6
Continuous
 62
     7
370
    25
100
AcDbSpline
210
0.0
220
0.0
230
1.0
 70
     8
 71
     3
 72
    17
 73
    13
 74
     0
 42
0.000000001
 43
0.00000001
 40
0.0
 40
0.0
 40
0.0
 40
0.0
 40
0.084226253661752
 40
0.1881572789497889
 40
0.2920706871400752
 40
0.3960165480470524
 40
0.4999495414194139
 40
0.603882433644405
 40
0.7078279630952237
 40
0.8117407781292244
 40
0.9156710406962804
 40
1.0
 40
1.0
 40
1.0
 40
1.0
 10
69.3251171944012
 20
-160.5931429694885
 30
0.0
 10
72.72341638990336
 20
-159.0931893726664
 30
0.0
 10
80.3150484747257
 20
-155.7423673301427
 30
0.0
 10
91.53324486583041
 20
-149.3789258506965
 30
0.0
 10
102.9909066041286
 20
-141.7690516189424
 30
0.0
 10
113.7976529756285
 20
-133.2504663915833
 30
0.0
 10
123.9067315264027
 20
-123.9161686688757
 30
0.0
 10
133.2417964684722
 20
-113.8078164152756
 30
0.0
 10
141.7611675508841
 20
-103.0017513148567
 30
0.0
 10
149.3719318613691
 20
-91.5447620344375
 30
0.0
 10
155.73828533214
 20
-80.3230853864927
 30
0.0
 10
159.0914459324104
 20
-72.72756796958434
 30
0.0
 10
160.593462890672
 20
-69.32522691677352
 30
0.0
  0
SPLINE
  5
78
330
1F
100
AcDbEntity
  8
0
  6
Continuous
 62
     7
370
    25
100
AcDbSpline
210
0.0
220
0.0
230
1.0
 70
     8
 71
     3
 72
    17
 73
    13
 74
     0
 42
0.000000001
 43
0.00000001
 40
0.0
 40
0.0
 40
0.0
 40
0.0
 40
0.0842824667629077
 40
0.1882096700175836
 40
0.2921198058403315
 40
0.3960635078932944
 40
0.4999944580851627
 40
0.6039253828277432
 40
0.7078687791878687
 40
0.8117786882150413
 40
0.9157071496851883
 40
1.0
 40
1.0
 40
1.0
 40
1.0
 10
160.5933141755335
 20
69.32518806474636
 30
0.0
 10
159.0922388535554
 20
72.72570298895114
 30
0.0
 10
155.7402143830831
 20
80.31933208353901
 30
0.0
 10
149.3753140692912
 20
91.53918707713602
 30
0.0
 10
141.765191247867
 20
102.9961965219562
 30
0.0
 10
133.2464227752261
 20
113.8023750465247
 30
0.0
 10
123.9119619147112
 20
123.9109328689591
 30
0.0
 10
113.8034904349822
 20
133.2454674126115
 30
0.0
 10
102.9974052947631
 20
141.7643136465138
 30
0.0
 10
91.54043148047357
 20
149.3745514987113
 30
0.0
 10
80.32016586060344
 20
155.7397442715977
 30
0.0
 10
72.7261054945254
 20
159.0920621200443
 30
0.0
 10
69.32518884141656
 20
160.5933609045817
 30
0.0
  0
SPLINE
  5
7A
330
1F
100
AcDbEntity
  8
0
  6
Continuous
 62
     7
370
    25
100
AcDbSpline
210
0.0
220
0.0
230
1.0
 70
     8
 71
     3
 72
    18
 73
    14
 74
     0
 42
0.000000001
 43
0.00000001
 40
0.0
 40
0.0
 40
0.0
 40
0.0
 40
0.0524761175194743
 40
0.1624642249524991
 40
0.2656761214040799
 40
0.3621117630894967
 40
0.4517711088598065
 40
0.534654120218482
 40
0.6107607613454532
 40
0.6802402799898791
 40
0.7891904121362776
 40
0.9299184430457123
 40
1.0
 40
1.0
 40
1.0
 40
1.0
 10
25.10987248420201
 20
-178.1488929181771
 30
0.0
 10
24.46948822144585
 20
-178.2497299669581
 30
0.0
 10
22.48688093572489
 20
-178.561917944101
 30
0.0
 10
19.22344771794675
 20
-178.9195833865064
 30
0.0
 10
15.41713243967054
 20
-179.2945406926772
 30
0.0
 10
11.85300615583005
 20
-179.5615962615496
 30
0.0
 10
8.535518385682282
 20
-179.7487533052219
 30
0.0
 10
5.4661167061671
 20
-179.8667645495774
 30
0.0
 10
2.644481114258383
 20
-179.9288609925738
 30
0.0
 10
-0.4998250645003952
 20
-179.9520426294986
 30
0.0
 10
-4.441995182648633
 20
-179.9016928953769
 30
0.0
 10
-8.391419825781668
 20
-179.7802950562225
 30
0.0
 10
-10.9885216550506
 20
-179.5876401976411
 30
0.0
 10
-11.85190240356597
 20
-179.5235940004021
 30
0.0
  0
SPLINE
  5
7B
330
1F
100
AcDbEntity
  8
0
  6
Continuous
 62
     7
370
    25
100
AcDbSpline
210
0.0
220
0.0
230
1.0
 70
     8
 71
     3
 72
     9
 73
     5
 74
     0
 42
0.000000001
 43
0.00000001
 40
0.0
 40
0.0
 40
0.0
 40
0.0
 40
0.438084992902422
 40
1.0
 40
1.0
 40
1.0
 40
1.0
 10
-11.22858583309163
 20
179.5602201198139
 30
0.0
 10
-9.590636366299794
 20
179.663922893892
 30
0.0
 10
-5.851751233668304
 20
179.900641283607
 30
0.0
 10
-2.105227885124616
 20
179.9269390487044
 30
0.0
 10
-0.0000001911364493
 20
179.9417161575658
 30
0.0
  0
SPLINE
  5
7C
330
1F
100
AcDbEntity
  8
0
  6
Continuous
 62
     7
370
    25
100
AcDbSpline
210
0.0
220
0.0
230
1.0
 70
    11
 71
     3
 72
   196
 73
   192
 74
     0
 42
0.000000001
 43
0.00000001
 40
0.0
 40
0.0
 40
0.0
 40
0.0
 40
0.0156249999999999
 40
0.0156249999999999
 40
0.0234374999999998
 40
0.0234374999999998
 40
0.0312499999999998
 40
0.0312499999999998
 40
0.0468749999999997
 40
0.0468749999999997
 40
0.0624999999999996
 40
0.0624999999999996
 40
0.0664062499999995
 40
0.0664062499999995
 40
0.0703124999999995
 40
0.0703124999999995
 40
0.0781249999999995
 40
0.0781249999999995
 40
0.0937499999999995
 40
0.0937499999999995
 40
0.1093749999999995
 40
0.1093749999999995
 40
0.1171874999999995
 40
0.1171874999999995
 40
0.1249999999999995
 40
0.1249999999999995
 40
0.1406249999999994
 40
0.1406249999999994
 40
0.1562499999999994
 40
0.1562499999999994
 40
0.1718749999999994
 40
0.1718749999999994
 40
0.1757812499999994
 40
0.1757812499999994
 40
0.1796874999999993
 40
0.1796874999999993
 40
0.1874999999999993
 40
0.1874999999999993
 40
0.2031249999999993
 40
0.2031249999999993
 40
0.2187499999999993
 40
0.2187499999999993
 40
0.2265624999999992
 40
0.2265624999999992
 40
0.2304687499999992
 40
0.2304687499999992
 40
0.2343749999999992
 40
0.2343749999999992
 40
0.2499999999999993
 40
0.2499999999999993
 40
0.2656249999999993
 40
0.2656249999999993
 40
0.2812499999999994
 40
0.2812499999999994
 40
0.2851562499999994
 40
0.2851562499999994
 40
0.2890624999999994
 40
0.2890624999999994
 40
0.2968749999999995
 40
0.2968749999999995
 40
0.3124999999999996
 40
0.3124999999999996
 40
0.3281249999999996
 40
0.3281249999999996
 40
0.3359374999999997
 40
0.3359374999999997
 40
0.3398437499999997
 40
0.3398437499999997
 40
0.3437499999999997
 40
0.3437499999999997
 40
0.3593749999999998
 40
0.3593749999999998
 40
0.3749999999999999
 40
0.3749999999999999
 40
0.3828125
 40
0.3828125
 40
0.38671875
 40
0.38671875
 40
0.3906250000000001
 40
0.3906250000000001
 40
0.4062500000000001
 40
0.4062500000000001
 40
0.4218750000000002
 40
0.4218750000000002
 40
0.4375000000000002
 40
0.4375000000000002
 40
0.4414062500000002
 40
0.4414062500000002
 40
0.4453125000000003
 40
0.4453125000000003
 40
0.4531250000000003
 40
0.4531250000000003
 40
0.4687500000000004
 40
0.4687500000000004
 40
0.4843750000000004
 40
0.4843750000000004
 40
0.5000000000000004
 40
0.5000000000000004
 40
0.5156250000000004
 40
0.5156250000000004
 40
0.5312500000000004
 40
0.5312500000000004
 40
0.5351562500000004
 40
0.5351562500000004
 40
0.5390625000000003
 40
0.5390625000000003
 40
0.5468750000000004
 40
0.5468750000000004
 40
0.5625000000000004
 40
0.5625000000000004
 40
0.5781250000000004
 40
0.5781250000000004
 40
0.5820312500000004
 40
0.5820312500000004
 40
0.5859375000000003
 40
0.5859375000000003
 40
0.5937500000000004
 40
0.5937500000000004
 40
0.6093750000000004
 40
0.6093750000000004
 40
0.6250000000000004
 40
0.6250000000000004
 40
0.6328125000000003
 40
0.6328125000000003
 40
0.6367187500000003
 40
0.6367187500000003
 40
0.6406250000000003
 40
0.6406250000000003
 40
0.6562500000000002
 40
0.6562500000000002
 40
0.6718750000000001
 40
0.6718750000000001
 40
0.6875
 40
0.6875
 40
0.69140625
 40
0.69140625
 40
0.6953124999999999
 40
0.6953124999999999
 40
0.7031249999999999
 40
0.7031249999999999
 40
0.7187499999999998
 40
0.7187499999999998
 40
0.7343749999999997
 40
0.7343749999999997
 40
0.7421874999999996
 40
0.7421874999999996
 40
0.7460937499999996
 40
0.7460937499999996
 40
0.7499999999999996
 40
0.7499999999999996
 40
0.7656249999999994
 40
0.7656249999999994
 40
0.7812499999999993
 40
0.7812499999999993
 40
0.7968749999999992
 40
0.7968749999999992
 40
0.8046874999999991
 40
0.8046874999999991
 40
0.8124999999999991
 40
0.8124999999999991
 40
0.828124999999999
 40
0.828124999999999
 40
0.8437499999999989
 40
0.8437499999999989
 40
0.8515624999999989
 40
0.8515624999999989
 40
0.8554687499999989
 40
0.8554687499999989
 40
0.8593749999999989
 40
0.8593749999999989
 40
0.874999999999999
 40
0.874999999999999
 40
0.8906249999999991
 40
0.8906249999999991
 40
0.9062499999999992
 40
0.9062499999999992
 40
0.9218749999999993
 40
0.9218749999999993
 40
0.9374999999999994
 40
0.9374999999999994
 40
0.9531249999999996
 40
0.9531249999999996
 40
0.9609374999999996
 40
0.9609374999999996
 40
0.9648437499999997
 40
0.9648437499999997
 40
0.9687499999999998
 40
0.9687499999999998
 40
0.9843749999999999
 40
0.9843749999999999
 40
1.0
 40
1.0
 40
1.0
 40
1.0
 10
-0.0000000000000036
 20
-172.7670479931214
 30
0.0
 10
-5.717135350200222
 20
-172.7670479931214
 30
0.0
 10
-11.4211836749977
 20
-172.4976391419865
 30
0.0
 10
-19.95742173688519
 20
-171.6849476240086
 30
0.0
 10
-22.78741067895687
 20
-171.3468849686155
 30
0.0
 10
-28.40952719307246
 20
-170.5386161296807
 30
0.0
 10
-31.20286215428015
 20
-170.0682938729835
 30
0.0
 10
-39.52982232127609
 20
-168.4591907317043
 30
0.0
 10
-45.01055025067603
 20
-167.1228206320295
 30
0.0
 10
-55.83056284216344
 20
-163.9215391997095
 30
0.0
 10
-61.16986261323141
 20
-162.0566848817871
 30
0.0
 10
-67.75220830901323
 20
-159.382534342648
 30
0.0
 10
-69.0640738968373
 20
-158.830495315428
 30
0.0
 10
-71.67850176473684
 20
-157.6916366036683
 30
0.0
 10
-72.98285614271164
 20
-157.1039678754498
 30
0.0
 10
-76.86662748091607
 20
-155.29526883914
 30
0.0
 10
-79.4153477196639
 20
-154.029525709469
 30
0.0
 10
-86.9422655733051
 20
-150.055623770235
 30
0.0
 10
-91.80157973767906
 20
-147.1713245245574
 30
0.0
 10
-101.2053899235804
 20
-140.9362384101211
 30
0.0
 10
-105.7498874056301
 20
-137.5854526451163
 30
0.0
 10
-112.328127173345
 20
-132.2058387854338
 30
0.0
 10
-114.4810308004692
 20
-130.3535922711362
 30
0.0
 10
-118.7055810744887
 20
-126.5286853709373
 30
0.0
 10
-120.7809718839128
 20
-124.5517864136354
 30
0.0
 10
-126.8156104820086
 20
-118.5041453295257
 30
0.0
 10
-130.6048746707529
 20
-114.2995336186193
 30
0.0
 10
-137.7318317637031
 20
-105.5564927356108
 30
0.0
 10
-141.0694697898521
 20
-101.0180229972972
 30
0.0
 10
-147.2915804050116
 20
-91.60607109332257
 30
0.0
 10
-150.1761306208031
 20
-86.73264576579717
 30
0.0
 10
-153.4926303385511
 20
-80.42705843202219
 30
0.0
 10
-154.1421098859828
 20
-79.15383177964432
 30
0.0
 10
-155.4085777080303
 20
-76.59212642849357
 30
0.0
 10
-156.024388594371
 20
-75.30612617159925
 30
0.0
 10
-157.8202258450873
 20
-71.43288054339911
 30
0.0
 10
-158.9486949836064
 20
-68.83040163933019
 30
0.0
 10
-162.1317140762244
 20
-60.96315568587301
 30
0.0
 10
-163.9846153392417
 20
-55.63879703605447
 30
0.0
 10
-167.1680115907984
 20
-44.83564414854389
 30
0.0
 10
-168.4984744375456
 20
-39.35684058358927
 30
0.0
 10
-170.1001506396569
 20
-31.02211160577623
 30
0.0
 10
-170.5682504333932
 20
-28.22441150544423
 30
0.0
 10
-171.1711032103509
 20
-23.99849008553722
 30
0.0
 10
-171.355495507348
 20
-22.58495169495217
 30
0.0
 10
-171.690947983036
 20
-19.74801456340763
 30
0.0
 10
-171.8416528167725
 20
-18.32732566493553
 30
0.0
 10
-172.5087767144441
 20
-11.23453996068423
 30
0.0
 10
-172.7693961931275
 20
-5.573134415105847
 30
0.0
 10
-172.764668023197
 20
5.724965341094627
 30
0.0
 10
-172.4992527223544
 20
11.36165646524887
 30
0.0
 10
-171.4363677538933
 20
22.610055180918
 30
0.0
 10
-170.6389626620388
 20
28.22176574329801
 30
0.0
 10
-169.2932718746024
 20
35.22002754786117
 30
0.0
 10
-169.0062681004673
 20
36.62048268316806
 30
0.0
 10
-168.3985591063269
 20
39.41171827215339
 30
0.0
 10
-168.0782522580062
 20
40.80089040832812
 30
0.0
 10
-167.0684081786262
 20
44.94924117571041
 30
0.0
 10
-166.3299839998391
 20
47.68926850741818
 30
0.0
 10
-163.9212336554068
 20
55.83356782053602
 30
0.0
 10
-162.0579924656772
 20
61.16227762256399
 30
0.0
 10
-157.8141346367382
 20
71.61710780899799
 30
0.0
 10
-155.4334650689993
 20
76.74320875177321
 30
0.0
 10
-151.4659585855621
 20
84.27714367001643
 30
0.0
 10
-150.0772267711126
 20
86.76252868701057
 30
0.0
 10
-147.8923010848115
 20
90.45074854118666
 30
0.0
 10
-147.1482463001175
 20
91.67133626943983
 30
0.0
 10
-145.6341424317355
 20
94.08622068425139
 30
0.0
 10
-144.8633105508164
 20
95.28184718280534
 30
0.0
 10
-140.9407488822559
 20
101.2013282057865
 30
0.0
 10
-137.5844472186836
 20
105.7497732718357
 30
0.0
 10
-130.4459409101786
 20
114.4814834912907
 30
0.0
 10
-126.6637284681871
 20
118.6647419511453
 30
0.0
 10
-120.6666100175469
 20
124.6619980730349
 30
0.0
 10
-118.6134750378307
 20
126.6147009799341
 30
0.0
 10
-115.4516823705965
 20
129.4733695353664
 30
0.0
 10
-114.384061498969
 20
130.4145209812245
 30
0.0
 10
-112.2211790307136
 20
132.2731240801657
 30
0.0
 10
-111.1242965940276
 20
133.1918813674081
 30
0.0
 10
-105.5924365745264
 20
137.7075245940732
 30
0.0
 10
-101.0231444012654
 20
141.0659521815057
 30
0.0
 10
-91.60645101340455
 20
147.2914610874298
 30
0.0
 10
-86.759059626952
 20
150.1585613137519
 30
0.0
 10
-76.79041117164772
 20
155.4089821594957
 30
0.0
 10
-71.6691521355933
 20
157.7922991542421
 30
0.0
 10
-65.09276474351415
 20
160.4626924944435
 30
0.0
 10
-63.7687241486726
 20
160.9812940538471
 30
0.0
 10
-61.10300916734391
 20
161.9873544477972
 30
0.0
 10
-59.76002765961944
 20
162.4752667231602
 30
0.0
 10
-55.7133052826421
 20
163.8888105562284
 30
0.0
 10
-53.00346043376329
 20
164.7603792717148
 30
0.0
 10
-44.83883858678325
 20
167.1686473954233
 30
0.0
 10
-39.34907705041631
 20
168.4995131931576
 30
0.0
 10
-28.27884223832235
 20
170.6277739038782
 30
0.0
 10
-22.69837813480365
 20
171.4252261661558
 30
0.0
 10
-11.4479184401221
 20
172.4938543620485
 30
0.0
 10
-5.777931543352063
 20
172.7650802207399
 30
0.0
 10
5.653704342018421
 20
172.7689944974192
 30
0.0
 10
11.34411647613735
 20
172.5016062006204
 30
0.0
 10
22.67119170729051
 20
171.4298920623813
 30
0.0
 10
28.30837873946835
 20
170.6255824493336
 30
0.0
 10
35.32080561647573
 20
169.2730386531935
 30
0.0
 10
36.72065789279228
 20
168.9852533593558
 30
0.0
 10
39.50516840630685
 20
168.3773603545483
 30
0.0
 10
40.89123179463722
 20
168.0569884928856
 30
0.0
 10
45.03099200397656
 20
167.0469792843365
 30
0.0
 10
47.76627254462321
 20
166.308484572682
 30
0.0
 10
55.89909381956603
 20
163.8992509811357
 30
0.0
 10
61.22382780605409
 20
162.0353292593732
 30
0.0
 10
71.67732360236444
 20
157.7873430146238
 30
0.0
 10
76.8060761559647
 20
155.4032504754797
 30
0.0
 10
83.0914036621178
 20
152.0896428083747
 30
0.0
 10
84.34217034411431
 20
151.4101985102839
 30
0.0
 10
86.83095244196748
 20
150.0174545110027
 30
0.0
 10
88.07068438283544
 20
149.3031124402604
 30
0.0
 10
91.75370631368014
 20
147.1186467861155
 30
0.0
 10
94.16245066385274
 20
145.6065001274966
 30
0.0
 10
101.2509176255357
 20
140.9049977344243
 30
0.0
 10
105.7933051760767
 20
137.5510953225219
 30
0.0
 10
114.5189811852005
 20
130.4130271490553
 30
0.0
 10
118.7022723809333
 20
126.6288646707745
 30
0.0
 10
124.7030859990649
 20
120.6241701109764
 30
0.0
 10
126.6575633267233
 20
118.5677356915009
 30
0.0
 10
129.5196391880097
 20
115.3996424985792
 30
0.0
 10
130.4620506901677
 20
114.3296960084219
 30
0.0
 10
132.3233993075244
 20
112.1616765380137
 30
0.0
 10
133.2404853294238
 20
111.0656941979563
 30
0.0
 10
137.7424682454298
 20
105.5457479972309
 30
0.0
 10
141.0938006099412
 20
100.9835756673185
 30
0.0
 10
147.3104073153614
 20
91.57521893609646
 30
0.0
 10
150.1757192091619
 20
86.72905564091224
 30
0.0
 10
155.4257958924505
 20
76.75589863618647
 30
0.0
 10
157.8105688896736
 20
71.62890981747869
 30
0.0
 10
160.4835578572946
 20
65.04016350723715
 30
0.0
 10
161.0027178371357
 20
63.71339087442595
 30
0.0
 10
162.0099401985585
 20
61.04166831637039
 30
0.0
 10
162.4976990676483
 20
59.69734694991238
 30
0.0
 10
163.9061904263767
 20
55.66036742395961
 30
0.0
 10
164.7750879123386
 20
52.95612937374582
 30
0.0
 10
167.1769227127775
 20
44.80565340163471
 30
0.0
 10
168.5055971506924
 20
39.32176334316882
 30
0.0
 10
170.6313386204581
 20
28.25594827268158
 30
0.0
 10
171.4284774324787
 20
22.67403588547592
 30
0.0
 10
172.2292849559063
 20
14.22830826508266
 30
0.0
 10
172.4302586051244
 20
11.40089572854971
 30
0.0
 10
172.6318883760695
 20
7.141353815468759
 30
0.0
 10
172.682450236886
 20
5.718434217498865
 30
0.0
 10
172.7500100288479
 20
2.866400258658584
 30
0.0
 10
172.766962619569
 20
1.436489755238623
 30
0.0
 10
172.7673878733198
 20
-5.691849080485683
 30
0.0
 10
172.4996739117427
 20
-11.35493179792452
 30
0.0
 10
171.4372198954695
 20
-22.60330160679709
 30
0.0
 10
170.6424496387565
 20
-28.18858406026188
 30
0.0
 10
168.5154598291134
 20
-39.27985295308132
 30
0.0
 10
167.18317042248
 20
-44.78582959962514
 30
0.0
 10
164.7669135695972
 20
-52.98317762728602
 30
0.0
 10
163.889777906182
 20
-55.70981444040269
 30
0.0
 10
162.0126211759028
 20
-61.08521670384192
 30
0.0
 10
161.0109466979532
 20
-63.74044764816966
 30
0.0
 10
157.8182084891093
 20
-71.60955026064313
 30
0.0
 10
155.4399022272893
 20
-76.72707616174657
 30
0.0
 10
150.1881725653114
 20
-86.7074145455132
 30
0.0
 10
147.3147893129547
 20
-91.57024759669314
 30
0.0
 10
142.6231275237356
 20
-98.66822059393348
 30
0.0
 10
140.9954735589183
 20
-101.0014120825032
 30
0.0
 10
138.456582317214
 20
-104.4510976267926
 30
0.0
 10
137.5941087606195
 20
-105.5924301671931
 30
0.0
 10
135.8466029526408
 20
-107.8453041302416
 30
0.0
 10
134.9603623697723
 20
-108.9585136705754
 30
0.0
 10
130.4673840716338
 20
-114.4591263337298
 30
0.0
 10
126.6759169862494
 20
-118.6508563723282
 30
0.0
 10
118.705967214676
 20
-126.624371931547
 30
0.0
 10
114.5274636659613
 20
-130.4061353561659
 30
0.0
 10
105.7831204825765
 20
-137.5593796069697
 30
0.0
 10
101.2173242204271
 20
-140.930906367182
 30
0.0
 10
91.6829790388636
 20
-147.2473514351414
 30
0.0
 10
86.79926645922508
 20
-150.1361076706702
 30
0.0
 10
76.81051198686215
 20
-155.3996644795525
 30
0.0
 10
71.70529133793907
 20
-157.7744454011705
 30
0.0
 10
61.27561064862621
 20
-162.0158069648753
 30
0.0
 10
55.95116614453404
 20
-163.8824266147733
 30
0.0
 10
47.7992480438508
 20
-166.2994078173671
 30
0.0
 10
45.05434055825167
 20
-167.0411055403694
 30
0.0
 10
40.89491138273713
 20
-168.0561788742968
 30
0.0
 10
39.50154109176952
 20
-168.3781955225904
 30
0.0
 10
36.71411033024921
 20
-168.9866393342586
 30
0.0
 10
35.31838647724683
 20
-169.2734854867981
 30
0.0
 10
28.32980346736284
 20
-170.6215290666459
 30
0.0
 10
22.70715100602972
 20
-171.4250161654024
 30
0.0
 10
11.40005358454843
 20
-172.4977753676803
 30
0.0
 10
5.717135350200297
 20
-172.7670479931215
 30
0.0
 10
0.0000000000000169
 20
-172.7670479931214
 30
0.0
  0
SPLINE
  5
7D
330
1F
100
AcDbEntity
  8
0
  6
Continuous
 62
     7
370
    25
100
AcDbSpline
210
0.0
220
0.0
230
1.0
 70
    11
 71
     3
 72
   196
 73
   192
 74
     0
 42
0.000000001
 43
0.00000001
 40
0.0
 40
0.0
 40
0.0
 40
0.0
 40
0.0156249999999998
 40
0.0156249999999998
 40
0.0312499999999997
 40
0.0312499999999997
 40
0.0351562499999997
 40
0.0351562499999997
 40
0.0390624999999996
 40
0.0390624999999996
 40
0.0468749999999996
 40
0.0468749999999996
 40
0.0624999999999995
 40
0.0624999999999995
 40
0.0781249999999994
 40
0.0781249999999994
 40
0.0937499999999993
 40
0.0937499999999993
 40
0.1093749999999993
 40
0.1093749999999993
 40
0.1249999999999992
 40
0.1249999999999992
 40
0.1406249999999991
 40
0.1406249999999991
 40
0.1445312499999991
 40
0.1445312499999991
 40
0.1484374999999991
 40
0.1484374999999991
 40
0.156249999999999
 40
0.156249999999999
 40
0.1718749999999988
 40
0.1718749999999988
 40
0.1874999999999987
 40
0.1874999999999987
 40
0.1953124999999987
 40
0.1953124999999987
 40
0.2031249999999986
 40
0.2031249999999986
 40
0.2187499999999985
 40
0.2187499999999985
 40
0.2343749999999984
 40
0.2343749999999984
 40
0.2499999999999983
 40
0.2499999999999983
 40
0.2539062499999983
 40
0.2539062499999983
 40
0.2578124999999983
 40
0.2578124999999983
 40
0.2656249999999982
 40
0.2656249999999982
 40
0.2812499999999981
 40
0.2812499999999981
 40
0.2968749999999981
 40
0.2968749999999981
 40
0.3046874999999981
 40
0.3046874999999981
 40
0.3085937499999981
 40
0.3085937499999981
 40
0.312499999999998
 40
0.312499999999998
 40
0.3281249999999979
 40
0.3281249999999979
 40
0.3437499999999978
 40
0.3437499999999978
 40
0.3593749999999977
 40
0.3593749999999977
 40
0.3632812499999977
 40
0.3632812499999977
 40
0.3671874999999977
 40
0.3671874999999977
 40
0.3749999999999977
 40
0.3749999999999977
 40
0.3906249999999976
 40
0.3906249999999976
 40
0.4062499999999976
 40
0.4062499999999976
 40
0.4140624999999976
 40
0.4140624999999976
 40
0.4179687499999976
 40
0.4179687499999976
 40
0.4218749999999977
 40
0.4218749999999977
 40
0.4374999999999977
 40
0.4374999999999977
 40
0.4531249999999978
 40
0.4531249999999978
 40
0.4609374999999978
 40
0.4609374999999978
 40
0.4648437499999979
 40
0.4648437499999979
 40
0.4687499999999979
 40
0.4687499999999979
 40
0.4843749999999982
 40
0.4843749999999982
 40
0.4999999999999983
 40
0.4999999999999983
 40
0.5156249999999986
 40
0.5156249999999986
 40
0.5312499999999987
 40
0.5312499999999987
 40
0.5468749999999989
 40
0.5468749999999989
 40
0.5546874999999989
 40
0.5546874999999989
 40
0.558593749999999
 40
0.558593749999999
 40
0.562499999999999
 40
0.562499999999999
 40
0.5781249999999992
 40
0.5781249999999992
 40
0.5937499999999994
 40
0.5937499999999994
 40
0.6093749999999996
 40
0.6093749999999996
 40
0.6132812499999996
 40
0.6132812499999996
 40
0.6171874999999996
 40
0.6171874999999996
 40
0.6249999999999994
 40
0.6249999999999994
 40
0.6406249999999994
 40
0.6406249999999994
 40
0.6562499999999994
 40
0.6562499999999994
 40
0.6601562499999994
 40
0.6601562499999994
 40
0.6640624999999994
 40
0.6640624999999994
 40
0.6718749999999994
 40
0.6718749999999994
 40
0.6874999999999993
 40
0.6874999999999993
 40
0.7031249999999994
 40
0.7031249999999994
 40
0.7109374999999994
 40
0.7109374999999994
 40
0.7148437499999994
 40
0.7148437499999994
 40
0.7187499999999994
 40
0.7187499999999994
 40
0.7343749999999994
 40
0.7343749999999994
 40
0.7499999999999996
 40
0.7499999999999996
 40
0.7656249999999997
 40
0.7656249999999997
 40
0.7695312499999996
 40
0.7695312499999996
 40
0.7734374999999996
 40
0.7734374999999996
 40
0.7812499999999996
 40
0.7812499999999996
 40
0.7968749999999997
 40
0.7968749999999997
 40
0.8124999999999997
 40
0.8124999999999997
 40
0.8203124999999998
 40
0.8203124999999998
 40
0.8242187499999998
 40
0.8242187499999998
 40
0.8281249999999999
 40
0.8281249999999999
 40
0.8437499999999999
 40
0.8437499999999999
 40
0.8593749999999998
 40
0.8593749999999998
 40
0.8749999999999998
 40
0.8749999999999998
 40
0.8828124999999998
 40
0.8828124999999998
 40
0.8906249999999999
 40
0.8906249999999999
 40
0.9062499999999998
 40
0.9062499999999998
 40
0.9218749999999998
 40
0.9218749999999998
 40
0.9296874999999998
 40
0.9296874999999998
 40
0.9335937499999998
 40
0.9335937499999998
 40
0.9374999999999997
 40
0.9374999999999997
 40
0.9531249999999998
 40
0.9531249999999998
 40
0.9687499999999999
 40
0.9687499999999999
 40
0.9765624999999999
 40
0.9765624999999999
 40
0.9843749999999999
 40
0.9843749999999999
 40
1.0
 40
1.0
 40
1.0
 40
1.0
 10
0.0000000000000027
 20
-163.4365605537157
 30
0.0
 10
5.409537076340103
 20
-163.4365605537157
 30
0.0
 10
10.79016001724966
 20
-163.1843491910266
 30
0.0
 10
21.49389931953723
 20
-162.1783089593598
 30
0.0
 10
26.81701836935078
 20
-161.4245035502452
 30
0.0
 10
33.43384647520079
 20
-160.158886584068
 30
0.0
 10
34.755352583252
 20
-159.889543036955
 30
0.0
 10
37.39461452083857
 20
-159.3181430151824
 30
0.0
 10
38.71392539552721
 20
-159.0156991552831
 30
0.0
 10
42.65283326025646
 20
-158.0620738565329
 30
0.0
 10
45.25247936698668
 20
-157.365069223095
 30
0.0
 10
52.97368312419679
 20
-155.0929544595463
 30
0.0
 10
58.0177365551946
 20
-153.3372801077272
 30
0.0
 10
67.89937615848059
 20
-149.3449170835025
 30
0.0
 10
72.7369296620632
 20
-147.1081522908739
 30
0.0
 10
82.20252202359204
 20
-142.1465081487719
 30
0.0
 10
86.83060665983989
 20
-139.4217354497207
 30
0.0
 10
95.86613667435242
 20
-133.4581574448794
 30
0.0
 10
100.1923342229605
 20
-130.2728183698203
 30
0.0
 10
108.4747989434957
 20
-123.5106879879031
 30
0.0
 10
112.4311836335297
 20
-119.9337454297923
 30
0.0
 10
119.9741332396314
 20
-112.387973710185
 30
0.0
 10
123.5607163955981
 20
-108.4191638769221
 30
0.0
 10
127.808748905434
 20
-103.208921187101
 30
0.0
 10
128.6465606673746
 20
-102.1543741274711
 30
0.0
 10
130.2983488435639
 20
-100.0200224269404
 30
0.0
 10
131.1134826711826
 20
-98.93861497329942
 30
0.0
 10
133.5124971562212
 20
-95.67003252112703
 30
0.0
 10
135.0498414611503
 20
-93.45921532979214
 30
0.0
 10
139.4794967538768
 20
-86.73333078357996
 30
0.0
 10
142.1901108561544
 20
-82.12517919902591
 30
0.0
 10
147.141171151537
 20
-72.66800640175622
 30
0.0
 10
149.3815758964438
 20
-67.81896395450377
 30
0.0
 10
152.3873468097647
 20
-60.36361553281969
 30
0.0
 10
153.3300257358003
 20
-57.84814796419686
 30
0.0
 10
155.0961034086835
 20
-52.75610483320993
 30
0.0
 10
155.9210174816656
 20
-50.17352446009833
 30
0.0
 10
158.1928221379141
 20
-42.40994735054745
 30
0.0
 10
159.4447364516445
 20
-37.19579220454754
 30
0.0
 10
161.4425637301784
 20
-26.69342403336061
 30
0.0
 10
162.1885618360729
 20
-21.4052234686329
 30
0.0
 10
163.1855838657134
 20
-10.75637829512234
 30
0.0
 10
163.4366121089059
 20
-5.395734319771141
 30
0.0
 10
163.436547655021
 20
1.351005528831362
 30
0.0
 10
163.4207383362807
 20
2.704300993260625
 30
0.0
 10
163.3575776440243
 20
5.40371115798561
 30
0.0
 10
163.3102684804695
 20
6.750538002155126
 30
0.0
 10
163.1214971098025
 20
10.78244651108512
 30
0.0
 10
162.9332263998558
 20
13.45896262604424
 30
0.0
 10
162.1825750419904
 20
21.45450402774873
 30
0.0
 10
161.4349067446191
 20
26.73962330536644
 30
0.0
 10
159.4393124430705
 20
37.21831921125453
 30
0.0
 10
158.1912951811764
 20
42.41187914108769
 30
0.0
 10
155.9337417881586
 20
50.13167107427313
 30
0.0
 10
155.1168266449912
 20
52.69315093433335
 30
0.0
 10
153.7921746253205
 20
56.51720354431524
 30
0.0
 10
153.3333961627816
 20
57.79061971097962
 30
0.0
 10
152.3857149372345
 20
60.32186941544965
 30
0.0
 10
151.8971631231743
 20
61.57892744194296
 30
0.0
 10
149.3813100224326
 20
67.82165247830426
 30
0.0
 10
147.1352870040269
 20
72.6799505199184
 30
0.0
 10
142.1868206256569
 20
82.13075803527737
 30
0.0
 10
139.4843718373435
 20
86.72326434824811
 30
0.0
 10
133.6162800020211
 20
95.63854395964742
 30
0.0
 10
130.4505619099339
 20
99.96127356151163
 30
0.0
 10
126.1944643119804
 20
105.1905974337851
 30
0.0
 10
125.3273128397499
 20
106.2288211797547
 30
0.0
 10
123.5669156098399
 20
108.2825470716329
 30
0.0
 10
122.675509613372
 20
109.2959646538059
 30
0.0
 10
119.9680183239035
 20
112.2962998125248
 30
0.0
 10
118.1186862779879
 20
114.2433316494106
 30
0.0
 10
112.439471975478
 20
119.9270062634255
 30
0.0
 10
108.4787693596044
 20
123.5067053840854
 30
0.0
 10
100.2148404606787
 20
130.2551820205632
 30
0.0
 10
95.91161313640869
 20
133.4239582877301
 30
0.0
 10
89.19508449680201
 20
137.8631791759601
 30
0.0
 10
86.91253013598119
 20
139.2904793379892
 30
0.0
 10
83.42226345773922
 20
141.3517281640572
 30
0.0
 10
82.24742274184182
 20
142.0256410860284
 30
0.0
 10
79.88897166715903
 20
143.3392988846115
 30
0.0
 10
78.7037171849654
 20
143.9800373656714
 30
0.0
 10
72.74769170731192
 20
147.1043229864624
 30
0.0
 10
67.8879427891675
 20
149.3504004638353
 30
0.0
 10
57.98391668962831
 20
153.3500759040965
 30
0.0
 10
52.93966269004581
 20
155.1037357477871
 30
0.0
 10
45.23657044036013
 20
157.3693632052602
 30
0.0
 10
42.64603601239205
 20
158.0636237175899
 30
0.0
 10
38.72571678371035
 20
159.0128921494457
 30
0.0
 10
37.4131875055173
 20
159.313952507864
 30
0.0
 10
34.77653266780109
 20
159.8851244718425
 30
0.0
 10
33.45107376560892
 20
160.1554840952886
 30
0.0
 10
26.81188839624944
 20
161.4259117367337
 30
0.0
 10
21.47512493089057
 20
162.1809654982969
 30
0.0
 10
10.75256605884893
 20
163.186985989433
 30
0.0
 10
5.366406955789147
 20
163.4379136430728
 30
0.0
 10
-5.453547990603108
 20
163.4351965229173
 30
0.0
 10
-10.8209699092966
 20
163.1816005515399
 30
0.0
 10
-21.47243132640879
 20
162.1801794283229
 30
0.0
 10
-26.75646701908277
 20
161.4323317271743
 30
0.0
 10
-37.23983550622833
 20
159.4345797457983
 30
0.0
 10
-42.43915494687501
 20
158.1845963088524
 30
0.0
 10
-50.17259107951656
 20
155.9211296856052
 30
0.0
 10
-52.7394547973695
 20
155.1017470838665
 30
0.0
 10
-56.57283465402618
 20
153.7724090049103
 30
0.0
 10
-57.84531249615941
 20
153.3133986227069
 30
0.0
 10
-60.37099662377563
 20
152.3668229345105
 30
0.0
 10
-61.62552882412075
 20
151.8788014753738
 30
0.0
 10
-67.85685638766431
 20
149.3654088487851
 30
0.0
 10
-72.70997188427313
 20
147.1207498446019
 30
0.0
 10
-82.15701462806744
 20
142.1718834437342
 30
0.0
 10
-86.75094516298229
 20
139.46768187563
 30
0.0
 10
-95.67467160848133
 20
133.5909598643749
 30
0.0
 10
-100.0044347691432
 20
130.4183813460721
 30
0.0
 10
-105.2454210336385
 20
126.1490837067248
 30
0.0
 10
-106.2846358180528
 20
125.2802362791969
 30
0.0
 10
-108.3335106504187
 20
123.5224238341021
 30
0.0
 10
-109.3447359210988
 20
122.6322013772616
 30
0.0
 10
-112.3391432276372
 20
119.9279004384456
 30
0.0
 10
-114.2830877902872
 20
118.0802149675271
 30
0.0
 10
-119.9597259186957
 20
112.4042331916685
 30
0.0
 10
-123.5377057862162
 20
108.4434242407298
 30
0.0
 10
-130.2868749747369
 20
100.173389253495
 30
0.0
 10
-133.4580734257001
 20
95.86417103671684
 30
0.0
 10
-137.1619971665462
 20
90.2548939319541
 30
0.0
 10
-137.8897421321211
 20
89.12186990311298
 30
0.0
 10
-139.3189830295074
 20
86.83333947798623
 30
0.0
 10
-140.0212367460881
 20
85.67653980206921
 30
0.0
 10
-142.0829217388777
 20
82.1812431401311
 30
0.0
 10
-143.3927848045202
 20
79.82588883507064
 30
0.0
 10
-147.133665753772
 20
72.68633182517986
 30
0.0
 10
-149.3765429120378
 20
67.82885605194978
 30
0.0
 10
-153.372334387198
 20
57.9230838900551
 30
0.0
 10
-155.1253351412985
 20
52.87482116077162
 30
0.0
 10
-157.3904429147352
 20
45.1605104933921
 30
0.0
 10
-158.0846094034322
 20
42.56536740472974
 30
0.0
 10
-159.0336719959628
 20
38.6367495658656
 30
0.0
 10
-159.3346528694632
 20
37.32122299113049
 30
0.0
 10
-159.9056121592281
 20
34.67809562095168
 30
0.0
 10
-160.1751934344256
 20
33.35213022540005
 30
0.0
 10
-161.4391134450641
 20
26.72590626375106
 30
0.0
 10
-162.1876376757179
 20
21.4127074962833
 30
0.0
 10
-163.1851807349757
 20
10.76306742741192
 30
0.0
 10
-163.4341167013816
 20
5.426622270739515
 30
0.0
 10
-163.4389687021832
 20
-5.269208836107196
 30
0.0
 10
-163.1949576796544
 20
-10.62859139243866
 30
0.0
 10
-162.5695455110851
 20
-17.34272807598604
 30
0.0
 10
-162.4282541326516
 20
-18.68748228728668
 30
0.0
 10
-162.1136587250512
 20
-21.37317226776928
 30
0.0
 10
-161.9407003566932
 20
-22.71141735386287
 30
0.0
 10
-161.3751147003883
 20
-26.71243263229764
 30
0.0
 10
-160.9358114981897
 20
-29.36149301849084
 30
0.0
 10
-159.4320560511893
 20
-37.25408694103456
 30
0.0
 10
-158.1821968407094
 20
-42.44316215099596
 30
0.0
 10
-155.1894866548853
 20
-52.67650962129756
 30
0.0
 10
-153.4466792572126
 20
-57.72079468028949
 30
0.0
 10
-150.4504743929112
 20
-65.17502211212269
 30
0.0
 10
-149.3878844945259
 20
-67.64100895800227
 30
0.0
 10
-147.6962406333705
 20
-71.31127523080622
 30
0.0
 10
-147.1160572804564
 20
-72.52990904248321
 30
0.0
 10
-145.9226351044363
 20
-74.95746754287822
 30
0.0
 10
-145.310425426886
 20
-76.16420127474797
 30
0.0
 10
-142.1838418778804
 20
-82.14017059315407
 30
0.0
 10
-139.4627710382931
 20
-86.75879171814941
 30
0.0
 10
-133.5888431728432
 20
-95.67749579879982
 30
0.0
 10
-130.4358789157051
 20
-99.97749965081336
 30
0.0
 10
-123.6984443754383
 20
-108.2591760036454
 30
0.0
 10
-120.1140255103
 20
-112.2408864373367
 30
0.0
 10
-114.4017684498631
 20
-117.9658515090971
 30
0.0
 10
-112.4365265449599
 20
-119.8370013944639
 30
0.0
 10
-108.4360172350837
 20
-123.4556968218317
 30
0.0
 10
-106.3971227498416
 20
-125.2073535576125
 30
0.0
 10
-100.1669164330363
 20
-130.2928291292401
 30
0.0
 10
-95.86242785491714
 20
-133.4576700898211
 30
0.0
 10
-86.95536111698031
 20
-139.3422913528524
 30
0.0
 10
-82.3528017110719
 20
-142.0620996620984
 30
0.0
 10
-75.22462315065505
 20
-145.806863836884
 30
0.0
 10
-72.81108838583161
 20
-146.999166436954
 30
0.0
 10
-69.13367562482627
 20
-148.7023518058654
 30
0.0
 10
-67.89716718933846
 20
-149.2563284474461
 30
0.0
 10
-65.41825143039439
 20
-150.3298933668611
 30
0.0
 10
-64.17444360480182
 20
-150.8501647409412
 30
0.0
 10
-57.9339017012842
 20
-153.3699035852235
 30
0.0
 10
-52.87289289444712
 20
-155.1254036579486
 30
0.0
 10
-42.61932820855763
 20
-158.1370916532321
 30
0.0
 10
-37.42675407978075
 20
-159.393210301583
 30
0.0
 10
-29.53970156286342
 20
-160.904684714492
 30
0.0
 10
-26.89428604498368
 20
-161.3462677939988
 30
0.0
 10
-21.57064235154652
 20
-162.1048874355478
 30
0.0
 10
-18.89121479940048
 20
-162.4220372510126
 30
0.0
 10
-10.81071976291729
 20
-163.1841832543834
 30
0.0
 10
-5.409537076340188
 20
-163.4365605537158
 30
0.0
 10
0.0000000000000151
 20
-163.4365605537157
 30
0.0
  0
SPLINE
  5
7E
330
1F
100
AcDbEntity
  8
0
  6
Continuous
 62
     7
370
    25
100
AcDbSpline
210
0.0
220
0.0
230
1.0
 70
    11
 71
     3
 72
   128
 73
   124
 74
     0
 42
0.000000001
 43
0.00000001
 40
0.0
 40
0.0
 40
0.0
 40
0.0
 40
0.0156250000000002
 40
0.0156250000000002
 40
0.0312500000000003
 40
0.0312500000000003
 40
0.0625000000000006
 40
0.0625000000000006
 40
0.0781250000000008
 40
0.0781250000000008
 40
0.093750000000001
 40
0.093750000000001
 40
0.1250000000000013
 40
0.1250000000000013
 40
0.1562500000000016
 40
0.1562500000000016
 40
0.1718750000000018
 40
0.1718750000000018
 40
0.1796875000000019
 40
0.1796875000000019
 40
0.1875000000000019
 40
0.1875000000000019
 40
0.2187500000000021
 40
0.2187500000000021
 40
0.2265625000000022
 40
0.2265625000000022
 40
0.2343750000000022
 40
0.2343750000000022
 40
0.2500000000000023
 40
0.2500000000000023
 40
0.2812500000000026
 40
0.2812500000000026
 40
0.2890625000000026
 40
0.2890625000000026
 40
0.2968750000000026
 40
0.2968750000000026
 40
0.3125000000000027
 40
0.3125000000000027
 40
0.3281250000000028
 40
0.3281250000000028
 40
0.3359375000000028
 40
0.3359375000000028
 40
0.3437500000000028
 40
0.3437500000000028
 40
0.3750000000000028
 40
0.3750000000000028
 40
0.3906250000000028
 40
0.3906250000000028
 40
0.3984375000000028
 40
0.3984375000000028
 40
0.4062500000000028
 40
0.4062500000000028
 40
0.4375000000000027
 40
0.4375000000000027
 40
0.4531250000000027
 40
0.4531250000000027
 40
0.4687500000000026
 40
0.4687500000000026
 40
0.5000000000000024
 40
0.5000000000000024
 40
0.5312500000000023
 40
0.5312500000000023
 40
0.5390625000000023
 40
0.5390625000000023
 40
0.5468750000000022
 40
0.5468750000000022
 40
0.5625000000000022
 40
0.5625000000000022
 40
0.5781250000000021
 40
0.5781250000000021
 40
0.5859375000000021
 40
0.5859375000000021
 40
0.593750000000002
 40
0.593750000000002
 40
0.6250000000000018
 40
0.6250000000000018
 40
0.6406250000000018
 40
0.6406250000000018
 40
0.6562500000000017
 40
0.6562500000000017
 40
0.6875000000000014
 40
0.6875000000000014
 40
0.7031250000000013
 40
0.7031250000000013
 40
0.7187500000000013
 40
0.7187500000000013
 40
0.7343750000000012
 40
0.7343750000000012
 40
0.7421875000000012
 40
0.7421875000000012
 40
0.7500000000000011
 40
0.7500000000000011
 40
0.7812500000000009
 40
0.7812500000000009
 40
0.7968750000000009
 40
0.7968750000000009
 40
0.8046875000000008
 40
0.8046875000000008
 40
0.8125000000000008
 40
0.8125000000000008
 40
0.8437500000000007
 40
0.8437500000000007
 40
0.8515625000000007
 40
0.8515625000000007
 40
0.8593750000000006
 40
0.8593750000000006
 40
0.8750000000000006
 40
0.8750000000000006
 40
0.9062500000000004
 40
0.9062500000000004
 40
0.9140625000000003
 40
0.9140625000000003
 40
0.9218750000000003
 40
0.9218750000000003
 40
0.9375000000000002
 40
0.9375000000000002
 40
0.9531250000000002
 40
0.9531250000000002
 40
0.9609375000000001
 40
0.9609375000000001
 40
0.9687500000000001
 40
0.9687500000000001
 40
1.0
 40
1.0
 40
1.0
 40
1.0
 10
-0.0000069111565575
 20
-36.44728773627997
 30
0.0
 10
-1.204643468580539
 20
-36.44728526920966
 30
0.0
 10
-2.406213524987916
 20
-36.38884444182661
 30
0.0
 10
-4.803206524387037
 20
-36.15480618901016
 30
0.0
 10
-5.98947097118628
 20
-35.97992078243028
 30
0.0
 10
-9.496480143889176
 20
-35.28870943552027
 30
0.0
 10
-11.77295510169808
 20
-34.60673900955702
 30
0.0
 10
-15.09325437463434
 20
-33.24437911680295
 30
0.0
 10
-16.18887771632419
 20
-32.73024928736321
 30
0.0
 10
-18.30240193467608
 20
-31.60715688457499
 30
0.0
 10
-19.32490471440422
 20
-30.99688745614845
 30
0.0
 10
-22.29146009265441
 20
-29.02250287057081
 30
0.0
 10
-24.13687772965103
 20
-27.51479829751307
 30
0.0
 10
-27.5417509584478
 20
-24.10604241619884
 30
0.0
 10
-29.045956557916
 20
-22.26085202849752
 30
0.0
 10
-31.01785170795565
 20
-19.29103168154046
 30
0.0
 10
-31.62736410961304
 20
-18.26714645247855
 30
0.0
 10
-32.46874349222057
 20
-16.67954052117766
 30
0.0
 10
-32.73759869044161
 20
-16.14027126276669
 30
0.0
 10
-33.24727650239702
 20
-15.05095148779181
 30
0.0
 10
-33.48762445617457
 20
-14.50210612916093
 30
0.0
 10
-34.6184492417807
 20
-11.73739608470415
 30
0.0
 10
-35.29827089471959
 20
-9.460685113588655
 30
0.0
 10
-35.87175197152886
 20
-6.534978072090718
 30
0.0
 10
-35.97246451440578
 20
-5.945796954720604
 30
0.0
 10
-36.1456787566223
 20
-4.759284665539483
 30
0.0
 10
-36.21825203745507
 20
-4.160315535345775
 30
0.0
 10
-36.39124782026691
 20
-2.367015585737659
 30
0.0
 10
-36.44775688868801
 20
-1.174588109543555
 30
0.0
 10
-36.44634060165379
 20
2.393667633949471
 30
0.0
 10
-36.2191032302412
 20
4.760555304240885
 30
0.0
 10
-35.64277301219249
 20
7.703733525641023
 30
0.0
 10
-35.51232558820553
 20
8.293031337976782
 30
0.0
 10
-35.22414369921842
 20
9.458434606165167
 30
0.0
 10
-35.06634143589592
 20
10.03550573397819
 30
0.0
 10
-34.55231002225709
 20
11.75003722202957
 30
0.0
 10
-34.15560594868607
 20
12.87087717247515
 30
0.0
 10
-33.25512992098727
 20
15.06859396214615
 30
0.0
 10
-32.75134743502964
 20
16.14546653221933
 30
0.0
 10
-31.91376221639822
 20
17.7271432072832
 30
0.0
 10
-31.62088035977858
 20
18.24874907736765
 30
0.0
 10
-31.0072436703628
 20
19.2805166120156
 30
0.0
 10
-30.68577948279851
 20
19.79154963556326
 30
0.0
 10
-29.02563465188079
 20
22.28987088840061
 30
0.0
 10
-27.51912405412727
 20
24.12887030131138
 30
0.0
 10
-24.99754804382022
 20
26.65305892538379
 30
0.0
 10
-24.11308705043772
 20
27.45513431622255
 30
0.0
 10
-22.71851383516584
 20
28.59749559768321
 30
0.0
 10
-22.24235548260283
 20
28.96794677390869
 30
0.0
 10
-21.27817422667187
 20
29.68016512934543
 30
0.0
 10
-20.78884523314101
 20
30.0230717001983
 30
0.0
 10
-18.30654582862905
 20
31.67257237403552
 30
0.0
 10
-16.20783123009685
 20
32.78629311818669
 30
0.0
 10
-12.89068179776181
 20
34.14849998079365
 30
0.0
 10
-11.75062922196146
 20
34.55233210258373
 30
0.0
 10
-9.456847545719699
 20
35.23962797897593
 30
0.0
 10
-8.300208331512476
 20
35.52529961826039
 30
0.0
 10
-4.801713106127443
 20
36.21237149675378
 30
0.0
 10
-2.431614718698427
 20
36.44582285062923
 30
0.0
 10
2.386619074991239
 20
36.44873899860314
 30
0.0
 10
4.771679015007081
 20
36.21811614834429
 30
0.0
 10
7.722226042370398
 20
35.63884805769273
 30
0.0
 10
8.310739049413014
 20
35.50822430056939
 30
0.0
 10
9.474128396242442
 20
35.21997843612478
 30
0.0
 10
10.05036144786395
 20
35.06214278751966
 30
0.0
 10
11.76285556354903
 20
34.54794801402887
 30
0.0
 10
12.8829897909131
 20
34.15109735132377
 30
0.0
 10
15.08041819521721
 20
33.24982583571818
 30
0.0
 10
16.15771589558034
 20
32.74541367941911
 30
0.0
 10
17.74079128073125
 20
31.90625313652892
 30
0.0
 10
18.26299495256668
 20
31.61275182035714
 30
0.0
 10
19.29618157986649
 20
30.99757251378234
 30
0.0
 10
19.80621069183443
 20
30.6763895430285
 30
0.0
 10
22.29971158843446
 20
29.01767488701338
 30
0.0
 10
24.13762712665269
 20
27.51159004434922
 30
0.0
 10
26.66246015577453
 20
24.98754480315906
 30
0.0
 10
27.46516181513033
 20
24.10177399522735
 30
0.0
 10
28.99006675161917
 20
22.23832846478216
 30
0.0
 10
29.70148264192968
 20
21.27355603772313
 30
0.0
 10
31.67798617341294
 20
18.29687040764848
 30
0.0
 10
32.7913494760679
 20
16.1975755612265
 30
0.0
 10
34.1541344226533
 20
12.87591738859983
 30
0.0
 10
34.5572680253857
 20
11.73549904677954
 30
0.0
 10
35.24289767163853
 20
9.444580573906295
 30
0.0
 10
35.52791068878659
 20
8.288795667485449
 30
0.0
 10
35.98509755096148
 20
5.957066577724794
 30
0.0
 10
36.15726203812571
 20
4.781120705868854
 30
0.0
 10
36.33051925374008
 20
3.002016720944056
 30
0.0
 10
36.37406215417464
 20
2.406443230015553
 30
0.0
 10
36.43240837659408
 20
1.210161122791157
 30
0.0
 10
36.44718193213222
 20
0.6080330793135289
 30
0.0
 10
36.44770912964496
 20
-2.398368314529874
 30
0.0
 10
36.21690837285635
 20
-4.766760337516202
 30
0.0
 10
35.53320577585878
 20
-8.265746029132712
 30
0.0
 10
35.24862791748959
 20
-9.423073134398676
 30
0.0
 10
34.7342852947243
 20
-11.14517211430074
 30
0.0
 10
34.54763687715466
 20
-11.71842116877266
 30
0.0
 10
34.14732658575973
 20
-12.85187782285038
 30
0.0
 10
33.93399449793567
 20
-13.41147966748472
 30
0.0
 10
32.80247378158131
 20
-16.17441129273689
 30
0.0
 10
31.69154304487
 20
-18.27350307235368
 30
0.0
 10
30.04451882387738
 20
-20.75764981003828
 30
0.0
 10
29.702067464019
 20
-21.24742376811599
 30
0.0
 10
28.99065979904586
 20
-22.21263829846959
 30
0.0
 10
28.62054818836782
 20
-22.68935847961167
 30
0.0
 10
27.48019145226464
 20
-24.08443437634709
 30
0.0
 10
26.67932227645934
 20
-24.9694797598342
 30
0.0
 10
24.15822755584668
 20
-27.49337362041281
 30
0.0
 10
22.32062232336204
 20
-29.00220649344893
 30
0.0
 10
19.82275354074356
 20
-30.66576359879846
 30
0.0
 10
19.31208125422345
 20
-30.98772401768468
 30
0.0
 10
18.28149040320792
 20
-31.60211001311863
 30
0.0
 10
17.76039271914626
 20
-31.89544133634998
 30
0.0
 10
16.17994439329679
 20
-32.73445199118598
 30
0.0
 10
15.10356416401307
 20
-33.23944807950282
 30
0.0
 10
12.90604145734671
 20
-34.14250897312598
 30
0.0
 10
11.78491878117804
 20
-34.54062118539389
 30
0.0
 10
10.0693257490223
 20
-35.05679024587121
 30
0.0
 10
9.491797893937164
 20
-35.21531804197546
 30
0.0
 10
8.325242374857028
 20
-35.5049045674346
 30
0.0
 10
7.736626933645518
 20
-35.63577597237638
 30
0.0
 10
4.791747380969585
 20
-36.2151479798301
 30
0.0
 10
2.409266203691372
 20
-36.44729267042058
 30
0.0
 10
-0.0000069111565542
 20
-36.44728773627996
 30
0.0
  0
SPLINE
  5
7F
330
1F
100
AcDbEntity
  8
0
  6
Continuous
 62
     7
370
    25
100
AcDbSpline
210
0.0
220
0.0
230
1.0
 70
    11
 71
     3
 72
   128
 73
   124
 74
     0
 42
0.000000001
 43
0.00000001
 40
0.0
 40
0.0
 40
0.0
 40
0.0
 40
0.0312500000000003
 40
0.0312500000000003
 40
0.0390625000000004
 40
0.0390625000000004
 40
0.0468750000000005
 40
0.0468750000000005
 40
0.0625000000000006
 40
0.0625000000000006
 40
0.0781250000000008
 40
0.0781250000000008
 40
0.0859375000000009
 40
0.0859375000000009
 40
0.093750000000001
 40
0.093750000000001
 40
0.1250000000000011
 40
0.1250000000000011
 40
0.1406250000000012
 40
0.1406250000000012
 40
0.1484375000000012
 40
0.1484375000000012
 40
0.1562500000000012
 40
0.1562500000000012
 40
0.1875000000000011
 40
0.1875000000000011
 40
0.1953125000000011
 40
0.1953125000000011
 40
0.2031250000000011
 40
0.2031250000000011
 40
0.218750000000001
 40
0.218750000000001
 40
0.2500000000000009
 40
0.2500000000000009
 40
0.2578125000000009
 40
0.2578125000000009
 40
0.2656250000000009
 40
0.2656250000000009
 40
0.2812500000000009
 40
0.2812500000000009
 40
0.2968750000000009
 40
0.2968750000000009
 40
0.3125000000000008
 40
0.3125000000000008
 40
0.3437500000000008
 40
0.3437500000000008
 40
0.3593750000000007
 40
0.3593750000000007
 40
0.3750000000000007
 40
0.3750000000000007
 40
0.4062500000000006
 40
0.4062500000000006
 40
0.4140625000000007
 40
0.4140625000000007
 40
0.4218750000000007
 40
0.4218750000000007
 40
0.4375000000000006
 40
0.4375000000000006
 40
0.4531250000000006
 40
0.4531250000000006
 40
0.4609375000000006
 40
0.4609375000000006
 40
0.4687500000000007
 40
0.4687500000000007
 40
0.5000000000000006
 40
0.5000000000000006
 40
0.5312500000000007
 40
0.5312500000000007
 40
0.5468750000000007
 40
0.5468750000000007
 40
0.5625000000000007
 40
0.5625000000000007
 40
0.5937500000000008
 40
0.5937500000000008
 40
0.6015625000000008
 40
0.6015625000000008
 40
0.6093750000000007
 40
0.6093750000000007
 40
0.6250000000000007
 40
0.6250000000000007
 40
0.6562500000000007
 40
0.6562500000000007
 40
0.6640625000000007
 40
0.6640625000000007
 40
0.6718750000000006
 40
0.6718750000000006
 40
0.6875000000000006
 40
0.6875000000000006
 40
0.7031250000000004
 40
0.7031250000000004
 40
0.7109375000000004
 40
0.7109375000000004
 40
0.7187500000000003
 40
0.7187500000000003
 40
0.7500000000000002
 40
0.7500000000000002
 40
0.7656250000000001
 40
0.7656250000000001
 40
0.7734375000000001
 40
0.7734375000000001
 40
0.7812500000000001
 40
0.7812500000000001
 40
0.8125
 40
0.8125
 40
0.8203125
 40
0.8203125
 40
0.828125
 40
0.828125
 40
0.84375
 40
0.84375
 40
0.8749999999999999
 40
0.8749999999999999
 40
0.9062499999999999
 40
0.9062499999999999
 40
0.9218749999999999
 40
0.9218749999999999
 40
0.9375
 40
0.9375
 40
0.9687499999999999
 40
0.9687499999999999
 40
0.984375
 40
0.984375
 40
1.0
 40
1.0
 40
1.0
 40
1.0
 10
0.0000084629810929
 20
-28.91183992041116
 30
0.0
 10
1.908900456738631
 20
-28.91184464356994
 30
0.0
 10
3.795672172343045
 20
-28.72351931921011
 30
0.0
 10
6.126899272868827
 20
-28.25615080574605
 30
0.0
 10
6.592828107162995
 20
-28.15061857522902
 30
0.0
 10
7.516084510990452
 20
-27.91731643459625
 30
0.0
 10
7.973063176261647
 20
-27.78970251728284
 30
0.0
 10
9.33029910123459
 20
-27.37455691626917
 30
0.0
 10
10.21689819113652
 20
-27.05482014796246
 30
0.0
 10
11.95430490373998
 20
-26.33094490775512
 30
0.0
 10
12.80509266470369
 20
-25.92675952343432
 30
0.0
 10
14.05417815307539
 20
-25.25658022908163
 30
0.0
 10
14.46598869276624
 20
-25.02245388926598
 30
0.0
 10
15.2804314806256
 20
-24.53255528044669
 30
0.0
 10
15.68397223538738
 20
-24.27605545307117
 30
0.0
 10
17.65834844965536
 20
-22.95156838317088
 30
0.0
 10
19.11229986714917
 20
-21.7531643882092
 30
0.0
 10
21.11005387493203
 20
-19.75303085057713
 30
0.0
 10
21.74521896475127
 20
-19.05231736018563
 30
0.0
 10
22.65050622244604
 20
-17.94877216221687
 30
0.0
 10
22.94446289765476
 20
-17.57184475041392
 30
0.0
 10
23.50996585133505
 20
-16.80869116641431
 30
0.0
 10
23.7824222178801
 20
-16.42149166301755
 30
0.0
 10
25.09381211930955
 20
-14.4576987557791
 30
0.0
 10
25.98178665441749
 20
-12.79865719285422
 30
0.0
 10
26.88870215821118
 20
-10.61394594926984
 30
0.0
 10
27.0598369135261
 20
-10.17140592538043
 30
0.0
 10
27.38121765903647
 20
-9.274915804998962
 30
0.0
 10
27.53118172289933
 20
-8.821488630387135
 30
0.0
 10
27.94469036002033
 20
-7.459205226028565
 30
0.0
 10
28.17389967099593
 20
-6.543499396169523
 30
0.0
 10
28.72517379849821
 20
-3.774319289080211
 30
0.0
 10
28.91226224575646
 20
-1.899005083869598
 30
0.0
 10
28.91173377163631
 20
0.4830721283650553
 30
0.0
 10
28.89972813120117
 20
0.9601794531400373
 30
0.0
 10
28.85241810186854
 20
1.907821268460436
 30
0.0
 10
28.81714625096982
 20
2.379528053044925
 30
0.0
 10
28.67693280740303
 20
3.788388714252494
 30
0.0
 10
28.53776771882348
 20
4.71931466246728
 30
0.0
 10
28.16894315200364
 20
6.564700662074788
 30
0.0
 10
27.93929917087815
 20
7.479163557016389
 30
0.0
 10
27.38788806712583
 20
9.291329323292274
 30
0.0
 10
27.06411926893441
 20
10.19325211435436
 30
0.0
 10
25.97152151255325
 20
12.81957281976585
 30
0.0
 10
25.08150933683072
 20
14.47874921800438
 30
0.0
 10
23.5074677547379
 20
16.83189579906389
 30
0.0
 10
22.94180279632793
 20
17.59463240190044
 30
0.0
 10
21.731194050325
 20
19.06844029974386
 30
0.0
 10
21.09453404939834
 20
19.76962931000357
 30
0.0
 10
19.09366062317185
 20
21.76966574780555
 30
0.0
 10
17.63926603585986
 20
22.96579387026032
 30
0.0
 10
15.66801946258943
 20
24.2863949898864
 30
0.0
 10
15.2648897744716
 20
24.54225368864919
 30
0.0
 10
14.44836422776651
 20
25.03268883955975
 30
0.0
 10
14.03565600193041
 20
25.26689155606226
 30
0.0
 10
12.78444031012921
 20
25.93706398419544
 30
0.0
 10
11.93287384337425
 20
26.34067723390617
 30
0.0
 10
10.1954453840856
 20
27.06293479407276
 30
0.0
 10
9.30957442594065
 20
27.38155710002582
 30
0.0
 10
7.954723914660823
 20
27.79497134008848
 30
0.0
 10
7.498747019364938
 20
27.92197492776102
 30
0.0
 10
6.577956151153923
 20
28.15409088058346
 30
0.0
 10
6.112039227534279
 20
28.25937114855356
 30
0.0
 10
3.776081296388753
 20
28.7264521031492
 30
0.0
 10
1.887065351826784
 20
28.91327247764425
 30
0.0
 10
-1.930532361945932
 20
28.91039094274344
 30
0.0
 10
-3.807097059913148
 20
28.72081720955432
 30
0.0
 10
-6.575681034989047
 20
28.16637994953464
 30
0.0
 10
-7.490757868620915
 20
27.93612280092973
 30
0.0
 10
-9.305108137449272
 20
27.38333693866521
 30
0.0
 10
-10.20667535952291
 20
27.05889987604875
 30
0.0
 10
-12.82925380854729
 20
25.96676243421793
 30
0.0
 10
-14.48777501672049
 20
25.07635958507926
 30
0.0
 10
-16.44988278678514
 20
23.76277417503147
 30
0.0
 10
-16.83668549744366
 20
23.48990765686942
 30
0.0
 10
-17.59893169610892
 20
22.92365579986178
 30
0.0
 10
-17.97536932905867
 20
22.62938296498708
 30
0.0
 10
-19.07830648676072
 20
21.7224277420647
 30
0.0
 10
-19.77842913596978
 20
21.08625464401379
 30
0.0
 10
-21.77637390611497
 20
19.08589152610553
 30
0.0
 10
-22.97273468932794
 20
17.63072020984621
 30
0.0
 10
-24.29426706293794
 20
15.65580042570456
 30
0.0
 10
-24.55031593637493
 20
15.25194526033037
 30
0.0
 10
-25.03948428081693
 20
14.43655750259995
 30
0.0
 10
-25.2731821860506
 20
14.02433508690715
 30
0.0
 10
-25.94205221961645
 20
12.77426276357999
 30
0.0
 10
-26.34513324493341
 20
11.92306299906789
 30
0.0
 10
-27.06669981692325
 20
10.18546958043171
 30
0.0
 10
-27.38518694501088
 20
9.299076516097722
 30
0.0
 10
-27.79843492510554
 20
7.942657865064048
 30
0.0
 10
-27.92540376422525
 20
7.486032910733505
 30
0.0
 10
-28.15745867226294
 20
6.563677968323697
 30
0.0
 10
-28.26258455701735
 20
6.097184004138068
 30
0.0
 10
-28.72719313660578
 20
3.767432729561786
 30
0.0
 10
-28.91120611390147
 20
1.893525494022503
 30
0.0
 10
-28.91215436888389
 20
-0.9321517880376957
 30
0.0
 10
-28.86629797065069
 20
-1.876531229755544
 30
0.0
 10
-28.72627925584739
 20
-3.296936864713688
 30
0.0
 10
-28.66755767081172
 20
-3.771399436281363
 30
0.0
 10
-28.52753889920685
 20
-4.710968993819046
 30
0.0
 10
-28.4462007190848
 20
-5.177427877334614
 30
0.0
 10
-27.98339183083087
 20
-7.493247916815773
 30
0.0
 10
-27.43602221611769
 20
-9.293907157467048
 30
0.0
 10
-26.52955548920959
 20
-11.47950000621237
 30
0.0
 10
-26.33704652701647
 20
-11.91332683077999
 30
0.0
 10
-25.92921525751398
 20
-12.77428517614977
 30
0.0
 10
-25.71425893982372
 20
-13.20049902594128
 30
0.0
 10
-25.04205308607185
 20
-14.45527802246487
 30
0.0
 10
-24.55584058456094
 20
-15.26459063889831
 30
0.0
 10
-22.98529461833012
 20
-17.61256574365127
 30
0.0
 10
-21.79036935342184
 20
-19.07220655201788
 30
0.0
 10
-19.09324748891509
 20
-21.77193748351069
 30
0.0
 10
-17.63333054865532
 20
-22.96929882399231
 30
0.0
 10
-15.28766024345617
 20
-24.54144025403327
 30
0.0
 10
-14.47935816228175
 20
-25.02814966898663
 30
0.0
 10
-12.80868406275835
 20
-25.92513345751978
 30
0.0
 10
-11.94308023778819
 20
-26.33626530524696
 30
0.0
 10
-9.319681555157832
 20
-27.4273309859709
 30
0.0
 10
-7.519883431573237
 20
-27.97613845944683
 30
0.0
 10
-4.744488242575987
 20
-28.53366484728901
 30
0.0
 10
-3.805180018085669
 20
-28.67505507913722
 30
0.0
 10
-1.906395595070735
 20
-28.86443949462222
 30
0.0
 10
-0.9544375338976674
 20
-28.91183755883177
 30
0.0
 10
0.0000084629810944
 20
-28.91183992041116
 30
0.0
  0
SPLINE
  5
80
330
1F
100
AcDbEntity
  8
0
  6
Continuous
 62
     7
370
    25
100
AcDbSpline
210
0.0
220
0.0
230
1.0
 70
    11
 71
     3
 72
   120
 73
   116
 74
     0
 42
0.000000001
 43
0.00000001
 40
0.0
 40
0.0
 40
0.0
 40
0.0
 40
0.0156250000000001
 40
0.0156250000000001
 40
0.0312500000000002
 40
0.0312500000000002
 40
0.0625000000000005
 40
0.0625000000000005
 40
0.0781250000000006
 40
0.0781250000000006
 40
0.0937500000000007
 40
0.0937500000000007
 40
0.1250000000000011
 40
0.1250000000000011
 40
0.1406250000000012
 40
0.1406250000000012
 40
0.1562500000000013
 40
0.1562500000000013
 40
0.1718750000000014
 40
0.1718750000000014
 40
0.1875000000000015
 40
0.1875000000000015
 40
0.2187500000000016
 40
0.2187500000000016
 40
0.2343750000000017
 40
0.2343750000000017
 40
0.2500000000000018
 40
0.2500000000000018
 40
0.2812500000000019
 40
0.2812500000000019
 40
0.296875000000002
 40
0.296875000000002
 40
0.3125000000000021
 40
0.3125000000000021
 40
0.3281250000000021
 40
0.3281250000000021
 40
0.3359375000000021
 40
0.3359375000000021
 40
0.3437500000000021
 40
0.3437500000000021
 40
0.3750000000000022
 40
0.3750000000000022
 40
0.3906250000000022
 40
0.3906250000000022
 40
0.3984375000000022
 40
0.3984375000000022
 40
0.4062500000000022
 40
0.4062500000000022
 40
0.4375000000000024
 40
0.4375000000000024
 40
0.4453125000000024
 40
0.4453125000000024
 40
0.4531250000000024
 40
0.4531250000000024
 40
0.4687500000000024
 40
0.4687500000000024
 40
0.5000000000000023
 40
0.5000000000000023
 40
0.5312500000000023
 40
0.5312500000000023
 40
0.5390625000000023
 40
0.5390625000000023
 40
0.5468750000000022
 40
0.5468750000000022
 40
0.5625000000000022
 40
0.5625000000000022
 40
0.5781250000000023
 40
0.5781250000000023
 40
0.5859375000000022
 40
0.5859375000000022
 40
0.5937500000000022
 40
0.5937500000000022
 40
0.6250000000000021
 40
0.6250000000000021
 40
0.6406250000000021
 40
0.6406250000000021
 40
0.6484375000000021
 40
0.6484375000000021
 40
0.656250000000002
 40
0.656250000000002
 40
0.6875000000000018
 40
0.6875000000000018
 40
0.7031250000000018
 40
0.7031250000000018
 40
0.7187500000000017
 40
0.7187500000000017
 40
0.7500000000000014
 40
0.7500000000000014
 40
0.7812500000000012
 40
0.7812500000000012
 40
0.7968750000000011
 40
0.7968750000000011
 40
0.812500000000001
 40
0.812500000000001
 40
0.8437500000000009
 40
0.8437500000000009
 40
0.8593750000000008
 40
0.8593750000000008
 40
0.8750000000000007
 40
0.8750000000000007
 40
0.9062500000000006
 40
0.9062500000000006
 40
0.9140625000000006
 40
0.9140625000000006
 40
0.9218750000000004
 40
0.9218750000000004
 40
0.9375000000000003
 40
0.9375000000000003
 40
0.9531250000000003
 40
0.9531250000000003
 40
0.9609375000000002
 40
0.9609375000000002
 40
0.9687500000000002
 40
0.9687500000000002
 40
1.0
 40
1.0
 40
1.0
 40
1.0
 10
0.0000003565071506
 20
24.0604831212624
 30
0.0
 10
0.7946644532959283
 20
24.06048324004737
 30
0.0
 10
1.587040207541734
 20
24.02142140294336
 30
0.0
 10
3.167222529102814
 20
23.86529307612733
 30
0.0
 10
3.95181709986932
 20
23.74827925617513
 30
0.0
 10
6.265814111205019
 20
23.28700346561032
 30
0.0
 10
7.765403290144907
 20
22.83268612112197
 30
0.0
 10
9.949645125221577
 20
21.92916897186333
 30
0.0
 10
10.67060311963545
 20
21.58848468096823
 30
0.0
 10
12.06443080009433
 20
20.84322846900516
 30
0.0
 10
12.73848232300728
 20
20.43872659425525
 30
0.0
 10
14.69360189738167
 20
19.13176113391667
 30
0.0
 10
15.90833939286243
 20
18.13682085482939
 30
0.0
 10
17.59201093646722
 20
16.45140285591112
 30
0.0
 10
18.12213791023531
 20
15.86489769675271
 30
0.0
 10
19.11751452105123
 20
14.64926238236394
 30
0.0
 10
19.58358637489306
 20
14.01930127149584
 30
0.0
 10
20.45301549249165
 20
12.71545469823935
 30
0.0
 10
20.85637540355433
 20
12.04157108314909
 30
0.0
 10
21.59909344162917
 20
10.64897724391231
 30
0.0
 10
21.93935020699949
 20
9.927176281352699
 30
0.0
 10
22.84165988235722
 20
7.739314290897894
 30
0.0
 10
23.29405142024562
 20
6.239031411443889
 30
0.0
 10
23.75235175904764
 20
3.926993398459372
 30
0.0
 10
23.86828518873639
 20
3.144455736607296
 30
0.0
 10
24.02290168868178
 20
1.564321736705877
 30
0.0
 10
24.060751038069
 20
0.7767972843601427
 30
0.0
 10
24.05994307161463
 20
-1.578406799596634
 30
0.0
 10
23.90801430155025
 20
-3.138786961278311
 30
0.0
 10
23.44788948635399
 20
-5.464394976677646
 30
0.0
 10
23.25471509433415
 20
-6.238048610609325
 30
0.0
 10
22.79829386082762
 20
-7.746433454537073
 30
0.0
 10
22.53436137913334
 20
-8.485492277634185
 30
0.0
 10
21.93616708759885
 20
-9.933816677898148
 30
0.0
 10
21.60189969054544
 20
-10.64307997678545
 30
0.0
 10
21.04706535397325
 20
-11.68434036800925
 30
0.0
 10
20.85319950194528
 20
-12.02764815463805
 30
0.0
 10
20.44731413692735
 20
-12.7065738931549
 30
0.0
 10
20.23466921492933
 20
-13.04308494528954
 30
0.0
 10
19.13539701551314
 20
-14.69068296242941
 30
0.0
 10
18.13973068758332
 20
-15.90306267219759
 30
0.0
 10
16.47691440923239
 20
-17.56768218388293
 30
0.0
 10
15.89421846206028
 20
-18.09671116805754
 30
0.0
 10
14.97632121098855
 20
-18.85038123039453
 30
0.0
 10
14.66240915890456
 20
-19.09535194799622
 30
0.0
 10
14.02659372121308
 20
-19.56665808352055
 30
0.0
 10
13.70399385899502
 20
-19.79361177907426
 30
0.0
 10
12.06795849056066
 20
-20.88567155393153
 30
0.0
 10
10.68604927113545
 20
-21.62382653248708
 30
0.0
 10
8.867264577484324
 20
-22.37707723688532
 30
0.0
 10
8.498897151248357
 20
-22.51918003034029
 30
0.0
 10
7.752772799244513
 20
-22.78597892708231
 30
0.0
 10
7.374818899491768
 20
-22.91066603056851
 30
0.0
 10
6.239253713800464
 20
-23.25449813246135
 30
0.0
 10
5.475868085086742
 20
-23.44503987276241
 30
0.0
 10
3.16716104010762
 20
-23.90354094409134
 30
0.0
 10
1.603478962050259
 20
-24.05953580079162
 30
0.0
 10
-1.57474722212972
 20
-24.06142191798011
 30
0.0
 10
-3.147259053952635
 20
-23.90722239283833
 30
0.0
 10
-5.090930255246026
 20
-23.5215542923004
 30
0.0
 10
-5.479314982574551
 20
-23.43447334047402
 30
0.0
 10
-6.247393851813511
 20
-23.24225002195394
 30
0.0
 10
-6.627685789928323
 20
-23.13702792433051
 30
0.0
 10
-7.757514429019908
 20
-22.79450461859783
 30
0.0
 10
-8.496027112210356
 20
-22.53040242146869
 30
0.0
 10
-9.94400031583602
 20
-21.93156314991297
 30
0.0
 10
-10.65346002503198
 20
-21.59682397968231
 30
0.0
 10
-11.69550868791127
 20
-21.0408812832771
 30
0.0
 10
-12.03916159965513
 20
-20.84657894926967
 30
0.0
 10
-12.7189326373268
 20
-20.43965368192051
 30
0.0
 10
-13.05529721319279
 20
-20.22679137479164
 30
0.0
 10
-14.69959470138628
 20
-19.12834639973387
 30
0.0
 10
-15.91106254309556
 20
-18.13279585737884
 30
0.0
 10
-17.57583428957405
 20
-16.4682371578706
 30
0.0
 10
-18.10517178534857
 20
-15.88464165531133
 30
0.0
 10
-18.85957084582965
 20
-14.96475564269327
 30
0.0
 10
-19.1039626773796
 20
-14.65116470409309
 30
0.0
 10
-19.57418011280533
 20
-14.01606877325387
 30
0.0
 10
-19.80067853886713
 20
-13.69375887163813
 30
0.0
 10
-20.89083170478908
 20
-12.0587932403023
 30
0.0
 10
-21.62864693948592
 20
-10.6765408374889
 30
0.0
 10
-22.53248270063687
 20
-8.490947382486555
 30
0.0
 10
-22.80066909260225
 20
-7.73958141420889
 30
0.0
 10
-23.25751953442622
 20
-6.227771569864439
 30
0.0
 10
-23.4474420459609
 20
-5.465369932066257
 30
0.0
 10
-23.90449222738068
 20
-3.159143546410205
 30
0.0
 10
-24.05997881118669
 20
-1.596479106529973
 30
0.0
 10
-24.0609850019136
 20
1.581168242298332
 30
0.0
 10
-23.9062963686217
 20
3.145336372748419
 30
0.0
 10
-23.45057164648989
 20
5.451898827851393
 30
0.0
 10
-23.26109537975639
 20
6.214325360468088
 30
0.0
 10
-22.80524508589991
 20
7.726022979545407
 30
0.0
 10
-22.53749061060276
 20
8.477627067202915
 30
0.0
 10
-21.63465414066092
 20
10.66440377645639
 30
0.0
 10
-20.89746632092811
 20
12.04728561395057
 30
0.0
 10
-19.59030929468351
 20
14.01003080445942
 30
0.0
 10
-19.11911719475867
 20
14.64757895280528
 30
0.0
 10
-18.11385764917681
 20
15.87473450892566
 30
0.0
 10
-17.58482006135198
 20
16.45864011279207
 30
0.0
 10
-15.92095381514133
 20
18.12411544206056
 30
0.0
 10
-14.71010021796609
 20
19.12026228210208
 30
0.0
 10
-13.06662796713941
 20
20.21948299804689
 30
0.0
 10
-12.7304170911033
 20
20.43251656916373
 30
0.0
 10
-12.05080003084674
 20
20.83986838536154
 30
0.0
 10
-11.70723371824326
 20
21.03437280959025
 30
0.0
 10
-10.66547956842921
 20
21.59090485499092
 30
0.0
 10
-9.95626056597985
 20
21.9260097251206
 30
0.0
 10
-8.50887170412712
 20
22.52556491174164
 30
0.0
 10
-7.770705009989503
 20
22.79002331252988
 30
0.0
 10
-6.641478813198659
 20
23.1330814479564
 30
0.0
 10
-6.261403517718313
 20
23.23848672882292
 30
0.0
 10
-5.493792406994758
 20
23.43109189644937
 30
0.0
 10
-5.105498060554952
 20
23.51841143353785
 30
0.0
 10
-3.161529071032115
 20
23.90537691646964
 30
0.0
 10
-1.589327837070381
 20
24.06048288369247
 30
0.0
 10
0.0000003565071472
 20
24.0604831212624
 30
0.0
  0
SPLINE
  5
81
330
1F
100
AcDbEntity
  8
0
  6
Continuous
 62
     8
370
    25
100
AcDbSpline
210
0.0
220
0.0
230
1.0
 70
     8
 71
     3
 72
    13
 73
     9
 74
     0
 42
0.000000001
 43
0.00000001
 40
0.0
 40
0.0
 40
0.0
 40
0.0
 40
0.1926891449765983
 40
0.3854141729705358
 40
0.5781034387313004
 40
0.7708625394383948
 40
0.963612141328967
 40
1.0
 40
1.0
 40
1.0
 40
1.0
 10
-0.0000166317981825
 20
174.9284177573652
 30
0.0
 10
-4.579632370866044
 20
174.8253325463584
 30
0.0
 10
-13.73971667561529
 20
174.6191429275787
 30
0.0
 10
-27.39344368597384
 20
172.9497819253636
 30
0.0
 10
-40.89226597392037
 20
170.3176194251555
 30
0.0
 10
-54.10163049182913
 20
166.5276013806429
 30
0.0
 10
-63.60631558618488
 20
163.2595493811278
 30
0.0
 10
-68.5414660585569
 20
160.9587325478731
 30
0.0
 10
-69.32518582864083
 20
160.5933545012141
 30
0.0
  0
SPLINE
  5
82
330
1F
100
AcDbEntity
  8
0
  6
Continuous
 62
     8
370
    25
100
AcDbSpline
210
0.0
220
0.0
230
1.0
 70
     8
 71
     3
 72
    19
 73
    15
 74
     0
 42
0.000000001
 43
0.00000001
 40
0.0
 40
0.0
 40
0.0
 40
0.0
 40
0.0181811115682824
 40
0.1145547418861067
 40
0.2109329177471978
 40
0.3072759603579779
 40
0.4036366844825539
 40
0.4999792529240188
 40
0.5963166647187126
 40
0.6926753733180131
 40
0.7890300358328252
 40
0.8854001145801718
 40
0.9817726607260585
 40
1.0
 40
1.0
 40
1.0
 40
1.0
 10
-160.5933987975499
 20
69.32519877510902
 30
0.0
 10
-160.9585200469819
 20
68.54203347586734
 30
0.0
 10
-163.2590598312919
 20
63.60750027244666
 30
0.0
 10
-166.5279352102852
 20
54.10352282551201
 30
0.0
 10
-170.3136615337691
 20
40.89439485218124
 30
0.0
 10
-172.9622211344303
 20
27.39582412973939
 30
0.0
 10
-174.5710857378838
 20
13.74237084622914
 30
0.0
 10
-175.1069117151636
 20
0.0031982452089412
 30
0.0
 10
-174.5717006675789
 20
-13.73590492534972
 30
0.0
 10
-172.9632351888064
 20
-27.38962208849476
 30
0.0
 10
-170.3151361253175
 20
-40.88834670468186
 30
0.0
 10
-166.5301003610533
 20
-54.09781023293377
 30
0.0
 10
-163.2605625037006
 20
-63.6034039768642
 30
0.0
 10
-160.9592933332613
 20
-68.53996528723354
 30
0.0
 10
-160.5932719033394
 20
-69.32513516346053
 30
0.0
  0
SPLINE
  5
83
330
1F
100
AcDbEntity
  8
0
  6
Continuous
 62
     8
370
    25
100
AcDbSpline
210
0.0
220
0.0
230
1.0
 70
     8
 71
     3
 72
    19
 73
    15
 74
     0
 42
0.000000001
 43
0.00000001
 40
0.0
 40
0.0
 40
0.0
 40
0.0
 40
0.0181273650541022
 40
0.1145085926397791
 40
0.210873964449774
 40
0.3072167654536689
 40
0.4035631666869426
 40
0.4999168257187432
 40
0.5962771620483455
 40
0.6926337592604881
 40
0.7889821859061192
 40
0.8853651510039231
 40
0.9817435093625118
 40
1.0
 40
1.0
 40
1.0
 40
1.0
 10
-69.32529364064189
 20
-160.5935931394196
 30
0.0
 10
-68.54444965937071
 20
-160.9576481073529
 30
0.0
 10
-63.61194319195283
 20
-163.2573437276012
 30
0.0
 10
-54.11079966716602
 20
-166.5258649202977
 30
0.0
 10
-40.90201034067154
 20
-170.3118641867535
 30
0.0
 10
-27.40485132877496
 20
-172.9608230051857
 30
0.0
 10
-13.75166764243346
 20
-174.5706976509148
 30
0.0
 10
-0.0115591286978585
 20
-175.1068566295807
 30
0.0
 10
13.72909837708101
 20
-174.5724004884266
 30
0.0
 10
27.38356017698437
 20
-172.9641991114101
 30
0.0
 10
40.88258438998436
 20
-170.3164765148927
 30
0.0
 10
54.09270691108006
 20
-166.531566190545
 30
0.0
 10
63.60060468323632
 20
-163.2616933532166
 30
0.0
 10
68.53868890379597
 20
-160.9597459793651
 30
0.0
 10
69.32511719440122
 20
-160.5931429694885
 30
0.0
  0
SPLINE
  5
84
330
1F
100
AcDbEntity
  8
0
  6
Continuous
 62
     8
370
    25
100
AcDbSpline
210
0.0
220
0.0
230
1.0
 70
     8
 71
     3
 72
    19
 73
    15
 74
     0
 42
0.000000001
 43
0.00000001
 40
0.0
 40
0.0
 40
0.0
 40
0.0
 40
0.0181603052325191
 40
0.1145379586793757
 40
0.2109197654658653
 40
0.3072681708105227
 40
0.4036321934376332
 40
0.4999792199504308
 40
0.5963263982513264
 40
0.6926901935786314
 40
0.7890369435436871
 40
0.8854165648552746
 40
0.9817955367510557
 40
1.0
 40
1.0
 40
1.0
 40
1.0
 10
160.593462890672
 20
-69.32522691677352
 30
0.0
 10
160.9581762166732
 20
-68.54296256821888
 30
0.0
 10
163.2584415111427
 20
-63.60918196905484
 30
0.0
 10
166.5272042086811
 20
-54.10581943297115
 30
0.0
 10
170.3132697647378
 20
-40.89614700593558
 30
0.0
 10
172.9620544338903
 20
-27.39702028685062
 30
0.0
 10
174.5710762352871
 20
-13.74295649398564
 30
0.0
 10
175.1069595732221
 20
-0.0029461541123936
 30
0.0
 10
174.5715295791299
 20
13.7370703545465
 30
0.0
 10
172.9629807559696
 20
27.39110814246849
 30
0.0
 10
170.3146917442359
 20
40.89012997852449
 30
0.0
 10
166.5292131035764
 20
54.09985460272491
 30
0.0
 10
163.2599444205266
 20
63.60521079235855
 30
0.0
 10
160.9588939676738
 20
68.54101181600961
 30
0.0
 10
160.5933141755335
 20
69.32518806474636
 30
0.0
  0
SPLINE
  5
85
330
1F
100
AcDbEntity
  8
0
  6
Continuous
 62
     8
370
    25
100
AcDbSpline
210
0.0
220
0.0
230
1.0
 70
     8
 71
     3
 72
    13
 73
     9
 74
     0
 42
0.000000001
 43
0.00000001
 40
0.0
 40
0.0
 40
0.0
 40
0.0
 40
0.0363831040980375
 40
0.2291344879360154
 40
0.4218949569276007
 40
0.6145851733929392
 40
0.8073107352554457
 40
1.0
 40
1.0
 40
1.0
 40
1.0
 10
69.32518884141656
 20
160.5933609045817
 30
0.0
 10
68.54157178789154
 20
160.9586928055888
 30
0.0
 10
63.60648730984486
 20
163.2594898414435
 30
0.0
 10
54.10183387833349
 20
166.5275348130578
 30
0.0
 10
40.89237439546113
 20
170.3175969509604
 30
0.0
 10
27.39347952280787
 20
172.9497775278082
 30
0.0
 10
13.73970830019491
 20
174.6191446227048
 30
0.0
 10
4.579604122568537
 20
174.8253331852017
 30
0.0
 10
-0.0000166317981825
 20
174.9284177573653
 30
0.0
  0
LINE
  5
86
330
1F
100
AcDbEntity
  8
0
  6
Continuous
 62
     7
370
    25
100
AcDbLine
 10
-0.0000001911
 20
179.9417161576
 30
0.0
 11
2.0773807578
 21
179.9067143263
 31
0.0
  0
SPLINE
  5
89
330
1B
100
AcDbEntity
 67
     1
  8
0
  6
Continuous
 62
     7
370
    25
100
AcDbSpline
210
0.0
220
0.0
230
1.0
 70
     8
 71
     3
 72
    13
 73
     9
 74
     0
 42
0.000000001
 43
0.00000001
 40
0.0
 40
0.0
 40
0.0
 40
0.0
 40
0.180934136342785
 40
0.4095707102926102
 40
0.5432645748949609
 40
0.6882077350175965
 40
0.8417565260418226
 40
1.0
 40
1.0
 40
1.0
 40
1.0
 10
179.9417161574609
 20
114.4355109327312
 30
0.0
 10
179.9274144006818
 20
114.6728548481321
 30
0.0
 10
179.8950402959339
 20
115.2101172905836
 30
0.0
 10
179.5711954388142
 20
115.8673132903544
 30
0.0
 10
179.1313474454836
 20
116.3666668266423
 30
0.0
 10
178.6700035236032
 20
116.6992975006599
 30
0.0
 10
178.1143127403067
 20
116.9389482481906
 30
0.0
 10
177.7069458027476
 20
116.9788812409656
 30
0.0
 10
177.5001954544711
 20
116.9991483746055
 30
0.0
  0
SPLINE
  5
8A
330
1B
100
AcDbEntity
 67
     1
  8
0
  6
Continuous
 62
     7
370
    25
100
AcDbSpline
210
0.0
220
0.0
230
1.0
 70
     8
 71
     3
 72
    13
 73
     9
 74
     0
 42
0.000000001
 43
0.00000001
 40
0.0
 40
0.0
 40
0.0
 40
0.0
 40
0.158243473953018
 40
0.3117922649730384
 40
0.4567354250929649
 40
0.5904292896943938
 40
0.8190658636475521
 40
1.0
 40
1.0
 40
1.0
 40
1.0
 10
-177.5001954544865
 20
116.999148374605
 30
0.0
 10
-177.7069458027618
 20
116.978881240965
 30
0.0
 10
-178.1143127403193
 20
116.9389482481896
 30
0.0
 10
-178.6700035236137
 20
116.6992975006579
 30
0.0
 10
-179.1313474454922
 20
116.3666668266387
 30
0.0
 10
-179.5711954388244
 20
115.867313290347
 30
0.0
 10
-179.895040295943
 20
115.2101172905638
 30
0.0
 10
-179.9274144006905
 20
114.6728548481274
 30
0.0
 10
-179.9417161574697
 20
114.4355109327281
 30
0.0
  0
SPLINE
  5
8B
330
1B
100
AcDbEntity
 67
     1
  8
0
  6
Continuous
 62
     7
370
    25
100
AcDbSpline
210
0.0
220
0.0
230
1.0
 70
     8
 71
     3
 72
    61
 73
    57
 74
     0
 42
0.000000001
 43
0.00000001
 40
0.0
 40
0.0
 40
0.0
 40
0.0
 40
0.0155368830060318
 40
0.0290545871341535
 40
0.0405535618073722
 40
0.0500318776282722
 40
0.0575707922140926
 40
0.0646595450109775
 40
0.0718518953579122
 40
0.0791490053911251
 40
0.098960739011849
 40
0.1188203545876856
 40
0.1386736941735597
 40
0.1625019605025572
 40
0.1863324529602774
 40
0.2101595278698975
 40
0.2339918572364622
 40
0.2578196860065309
 40
0.2816515206544373
 40
0.3054811766762321
 40
0.3293088468101084
 40
0.3531395766366014
 40
0.37696245281242
 40
0.4007913867690037
 40
0.4246159412398494
 40
0.4484362890604726
 40
0.4722616795588024
 40
0.4960824800057146
 40
0.5199034728731536
 40
0.5437262652832618
 40
0.5675501681066987
 40
0.591369689975091
 40
0.6151983096521622
 40
0.6390255884194
 40
0.6628521123177785
 40
0.6866816696863288
 40
0.7105091093186211
 40
0.7343401995252096
 40
0.7581707398834563
 40
0.7820016561176235
 40
0.8058298470938392
 40
0.8296591245633974
 40
0.8534886838413989
 40
0.8683808857935227
 40
0.8832737857643074
 40
0.8981692228301302
 40
0.9125225638538338
 40
0.9185893423039949
 40
0.9244311314764847
 40
0.9303057861217492
 40
0.93770679946984
 40
0.946876350093078
 40
0.9576035599426833
 40
0.9700343186477852
 40
0.9841661899677786
 40
1.0
 40
1.0
 40
1.0
 40
1.0
 10
177.5001501894015
 20
116.9991495541051
 30
0.0
 10
177.4516420509889
 20
116.9993376904149
 30
0.0
 10
177.3609299091984
 20
116.9996895127724
 30
0.0
 10
176.7952788886827
 20
116.9999147323165
 30
0.0
 10
176.0888453506309
 20
116.9999939611667
 30
0.0
 10
175.331232697976
 20
117.0000011409868
 30
0.0
 10
174.5798537920699
 20
116.9999995922757
 30
0.0
 10
173.8087175706876
 20
116.9999999739706
 30
0.0
 10
172.9574707898873
 20
116.9999994855158
 30
0.0
 10
171.4631527852115
 20
116.9999986406615
 30
0.0
 10
169.056779851008
 20
116.9999979517476
 30
0.0
 10
165.3529799854795
 20
117.000000127557
 30
0.0
 10
160.7108974209035
 20
116.9999994772498
 30
0.0
 10
154.9964029467698
 20
116.9999992254272
 30
0.0
 10
148.0772889564109
 20
116.999999930726
 30
0.0
 10
140.3251405132362
 20
117.0000006703221
 30
0.0
 10
131.7859867119859
 20
117.0000004341018
 30
0.0
 10
122.5062378083173
 20
116.9999997977471
 30
0.0
 10
112.5386151102308
 20
117.0000009885131
 30
0.0
 10
101.9399912608874
 20
116.9999998708367
 30
0.0
 10
90.76912605840417
 20
116.9999996064504
 30
0.0
 10
79.09080292123305
 20
116.9999989515471
 30
0.0
 10
66.96995923808925
 20
117.0000004787426
 30
0.0
 10
54.47443978298395
 20
116.9999975681724
 30
0.0
 10
41.67623977918763
 20
116.999999347523
 30
0.0
 10
28.64563370369739
 20
116.9999997353424
 30
0.0
 10
15.45604121665143
 20
117.0000005836603
 30
0.0
 10
2.180746406981651
 20
116.9999995528574
 30
0.0
 10
-11.10638219550443
 20
117.0000005211545
 30
0.0
 10
-24.33220214365833
 20
116.9999997795017
 30
0.0
 10
-37.42282697862861
 20
117.0000000772813
 30
0.0
 10
-50.3049240044823
 20
116.9999974990814
 30
0.0
 10
-62.90763128748435
 20
116.9999997491721
 30
0.0
 10
-75.15945696898628
 20
116.9999995114122
 30
0.0
 10
-86.99050147481066
 20
116.9999991689486
 30
0.0
 10
-98.33471397293921
 20
116.9999998949676
 30
0.0
 10
-109.1277082211372
 20
117.0000006717185
 30
0.0
 10
-119.3086836206313
 20
117.0000003971712
 30
0.0
 10
-128.8203600571768
 20
116.9999998272753
 30
0.0
 10
-137.6081149831885
 20
117.0000009975978
 30
0.0
 10
-145.6233410062209
 20
116.9999998939763
 30
0.0
 10
-152.8202685834852
 20
116.9999996275258
 30
0.0
 10
-158.3676513905839
 20
116.9999991376476
 30
0.0
 10
-162.5780460249362
 20
116.9999999013378
 30
0.0
 10
-165.7305238263255
 20
116.9999997470281
 30
0.0
 10
-168.4856585189894
 20
116.9999983513889
 30
0.0
 10
-170.4044009876145
 20
116.9999983188814
 30
0.0
 10
-171.6808196277535
 20
116.9999988173319
 30
0.0
 10
-172.4854822960825
 20
116.9999991874616
 30
0.0
 10
-173.2869570283819
 20
116.9999998742698
 30
0.0
 10
-174.1472585927996
 20
116.9999999891518
 30
0.0
 10
-175.0652181245896
 20
116.9999830425341
 30
0.0
 10
-175.9703175288791
 20
116.9999231340009
 30
0.0
 10
-176.761168010953
 20
116.9997852996434
 30
0.0
 10
-177.362698984452
 20
116.9995403516395
 30
0.0
 10
-177.4526897909931
 20
116.9992831158032
 30
0.0
 10
-177.5002407650113
 20
116.9991471928679
 30
0.0
  0
SPLINE
  5
96
330
1B
100
AcDbEntity
 67
     1
  8
0
  6
Continuous
 62
     8
370
    25
100
AcDbSpline
210
0.0
220
0.0
230
1.0
 70
     8
 71
     3
 72
    94
 73
    90
 74
     0
 42
0.000000001
 43
0.00000001
 40
0.0
 40
0.0
 40
0.0
 40
0.0
 40
0.0000053965251616
 40
0.01073083164633
 40
0.0236621011556709
 40
0.038799053455786
 40
0.0561415115183775
 40
0.0646462762049629
 40
0.0735957375266826
 40
0.0829898917633569
 40
0.0928287350238719
 40
0.1031122632463284
 40
0.1138404721981602
 40
0.1250133574762303
 40
0.1491604057466698
 40
0.1719816973079579
 40
0.1934771262097931
 40
0.2136465931044213
 40
0.2324900052579511
 40
0.250007276565713
 40
0.2697202353209245
 40
0.2910943930899775
 40
0.3141295979702235
 40
0.3212350918387393
 40
0.3284848663164717
 40
0.3358789208040577
 40
0.3434172546847079
 40
0.3510998673242396
 40
0.3589267580711085
 40
0.366897926256435
 40
0.3750161488777055
 40
0.3946052405155271
 40
0.4127843926917369
 40
0.429553520570624
 40
0.444912545771853
 40
0.458861396373501
 40
0.4660723467759429
 40
0.4728390407724509
 40
0.4791614754924468
 40
0.4850396482381573
 40
0.4904735564857046
 40
0.4954631978866825
 40
0.5000183573000361
 40
0.5071612568151092
 40
0.5163875529557094
 40
0.5276971490340988
 40
0.5410899267706348
 40
0.5533043660362974
 40
0.5668520244085653
 40
0.5817328449787073
 40
0.5979467653114697
 40
0.6154937174462556
 40
0.631135104438146
 40
0.6461703267090915
 40
0.6575989562126805
 40
0.6688609504940384
 40
0.6799563080884593
 40
0.6908850275700923
 40
0.7122395423301515
 40
0.7329277611145252
 40
0.7529496569162206
 40
0.7692538395976961
 40
0.7850877693669261
 40
0.7864713530046753
 40
0.7875388796364127
 40
0.788776080421561
 40
0.7901829552523327
 40
0.791759504004227
 40
0.793505726536251
 40
0.7954216226910427
 40
0.8026463346430862
 40
0.8115886829726914
 40
0.8222486006709017
 40
0.8346260078047594
 40
0.8487208115189324
 40
0.8634255347788422
 40
0.8796261783125654
 40
0.8973226494006079
 40
0.9036191035327701
 40
0.9100852210315953
 40
0.9167210012900243
 40
0.923526443684854
 40
0.9296536610688985
 40
0.9335815309391022
 40
0.9375094553795672
 40
0.9583366877523056
 40
0.9791654613677774
 40
0.9999957824617464
 40
1.0
 40
1.0
 40
1.0
 40
1.0
 10
179.9416766901786
 20
114.4355112116631
 30
0.0
 10
179.9416898439929
 20
114.4355111186604
 30
0.0
 10
179.9678458171572
 20
114.4353261853398
 30
0.0
 10
179.8518668091434
 20
114.4362143314609
 30
0.0
 10
179.47681401412
 20
114.4382301418315
 30
0.0
 10
178.6317907511504
 20
114.4417930775735
 30
0.0
 10
177.4858242858835
 20
114.4456244854637
 30
0.0
 10
176.249048065584
 20
114.449203163533
 30
0.0
 10
175.1591703428627
 20
114.4521039056791
 30
0.0
 10
173.8661297952596
 20
114.45528330408
 30
0.0
 10
172.349549559594
 20
114.4587397814056
 30
0.0
 10
170.588441446166
 20
114.4624781156066
 30
0.0
 10
168.5613813555552
 20
114.4664799392319
 30
0.0
 10
165.3817607149926
 20
114.472439838848
 30
0.0
 10
160.8038315281493
 20
114.4796419237649
 30
0.0
 10
154.5640258835816
 20
114.4868840108868
 30
0.0
 10
147.9608808030032
 20
114.4925541566445
 30
0.0
 10
141.152354216185
 20
114.49661420695
 30
0.0
 10
134.2801249975266
 20
114.49907496747
 30
0.0
 10
127.0139851405912
 20
114.4999927778701
 30
0.0
 10
118.9625536127689
 20
114.498911381927
 30
0.0
 10
109.6367674592571
 20
114.4958172690575
 30
0.0
 10
101.729618801054
 20
114.4920141924879
 30
0.0
 10
95.80855763292752
 20
114.4887317788111
 30
0.0
 10
92.31503380536796
 20
114.4866852277947
 30
0.0
 10
88.70269228035235
 20
114.4844638030265
 30
0.0
 10
84.9705736035121
 20
114.4820672289498
 30
0.0
 10
81.1179847706156
 20
114.4794962420346
 30
0.0
 10
77.14445416279318
 20
114.4767480872872
 30
0.0
 10
73.04921122799966
 20
114.473832960352
 30
0.0
 10
66.87113992247114
 20
114.4692580294411
 30
0.0
 10
58.77955097695705
 20
114.4633844410141
 30
0.0
 10
48.96532639878078
 20
114.4568209627247
 30
0.0
 10
39.77143847247231
 20
114.451120156286
 30
0.0
 10
31.25474624838981
 20
114.4463044266099
 30
0.0
 10
24.45010759466395
 20
114.442867775097
 30
0.0
 10
19.22445608172016
 20
114.4405258461843
 30
0.0
 10
15.41688797395385
 20
114.4389896007322
 30
0.0
 10
11.85306527800111
 20
114.437730535514
 30
0.0
 10
8.535503270801062
 20
114.436749727794
 30
0.0
 10
5.46612361336673
 20
114.43604282793
 30
0.0
 10
2.644468559721904
 20
114.435622656195
 30
0.0
 10
-0.4997753693104356
 20
114.4354059611793
 30
0.0
 10
-4.442339797757349
 20
114.4359761813848
 30
0.0
 10
-9.654622795185288
 20
114.4375660382069
 30
0.0
 10
-16.03332134923187
 20
114.4401205648852
 30
0.0
 10
-22.95059849915491
 20
114.4433837101388
 30
0.0
 10
-30.24877345780445
 20
114.4471754967003
 30
0.0
 10
-37.77285179282966
 20
114.4513651256362
 30
0.0
 10
-45.95912838273505
 20
114.4561958933017
 30
0.0
 10
-54.76517935220615
 20
114.4616654861738
 30
0.0
 10
-63.55970477908838
 20
114.4674108322753
 30
0.0
 10
-71.97576556301317
 20
114.4731212838313
 30
0.0
 10
-79.17108264270999
 20
114.4783121073189
 30
0.0
 10
-85.48659177648837
 20
114.482623700307
 30
0.0
 10
-91.03479448094612
 20
114.4861125610213
 30
0.0
 10
-96.38948151153345
 20
114.489198155725
 30
0.0
 10
-103.215957111496
 20
114.4927377756292
 30
0.0
 10
-111.2683035885579
 20
114.4961636190593
 30
0.0
 10
-120.2239413520786
 20
114.4986724896403
 30
0.0
 10
-127.991888413128
 20
114.499503086971
 30
0.0
 10
-134.6972537423239
 20
114.4989344277584
 30
0.0
 10
-138.7682374155776
 20
114.4977417062129
 30
0.0
 10
-140.9156835117176
 20
114.4968308481801
 30
0.0
 10
-141.3467555825067
 20
114.4965837053255
 30
0.0
 10
-141.7785604230748
 20
114.4963089294111
 30
0.0
 10
-142.2669826628238
 20
114.4959698972314
 30
0.0
 10
-142.8110088048774
 20
114.4955677619364
 30
0.0
 10
-143.4094975238864
 20
114.4951020867575
 30
0.0
 10
-144.6438514310963
 20
114.4940994352611
 30
0.0
 10
-146.6550082168354
 20
114.4923286736905
 30
0.0
 10
-149.5341880490025
 20
114.4895685830744
 30
0.0
 10
-152.8124550447486
 20
114.4861662512822
 30
0.0
 10
-156.4042165326678
 20
114.482121365549
 30
0.0
 10
-160.1072194754172
 20
114.4775557711014
 30
0.0
 10
-163.8129129029948
 20
114.4725000272167
 30
0.0
 10
-167.4108588918566
 20
114.4669827591379
 30
0.0
 10
-170.0117121955606
 20
114.4623805498884
 30
0.0
 10
-171.777091041676
 20
114.4588770688379
 30
0.0
 10
-172.8315076469122
 20
114.4566412403821
 30
0.0
 10
-173.8394421992412
 20
114.4543392537278
 30
0.0
 10
-174.7550488013991
 20
114.4520811461445
 30
0.0
 10
-175.4812068510599
 20
114.450103311845
 30
0.0
 10
-176.042988914243
 20
114.4485439010021
 30
0.0
 10
-177.1289300287937
 20
114.4455450525342
 30
0.0
 10
-178.5499918853199
 20
114.4416273888345
 30
0.0
 10
-179.6128791130042
 20
114.4387082600881
 30
0.0
 10
-180.095790053418
 20
114.4373833086446
 30
0.0
 10
-179.9417059459966
 20
114.4378066091908
 30
0.0
 10
-179.9416747547315
 20
114.4378066948796
 30
0.0
  0
LINE
  5
9A
330
1B
100
AcDbEntity
 67
     1
  8
0
  6
Continuous
 62
     7
370
    25
100
AcDbLine
 10
-179.9443563436
 20
114.5516791186
 30
0.0
 11
-177.9418163756
 21
26.4399205253
 31
0.0
  0
LINE
  5
9B
330
1B
100
AcDbEntity
 67
     1
  8
0
  6
Continuous
 62
     7
370
    25
100
AcDbLine
 10
177.9418163756
 20
26.4399205253
 30
0.0
 11
179.9443563436
 21
114.5516791186
 31
0.0
  0
LINE
  5
9C
330
1B
100
AcDbEntity
 67
     1
  8
0
  6
Continuous
 62
     7
370
    25
100
AcDbLine
 10
156.0615328605
 20
0.0
 30
0.0
 11
-156.0615328605
 21
0.0
 31
0.0
  0
LINE
  5
9D
330
1B
100
AcDbEntity
 67
     1
  8
0
  6
Continuous
 62
     8
370
    25
100
AcDbLine
 10
-177.9418163756
 20
26.4399205253
 30
0.0
 11
177.9418163756
 21
26.4399205253
 31
0.0
  0
LINE
  5
9E
330
1B
100
AcDbEntity
 67
     1
  8
0
  6
Continuous
 62
     8
370
    25
100
AcDbLine
 10
-165.9708927518
 20
8.5745009591
 30
0.0
 11
165.9708927518
 21
8.5745009591
 31
0.0
  0
LINE
  5
9F
330
1B
100
AcDbEntity
 67
     1
  8
0
  6
Continuous
 62
     8
370
    25
100
AcDbLine
 10
-160.7019716721
 20
3.1381923742
 30
0.0
 11
160.7019716721
 21
3.1381923742
 31
0.0
  0
ARC
  5
A0
330
1B
100
AcDbEntity
 67
     1
  8
0
  6
Continuous
 62
     7
370
    25
100
AcDbCircle
 10
157.9469796647
 20
26.8943486323
 30
0.0
 40
20.00000000000002
100
AcDbArc
 50
293.6529459079
 51
358.6980473274
  0
ARC
  5
A1
330
1B
100
AcDbEntity
 67
     1
  8
0
  6
Continuous
 62
     7
370
    25
100
AcDbCircle
 10
-157.9469796647
 20
26.8943486323
 30
0.0
 40
19.99999999999998
100
AcDbArc
 50
181.3019526726
 51
246.3470540921
  0
ARC
  5
A2
330
1B
100
AcDbEntity
 67
     1
  8
0
  6
Continuous
 62
     7
370
    25
100
AcDbCircle
 10
169.9828492954
 20
-0.5854228775
 30
0.0
 40
9.999999999999968
100
AcDbArc
 50
113.6529459079
 51
158.138667429
  0
ARC
  5
A3
330
1B
100
AcDbEntity
 67
     1
  8
0
  6
Continuous
 62
     7
370
    25
100
AcDbCircle
 10
-169.9828492954
 20
-0.5854228775
 30
0.0
 40
10.00000000000022
100
AcDbArc
 50
21.861332571
 51
66.3470540921
  0
ARC
  5
A4
330
1B
100
AcDbEntity
 67
     1
  8
0
  6
Continuous
 62
     7
370
    25
100
AcDbCircle
 10
156.0615328605
 20
5.0
 30
0.0
 40
4.999999999999994
100
AcDbArc
 50
270.0
 51
338.138667429
  0
ARC
  5
A5
330
1B
100
AcDbEntity
 67
     1
  8
0
  6
Continuous
 62
     7
370
    25
100
AcDbCircle
 10
-156.0615328605
 20
5.0
 30
0.0
 40
5.000000000000038
100
AcDbArc
 50
201.861332571
 51
270.0
  0
VIEWPORT
  5
103
330
1B
100
AcDbEntity
 67
     1
  8
0
100
AcDbViewport
 10
0.0
 20
0.0
 30
0.0
 40
205.6
 41
156.0
 68
     1
 69
     1
 12
-0.0001586187
 22
0.005715336
 13
0.0
 23
0.0
 14
10.0
 24
10.0
 15
10.0
 25
10.0
 16
0.0
 26
0.0
 36
1.0
 17
0.0
 27
0.0
 37
0.0
 42
50.0
 43
0.0
 44
0.0
 45
367.0694416761
 50
0.0
 51
0.0
 72
   100
 90
   557152
  1

281
     0
 71
     1
 74
     0
110
0.0
120
0.0
130
0.0
111
1.0
121
0.0
131
0.0
112
0.0
122
1.0
132
0.0
 79
     0
146
0.0
  0
ENDSEC
  0
SECTION
  2
OBJECTS
  0
DICTIONARY
  5
C
330
0
100
AcDbDictionary
281
     1
  3
ACAD_GROUP
350
D
  3
ACAD_LAYOUT
350
1A
  3
ACAD_MLINESTYLE
350
17
  3
ACAD_PLOTSETTINGS
350
19
  3
ACAD_PLOTSTYLENAME
350
E
  3
ACAD_SCALELIST
350
47
  0
DICTIONARY
  5
D
102
{ACAD_REACTORS
330
C
102
}
330
C
100
AcDbDictionary
281
     1
  0
DICTIONARY
  5
1A
102
{ACAD_REACTORS
330
C
102
}
330
C
100
AcDbDictionary
281
     1
  3
_Bottom
350
C3
  3
_Front
350
1E
  3
_Isometric
350
D2
  3
_Left
350
26
  3
Model
350
22
  0
DICTIONARY
  5
17
102
{ACAD_REACTORS
330
C
102
}
330
C
100
AcDbDictionary
281
     1
  3
Standard
350
18
  0
DICTIONARY
  5
19
102
{ACAD_REACTORS
330
C
102
}
330
C
100
AcDbDictionary
281
     1
  0
ACDBDICTIONARYWDFLT
  5
E
102
{ACAD_REACTORS
330
C
102
}
330
C
100
AcDbDictionary
281
     1
  3
Normal
350
F
100
AcDbDictionaryWithDefault
340
F
  0
DICTIONARY
  5
47
102
{ACAD_REACTORS
330
C
102
}
330
C
100
AcDbDictionary
281
     1
  3
A0
350
48
  3
A1
350
49
  3
A2
350
4A
  3
A3
350
4B
  3
A4
350
4C
  3
A5
350
4D
  3
A6
350
4E
  3
A7
350
4F
  3
A8
350
50
  3
A9
350
51
  3
B0
350
52
  3
B1
350
53
  3
B2
350
54
  3
B3
350
55
  3
B4
350
56
  3
B5
350
57
  3
B6
350
58
  3
B7
350
59
  3
B8
350
5A
  3
B9
350
5B
  3
C0
350
5C
  3
C1
350
5D
  3
C2
350
5E
  3
C3
350
5F
  3
C4
350
60
  3
C5
350
61
  3
C6
350
62
  3
C7
350
63
  3
C8
350
64
  3
C9
350
65
  3
D0
350
66
  3
D1
350
67
  3
D2
350
68
  0
LAYOUT
  5
C3
102
{ACAD_REACTORS
330
1A
102
}
330
1A
100
AcDbPlotSettings
  1

  2
none_device
  4
ISO_A4_(210.00_x_297.00_MM)
  6

 40
7.5
 41
20.0
 42
7.5
 43
20.0
 44
210.0
 45
297.0
 46
0.0
 47
0.0
 48
0.0
 49
0.0
140
0.0
141
0.0
142
1.0
143
1.4003451856
 70
   688
 72
     1
 73
     1
 74
     1
  7

 75
     0
147
0.7141096426
148
179.9443563436
149
0.0
100
AcDbLayout
  1
_Bottom
 70
     1
 71
     3
 10
0.0
 20
0.0
 11
0.0
 21
0.0
 12
0.0
 22
0.0
 32
0.0
 14
0.0
 24
0.0
 34
0.0
 15
0.0
 25
0.0
 35
0.0
146
0.0
 13
0.0
 23
0.0
 33
0.0
 16
1.0
 26
0.0
 36
0.0
 17
0.0
 27
1.0
 37
0.0
 76
     0
330
C2
331
107
  0
LAYOUT
  5
1E
102
{ACAD_REACTORS
330
1A
102
}
330
1A
100
AcDbPlotSettings
  1

  2
none_device
  4
ISO_A4_(210.00_x_297.00_MM)
  6

 40
7.5
 41
20.0
 42
7.5
 43
20.0
 44
210.0
 45
297.0
 46
0.0
 47
0.0
 48
0.0
 49
0.0
140
0.0
141
0.0
142
1.0
143
1.4003451856
 70
   688
 72
     1
 73
     1
 74
     1
  7

 75
     0
147
0.7141096426
148
179.9443563436
149
0.0
100
AcDbLayout
  1
_Front
 70
     1
 71
     1
 10
-207.9512600547
 20
-10.5025888917
 11
207.9512600547
 21
283.5699000746
 12
0.0
 22
0.0
 32
0.0
 14
-179.9443563436
 24
0.0
 34
0.0
 15
179.9443563436
 25
117.0000006165
 35
0.0
146
0.0
 13
0.0
 23
0.0
 33
0.0
 16
1.0
 26
0.0
 36
0.0
 17
0.0
 27
1.0
 37
0.0
 76
     0
330
1B
331
103
  0
LAYOUT
  5
D2
102
{ACAD_REACTORS
330
1A
102
}
330
1A
100
AcDbPlotSettings
  1

  2
none_device
  4
ISO_A4_(210.00_x_297.00_MM)
  6

 40
7.5
 41
20.0
 42
7.5
 43
20.0
 44
210.0
 45
297.0
 46
0.0
 47
0.0
 48
0.0
 49
0.0
140
0.0
141
0.0
142
1.0
143
1.4003451856
 70
   688
 72
     1
 73
     1
 74
     1
  7

 75
     0
147
0.7141096426
148
179.9443563436
149
0.0
100
AcDbLayout
  1
_Isometric
 70
     1
 71
     4
 10
0.0
 20
0.0
 11
0.0
 21
0.0
 12
0.0
 22
0.0
 32
0.0
 14
0.0
 24
0.0
 34
0.0
 15
0.0
 25
0.0
 35
0.0
146
0.0
 13
0.0
 23
0.0
 33
0.0
 16
1.0
 26
0.0
 36
0.0
 17
0.0
 27
1.0
 37
0.0
 76
     0
330
D1
331
109
  0
LAYOUT
  5
26
102
{ACAD_REACTORS
330
1A
102
}
330
1A
100
AcDbPlotSettings
  1

  2
none_device
  4
ISO_A4_(210.00_x_297.00_MM)
  6

 40
7.5
 41
20.0
 42
7.5
 43
20.0
 44
210.0
 45
297.0
 46
0.0
 47
0.0
 48
0.0
 49
0.0
140
0.0
141
0.0
142
1.0
143
1.4003451856
 70
   688
 72
     1
 73
     1
 74
     1
  7

 75
     0
147
0.7141096426
148
179.9443563436
149
0.0
100
AcDbLayout
  1
_Left
 70
     1
 71
     2
 10
0.0
 20
0.0
 11
0.0
 21
0.0
 12
0.0
 22
0.0
 32
0.0
 14
0.0
 24
0.0
 34
0.0
 15
0.0
 25
0.0
 35
0.0
146
0.0
 13
0.0
 23
0.0
 33
0.0
 16
1.0
 26
0.0
 36
0.0
 17
0.0
 27
1.0
 37
0.0
 76
     0
330
23
331
105
  0
LAYOUT
  5
22
102
{ACAD_REACTORS
330
1A
102
}
330
1A
100
AcDbPlotSettings
  1

  2
none_device
  4
ANSI_A_(11.00_x_8.50_Inches)
  6

 40
6.35
 41
19.05
 42
6.35000508
 43
19.05000254
 44
279.4
 45
215.9
 46
133.3500916694
 47
88.8966041852
 48
0.0
 49
0.0
140
0.0
141
0.0
142
0.023383314
143
1.0
 70
  1696
 72
     0
 73
     0
 74
     0
  7

 75
     0
147
0.0179189148
148
-1300.4909072572
149
0.0
100
AcDbLayout
  1
Model
 70
     1
 71
     0
 10
0.0
 20
0.0
 11
420.0
 21
297.0
 12
0.0
 22
0.0
 32
0.0
 14
-179.8696860869
 24
-179.9302854857
 34
0.0
 15
179.8693688495
 25
179.9417161576
 35
0.0
146
0.0
 13
0.0
 23
0.0
 33
0.0
 16
1.0
 26
0.0
 36
0.0
 17
0.0
 27
1.0
 37
0.0
 76
     0
330
1F
331
29
  0
MLINESTYLE
  5
18
102
{ACAD_REACTORS
330
17
102
}
330
17
100
AcDbMlineStyle
  2
Standard
 70
     0
  3

 62
   256
 51
90.0
 52
90.0
 71
     2
 49
0.5
 62
   256
  6
BYLAYER
 49
-0.5
 62
   256
  6
BYLAYER
  0
ACDBPLACEHOLDER
  5
F
102
{ACAD_REACTORS
330
E
102
}
330
E
  0
SCALE
  5
48
102
{ACAD_REACTORS
330
47
102
}
330
47
100
AcDbScale
 70
     0
300
1:1
140
1.0
141
1.0
290
     1
  0
SCALE
  5
49
102
{ACAD_REACTORS
330
47
102
}
330
47
100
AcDbScale
 70
     0
300
1:2
140
1.0
141
2.0
290
     0
  0
SCALE
  5
4A
102
{ACAD_REACTORS
330
47
102
}
330
47
100
AcDbScale
 70
     0
300
1:4
140
1.0
141
4.0
290
     0
  0
SCALE
  5
4B
102
{ACAD_REACTORS
330
47
102
}
330
47
100
AcDbScale
 70
     0
300
1:5
140
1.0
141
5.0
290
     0
  0
SCALE
  5
4C
102
{ACAD_REACTORS
330
47
102
}
330
47
100
AcDbScale
 70
     0
300
1:8
140
1.0
141
8.0
290
     0
  0
SCALE
  5
4D
102
{ACAD_REACTORS
330
47
102
}
330
47
100
AcDbScale
 70
     0
300
1:10
140
1.0
141
10.0
290
     0
  0
SCALE
  5
4E
102
{ACAD_REACTORS
330
47
102
}
330
47
100
AcDbScale
 70
     0
300
1:16
140
1.0
141
16.0
290
     0
  0
SCALE
  5
4F
102
{ACAD_REACTORS
330
47
102
}
330
47
100
AcDbScale
 70
     0
300
1:20
140
1.0
141
20.0
290
     0
  0
SCALE
  5
50
102
{ACAD_REACTORS
330
47
102
}
330
47
100
AcDbScale
 70
     0
300
1:30
140
1.0
141
30.0
290
     0
  0
SCALE
  5
51
102
{ACAD_REACTORS
330
47
102
}
330
47
100
AcDbScale
 70
     0
300
1:40
140
1.0
141
40.0
290
     0
  0
SCALE
  5
52
102
{ACAD_REACTORS
330
47
102
}
330
47
100
AcDbScale
 70
     0
300
1:50
140
1.0
141
50.0
290
     0
  0
SCALE
  5
53
102
{ACAD_REACTORS
330
47
102
}
330
47
100
AcDbScale
 70
     0
300
1:100
140
1.0
141
100.0
290
     0
  0
SCALE
  5
54
102
{ACAD_REACTORS
330
47
102
}
330
47
100
AcDbScale
 70
     0
300
2:1
140
2.0
141
1.0
290
     0
  0
SCALE
  5
55
102
{ACAD_REACTORS
330
47
102
}
330
47
100
AcDbScale
 70
     0
300
4:1
140
4.0
141
1.0
290
     0
  0
SCALE
  5
56
102
{ACAD_REACTORS
330
47
102
}
330
47
100
AcDbScale
 70
     0
300
8:1
140
8.0
141
1.0
290
     0
  0
SCALE
  5
57
102
{ACAD_REACTORS
330
47
102
}
330
47
100
AcDbScale
 70
     0
300
10:1
140
10.0
141
1.0
290
     0
  0
SCALE
  5
58
102
{ACAD_REACTORS
330
47
102
}
330
47
100
AcDbScale
 70
     0
300
100:1
140
100.0
141
1.0
290
     0
  0
SCALE
  5
59
102
{ACAD_REACTORS
330
47
102
}
330
47
100
AcDbScale
 70
     0
300
1/128" = 1'-0"
140
0.0078125
141
12.0
290
     0
  0
SCALE
  5
5A
102
{ACAD_REACTORS
330
47
102
}
330
47
100
AcDbScale
 70
     0
300
1/64" = 1'-0"
140
0.015625
141
12.0
290
     0
  0
SCALE
  5
5B
102
{ACAD_REACTORS
330
47
102
}
330
47
100
AcDbScale
 70
     0
300
1/32" = 1'-0"
140
0.03125
141
12.0
290
     0
  0
SCALE
  5
5C
102
{ACAD_REACTORS
330
47
102
}
330
47
100
AcDbScale
 70
     0
300
1/16" = 1'-0"
140
0.0625
141
12.0
290
     0
  0
SCALE
  5
5D
102
{ACAD_REACTORS
330
47
102
}
330
47
100
AcDbScale
 70
     0
300
3/32" = 1'-0"
140
0.09375
141
12.0
290
     0
  0
SCALE
  5
5E
102
{ACAD_REACTORS
330
47
102
}
330
47
100
AcDbScale
 70
     0
300
1/8" = 1'-0"
140
0.125
141
12.0
290
     0
  0
SCALE
  5
5F
102
{ACAD_REACTORS
330
47
102
}
330
47
100
AcDbScale
 70
     0
300
3/16" = 1'-0"
140
0.1875
141
12.0
290
     0
  0
SCALE
  5
60
102
{ACAD_REACTORS
330
47
102
}
330
47
100
AcDbScale
 70
     0
300
1/4" = 1'-0"
140
0.25
141
12.0
290
     0
  0
SCALE
  5
61
102
{ACAD_REACTORS
330
47
102
}
330
47
100
AcDbScale
 70
     0
300
3/8" = 1'-0"
140
0.375
141
12.0
290
     0
  0
SCALE
  5
62
102
{ACAD_REACTORS
330
47
102
}
330
47
100
AcDbScale
 70
     0
300
1/2" = 1'-0"
140
0.5
141
12.0
290
     0
  0
SCALE
  5
63
102
{ACAD_REACTORS
330
47
102
}
330
47
100
AcDbScale
 70
     0
300
3/4" = 1'-0"
140
0.75
141
12.0
290
     0
  0
SCALE
  5
64
102
{ACAD_REACTORS
330
47
102
}
330
47
100
AcDbScale
 70
     0
300
1" = 1'-0"
140
1.0
141
12.0
290
     0
  0
SCALE
  5
65
102
{ACAD_REACTORS
330
47
102
}
330
47
100
AcDbScale
 70
     0
300
1-1/2" = 1'-0"
140
1.5
141
12.0
290
     0
  0
SCALE
  5
66
102
{ACAD_REACTORS
330
47
102
}
330
47
100
AcDbScale
 70
     0
300
3" = 1'-0"
140
3.0
141
12.0
290
     0
  0
SCALE
  5
67
102
{ACAD_REACTORS
330
47
102
}
330
47
100
AcDbScale
 70
     0
300
6" = 1'-0"
140
6.0
141
12.0
290
     0
  0
SCALE
  5
68
102
{ACAD_REACTORS
330
47
102
}
330
47
100
AcDbScale
 70
     0
300
1'-0" = 1'-0"
140
12.0
141
12.0
290
     0
  0
ENDSEC
  0
EOF
