  0
SECTION
  2
HEADER
  9
$ACADVER
  1
AC1015
  9
$ACADMAINTVER
 70
     6
  9
$DWGCODEPAGE
  3
ANSI_1252
  9
$INSBASE
 10
0.0
 20
0.0
 30
0.0
  9
$EXTMIN
 10
-35.0
 20
-16.5
 30
0.0
  9
$EXTMAX
 10
35.0
 20
16.5
 30
0.0
  9
$LIMMIN
 10
0.0
 20
0.0
  9
$LIMMAX
 10
420.0
 20
297.0
  9
$ORTHOMODE
 70
     0
  9
$REGENMODE
 70
     1
  9
$FILLMODE
 70
     1
  9
$QTEXTMODE
 70
     0
  9
$MIRRTEXT
 70
     1
  9
$LTSCALE
 40
1.0
  9
$ATTMODE
 70
     1
  9
$TEXTSIZE
 40
3.5
  9
$TRACEWID
 40
1.0
  9
$TEXTSTYLE
  7
Standard
  9
$CLAYER
  8
0
  9
$CELTYPE
  6
ByLayer
  9
$CECOLOR
 62
   256
  9
$CELTSCALE
 40
1.0
  9
$DISPSILH
 70
     0
  9
$DIMSCALE
 40
1.0
  9
$DIMASZ
 40
3.302
  9
$DIMEXO
 40
1.0
  9
$DIMDLI
 40
3.75
  9
$DIMRND
 40
0.0
  9
$DIMDLE
 40
0.0
  9
$DIMEXE
 40
1.0
  9
$DIMTP
 40
0.0
  9
$DIMTM
 40
0.0
  9
$DIMTXT
 40
3.5
  9
$DIMCEN
 40
2.5
  9
$DIMTSZ
 40
0.0
  9
$DIMTOL
 70
     0
  9
$DIMLIM
 70
     0
  9
$DIMTIH
 70
     1
  9
$DIMTOH
 70
     1
  9
$DIMSE1
 70
     0
  9
$DIMSE2
 70
     0
  9
$DIMTAD
 70
     1
  9
$DIMZIN
 70
     1
  9
$DIMBLK
  1

  9
$DIMASO
 70
     1
  9
$DIMSHO
 70
     1
  9
$DIMPOST
  1

  9
$DIMAPOST
  1

  9
$DIMALT
 70
     0
  9
$DIMALTD
 70
     3
  9
$DIMALTF
 40
0.0393700787
  9
$DIMLFAC
 40
1.0
  9
$DIMTOFL
 70
     1
  9
$DIMTVP
 40
0.0
  9
$DIMTIX
 70
     0
  9
$DIMSOXD
 70
     0
  9
$DIMSAH
 70
     0
  9
$DIMBLK1
  1

  9
$DIMBLK2
  1

  9
$DIMSTYLE
  2
ISO-25
  9
$DIMCLRD
 70
     0
  9
$DIMCLRE
 70
     0
  9
$DIMCLRT
 70
     0
  9
$DIMTFAC
 40
1.0
  9
$DIMGAP
 40
1.524
  9
$DIMJUST
 70
     0
  9
$DIMSD1
 70
     0
  9
$DIMSD2
 70
     0
  9
$DIMTOLJ
 70
     0
  9
$DIMTZIN
 70
     1
  9
$DIMALTZ
 70
     0
  9
$DIMALTTZ
 70
     0
  9
$DIMUPT
 70
     0
  9
$DIMDEC
 70
     2
  9
$DIMTDEC
 70
     2
  9
$DIMALTU
 70
     2
  9
$DIMALTTD
 70
     3
  9
$DIMTXSTY
  7
Standard
  9
$DIMAUNIT
 70
     0
  9
$DIMADEC
 70
     2
  9
$DIMALTRND
 40
0.0
  9
$DIMAZIN
 70
     0
  9
$DIMDSEP
 70
    44
  9
$DIMATFIT
 70
     3
  9
$DIMFRAC
 70
     0
  9
$DIMLDRBLK
  1

  9
$DIMLUNIT
 70
     2
  9
$DIMLWD
 70
    -2
  9
$DIMLWE
 70
    -2
  9
$DIMTMOVE
 70
     0
  9
$LUNITS
 70
     2
  9
$LUPREC
 70
     2
  9
$SKETCHINC
 40
1.0
  9
$FILLETRAD
 40
10.0
  9
$AUNITS
 70
     0
  9
$AUPREC
 70
     2
  9
$MENU
  1
.
  9
$ELEVATION
 40
0.0
  9
$PELEVATION
 40
0.0
  9
$THICKNESS
 40
0.0
  9
$LIMCHECK
 70
     0
  9
$CHAMFERA
 40
0.0
  9
$CHAMFERB
 40
0.0
  9
$CHAMFERC
 40
0.0
  9
$CHAMFERD
 40
0.0
  9
$SKPOLY
 70
     0
  9
$TDCREATE
 40
2460451.655350556
  9
$TDUCREATE
 40
2460451.613683889
  9
$TDUPDATE
 40
2460451.655383079
  9
$TDUUPDATE
 40
2460451.613716412
  9
$TDINDWG
 40
0.0000000116
  9
$TDUSRTIMER
 40
0.0000000116
  9
$USRTIMER
 70
     1
  9
$ANGBASE
 50
0.0
  9
$ANGDIR
 70
     0
  9
$PDMODE
 70
     0
  9
$PDSIZE
 40
-1.0
  9
$PLINEWID
 40
0.0
  9
$SPLFRAME
 70
     0
  9
$SPLINETYPE
 70
     6
  9
$SPLINESEGS
 70
     8
  9
$HANDSEED
  5
A7
  9
$SURFTAB1
 70
     6
  9
$SURFTAB2
 70
     6
  9
$SURFTYPE
 70
     6
  9
$SURFU
 70
     6
  9
$SURFV
 70
     6
  9
$UCSBASE
  2

  9
$UCSNAME
  2

  9
$UCSORG
 10
0.0
 20
0.0
 30
0.0
  9
$UCSXDIR
 10
1.0
 20
0.0
 30
0.0
  9
$UCSYDIR
 10
0.0
 20
1.0
 30
0.0
  9
$UCSORTHOREF
  2

  9
$UCSORTHOVIEW
 70
     0
  9
$UCSORGTOP
 10
0.0
 20
0.0
 30
0.0
  9
$UCSORGBOTTOM
 10
0.0
 20
0.0
 30
0.0
  9
$UCSORGLEFT
 10
0.0
 20
0.0
 30
0.0
  9
$UCSORGRIGHT
 10
0.0
 20
0.0
 30
0.0
  9
$UCSORGFRONT
 10
0.0
 20
0.0
 30
0.0
  9
$UCSORGBACK
 10
0.0
 20
0.0
 30
0.0
  9
$PUCSBASE
  2

  9
$PUCSNAME
  2

  9
$PUCSORG
 10
0.0
 20
0.0
 30
0.0
  9
$PUCSXDIR
 10
1.0
 20
0.0
 30
0.0
  9
$PUCSYDIR
 10
0.0
 20
1.0
 30
0.0
  9
$PUCSORTHOREF
  2

  9
$PUCSORTHOVIEW
 70
     0
  9
$PUCSORGTOP
 10
0.0
 20
0.0
 30
0.0
  9
$PUCSORGBOTTOM
 10
0.0
 20
0.0
 30
0.0
  9
$PUCSORGLEFT
 10
0.0
 20
0.0
 30
0.0
  9
$PUCSORGRIGHT
 10
0.0
 20
0.0
 30
0.0
  9
$PUCSORGFRONT
 10
0.0
 20
0.0
 30
0.0
  9
$PUCSORGBACK
 10
0.0
 20
0.0
 30
0.0
  9
$USERI1
 70
     0
  9
$USERI2
 70
     0
  9
$USERI3
 70
     0
  9
$USERI4
 70
     0
  9
$USERI5
 70
     0
  9
$USERR1
 40
0.0
  9
$USERR2
 40
0.0
  9
$USERR3
 40
0.0
  9
$USERR4
 40
0.0
  9
$USERR5
 40
0.0
  9
$WORLDVIEW
 70
     1
  9
$SHADEDGE
 70
     3
  9
$SHADEDIF
 70
    70
  9
$TILEMODE
 70
     1
  9
$MAXACTVP
 70
    64
  9
$PINSBASE
 10
0.0
 20
0.0
 30
0.0
  9
$PLIMCHECK
 70
     0
  9
$PEXTMIN
 10
-35.0
 20
0.0
 30
0.0
  9
$PEXTMAX
 10
35.0
 20
6.0
 30
0.0
  9
$PLIMMIN
 10
-40.4474708171
 20
-2.0428015564
  9
$PLIMMAX
 10
40.4474708171
 20
55.1556420233
  9
$UNITMODE
 70
     0
  9
$VISRETAIN
 70
     1
  9
$PLINEGEN
 70
     0
  9
$PSLTSCALE
 70
     1
  9
$TREEDEPTH
 70
  3020
  9
$CMLSTYLE
  2
Standard
  9
$CMLJUST
 70
     0
  9
$CMLSCALE
 40
20.0
  9
$PROXYGRAPHICS
 70
     1
  9
$MEASUREMENT
 70
     1
  9
$CELWEIGHT
370
    -1
  9
$ENDCAPS
280
     0
  9
$JOINSTYLE
280
     0
  9
$LWDISPLAY
290
     1
  9
$INSUNITS
 70
     4
  9
$HYPERLINKBASE
  1

  9
$STYLESHEET
  1

  9
$XEDIT
290
     1
  9
$CEPSNTYPE
380
     0
  9
$PSTYLEMODE
290
     1
  9
$FINGERPRINTGUID
  2
{2f7b0f6f-fa3c-4514-a6d4-1824d009c4d3}
  9
$VERSIONGUID
  2
{FAEB1C32-E019-11D5-929B-00C0DF256EC4}
  9
$EXTNAMES
290
     1
  9
$PSVPSCALE
 40
0.0
  9
$OLESTARTUP
290
     0
  0
ENDSEC
  0
SECTION
  2
CLASSES
  0
CLASS
  1
ACDBDICTIONARYWDFLT
  2
AcDbDictionaryWithDefault
  3
ObjectDBX Classes
 90
        0
280
     0
281
     0
  0
CLASS
  1
VISUALSTYLE
  2
AcDbVisualStyle
  3
ObjectDBX Classes
 90
     4095
280
     0
281
     0
  0
CLASS
  1
MATERIAL
  2
AcDbMaterial
  3
ObjectDBX Classes
 90
     1153
280
     0
281
     0
  0
CLASS
  1
SCALE
  2
AcDbScale
  3
ObjectDBX Classes
 90
     1153
280
     0
281
     0
  0
CLASS
  1
TABLESTYLE
  2
AcDbTableStyle
  3
ObjectDBX Classes
 90
     4095
280
     0
281
     0
  0
CLASS
  1
MLEADERSTYLE
  2
AcDbMLeaderStyle
  3
ACDB_MLEADERSTYLE_CLASS
 90
     4095
280
     0
281
     0
  0
CLASS
  1
SUN
  2
AcDbSun
  3
SCENEOE
 90
     1153
280
     0
281
     0
  0
CLASS
  1
ACDBPLACEHOLDER
  2
AcDbPlaceHolder
  3
ObjectDBX Classes
 90
        0
280
     0
281
     0
  0
CLASS
  1
LAYOUT
  2
AcDbLayout
  3
ObjectDBX Classes
 90
        0
280
     0
281
     0
  0
ENDSEC
  0
SECTION
  2
TABLES
  0
TABLE
  2
VPORT
  5
8
330
0
100
AcDbSymbolTable
 70
     1
  0
VPORT
  5
29
330
8
100
AcDbSymbolTableRecord
100
AcDbViewportTableRecord
  2
*Active
 70
     0
 10
0.0
 20
0.0
 11
1.0
 21
1.0
 12
0.0
 22
0.0
 13
0.0
 23
0.0
 14
10.0
 24
10.0
 15
10.0
 25
10.0
 16
0.0
 26
0.0
 36
1.0
 17
0.0
 27
0.0
 37
0.0
 40
33.66
 41
2.1212121212
 42
50.0
 43
0.0
 44
0.0
 50
0.0
 51
0.0
 71
     0
 72
   100
 73
     1
 74
     3
 75
     0
 76
     0
 77
     0
 78
     0
281
     0
 65
     1
110
0.0
120
0.0
130
0.0
111
1.0
121
0.0
131
0.0
112
0.0
122
1.0
132
0.0
 79
     0
146
0.0
  0
ENDTAB
  0
TABLE
  2
LTYPE
  5
5
330
0
100
AcDbSymbolTable
 70
     6
  0
LTYPE
  5
14
330
5
100
AcDbSymbolTableRecord
100
AcDbLinetypeTableRecord
  2
ByBlock
 70
     0
  3

 72
    65
 73
     0
 40
0.0
  0
LTYPE
  5
15
330
5
100
AcDbSymbolTableRecord
100
AcDbLinetypeTableRecord
  2
ByLayer
 70
     0
  3

 72
    65
 73
     0
 40
0.0
  0
LTYPE
  5
16
330
5
100
AcDbSymbolTableRecord
100
AcDbLinetypeTableRecord
  2
Continuous
 70
     0
  3
Solid line
 72
    65
 73
     0
 40
0.0
  0
LTYPE
  5
6E
330
5
100
AcDbSymbolTableRecord
100
AcDbLinetypeTableRecord
  2
HIDDEN
 70
     0
  3
Hidden __ __ __ __ __ __ __ __ __ __ __ __ __ __
 72
    65
 73
     2
 40
1.905
 49
1.27
 74
     0
 49
-0.635
 74
     0
  0
LTYPE
  5
6F
330
5
100
AcDbSymbolTableRecord
100
AcDbLinetypeTableRecord
  2
PHANTOM
 70
     0
  3
Phantom ______  __  __  ______  __  __  ______
 72
    65
 73
     6
 40
12.7
 49
6.35
 74
     0
 49
-1.27
 74
     0
 49
1.27
 74
     0
 49
-1.27
 74
     0
 49
1.27
 74
     0
 49
-1.27
 74
     0
  0
LTYPE
  5
70
330
5
100
AcDbSymbolTableRecord
100
AcDbLinetypeTableRecord
  2
CENTER
 70
     0
  3
Center ____ _ ____ _ ____ _ ____ _ ____ _ ____
 72
    65
 73
     4
 40
10.16
 49
6.35
 74
     0
 49
-1.27
 74
     0
 49
1.27
 74
     0
 49
-1.27
 74
     0
  0
LTYPE
  5
71
330
5
100
AcDbSymbolTableRecord
100
AcDbLinetypeTableRecord
  2
CENTERX2
 70
     0
  3
Center (2x) ________  __  ________  __  _____
 72
    65
 73
     4
 40
20.32
 49
12.7
 74
     0
 49
-2.54
 74
     0
 49
2.54
 74
     0
 49
-2.54
 74
     0
  0
LTYPE
  5
72
330
5
100
AcDbSymbolTableRecord
100
AcDbLinetypeTableRecord
  2
DOT2
 70
     0
  3
Dot (.5x) ........................................
 72
    65
 73
     2
 40
0.635
 49
0.0
 74
     0
 49
-0.635
 74
     0
  0
ENDTAB
  0
TABLE
  2
LAYER
  5
2
330
0
100
AcDbSymbolTable
 70
     1
  0
LAYER
  5
10
330
2
100
AcDbSymbolTableRecord
100
AcDbLayerTableRecord
  2
0
 70
     0
 62
     7
  6
Continuous
370
    -3
390
F
  0
ENDTAB
  0
TABLE
  2
STYLE
  5
3
330
0
100
AcDbSymbolTable
 70
     1
  0
STYLE
  5
11
330
3
100
AcDbSymbolTableRecord
100
AcDbTextStyleTableRecord
  2
Standard
 70
     0
 40
0.0
 41
1.0
 50
0.0
 71
     0
 42
3.5
  3
txt
  4

  0
ENDTAB
  0
TABLE
  2
VIEW
  5
6
330
0
100
AcDbSymbolTable
 70
     0
  0
ENDTAB
  0
TABLE
  2
UCS
  5
7
330
0
100
AcDbSymbolTable
 70
     0
  0
ENDTAB
  0
TABLE
  2
APPID
  5
9
330
0
100
AcDbSymbolTable
 70
     1
  0
APPID
  5
12
330
9
100
AcDbSymbolTableRecord
100
AcDbRegAppTableRecord
  2
ACAD
 70
     0
  0
ENDTAB
  0
TABLE
  2
DIMSTYLE
  5
A
330
0
100
AcDbSymbolTable
 70
     1
100
AcDbDimStyleTable
  0
DIMSTYLE
105
27
330
A
100
AcDbSymbolTableRecord
100
AcDbDimStyleTableRecord
  2
ISO-25
 70
     0
 41
2.5
 42
0.625
 43
3.75
 44
1.25
 73
     0
 74
     0
 77
     1
 78
     8
140
2.5
141
2.5
143
0.0393700787
147
0.625
171
     3
172
     1
178
     0
271
     2
272
     2
274
     3
278
    44
283
     0
284
     8
340
11
  0
ENDTAB
  0
TABLE
  2
BLOCK_RECORD
  5
1
330
0
100
AcDbSymbolTable
 70
     1
  0
BLOCK_RECORD
  5
1F
330
1
100
AcDbSymbolTableRecord
100
AcDbBlockTableRecord
  2
*Model_Space
340
22
  0
BLOCK_RECORD
  5
1B
330
1
100
AcDbSymbolTableRecord
100
AcDbBlockTableRecord
  2
*Paper_Space
340
1E
  0
BLOCK_RECORD
  5
23
330
1
100
AcDbSymbolTableRecord
100
AcDbBlockTableRecord
  2
*Paper_Space0
340
26
  0
ENDTAB
  0
ENDSEC
  0
SECTION
  2
BLOCKS
  0
BLOCK
  5
20
330
1F
100
AcDbEntity
  8
0
100
AcDbBlockBegin
  2
*Model_Space
 70
     0
 10
0.0
 20
0.0
 30
0.0
  3
*Model_Space
  1

  0
ENDBLK
  5
21
330
1F
100
AcDbEntity
  8
0
100
AcDbBlockEnd
  0
BLOCK
  5
1C
330
1B
100
AcDbEntity
 67
     1
  8
0
100
AcDbBlockBegin
  2
*Paper_Space
 70
     0
 10
0.0
 20
0.0
 30
0.0
  3
*Paper_Space
  1

  0
ENDBLK
  5
1D
330
1B
100
AcDbEntity
 67
     1
  8
0
100
AcDbBlockEnd
  0
BLOCK
  5
24
330
23
100
AcDbEntity
  8
0
100
AcDbBlockBegin
  2
*Paper_Space0
 70
     0
 10
0.0
 20
0.0
 30
0.0
  3
*Paper_Space0
  1

  0
LWPOLYLINE
  5
8F
330
23
100
AcDbEntity
  8
0
  6
Continuous
 62
     7
370
    25
100
AcDbPolyline
 90
       97
 70
   128
 43
0.0
 10
4.2426406871
 20
-7.7550808619
 10
4.8396527632
 20
-8.077878692
 10
5.4719575893
 20
-8.3774443467
 10
6.1368475392
 20
-8.65249504
 10
6.831475452
 20
-8.9018529625
 10
7.5528668242
 20
-9.1244503254
 10
8.2979325474
 20
-9.3193339326
 10
9.0634821357
 20
-9.4856692626
 10
9.8462373882
 20
-9.6227440418
 10
10.6428464267
 20
-9.7299712952
 10
11.4498980492
 20
-9.8068918591
 10
12.2639363366
 20
-9.8531763478
 10
13.081475452
 20
-9.8686265641
 10
13.8990145673
 20
-9.8531763478
 10
14.7130528547
 20
-9.8068918591
 10
15.5201044772
 20
-9.7299712952
 10
16.3167135157
 20
-9.6227440418
 10
17.0994687682
 20
-9.4856692626
 10
17.8650183565
 20
-9.3193339326
 10
18.6100840797
 20
-9.1244503254
 10
19.331475452
 20
-8.9018529625
 10
20.0261033647
 20
-8.65249504
 10
20.6909933146
 20
-8.3774443467
 10
21.3232981407
 20
-8.077878692
 10
21.9203102168
 20
-7.7550808619
 10
22.4794730454
 20
-7.4104331264
 10
22.9983922056
 20
-7.04541132
 10
23.4748456057
 20
-6.6615785221
 10
23.9067929993
 20
-6.2605783636
 10
24.2923847211
 20
-5.8441279888
 10
24.6299696083
 20
-5.4140107021
 10
24.9181020706
 20
-4.9720683318
 10
25.1555482806
 20
-4.5201933429
 10
25.341291457
 20
-4.0603207336
 10
25.4745362191
 20
-3.594419749
 10
25.5547119924
 20
-3.1244854485
 10
25.581475452
 20
-2.652530163
 10
25.5547119924
 20
-2.1805748776
 10
25.4745362191
 20
-1.7106405771
 10
25.341291457
 20
-1.2447395925
 10
25.1555482806
 20
-0.7848669832
 10
24.9181020706
 20
-0.3329919943
 10
24.6299696083
 20
0.108950376
 10
24.2923847211
 20
0.5390676627
 10
23.9067929993
 20
0.9555180375
 10
23.4748456057
 20
1.356518196
 10
22.9983922056
 20
1.7403509939
 10
22.4794730454
 20
2.1053728004
 10
21.9203102168
 20
2.4500205358
 10
21.3232981407
 20
2.7728183659
 10
20.6909933146
 20
3.0723840206
 10
20.0261033647
 20
3.3474347139
 10
19.331475452
 20
3.5967926364
 10
18.6100840797
 20
3.8193899993
 10
17.8650183565
 20
4.0142736065
 10
17.0994687682
 20
4.1806089365
 10
16.3167135157
 20
4.3176837157
 10
15.5201044772
 20
4.4249109691
 10
14.7130528547
 20
4.501831533
 10
13.8990145673
 20
4.5481160217
 10
13.081475452
 20
4.563566238
 10
12.2639363366
 20
4.5481160217
 10
11.4498980492
 20
4.501831533
 10
10.6428464267
 20
4.4249109691
 10
9.8462373882
 20
4.3176837157
 10
9.0634821357
 20
4.1806089365
 10
8.2979325474
 20
4.0142736065
 10
7.5528668242
 20
3.8193899993
 10
6.831475452
 20
3.5967926364
 10
6.1368475392
 20
3.3474347139
 10
5.4719575893
 20
3.0723840206
 10
4.8396527632
 20
2.7728183659
 10
4.2426406871
 20
2.4500205358
 10
3.6834778585
 20
2.1053728004
 10
3.1645586983
 20
1.7403509939
 10
2.6881052982
 20
1.356518196
 10
2.2561579046
 20
0.9555180375
 10
1.8705661828
 20
0.5390676627
 10
1.5329812956
 20
0.108950376
 10
1.2448488333
 20
-0.3329919943
 10
1.0074026233
 20
-0.7848669832
 10
0.8216594469
 20
-1.2447395925
 10
0.6884146848
 20
-1.7106405771
 10
0.6082389115
 20
-2.1805748776
 10
0.581475452
 20
-2.652530163
 10
0.6082389115
 20
-3.1244854485
 10
0.6884146848
 20
-3.594419749
 10
0.8216594469
 20
-4.0603207336
 10
1.0074026233
 20
-4.5201933429
 10
1.2448488333
 20
-4.9720683318
 10
1.5329812956
 20
-5.4140107021
 10
1.8705661828
 20
-5.8441279888
 10
2.2561579046
 20
-6.2605783636
 10
2.6881052982
 20
-6.6615785221
 10
3.1645586983
 20
-7.04541132
 10
3.6834778585
 20
-7.4104331264
 10
4.2426406871
 20
-7.7550808619
  0
LWPOLYLINE
  5
90
330
23
100
AcDbEntity
  8
0
  6
Continuous
 62
     7
370
    25
100
AcDbPolyline
 90
       66
 70
   128
 43
0.0
 10
-1.4163939309
 20
-7.200362432
 10
-0.9424598877
 20
-7.6712570979
 10
-0.422681715
 20
-8.1257455866
 10
0.1412414368
 20
-8.562342179
 10
0.7474661074
 20
-8.9796196444
 10
1.3940105535
 20
-9.3762139062
 10
2.0787612264
 20
-9.7508285009
 10
2.7994796818
 20
-10.1022388167
 10
3.5538098971
 20
-10.4292960959
 10
4.3392859729
 20
-10.7309311911
 10
5.1533401945
 20
-11.0061580596
 10
5.9933114251
 20
-11.254076987
 10
6.8564538059
 20
-11.4738775284
 10
7.7399457313
 20
-11.6648411576
 10
8.6408990736
 20
-11.8263436161
 10
9.5563686236
 20
-11.9578569536
 10
10.483361719
 20
-12.0589512542
 10
11.4188480268
 20
-12.1292960414
 10
12.35976945
 20
-12.1686613587
 10
13.3030501243
 20
-12.1769185212
 10
14.2456064727
 20
-12.1540405362
 10
15.1843572864
 20
-12.1001021918
 10
16.1162337967
 20
-12.0152798119
 10
17.0381897068
 20
-11.8998506802
 10
17.9472111504
 20
-11.7541921336
 10
18.840326544
 20
-11.5787803286
 10
19.7146163006
 20
-11.3741886851
 10
20.5672223741
 20
-11.1410860114
 10
21.3953576024
 20
-10.8802343182
 10
22.1963148181
 20
-10.5924863277
 10
22.9674756986
 20
-10.2787826855
 10
23.7063193255
 20
-9.9401488865
 10
24.4104304249
 20
-9.5776919216
 10
25.0775072634
 20
-9.1925966597
 10
25.7053691723
 20
-8.7861219741
 10
26.2919636762
 20
-8.3595966271
 10
26.8353732024
 20
-7.9144149267
 10
27.3338213497
 20
-7.4520321682
 10
27.7856786952
 20
-6.973959877
 10
28.1894681208
 20
-6.4817608675
 10
28.5438696424
 20
-5.9770441342
 10
28.8477247241
 20
-5.461459592
 10
29.1000400664
 20
-4.9366926826
 10
29.2999908522
 20
-4.4044588646
 10
29.4469234443
 20
-3.8664980061
 10
29.5403575211
 20
-3.3245686966
 10
29.5799876474
 20
-2.7804424987
 10
29.5656842727
 20
-2.2358981564
 10
29.4974941546
 20
-1.6927157807
 10
29.375640206
 20
-1.1526710304
 10
29.2005207664
 20
-0.6175293073
 10
28.9727082999
 20
-0.0890399852
 10
28.6929475236
 20
0.4310693084
 10
28.3621529731
 20
0.9410983407
 10
27.9814060132
 20
1.4393798309
 10
27.5519513024
 20
1.9242849008
 10
27.0751927248
 20
2.3942283999
 10
26.5526888002
 20
2.8476740866
 10
25.9861475897
 20
3.2831396508
 10
25.3774211118
 20
3.699201559
 10
24.7284992884
 20
4.0944997083
 10
24.0415034396
 20
4.4677418723
 10
23.3186793492
 20
4.8177079254
 10
22.5623899232
 20
5.1432538315
 10
21.7751074656
 20
5.4433153836
 10
20.9594055963
 20
5.7169116831
  0
LWPOLYLINE
  5
92
330
23
100
AcDbEntity
  8
0
  6
Continuous
 62
     7
370
    25
100
AcDbPolyline
 90
       66
 70
   128
 43
0.0
 10
1.4163939309
 20
16.9988521747
 10
0.9424598877
 20
17.4697468406
 10
0.422681715
 20
17.9242353293
 10
-0.1412414368
 20
18.3608319217
 10
-0.7474661074
 20
18.778109387
 10
-1.3940105535
 20
19.1747036488
 10
-2.0787612264
 20
19.5493182436
 10
-2.7994796818
 20
19.9007285593
 10
-3.5538098971
 20
20.2277858385
 10
-4.3392859729
 20
20.5294209337
 10
-5.1533401945
 20
20.8046478022
 10
-5.9933114251
 20
21.0525667296
 10
-6.8564538059
 20
21.272367271
 10
-7.7399457313
 20
21.4633309002
 10
-8.6408990736
 20
21.6248333587
 10
-9.5563686236
 20
21.7563466962
 10
-10.483361719
 20
21.8574409969
 10
-11.4188480268
 20
21.9277857841
 10
-12.35976945
 20
21.9671511014
 10
-13.3030501243
 20
21.9754082638
 10
-14.2456064727
 20
21.9525302789
 10
-15.1843572864
 20
21.8985919344
 10
-16.1162337967
 20
21.8137695545
 10
-17.0381897068
 20
21.6983404228
 10
-17.9472111504
 20
21.5526818762
 10
-18.840326544
 20
21.3772700712
 10
-19.7146163006
 20
21.1726784277
 10
-20.5672223741
 20
20.939575754
 10
-21.3953576024
 20
20.6787240608
 10
-22.1963148181
 20
20.3909760703
 10
-22.9674756986
 20
20.0772724282
 10
-23.7063193255
 20
19.7386386291
 10
-24.4104304249
 20
19.3761816642
 10
-25.0775072634
 20
18.9910864023
 10
-25.7053691723
 20
18.5846117167
 10
-26.2919636762
 20
18.1580863698
 10
-26.8353732024
 20
17.7129046694
 10
-27.3338213497
 20
17.2505219108
 10
-27.7856786952
 20
16.7724496196
 10
-28.1894681208
 20
16.2802506101
 10
-28.5438696424
 20
15.7755338768
 10
-28.8477247241
 20
15.2599493347
 10
-29.1000400664
 20
14.7351824252
 10
-29.2999908522
 20
14.2029486072
 10
-29.4469234443
 20
13.6649877487
 10
-29.5403575211
 20
13.1230584392
 10
-29.5799876474
 20
12.5789322413
 10
-29.5656842727
 20
12.034387899
 10
-29.4974941546
 20
11.4912055234
 10
-29.375640206
 20
10.951160773
 10
-29.2005207664
 20
10.4160190499
 10
-28.9727082999
 20
9.8875297279
 10
-28.6929475236
 20
9.3674204342
 10
-28.3621529731
 20
8.8573914019
 10
-27.9814060132
 20
8.3591099118
 10
-27.5519513024
 20
7.8742048418
 10
-27.0751927248
 20
7.4042613427
 10
-26.5526888002
 20
6.950815656
 10
-25.9861475897
 20
6.5153500919
 10
-25.3774211118
 20
6.0992881836
 10
-24.7284992884
 20
5.7039900343
 10
-24.0415034396
 20
5.3307478703
 10
-23.3186793492
 20
4.9807818172
 10
-22.5623899232
 20
4.6552359111
 10
-21.7751074656
 20
4.355174359
 10
-20.9594055963
 20
4.0815780596
  0
LWPOLYLINE
  5
94
330
23
100
AcDbEntity
  8
0
  6
Continuous
 62
     7
370
    25
100
AcDbPolyline
 90
       97
 70
   128
 43
0.0
 10
-21.9203102168
 20
7.3484692068
 10
-21.3232981407
 20
7.0256713767
 10
-20.6909933146
 20
6.726105722
 10
-20.0261033647
 20
6.4510550287
 10
-19.331475452
 20
6.2016971062
 10
-18.6100840797
 20
5.9790997433
 10
-17.8650183565
 20
5.7842161361
 10
-17.0994687682
 20
5.6178808062
 10
-16.3167135157
 20
5.4808060269
 10
-15.5201044772
 20
5.3735787735
 10
-14.7130528547
 20
5.2966582097
 10
-13.8990145673
 20
5.2503737209
 10
-13.081475452
 20
5.2349235046
 10
-12.2639363366
 20
5.2503737209
 10
-11.4498980492
 20
5.2966582097
 10
-10.6428464267
 20
5.3735787735
 10
-9.8462373882
 20
5.4808060269
 10
-9.0634821357
 20
5.6178808062
 10
-8.2979325474
 20
5.7842161361
 10
-7.5528668242
 20
5.9790997433
 10
-6.831475452
 20
6.2016971062
 10
-6.1368475392
 20
6.4510550287
 10
-5.4719575893
 20
6.726105722
 10
-4.8396527632
 20
7.0256713767
 10
-4.2426406871
 20
7.3484692068
 10
-3.6834778585
 20
7.6931169423
 10
-3.1645586983
 20
8.0581387487
 10
-2.6881052982
 20
8.4419715466
 10
-2.2561579046
 20
8.8429717051
 10
-1.8705661828
 20
9.25942208
 10
-1.5329812956
 20
9.6895393666
 10
-1.2448488333
 20
10.1314817369
 10
-1.0074026233
 20
10.5833567258
 10
-0.8216594469
 20
11.0432293351
 10
-0.6884146848
 20
11.5091303198
 10
-0.6082389115
 20
11.9790646202
 10
-0.581475452
 20
12.4510199057
 10
-0.6082389115
 20
12.9229751911
 10
-0.6884146848
 20
13.3929094916
 10
-0.8216594469
 20
13.8588104763
 10
-1.0074026233
 20
14.3186830856
 10
-1.2448488333
 20
14.7705580744
 10
-1.5329812956
 20
15.2125004447
 10
-1.8705661828
 20
15.6426177314
 10
-2.2561579046
 20
16.0590681062
 10
-2.6881052982
 20
16.4600682647
 10
-3.1645586983
 20
16.8439010627
 10
-3.6834778585
 20
17.2089228691
 10
-4.2426406871
 20
17.5535706046
 10
-4.8396527632
 20
17.8763684346
 10
-5.4719575893
 20
18.1759340893
 10
-6.1368475392
 20
18.4509847826
 10
-6.831475452
 20
18.7003427052
 10
-7.5528668242
 20
18.9229400681
 10
-8.2979325474
 20
19.1178236753
 10
-9.0634821357
 20
19.2841590052
 10
-9.8462373882
 20
19.4212337845
 10
-10.6428464267
 20
19.5284610378
 10
-11.4498980492
 20
19.6053816017
 10
-12.2639363366
 20
19.6516660904
 10
-13.081475452
 20
19.6671163067
 10
-13.8990145673
 20
19.6516660904
 10
-14.7130528547
 20
19.6053816017
 10
-15.5201044772
 20
19.5284610378
 10
-16.3167135157
 20
19.4212337845
 10
-17.0994687682
 20
19.2841590052
 10
-17.8650183565
 20
19.1178236753
 10
-18.6100840797
 20
18.9229400681
 10
-19.331475452
 20
18.7003427052
 10
-20.0261033647
 20
18.4509847826
 10
-20.6909933146
 20
18.1759340893
 10
-21.3232981407
 20
17.8763684346
 10
-21.9203102168
 20
17.5535706046
 10
-22.4794730454
 20
17.2089228691
 10
-22.9983922056
 20
16.8439010627
 10
-23.4748456057
 20
16.4600682647
 10
-23.9067929993
 20
16.0590681062
 10
-24.2923847211
 20
15.6426177314
 10
-24.6299696083
 20
15.2125004447
 10
-24.9181020706
 20
14.7705580744
 10
-25.1555482806
 20
14.3186830856
 10
-25.341291457
 20
13.8588104763
 10
-25.4745362191
 20
13.3929094916
 10
-25.5547119924
 20
12.9229751911
 10
-25.581475452
 20
12.4510199057
 10
-25.5547119924
 20
11.9790646202
 10
-25.4745362191
 20
11.5091303198
 10
-25.341291457
 20
11.0432293351
 10
-25.1555482806
 20
10.5833567258
 10
-24.9181020706
 20
10.1314817369
 10
-24.6299696083
 20
9.6895393666
 10
-24.2923847211
 20
9.25942208
 10
-23.9067929993
 20
8.8429717051
 10
-23.4748456057
 20
8.4419715466
 10
-22.9983922056
 20
8.0581387487
 10
-22.4794730454
 20
7.6931169423
 10
-21.9203102168
 20
7.3484692068
  0
LWPOLYLINE
  5
96
330
23
100
AcDbEntity
  8
0
  6
Continuous
 62
     7
370
    25
100
AcDbPolyline
 90
       48
 70
   128
 43
0.0
 10
-1.4163939309
 20
-12.0996073033
 10
-0.9424598877
 20
-12.5705019692
 10
-0.422681715
 20
-13.024990458
 10
0.1412414368
 20
-13.4615870503
 10
0.7474661074
 20
-13.8788645157
 10
1.3940105535
 20
-14.2754587775
 10
2.0787612264
 20
-14.6500733723
 10
2.7994796818
 20
-15.001483688
 10
3.5538098971
 20
-15.3285409672
 10
4.3392859729
 20
-15.6301760624
 10
5.1533401945
 20
-15.9054029309
 10
5.9933114251
 20
-16.1533218583
 10
6.8564538059
 20
-16.3731223997
 10
7.7399457313
 20
-16.5640860289
 10
8.6408990736
 20
-16.7255884874
 10
9.5563686236
 20
-16.8571018249
 10
10.483361719
 20
-16.9581961255
 10
11.4188480268
 20
-17.0285409128
 10
12.35976945
 20
-17.06790623
 10
13.3030501243
 20
-17.0761633925
 10
14.2456064727
 20
-17.0532854075
 10
15.1843572864
 20
-16.9993470631
 10
16.1162337967
 20
-16.9145246832
 10
17.0381897068
 20
-16.7990955515
 10
17.9472111504
 20
-16.6534370049
 10
18.840326544
 20
-16.4780251999
 10
19.7146163006
 20
-16.2734335564
 10
20.5672223741
 20
-16.0403308827
 10
21.3953576024
 20
-15.7794791895
 10
22.1963148181
 20
-15.491731199
 10
22.9674756986
 20
-15.1780275569
 10
23.7063193255
 20
-14.8393937578
 10
24.4104304249
 20
-14.4769367929
 10
25.0775072634
 20
-14.091841531
 10
25.7053691723
 20
-13.6853668454
 10
26.2919636762
 20
-13.2588414985
 10
26.8353732024
 20
-12.8136597981
 10
27.3338213497
 20
-12.3512770395
 10
27.7856786952
 20
-11.8732047483
 10
28.1894681208
 20
-11.3810057388
 10
28.5438696424
 20
-10.8762890055
 10
28.8477247241
 20
-10.3607044633
 10
29.1000400664
 20
-9.8359375539
 10
29.2999908522
 20
-9.3037037359
 10
29.4469234443
 20
-8.7657428774
 10
29.5403575211
 20
-8.2238135679
 10
29.5799876474
 20
-7.67968737
 10
29.581475452
 20
-7.5517750344
  0
LWPOLYLINE
  5
97
330
23
100
AcDbEntity
  8
0
  6
Continuous
 62
     7
370
    25
100
AcDbPolyline
 90
       39
 70
   128
 43
0.0
 10
24.8392026148
 20
-5.1021525987
 10
24.6299696083
 20
-4.7902944953
 10
24.2923847211
 20
-4.3601772086
 10
23.9067929993
 20
-3.9437268338
 10
23.4748456057
 20
-3.5427266753
 10
22.9983922056
 20
-3.1588938774
 10
22.4794730454
 20
-2.793872071
 10
21.9203102168
 20
-2.4492243355
 10
21.3232981407
 20
-2.1264265054
 10
20.6909933146
 20
-1.8268608507
 10
20.0261033647
 20
-1.5518101574
 10
19.331475452
 20
-1.3024522349
 10
18.6100840797
 20
-1.079854872
 10
17.8650183565
 20
-0.8849712648
 10
17.0994687682
 20
-0.7186359348
 10
16.3167135157
 20
-0.5815611556
 10
15.5201044772
 20
-0.4743339022
 10
14.7130528547
 20
-0.3974133383
 10
13.8990145673
 20
-0.3511288496
 10
13.081475452
 20
-0.3356786333
 10
12.2639363366
 20
-0.3511288496
 10
11.4498980492
 20
-0.3974133383
 10
10.6428464267
 20
-0.4743339022
 10
9.8462373882
 20
-0.5815611556
 10
9.0634821357
 20
-0.7186359348
 10
8.2979325474
 20
-0.8849712648
 10
7.5528668242
 20
-1.079854872
 10
6.831475452
 20
-1.3024522349
 10
6.1368475392
 20
-1.5518101574
 10
5.4719575893
 20
-1.8268608507
 10
4.8396527632
 20
-2.1264265054
 10
4.2426406871
 20
-2.4492243355
 10
3.6834778585
 20
-2.793872071
 10
3.1645586983
 20
-3.1588938774
 10
2.6881052982
 20
-3.5427266753
 10
2.2561579046
 20
-3.9437268338
 10
1.8705661828
 20
-4.3601772086
 10
1.5329812956
 20
-4.7902944953
 10
1.3237482891
 20
-5.1021525987
  0
LWPOLYLINE
  5
9A
330
23
100
AcDbEntity
  8
0
  6
Continuous
 62
     7
370
    25
100
AcDbPolyline
 90
       39
 70
   128
 43
0.0
 10
-1.3237482891
 20
10.00139747
 10
-1.5329812956
 20
10.3132555734
 10
-1.8705661828
 20
10.7433728601
 10
-2.2561579046
 20
11.1598232349
 10
-2.6881052982
 20
11.5608233934
 10
-3.1645586983
 20
11.9446561913
 10
-3.6834778585
 20
12.3096779978
 10
-4.2426406871
 20
12.6543257333
 10
-4.8396527632
 20
12.9771235633
 10
-5.4719575893
 20
13.276689218
 10
-6.1368475392
 20
13.5517399113
 10
-6.831475452
 20
13.8010978338
 10
-7.5528668242
 20
14.0236951968
 10
-8.2979325474
 20
14.2185788039
 10
-9.0634821357
 20
14.3849141339
 10
-9.8462373882
 20
14.5219889131
 10
-10.6428464267
 20
14.6292161665
 10
-11.4498980492
 20
14.7061367304
 10
-12.2639363366
 20
14.7524212191
 10
-13.081475452
 20
14.7678714354
 10
-13.8990145673
 20
14.7524212191
 10
-14.7130528547
 20
14.7061367304
 10
-15.5201044772
 20
14.6292161665
 10
-16.3167135157
 20
14.5219889131
 10
-17.0994687682
 20
14.3849141339
 10
-17.8650183565
 20
14.2185788039
 10
-18.6100840797
 20
14.0236951968
 10
-19.331475452
 20
13.8010978338
 10
-20.0261033647
 20
13.5517399113
 10
-20.6909933146
 20
13.276689218
 10
-21.3232981407
 20
12.9771235633
 10
-21.9203102168
 20
12.6543257333
 10
-22.4794730454
 20
12.3096779978
 10
-22.9983922056
 20
11.9446561913
 10
-23.4748456057
 20
11.5608233934
 10
-23.9067929993
 20
11.1598232349
 10
-24.2923847211
 20
10.7433728601
 10
-24.6299696083
 20
10.3132555734
 10
-24.8392026148
 20
10.00139747
  0
LWPOLYLINE
  5
9B
330
23
100
AcDbEntity
  8
0
  6
Continuous
 62
     7
370
    25
100
AcDbPolyline
 90
       20
 70
   128
 43
0.0
 10
-29.581475452
 20
7.5517750344
 10
-29.5656842727
 20
7.1351430277
 10
-29.4974941546
 20
6.591960652
 10
-29.375640206
 20
6.0519159017
 10
-29.2005207664
 20
5.5167741786
 10
-28.9727082999
 20
4.9882848566
 10
-28.6929475236
 20
4.4681755629
 10
-28.3621529731
 20
3.9581465306
 10
-27.9814060132
 20
3.4598650404
 10
-27.5519513024
 20
2.9749599705
 10
-27.0751927248
 20
2.5050164714
 10
-26.5526888002
 20
2.0515707847
 10
-25.9861475897
 20
1.6161052205
 10
-25.3774211118
 20
1.2000433123
 10
-24.7284992884
 20
0.804745163
 10
-24.0415034396
 20
0.431502999
 10
-23.3186793492
 20
0.0815369459
 10
-22.5623899232
 20
-0.2440089602
 10
-21.7751074656
 20
-0.5440705123
 10
-20.9594055963
 20
-0.8176668118
  0
LINE
  5
9C
330
23
100
AcDbEntity
  8
0
  6
Continuous
 62
     7
370
    25
100
AcDbLine
 10
29.581475452
 20
-7.5517750344
 30
0.0
 11
29.581475452
 21
-2.652530163
 31
0.0
  0
LINE
  5
9D
330
23
100
AcDbEntity
  8
0
  6
Continuous
 62
     7
370
    25
100
AcDbLine
 10
-29.581475452
 20
12.4510199057
 30
0.0
 11
-29.581475452
 21
7.5517750344
 31
0.0
  0
LINE
  5
9E
330
23
100
AcDbEntity
  8
0
  6
Continuous
 62
     7
370
    25
100
AcDbLine
 10
-1.4163939309
 20
-7.200362432
 30
0.0
 11
-1.4163939309
 21
-12.0996073033
 31
0.0
  0
LINE
  5
9F
330
23
100
AcDbEntity
  8
0
  6
Continuous
 62
     7
370
    25
100
AcDbLine
 10
-20.9594055963
 20
4.0815780596
 30
0.0
 11
-20.9594055963
 21
-0.8176668118
 31
0.0
  0
ARC
  5
A0
330
23
100
AcDbEntity
  8
0
  6
Continuous
 62
     7
370
    25
100
AcDbCircle
 10
-33.1408059071
 20
-39.5870613777
 30
0.0
 40
45.33582009666572
100
AcDbArc
 50
45.5918615028
 51
74.4135150299
  0
ARC
  5
A1
330
23
100
AcDbEntity
  8
0
  6
Continuous
 62
     7
370
    25
100
AcDbCircle
 10
33.1408059071
 20
49.3855511204
 30
0.0
 40
45.33582009666559
100
AcDbArc
 50
225.5918615028
 51
254.4135150299
  0
ARC
  5
A2
330
23
100
AcDbEntity
  8
0
  6
Continuous
 62
     7
370
    25
100
AcDbCircle
 10
-33.1408059071
 20
-44.4863062491
 30
0.0
 40
45.33582009666569
100
AcDbArc
 50
45.5918615028
 51
74.4135150299
  0
VIEWPORT
  5
A5
330
23
100
AcDbEntity
  8
0
100
AcDbViewport
 10
0.0
 20
0.0
 30
0.0
 40
205.6
 41
156.0
 68
     1
 69
     1
 12
0.0
 22
0.0
 13
0.0
 23
0.0
 14
10.0
 24
10.0
 15
10.0
 25
10.0
 16
0.0
 26
0.0
 36
1.0
 17
0.0
 27
0.0
 37
0.0
 42
50.0
 43
0.0
 44
0.0
 45
54.1750972763
 50
0.0
 51
0.0
 72
   100
 90
   557152
  1

281
     0
 71
     1
 74
     0
110
0.0
120
0.0
130
0.0
111
1.0
121
0.0
131
0.0
112
0.0
122
1.0
132
0.0
 79
     0
146
0.0
  0
ENDBLK
  5
25
330
23
100
AcDbEntity
  8
0
100
AcDbBlockEnd
  0
ENDSEC
  0
SECTION
  2
ENTITIES
  0
CIRCLE
  5
73
330
1F
100
AcDbEntity
  8
0
  6
Continuous
 62
     7
370
    25
100
AcDbCircle
 10
18.5
 20
0.0
 30
0.0
 40
12.49999999999999
  0
CIRCLE
  5
78
330
1F
100
AcDbEntity
  8
0
  6
Continuous
 62
     7
370
    25
100
AcDbCircle
 10
-18.5
 20
0.0
 30
0.0
 40
12.49999999999998
  0
ARC
  5
79
330
1F
100
AcDbEntity
  8
0
  6
Continuous
 62
     7
370
    25
100
AcDbCircle
 10
18.5
 20
0.0
 30
0.0
 40
16.50000000000001
100
AcDbArc
 50
253.5190098443
 51
106.4809901557
  0
ARC
  5
7A
330
1F
100
AcDbEntity
  8
0
  6
Continuous
 62
     7
370
    25
100
AcDbCircle
 10
0.0
 20
-62.5311315313
 30
0.0
 40
48.71037042204465
100
AcDbArc
 50
73.5190098443
 51
106.4809901557
  0
ARC
  5
7B
330
1F
100
AcDbEntity
  8
0
  6
Continuous
 62
     7
370
    25
100
AcDbCircle
 10
-18.5
 20
0.0
 30
0.0
 40
16.5
100
AcDbArc
 50
73.5190098443
 51
286.4809901557
  0
ARC
  5
7C
330
1F
100
AcDbEntity
  8
0
  6
Continuous
 62
     7
370
    25
100
AcDbCircle
 10
0.0
 20
62.5311315313
 30
0.0
 40
48.71037042204455
100
AcDbArc
 50
253.5190098443
 51
286.4809901557
  0
LINE
  5
87
330
1B
100
AcDbEntity
 67
     1
  8
0
  6
Continuous
 62
     7
370
    25
100
AcDbLine
 10
35.0
 20
0.0
 30
0.0
 11
35.0
 21
6.0
 31
0.0
  0
LINE
  5
88
330
1B
100
AcDbEntity
 67
     1
  8
0
  6
Continuous
 62
     7
370
    25
100
AcDbLine
 10
-35.0
 20
6.0
 30
0.0
 11
-35.0
 21
0.0
 31
0.0
  0
LINE
  5
89
330
1B
100
AcDbEntity
 67
     1
  8
0
  6
Continuous
 62
     7
370
    25
100
AcDbLine
 10
13.8189960734
 20
6.0
 30
0.0
 11
13.8189960734
 21
0.0
 31
0.0
  0
LINE
  5
8A
330
1B
100
AcDbEntity
 67
     1
  8
0
  6
Continuous
 62
     7
370
    25
100
AcDbLine
 10
-13.8189960734
 20
6.0
 30
0.0
 11
-13.8189960734
 21
0.0
 31
0.0
  0
LINE
  5
8B
330
1B
100
AcDbEntity
 67
     1
  8
0
  6
Continuous
 62
     7
370
    25
100
AcDbLine
 10
-35.0
 20
0.0
 30
0.0
 11
35.0
 21
0.0
 31
0.0
  0
LINE
  5
8C
330
1B
100
AcDbEntity
 67
     1
  8
0
  6
Continuous
 62
     7
370
    25
100
AcDbLine
 10
-35.0
 20
6.0
 30
0.0
 11
35.0
 21
6.0
 31
0.0
  0
VIEWPORT
  5
A3
330
1B
100
AcDbEntity
 67
     1
  8
0
100
AcDbViewport
 10
0.0
 20
0.0
 30
0.0
 40
205.6
 41
156.0
 68
     1
 69
     1
 12
0.0
 22
0.0
 13
0.0
 23
0.0
 14
10.0
 24
10.0
 15
10.0
 25
10.0
 16
0.0
 26
0.0
 36
1.0
 17
0.0
 27
0.0
 37
0.0
 42
50.0
 43
0.0
 44
0.0
 45
54.1750972763
 50
0.0
 51
0.0
 72
   100
 90
   557152
  1

281
     0
 71
     1
 74
     0
110
0.0
120
0.0
130
0.0
111
1.0
121
0.0
131
0.0
112
0.0
122
1.0
132
0.0
 79
     0
146
0.0
  0
ENDSEC
  0
SECTION
  2
OBJECTS
  0
DICTIONARY
  5
C
330
0
100
AcDbDictionary
281
     1
  3
ACAD_GROUP
350
D
  3
ACAD_LAYOUT
350
1A
  3
ACAD_MLINESTYLE
350
17
  3
ACAD_PLOTSETTINGS
350
19
  3
ACAD_PLOTSTYLENAME
350
E
  3
ACAD_SCALELIST
350
47
  0
DICTIONARY
  5
D
102
{ACAD_REACTORS
330
C
102
}
330
C
100
AcDbDictionary
281
     1
  0
DICTIONARY
  5
1A
102
{ACAD_REACTORS
330
C
102
}
330
C
100
AcDbDictionary
281
     1
  3
_Front
350
1E
  3
_Isometric
350
26
  3
Model
350
22
  0
DICTIONARY
  5
17
102
{ACAD_REACTORS
330
C
102
}
330
C
100
AcDbDictionary
281
     1
  3
Standard
350
18
  0
DICTIONARY
  5
19
102
{ACAD_REACTORS
330
C
102
}
330
C
100
AcDbDictionary
281
     1
  0
ACDBDICTIONARYWDFLT
  5
E
102
{ACAD_REACTORS
330
C
102
}
330
C
100
AcDbDictionary
281
     1
  3
Normal
350
F
100
AcDbDictionaryWithDefault
340
F
  0
DICTIONARY
  5
47
102
{ACAD_REACTORS
330
C
102
}
330
C
100
AcDbDictionary
281
     1
  3
A0
350
48
  3
A1
350
49
  3
A2
350
4A
  3
A3
350
4B
  3
A4
350
4C
  3
A5
350
4D
  3
A6
350
4E
  3
A7
350
4F
  3
A8
350
50
  3
A9
350
51
  3
B0
350
52
  3
B1
350
53
  3
B2
350
54
  3
B3
350
55
  3
B4
350
56
  3
B5
350
57
  3
B6
350
58
  3
B7
350
59
  3
B8
350
5A
  3
B9
350
5B
  3
C0
350
5C
  3
C1
350
5D
  3
C2
350
5E
  3
C3
350
5F
  3
C4
350
60
  3
C5
350
61
  3
C6
350
62
  3
C7
350
63
  3
C8
350
64
  3
C9
350
65
  3
D0
350
66
  3
D1
350
67
  3
D2
350
68
  0
LAYOUT
  5
1E
102
{ACAD_REACTORS
330
1A
102
}
330
1A
100
AcDbPlotSettings
  1

  2
none_device
  4
ISO_A4_(210.00_x_297.00_MM)
  6

 40
7.5
 41
20.0
 42
7.5
 43
20.0
 44
210.0
 45
297.0
 46
0.0
 47
0.0
 48
0.0
 49
0.0
140
0.0
141
0.0
142
1.0
143
0.2723735409
 70
   688
 72
     1
 73
     1
 74
     1
  7

 75
     0
147
3.6714285714
148
35.0
149
0.0
100
AcDbLayout
  1
_Front
 70
     1
 71
     1
 10
-40.4474708171
 20
-2.0428015564
 11
40.4474708171
 21
55.1556420233
 12
0.0
 22
0.0
 32
0.0
 14
-35.0
 24
0.0
 34
0.0
 15
35.0
 25
6.0
 35
0.0
146
0.0
 13
0.0
 23
0.0
 33
0.0
 16
1.0
 26
0.0
 36
0.0
 17
0.0
 27
1.0
 37
0.0
 76
     0
330
1B
331
A3
  0
LAYOUT
  5
26
102
{ACAD_REACTORS
330
1A
102
}
330
1A
100
AcDbPlotSettings
  1

  2
none_device
  4
ISO_A4_(210.00_x_297.00_MM)
  6

 40
7.5
 41
20.0
 42
7.5
 43
20.0
 44
210.0
 45
297.0
 46
0.0
 47
0.0
 48
0.0
 49
0.0
140
0.0
141
0.0
142
1.0
143
0.2723735409
 70
   688
 72
     1
 73
     1
 74
     1
  7

 75
     0
147
3.6714285714
148
35.0
149
0.0
100
AcDbLayout
  1
_Isometric
 70
     1
 71
     2
 10
0.0
 20
0.0
 11
0.0
 21
0.0
 12
0.0
 22
0.0
 32
0.0
 14
0.0
 24
0.0
 34
0.0
 15
0.0
 25
0.0
 35
0.0
146
0.0
 13
0.0
 23
0.0
 33
0.0
 16
1.0
 26
0.0
 36
0.0
 17
0.0
 27
1.0
 37
0.0
 76
     0
330
23
331
A5
  0
LAYOUT
  5
22
102
{ACAD_REACTORS
330
1A
102
}
330
1A
100
AcDbPlotSettings
  1

  2
none_device
  4
ANSI_A_(11.00_x_8.50_Inches)
  6

 40
6.35
 41
19.05
 42
6.35000508
 43
19.05000254
 44
279.4
 45
215.9
 46
133.34999746
 47
88.89999873
 48
0.0
 49
0.0
140
0.0
141
0.0
142
0.1555714286
143
1.0
 70
  1696
 72
     0
 73
     0
 74
     0
  7

 75
     0
147
0.0179189148
148
-1300.4909072572
149
0.0
100
AcDbLayout
  1
Model
 70
     1
 71
     0
 10
0.0
 20
0.0
 11
420.0
 21
297.0
 12
0.0
 22
0.0
 32
0.0
 14
-35.0
 24
-16.5
 34
0.0
 15
35.0
 25
16.5
 35
0.0
146
0.0
 13
0.0
 23
0.0
 33
0.0
 16
1.0
 26
0.0
 36
0.0
 17
0.0
 27
1.0
 37
0.0
 76
     0
330
1F
331
29
  0
MLINESTYLE
  5
18
102
{ACAD_REACTORS
330
17
102
}
330
17
100
AcDbMlineStyle
  2
Standard
 70
     0
  3

 62
   256
 51
90.0
 52
90.0
 71
     2
 49
0.5
 62
   256
  6
BYLAYER
 49
-0.5
 62
   256
  6
BYLAYER
  0
ACDBPLACEHOLDER
  5
F
102
{ACAD_REACTORS
330
E
102
}
330
E
  0
SCALE
  5
48
102
{ACAD_REACTORS
330
47
102
}
330
47
100
AcDbScale
 70
     0
300
1:1
140
1.0
141
1.0
290
     1
  0
SCALE
  5
49
102
{ACAD_REACTORS
330
47
102
}
330
47
100
AcDbScale
 70
     0
300
1:2
140
1.0
141
2.0
290
     0
  0
SCALE
  5
4A
102
{ACAD_REACTORS
330
47
102
}
330
47
100
AcDbScale
 70
     0
300
1:4
140
1.0
141
4.0
290
     0
  0
SCALE
  5
4B
102
{ACAD_REACTORS
330
47
102
}
330
47
100
AcDbScale
 70
     0
300
1:5
140
1.0
141
5.0
290
     0
  0
SCALE
  5
4C
102
{ACAD_REACTORS
330
47
102
}
330
47
100
AcDbScale
 70
     0
300
1:8
140
1.0
141
8.0
290
     0
  0
SCALE
  5
4D
102
{ACAD_REACTORS
330
47
102
}
330
47
100
AcDbScale
 70
     0
300
1:10
140
1.0
141
10.0
290
     0
  0
SCALE
  5
4E
102
{ACAD_REACTORS
330
47
102
}
330
47
100
AcDbScale
 70
     0
300
1:16
140
1.0
141
16.0
290
     0
  0
SCALE
  5
4F
102
{ACAD_REACTORS
330
47
102
}
330
47
100
AcDbScale
 70
     0
300
1:20
140
1.0
141
20.0
290
     0
  0
SCALE
  5
50
102
{ACAD_REACTORS
330
47
102
}
330
47
100
AcDbScale
 70
     0
300
1:30
140
1.0
141
30.0
290
     0
  0
SCALE
  5
51
102
{ACAD_REACTORS
330
47
102
}
330
47
100
AcDbScale
 70
     0
300
1:40
140
1.0
141
40.0
290
     0
  0
SCALE
  5
52
102
{ACAD_REACTORS
330
47
102
}
330
47
100
AcDbScale
 70
     0
300
1:50
140
1.0
141
50.0
290
     0
  0
SCALE
  5
53
102
{ACAD_REACTORS
330
47
102
}
330
47
100
AcDbScale
 70
     0
300
1:100
140
1.0
141
100.0
290
     0
  0
SCALE
  5
54
102
{ACAD_REACTORS
330
47
102
}
330
47
100
AcDbScale
 70
     0
300
2:1
140
2.0
141
1.0
290
     0
  0
SCALE
  5
55
102
{ACAD_REACTORS
330
47
102
}
330
47
100
AcDbScale
 70
     0
300
4:1
140
4.0
141
1.0
290
     0
  0
SCALE
  5
56
102
{ACAD_REACTORS
330
47
102
}
330
47
100
AcDbScale
 70
     0
300
8:1
140
8.0
141
1.0
290
     0
  0
SCALE
  5
57
102
{ACAD_REACTORS
330
47
102
}
330
47
100
AcDbScale
 70
     0
300
10:1
140
10.0
141
1.0
290
     0
  0
SCALE
  5
58
102
{ACAD_REACTORS
330
47
102
}
330
47
100
AcDbScale
 70
     0
300
100:1
140
100.0
141
1.0
290
     0
  0
SCALE
  5
59
102
{ACAD_REACTORS
330
47
102
}
330
47
100
AcDbScale
 70
     0
300
1/128" = 1'-0"
140
0.0078125
141
12.0
290
     0
  0
SCALE
  5
5A
102
{ACAD_REACTORS
330
47
102
}
330
47
100
AcDbScale
 70
     0
300
1/64" = 1'-0"
140
0.015625
141
12.0
290
     0
  0
SCALE
  5
5B
102
{ACAD_REACTORS
330
47
102
}
330
47
100
AcDbScale
 70
     0
300
1/32" = 1'-0"
140
0.03125
141
12.0
290
     0
  0
SCALE
  5
5C
102
{ACAD_REACTORS
330
47
102
}
330
47
100
AcDbScale
 70
     0
300
1/16" = 1'-0"
140
0.0625
141
12.0
290
     0
  0
SCALE
  5
5D
102
{ACAD_REACTORS
330
47
102
}
330
47
100
AcDbScale
 70
     0
300
3/32" = 1'-0"
140
0.09375
141
12.0
290
     0
  0
SCALE
  5
5E
102
{ACAD_REACTORS
330
47
102
}
330
47
100
AcDbScale
 70
     0
300
1/8" = 1'-0"
140
0.125
141
12.0
290
     0
  0
SCALE
  5
5F
102
{ACAD_REACTORS
330
47
102
}
330
47
100
AcDbScale
 70
     0
300
3/16" = 1'-0"
140
0.1875
141
12.0
290
     0
  0
SCALE
  5
60
102
{ACAD_REACTORS
330
47
102
}
330
47
100
AcDbScale
 70
     0
300
1/4" = 1'-0"
140
0.25
141
12.0
290
     0
  0
SCALE
  5
61
102
{ACAD_REACTORS
330
47
102
}
330
47
100
AcDbScale
 70
     0
300
3/8" = 1'-0"
140
0.375
141
12.0
290
     0
  0
SCALE
  5
62
102
{ACAD_REACTORS
330
47
102
}
330
47
100
AcDbScale
 70
     0
300
1/2" = 1'-0"
140
0.5
141
12.0
290
     0
  0
SCALE
  5
63
102
{ACAD_REACTORS
330
47
102
}
330
47
100
AcDbScale
 70
     0
300
3/4" = 1'-0"
140
0.75
141
12.0
290
     0
  0
SCALE
  5
64
102
{ACAD_REACTORS
330
47
102
}
330
47
100
AcDbScale
 70
     0
300
1" = 1'-0"
140
1.0
141
12.0
290
     0
  0
SCALE
  5
65
102
{ACAD_REACTORS
330
47
102
}
330
47
100
AcDbScale
 70
     0
300
1-1/2" = 1'-0"
140
1.5
141
12.0
290
     0
  0
SCALE
  5
66
102
{ACAD_REACTORS
330
47
102
}
330
47
100
AcDbScale
 70
     0
300
3" = 1'-0"
140
3.0
141
12.0
290
     0
  0
SCALE
  5
67
102
{ACAD_REACTORS
330
47
102
}
330
47
100
AcDbScale
 70
     0
300
6" = 1'-0"
140
6.0
141
12.0
290
     0
  0
SCALE
  5
68
102
{ACAD_REACTORS
330
47
102
}
330
47
100
AcDbScale
 70
     0
300
1'-0" = 1'-0"
140
12.0
141
12.0
290
     0
  0
ENDSEC
  0
EOF
