  0
SECTION
  2
HEADER
  9
$ACADVER
  1
AC1015
  9
$ACADMAINTVER
 70
     6
  9
$DWGCODEPAGE
  3
ANSI_1252
  9
$INSBASE
 10
0.0
 20
0.0
 30
0.0
  9
$EXTMIN
 10
-200.0
 20
0.0
 30
0.0
  9
$EXTMAX
 10
200.0
 20
852.0
 30
0.0
  9
$LIMMIN
 10
0.0
 20
0.0
  9
$LIMMAX
 10
420.0
 20
297.0
  9
$ORTHOMODE
 70
     0
  9
$REGENMODE
 70
     1
  9
$FILLMODE
 70
     1
  9
$QTEXTMODE
 70
     0
  9
$MIRRTEXT
 70
     1
  9
$LTSCALE
 40
1.0
  9
$ATTMODE
 70
     1
  9
$TEXTSIZE
 40
3.5
  9
$TRACEWID
 40
1.0
  9
$TEXTSTYLE
  7
Standard
  9
$CLAYER
  8
0
  9
$CELTYPE
  6
ByLayer
  9
$CECOLOR
 62
   256
  9
$CELTSCALE
 40
1.0
  9
$DISPSILH
 70
     0
  9
$DIMSCALE
 40
1.0
  9
$DIMASZ
 40
3.302
  9
$DIMEXO
 40
1.0
  9
$DIMDLI
 40
3.75
  9
$DIMRND
 40
0.0
  9
$DIMDLE
 40
0.0
  9
$DIMEXE
 40
1.0
  9
$DIMTP
 40
0.0
  9
$DIMTM
 40
0.0
  9
$DIMTXT
 40
3.5
  9
$DIMCEN
 40
2.5
  9
$DIMTSZ
 40
0.0
  9
$DIMTOL
 70
     0
  9
$DIMLIM
 70
     0
  9
$DIMTIH
 70
     1
  9
$DIMTOH
 70
     1
  9
$DIMSE1
 70
     0
  9
$DIMSE2
 70
     0
  9
$DIMTAD
 70
     1
  9
$DIMZIN
 70
     1
  9
$DIMBLK
  1

  9
$DIMASO
 70
     1
  9
$DIMSHO
 70
     1
  9
$DIMPOST
  1

  9
$DIMAPOST
  1

  9
$DIMALT
 70
     0
  9
$DIMALTD
 70
     3
  9
$DIMALTF
 40
0.0393700787
  9
$DIMLFAC
 40
1.0
  9
$DIMTOFL
 70
     1
  9
$DIMTVP
 40
0.0
  9
$DIMTIX
 70
     0
  9
$DIMSOXD
 70
     0
  9
$DIMSAH
 70
     0
  9
$DIMBLK1
  1

  9
$DIMBLK2
  1

  9
$DIMSTYLE
  2
ISO-25
  9
$DIMCLRD
 70
     0
  9
$DIMCLRE
 70
     0
  9
$DIMCLRT
 70
     0
  9
$DIMTFAC
 40
1.0
  9
$DIMGAP
 40
1.524
  9
$DIMJUST
 70
     0
  9
$DIMSD1
 70
     0
  9
$DIMSD2
 70
     0
  9
$DIMTOLJ
 70
     0
  9
$DIMTZIN
 70
     1
  9
$DIMALTZ
 70
     0
  9
$DIMALTTZ
 70
     0
  9
$DIMUPT
 70
     0
  9
$DIMDEC
 70
     2
  9
$DIMTDEC
 70
     2
  9
$DIMALTU
 70
     2
  9
$DIMALTTD
 70
     3
  9
$DIMTXSTY
  7
Standard
  9
$DIMAUNIT
 70
     0
  9
$DIMADEC
 70
     2
  9
$DIMALTRND
 40
0.0
  9
$DIMAZIN
 70
     0
  9
$DIMDSEP
 70
    44
  9
$DIMATFIT
 70
     3
  9
$DIMFRAC
 70
     0
  9
$DIMLDRBLK
  1

  9
$DIMLUNIT
 70
     2
  9
$DIMLWD
 70
    -2
  9
$DIMLWE
 70
    -2
  9
$DIMTMOVE
 70
     0
  9
$LUNITS
 70
     2
  9
$LUPREC
 70
     2
  9
$SKETCHINC
 40
1.0
  9
$FILLETRAD
 40
10.0
  9
$AUNITS
 70
     0
  9
$AUPREC
 70
     2
  9
$MENU
  1
.
  9
$ELEVATION
 40
0.0
  9
$PELEVATION
 40
0.0
  9
$THICKNESS
 40
0.0
  9
$LIMCHECK
 70
     0
  9
$CHAMFERA
 40
0.0
  9
$CHAMFERB
 40
0.0
  9
$CHAMFERC
 40
0.0
  9
$CHAMFERD
 40
0.0
  9
$SKPOLY
 70
     0
  9
$TDCREATE
 40
2459718.469540093
  9
$TDUCREATE
 40
2459718.427873426
  9
$TDUPDATE
 40
2459718.469567199
  9
$TDUUPDATE
 40
2459718.427900532
  9
$TDINDWG
 40
0.0000000116
  9
$TDUSRTIMER
 40
0.0000000116
  9
$USRTIMER
 70
     1
  9
$ANGBASE
 50
0.0
  9
$ANGDIR
 70
     0
  9
$PDMODE
 70
     0
  9
$PDSIZE
 40
-1.0
  9
$PLINEWID
 40
0.0
  9
$SPLFRAME
 70
     0
  9
$SPLINETYPE
 70
     6
  9
$SPLINESEGS
 70
     8
  9
$HANDSEED
  5
207
  9
$SURFTAB1
 70
     6
  9
$SURFTAB2
 70
     6
  9
$SURFTYPE
 70
     6
  9
$SURFU
 70
     6
  9
$SURFV
 70
     6
  9
$UCSBASE
  2

  9
$UCSNAME
  2

  9
$UCSORG
 10
0.0
 20
0.0
 30
0.0
  9
$UCSXDIR
 10
1.0
 20
0.0
 30
0.0
  9
$UCSYDIR
 10
0.0
 20
1.0
 30
0.0
  9
$UCSORTHOREF
  2

  9
$UCSORTHOVIEW
 70
     0
  9
$UCSORGTOP
 10
0.0
 20
0.0
 30
0.0
  9
$UCSORGBOTTOM
 10
0.0
 20
0.0
 30
0.0
  9
$UCSORGLEFT
 10
0.0
 20
0.0
 30
0.0
  9
$UCSORGRIGHT
 10
0.0
 20
0.0
 30
0.0
  9
$UCSORGFRONT
 10
0.0
 20
0.0
 30
0.0
  9
$UCSORGBACK
 10
0.0
 20
0.0
 30
0.0
  9
$PUCSBASE
  2

  9
$PUCSNAME
  2

  9
$PUCSORG
 10
0.0
 20
0.0
 30
0.0
  9
$PUCSXDIR
 10
1.0
 20
0.0
 30
0.0
  9
$PUCSYDIR
 10
0.0
 20
1.0
 30
0.0
  9
$PUCSORTHOREF
  2

  9
$PUCSORTHOVIEW
 70
     0
  9
$PUCSORGTOP
 10
0.0
 20
0.0
 30
0.0
  9
$PUCSORGBOTTOM
 10
0.0
 20
0.0
 30
0.0
  9
$PUCSORGLEFT
 10
0.0
 20
0.0
 30
0.0
  9
$PUCSORGRIGHT
 10
0.0
 20
0.0
 30
0.0
  9
$PUCSORGFRONT
 10
0.0
 20
0.0
 30
0.0
  9
$PUCSORGBACK
 10
0.0
 20
0.0
 30
0.0
  9
$USERI1
 70
     0
  9
$USERI2
 70
     0
  9
$USERI3
 70
     0
  9
$USERI4
 70
     0
  9
$USERI5
 70
     0
  9
$USERR1
 40
0.0
  9
$USERR2
 40
0.0
  9
$USERR3
 40
0.0
  9
$USERR4
 40
0.0
  9
$USERR5
 40
0.0
  9
$WORLDVIEW
 70
     1
  9
$SHADEDGE
 70
     3
  9
$SHADEDIF
 70
    70
  9
$TILEMODE
 70
     1
  9
$MAXACTVP
 70
    64
  9
$PINSBASE
 10
0.0
 20
0.0
 30
0.0
  9
$PLIMCHECK
 70
     0
  9
$PEXTMIN
 10
-200.0
 20
0.0
 30
0.0
  9
$PEXTMAX
 10
200.0
 20
852.0
 30
0.0
  9
$PLIMMIN
 10
-287.3846153846
 20
-32.7692307692
  9
$PLIMMAX
 10
1010.2769230769
 20
884.7692307692
  9
$UNITMODE
 70
     0
  9
$VISRETAIN
 70
     1
  9
$PLINEGEN
 70
     0
  9
$PSLTSCALE
 70
     1
  9
$TREEDEPTH
 70
  3020
  9
$CMLSTYLE
  2
Standard
  9
$CMLJUST
 70
     0
  9
$CMLSCALE
 40
20.0
  9
$PROXYGRAPHICS
 70
     1
  9
$MEASUREMENT
 70
     1
  9
$CELWEIGHT
370
    -1
  9
$ENDCAPS
280
     0
  9
$JOINSTYLE
280
     0
  9
$LWDISPLAY
290
     1
  9
$INSUNITS
 70
     4
  9
$HYPERLINKBASE
  1

  9
$STYLESHEET
  1

  9
$XEDIT
290
     1
  9
$CEPSNTYPE
380
     0
  9
$PSTYLEMODE
290
     1
  9
$FINGERPRINTGUID
  2
{4c60b0a2-bd56-4f8c-8223-bfb3f434c059}
  9
$VERSIONGUID
  2
{FAEB1C32-E019-11D5-929B-00C0DF256EC4}
  9
$EXTNAMES
290
     1
  9
$PSVPSCALE
 40
0.0
  9
$OLESTARTUP
290
     0
  0
ENDSEC
  0
SECTION
  2
CLASSES
  0
CLASS
  1
ACDBDICTIONARYWDFLT
  2
AcDbDictionaryWithDefault
  3
ObjectDBX Classes
 90
        0
280
     0
281
     0
  0
CLASS
  1
VISUALSTYLE
  2
AcDbVisualStyle
  3
ObjectDBX Classes
 90
     4095
280
     0
281
     0
  0
CLASS
  1
MATERIAL
  2
AcDbMaterial
  3
ObjectDBX Classes
 90
     1153
280
     0
281
     0
  0
CLASS
  1
SCALE
  2
AcDbScale
  3
ObjectDBX Classes
 90
     1153
280
     0
281
     0
  0
CLASS
  1
TABLESTYLE
  2
AcDbTableStyle
  3
ObjectDBX Classes
 90
     4095
280
     0
281
     0
  0
CLASS
  1
MLEADERSTYLE
  2
AcDbMLeaderStyle
  3
ACDB_MLEADERSTYLE_CLASS
 90
     4095
280
     0
281
     0
  0
CLASS
  1
SUN
  2
AcDbSun
  3
SCENEOE
 90
     1153
280
     0
281
     0
  0
CLASS
  1
ACDBPLACEHOLDER
  2
AcDbPlaceHolder
  3
ObjectDBX Classes
 90
        0
280
     0
281
     0
  0
CLASS
  1
LAYOUT
  2
AcDbLayout
  3
ObjectDBX Classes
 90
        0
280
     0
281
     0
  0
ENDSEC
  0
SECTION
  2
TABLES
  0
TABLE
  2
VPORT
  5
8
330
0
100
AcDbSymbolTable
 70
     1
  0
VPORT
  5
29
330
8
100
AcDbSymbolTableRecord
100
AcDbViewportTableRecord
  2
*Active
 70
     0
 10
0.0
 20
0.0
 11
1.0
 21
1.0
 12
0.0
 22
426.0
 13
0.0
 23
0.0
 14
10.0
 24
10.0
 15
10.0
 25
10.0
 16
0.0
 26
0.0
 36
1.0
 17
0.0
 27
0.0
 37
0.0
 40
869.04
 41
0.4694835681
 42
50.0
 43
0.0
 44
0.0
 50
0.0
 51
0.0
 71
     0
 72
   100
 73
     1
 74
     3
 75
     0
 76
     0
 77
     0
 78
     0
281
     0
 65
     1
110
0.0
120
0.0
130
0.0
111
1.0
121
0.0
131
0.0
112
0.0
122
1.0
132
0.0
 79
     0
146
0.0
  0
ENDTAB
  0
TABLE
  2
LTYPE
  5
5
330
0
100
AcDbSymbolTable
 70
     6
  0
LTYPE
  5
14
330
5
100
AcDbSymbolTableRecord
100
AcDbLinetypeTableRecord
  2
ByBlock
 70
     0
  3

 72
    65
 73
     0
 40
0.0
  0
LTYPE
  5
15
330
5
100
AcDbSymbolTableRecord
100
AcDbLinetypeTableRecord
  2
ByLayer
 70
     0
  3

 72
    65
 73
     0
 40
0.0
  0
LTYPE
  5
16
330
5
100
AcDbSymbolTableRecord
100
AcDbLinetypeTableRecord
  2
Continuous
 70
     0
  3
Solid line
 72
    65
 73
     0
 40
0.0
  0
LTYPE
  5
6E
330
5
100
AcDbSymbolTableRecord
100
AcDbLinetypeTableRecord
  2
HIDDEN
 70
     0
  3
Hidden __ __ __ __ __ __ __ __ __ __ __ __ __ __
 72
    65
 73
     2
 40
1.905
 49
1.27
 74
     0
 49
-0.635
 74
     0
  0
LTYPE
  5
6F
330
5
100
AcDbSymbolTableRecord
100
AcDbLinetypeTableRecord
  2
PHANTOM
 70
     0
  3
Phantom ______  __  __  ______  __  __  ______
 72
    65
 73
     6
 40
12.7
 49
6.35
 74
     0
 49
-1.27
 74
     0
 49
1.27
 74
     0
 49
-1.27
 74
     0
 49
1.27
 74
     0
 49
-1.27
 74
     0
  0
LTYPE
  5
70
330
5
100
AcDbSymbolTableRecord
100
AcDbLinetypeTableRecord
  2
CENTER
 70
     0
  3
Center ____ _ ____ _ ____ _ ____ _ ____ _ ____
 72
    65
 73
     4
 40
10.16
 49
6.35
 74
     0
 49
-1.27
 74
     0
 49
1.27
 74
     0
 49
-1.27
 74
     0
  0
LTYPE
  5
71
330
5
100
AcDbSymbolTableRecord
100
AcDbLinetypeTableRecord
  2
CENTERX2
 70
     0
  3
Center (2x) ________  __  ________  __  _____
 72
    65
 73
     4
 40
20.32
 49
12.7
 74
     0
 49
-2.54
 74
     0
 49
2.54
 74
     0
 49
-2.54
 74
     0
  0
LTYPE
  5
72
330
5
100
AcDbSymbolTableRecord
100
AcDbLinetypeTableRecord
  2
DOT2
 70
     0
  3
Dot (.5x) ........................................
 72
    65
 73
     2
 40
0.635
 49
0.0
 74
     0
 49
-0.635
 74
     0
  0
ENDTAB
  0
TABLE
  2
LAYER
  5
2
330
0
100
AcDbSymbolTable
 70
     1
  0
LAYER
  5
10
330
2
100
AcDbSymbolTableRecord
100
AcDbLayerTableRecord
  2
0
 70
     0
 62
     7
  6
Continuous
370
    -3
390
F
  0
ENDTAB
  0
TABLE
  2
STYLE
  5
3
330
0
100
AcDbSymbolTable
 70
     1
  0
STYLE
  5
11
330
3
100
AcDbSymbolTableRecord
100
AcDbTextStyleTableRecord
  2
Standard
 70
     0
 40
0.0
 41
1.0
 50
0.0
 71
     0
 42
3.5
  3
txt
  4

  0
ENDTAB
  0
TABLE
  2
VIEW
  5
6
330
0
100
AcDbSymbolTable
 70
     0
  0
ENDTAB
  0
TABLE
  2
UCS
  5
7
330
0
100
AcDbSymbolTable
 70
     0
  0
ENDTAB
  0
TABLE
  2
APPID
  5
9
330
0
100
AcDbSymbolTable
 70
     1
  0
APPID
  5
12
330
9
100
AcDbSymbolTableRecord
100
AcDbRegAppTableRecord
  2
ACAD
 70
     0
  0
ENDTAB
  0
TABLE
  2
DIMSTYLE
  5
A
330
0
100
AcDbSymbolTable
 70
     1
100
AcDbDimStyleTable
  0
DIMSTYLE
105
27
330
A
100
AcDbSymbolTableRecord
100
AcDbDimStyleTableRecord
  2
ISO-25
 70
     0
 41
2.5
 42
0.625
 43
3.75
 44
1.25
 73
     0
 74
     0
 77
     1
 78
     8
140
2.5
141
2.5
143
0.0393700787
147
0.625
171
     3
172
     1
178
     0
271
     2
272
     2
274
     3
278
    44
283
     0
284
     8
340
11
  0
ENDTAB
  0
TABLE
  2
BLOCK_RECORD
  5
1
330
0
100
AcDbSymbolTable
 70
     2
  0
BLOCK_RECORD
  5
1F
330
1
100
AcDbSymbolTableRecord
100
AcDbBlockTableRecord
  2
*Model_Space
340
22
  0
BLOCK_RECORD
  5
1B
330
1
100
AcDbSymbolTableRecord
100
AcDbBlockTableRecord
  2
*Paper_Space
340
1E
  0
BLOCK_RECORD
  5
23
330
1
100
AcDbSymbolTableRecord
100
AcDbBlockTableRecord
  2
*Paper_Space0
340
26
  0
BLOCK_RECORD
  5
126
330
1
100
AcDbSymbolTableRecord
100
AcDbBlockTableRecord
  2
*Paper_Space1
340
127
  0
ENDTAB
  0
ENDSEC
  0
SECTION
  2
BLOCKS
  0
BLOCK
  5
20
330
1F
100
AcDbEntity
  8
0
100
AcDbBlockBegin
  2
*Model_Space
 70
     0
 10
0.0
 20
0.0
 30
0.0
  3
*Model_Space
  1

  0
ENDBLK
  5
21
330
1F
100
AcDbEntity
  8
0
100
AcDbBlockEnd
  0
BLOCK
  5
1C
330
1B
100
AcDbEntity
 67
     1
  8
0
100
AcDbBlockBegin
  2
*Paper_Space
 70
     0
 10
0.0
 20
0.0
 30
0.0
  3
*Paper_Space
  1

  0
ENDBLK
  5
1D
330
1B
100
AcDbEntity
 67
     1
  8
0
100
AcDbBlockEnd
  0
BLOCK
  5
24
330
23
100
AcDbEntity
  8
0
100
AcDbBlockBegin
  2
*Paper_Space0
 70
     0
 10
0.0
 20
0.0
 30
0.0
  3
*Paper_Space0
  1

  0
LWPOLYLINE
  5
FB
330
23
100
AcDbEntity
  8
0
  6
Continuous
 62
     7
370
    25
100
AcDbPolyline
 90
        9
 70
   128
 43
0.0
 10
95.0
 20
845.0
 10
94.9615705608
 20
846.3656322541
 10
94.847759065
 20
847.6787840266
 10
94.6629392246
 20
848.8889916311
 10
94.4142135624
 20
849.9497474683
 10
94.111140466
 20
850.8202872861
 10
93.7653668647
 20
851.4671567276
 10
93.390180644
 20
851.8654969628
 10
93.0
 20
852.0
  0
LWPOLYLINE
  5
FD
330
23
100
AcDbEntity
  8
0
  6
Continuous
 62
     7
370
    25
100
AcDbPolyline
 90
        9
 70
   128
 43
0.0
 10
-115.0
 20
845.0
 10
-114.9615705608
 20
846.3656322541
 10
-114.847759065
 20
847.6787840266
 10
-114.6629392246
 20
848.8889916311
 10
-114.4142135624
 20
849.9497474683
 10
-114.111140466
 20
850.8202872861
 10
-113.7653668647
 20
851.4671567276
 10
-113.390180644
 20
851.8654969628
 10
-113.0
 20
852.0
  0
SPLINE
  5
FF
330
23
100
AcDbEntity
  8
0
  6
Continuous
 62
     7
370
    25
100
AcDbSpline
210
0.0
220
0.0
230
1.0
 70
     8
 71
     3
 72
    14
 73
    10
 74
     0
 42
0.000000001
 43
0.00000001
 40
0.0
 40
0.0
 40
0.0
 40
0.0
 40
0.1249999999999985
 40
0.1249999999999985
 40
0.249999999999997
 40
0.249999999999997
 40
0.4999999999999978
 40
0.4999999999999978
 40
1.0
 40
1.0
 40
1.0
 40
1.0
 10
-106.5839868725033
 20
852.0
 30
0.0
 10
-106.2650058062958
 20
852.0
 30
0.0
 10
-105.9407459858197
 20
851.998648125984
 30
0.0
 10
-105.2955018263888
 20
851.9942172349885
 30
0.0
 10
-104.9722722008332
 20
851.9911385582843
 30
0.0
 10
-104.000762377442
 20
851.9805679452544
 30
0.0
 10
-103.3506597031437
 20
851.9718093775754
 30
0.0
 10
-101.3931391677088
 20
851.9479516125767
 30
0.0
 10
-100.0784984500568
 20
851.9362894391542
 30
0.0
 10
-98.75465168078554
 20
851.936289439154
 30
0.0
  0
SPLINE
  5
101
330
23
100
AcDbEntity
  8
0
  6
Continuous
 62
     7
370
    25
100
AcDbSpline
210
0.0
220
0.0
230
1.0
 70
     8
 71
     3
 72
    14
 73
    10
 74
     0
 42
0.000000001
 43
0.00000001
 40
0.0
 40
0.0
 40
0.0
 40
0.0
 40
0.4999999999999973
 40
0.4999999999999973
 40
0.7499999999999962
 40
0.7499999999999962
 40
0.8749999999999981
 40
0.8749999999999981
 40
1.0
 40
1.0
 40
1.0
 40
1.0
 10
78.75465168078665
 20
851.936289439154
 30
0.0
 10
80.07849845005772
 20
851.9362894391539
 30
0.0
 10
81.39313916770965
 20
851.9479516125765
 30
0.0
 10
83.35065970314439
 20
851.971809377575
 30
0.0
 10
84.00076237744248
 20
851.9805679452544
 30
0.0
 10
84.97227220083359
 20
851.9911385582845
 30
0.0
 10
85.29550182638916
 20
851.9942172349887
 30
0.0
 10
85.94074598581994
 20
851.9986481259839
 30
0.0
 10
86.265005806297
 20
852.0000000000002
 30
0.0
 10
86.58398687250343
 20
852.0
 30
0.0
  0
LINE
  5
114
330
23
100
AcDbEntity
  8
0
  6
Continuous
 62
     7
370
    25
100
AcDbLine
 10
-116.0
 20
766.0
 30
0.0
 11
-100.0
 21
766.0
 31
0.0
  0
LINE
  5
115
330
23
100
AcDbEntity
  8
0
  6
Continuous
 62
     7
370
    25
100
AcDbLine
 10
-116.0
 20
766.0
 30
0.0
 11
-116.0
 21
84.0
 31
0.0
  0
LINE
  5
116
330
23
100
AcDbEntity
  8
0
  6
Continuous
 62
     7
370
    25
100
AcDbLine
 10
-100.0
 20
770.0
 30
0.0
 11
-100.0
 21
0.0
 31
0.0
  0
LINE
  5
117
330
23
100
AcDbEntity
  8
0
  6
Continuous
 62
     7
370
    25
100
AcDbLine
 10
-116.0
 20
84.0
 30
0.0
 11
-100.0
 21
84.0
 31
0.0
  0
LINE
  5
118
330
23
100
AcDbEntity
  8
0
  6
Continuous
 62
     7
370
    25
100
AcDbLine
 10
86.5839868725
 20
852.0
 30
0.0
 11
93.0
 21
852.0
 31
0.0
  0
LINE
  5
119
330
23
100
AcDbEntity
  8
0
  6
Continuous
 62
     7
370
    25
100
AcDbLine
 10
100.0
 20
845.0
 30
0.0
 11
-120.0
 21
845.0
 31
0.0
  0
LINE
  5
11A
330
23
100
AcDbEntity
  8
0
  6
Continuous
 62
     7
370
    25
100
AcDbLine
 10
-113.0
 20
852.0
 30
0.0
 11
-106.5839868725
 21
852.0
 31
0.0
  0
LINE
  5
11B
330
23
100
AcDbEntity
  8
0
  6
Continuous
 62
     7
370
    25
100
AcDbLine
 10
78.7546516808
 20
851.9362894392
 30
0.0
 11
-98.7546516808
 21
851.9362894392
 31
0.0
  0
LINE
  5
11C
330
23
100
AcDbEntity
  8
0
  6
Continuous
 62
     7
370
    25
100
AcDbLine
 10
-120.0
 20
770.0
 30
0.0
 11
100.0
 21
770.0
 31
0.0
  0
LINE
  5
11D
330
23
100
AcDbEntity
  8
0
  6
Continuous
 62
     7
370
    25
100
AcDbLine
 10
-115.0
 20
845.0
 30
0.0
 11
-115.0
 21
770.0
 31
0.0
  0
LINE
  5
11E
330
23
100
AcDbEntity
  8
0
  6
Continuous
 62
     7
370
    25
100
AcDbLine
 10
95.0
 20
770.0
 30
0.0
 11
95.0
 21
845.0
 31
0.0
  0
LINE
  5
11F
330
23
100
AcDbEntity
  8
0
  6
Continuous
 62
     7
370
    25
100
AcDbLine
 10
-120.0
 20
770.0
 30
0.0
 11
-120.0
 21
845.0
 31
0.0
  0
LINE
  5
120
330
23
100
AcDbEntity
  8
0
  6
Continuous
 62
     7
370
    25
100
AcDbLine
 10
100.0
 20
845.0
 30
0.0
 11
100.0
 21
0.0
 31
0.0
  0
LINE
  5
121
330
23
100
AcDbEntity
  8
0
  6
Continuous
 62
     7
370
    25
100
AcDbLine
 10
-116.0
 20
0.0
 30
0.0
 11
100.0
 21
0.0
 31
0.0
  0
LINE
  5
122
330
23
100
AcDbEntity
  8
0
  6
Continuous
 62
     7
370
    25
100
AcDbLine
 10
-116.0
 20
80.0
 30
0.0
 11
-100.0
 21
80.0
 31
0.0
  0
LINE
  5
123
330
23
100
AcDbEntity
  8
0
  6
Continuous
 62
     7
370
    25
100
AcDbLine
 10
-116.0
 20
0.0
 30
0.0
 11
-116.0
 21
80.0
 31
0.0
  0
ARC
  5
124
330
23
100
AcDbEntity
  8
0
  6
Continuous
 62
     7
370
    25
100
AcDbCircle
 10
93.0
 20
845.0
 30
0.0
 40
7.000000000000114
100
AcDbArc
 50
0.0
 51
90.0
  0
ARC
  5
125
330
23
100
AcDbEntity
  8
0
  6
Continuous
 62
     7
370
    25
100
AcDbCircle
 10
-113.0
 20
845.0
 30
0.0
 40
7.000000000000114
100
AcDbArc
 50
90.0
 51
180.0
  0
VIEWPORT
  5
203
330
23
100
AcDbEntity
  8
0
100
AcDbViewport
 10
0.0
 20
0.0
 30
0.0
 40
205.6
 41
156.0
 68
     1
 69
     1
 12
0.0
 22
426.0
 13
0.0
 23
0.0
 14
10.0
 24
10.0
 15
10.0
 25
10.0
 16
0.0
 26
0.0
 36
1.0
 17
0.0
 27
0.0
 37
0.0
 42
50.0
 43
0.0
 44
0.0
 45
869.04
 50
0.0
 51
0.0
 72
   100
 90
   557152
  1

281
     0
 71
     1
 74
     0
110
0.0
120
0.0
130
0.0
111
1.0
121
0.0
131
0.0
112
0.0
122
1.0
132
0.0
 79
     0
146
0.0
  0
ENDBLK
  5
25
330
23
100
AcDbEntity
  8
0
100
AcDbBlockEnd
  0
BLOCK
  5
128
330
126
100
AcDbEntity
  8
0
100
AcDbBlockBegin
  2
*Paper_Space1
 70
     0
 10
0.0
 20
0.0
 30
0.0
  3
*Paper_Space1
  1

  0
SPLINE
  5
12A
330
126
100
AcDbEntity
  8
0
  6
Continuous
 62
     7
370
    25
100
AcDbSpline
210
0.0
220
0.0
230
1.0
 70
     8
 71
     3
 72
    18
 73
    14
 74
     0
 42
0.000000001
 43
0.00000001
 40
0.0
 40
0.0
 40
0.0
 40
0.0
 40
0.062053946543108
 40
0.1626117356700246
 40
0.2635884035008019
 40
0.3652502489323471
 40
0.4676816541251814
 40
0.5706943106690665
 40
0.6737163523245905
 40
0.7758872720145922
 40
0.8776275776458499
 40
0.9823348062764008
 40
1.0
 40
1.0
 40
1.0
 40
1.0
 10
63.06715389923648
 20
10.16866045861472
 30
0.0
 10
63.0702563974129
 20
9.807668173008784
 30
0.0
 10
63.07838646232393
 20
8.861691560786522
 30
0.0
 10
62.97203849762788
 20
7.348446537534723
 30
0.0
 10
62.76485613914166
 20
5.694796252890666
 30
0.0
 10
62.45866126043131
 20
4.170437884669981
 30
0.0
 10
62.07161096780862
 20
2.823947408351247
 30
0.0
 10
61.62139267259224
 20
1.701637102148833
 30
0.0
 10
61.13739789596289
 20
0.8479133233362055
 30
0.0
 10
60.66760266600956
 20
0.2871630964176829
 30
0.0
 10
60.2710694677192
 20
0.0406403527726494
 30
0.0
 10
60.12186878742336
 20
-0.0230312749518995
 30
0.0
 10
60.01970951862854
 20
0.0076649753335233
 30
0.0
 10
60.00496221495336
 20
0.0120961633205581
 30
0.0
  0
SPLINE
  5
12B
330
126
100
AcDbEntity
  8
0
  6
Continuous
 62
     7
370
    25
100
AcDbSpline
210
0.0
220
0.0
230
1.0
 70
     8
 71
     3
 72
    17
 73
    13
 74
     0
 42
0.000000001
 43
0.00000001
 40
0.0
 40
0.0
 40
0.0
 40
0.0
 40
0.1221828670963752
 40
0.2233077820983352
 40
0.3304661635024768
 40
0.4354205560619028
 40
0.5405715090417417
 40
0.6461215371854026
 40
0.7513773099480195
 40
0.8560710265153509
 40
0.9602868489843883
 40
1.0
 40
1.0
 40
1.0
 40
1.0
 10
60.04906083776076
 20
19.99279107912377
 30
0.0
 10
60.13375079330783
 20
19.98513661749626
 30
0.0
 10
60.28853457428021
 20
19.97114692409803
 30
0.0
 10
60.70654690791129
 20
19.67094290853362
 30
0.0
 10
61.17281172726239
 20
19.10074608240986
 30
0.0
 10
61.65185850881981
 20
18.23133451108242
 30
0.0
 10
62.09352641809882
 20
17.10986006342419
 30
0.0
 10
62.47422213347153
 20
15.76361500765758
 30
0.0
 10
62.77645139487547
 20
14.23561104643106
 30
0.0
 10
62.97749695492626
 20
12.57734095920064
 30
0.0
 10
63.07602487513156
 20
11.1987629244369
 30
0.0
 10
63.06907227393585
 20
10.39142315479935
 30
0.0
 10
63.06715389923648
 20
10.16866045861472
 30
0.0
  0
SPLINE
  5
136
330
126
100
AcDbEntity
  8
0
  6
Continuous
 62
     7
370
    25
100
AcDbSpline
210
0.0
220
0.0
230
1.0
 70
     8
 71
     3
 72
    14
 73
    10
 74
     0
 42
0.000000001
 43
0.00000001
 40
0.0
 40
0.0
 40
0.0
 40
0.0
 40
0.1250000000000002
 40
0.1250000000000002
 40
0.2500000000000004
 40
0.2500000000000004
 40
0.4999999999999999
 40
0.4999999999999999
 40
1.0
 40
1.0
 40
1.0
 40
1.0
 10
-186.4896005546968
 20
-93.00000000000003
 30
0.0
 10
-186.1886942136523
 20
-93.07183004531508
 30
0.0
 10
-185.8831822342931
 20
-93.14025298058644
 30
0.0
 10
-185.2749955317802
 20
-93.26665021285498
 30
0.0
 10
-184.9703693253988
 20
-93.32521888710906
 30
0.0
 10
-184.0548907800847
 20
-93.48708778725411
 30
0.0
 10
-183.4424371219603
 20
-93.57654236018332
 30
0.0
 10
-181.5987158066891
 20
-93.7902966955357
 30
0.0
 10
-180.3610757321364
 20
-93.85993611911852
 30
0.0
 10
-179.1152728229202
 20
-93.85993611911852
 30
0.0
  0
SPLINE
  5
138
330
126
100
AcDbEntity
  8
0
  6
Continuous
 62
     7
370
    25
100
AcDbSpline
210
0.0
220
0.0
230
1.0
 70
     8
 71
     3
 72
    14
 73
    10
 74
     0
 42
0.000000001
 43
0.00000001
 40
0.0
 40
0.0
 40
0.0
 40
0.0
 40
0.4999999999999973
 40
0.4999999999999973
 40
0.7499999999999962
 40
0.7499999999999962
 40
0.8749999999999981
 40
0.8749999999999981
 40
1.0
 40
1.0
 40
1.0
 40
1.0
 10
-193.9422785237283
 20
-78.75465168078665
 30
0.0
 10
-193.9422785237282
 20
-80.07849845005772
 30
0.0
 10
-193.8663308268951
 20
-81.39313916770965
 30
0.0
 10
-193.6324667428758
 20
-83.35065970314439
 30
0.0
 10
-193.5345258483304
 20
-84.00076237744248
 30
0.0
 10
-193.3570620941524
 20
-84.97227220083359
 30
0.0
 10
-193.2928174728775
 20
-85.29550182638916
 30
0.0
 10
-193.1540818331122
 20
-85.94074598581994
 30
0.0
 10
-193.0789029127631
 20
-86.265005806297
 30
0.0
 10
-192.9999999999999
 20
-86.58398687250343
 30
0.0
  0
SPLINE
  5
13F
330
126
100
AcDbEntity
  8
0
  6
Continuous
 62
     7
370
    25
100
AcDbSpline
210
0.0
220
0.0
230
1.0
 70
     8
 71
     3
 72
    16
 73
    12
 74
     0
 42
0.000000001
 43
0.00000001
 40
0.0
 40
0.0
 40
0.0
 40
0.0
 40
0.0625000000000043
 40
0.0625000000000043
 40
0.1250000000000085
 40
0.1250000000000085
 40
0.2500000000000099
 40
0.2500000000000099
 40
0.5000000000000059
 40
0.5000000000000059
 40
1.0
 40
1.0
 40
1.0
 40
1.0
 10
193.0000000000001
 20
-87.63935750006517
 30
0.0
 10
193.0502710564778
 20
-87.46915266807258
 30
0.0
 10
193.1001258751541
 20
-87.29554286023537
 30
0.0
 10
193.1958161856256
 20
-86.95086482091088
 30
0.0
 10
193.2421575981266
 20
-86.77831012339281
 30
0.0
 10
193.376637384076
 20
-86.2599905246842
 30
0.0
 10
193.4602315465716
 20
-85.9135700863764
 30
0.0
 10
193.6925624399113
 20
-84.87162002366323
 30
0.0
 10
193.8228513536733
 20
-84.17340109894441
 30
0.0
 10
194.1375895027591
 20
-82.0674733285353
 30
0.0
 10
194.2459666924152
 20
-80.64847854996255
 30
0.0
 10
194.2459666924152
 20
-79.21320772688892
 30
0.0
  0
SPLINE
  5
141
330
126
100
AcDbEntity
  8
0
  6
Continuous
 62
     7
370
    25
100
AcDbSpline
210
0.0
220
0.0
230
1.0
 70
     8
 71
     3
 72
    14
 73
    10
 74
     0
 42
0.000000001
 43
0.00000001
 40
0.0
 40
0.0
 40
0.0
 40
0.0
 40
0.5000000000000009
 40
0.5000000000000009
 40
0.7500000000000064
 40
0.7500000000000064
 40
0.8750000000000032
 40
0.8750000000000032
 40
1.0
 40
1.0
 40
1.0
 40
1.0
 10
180.0000000000001
 20
-93.85257055585942
 30
0.0
 10
181.194798899014
 20
-93.85257055585944
 30
0.0
 10
182.3807314418027
 20
-93.77945623179397
 30
0.0
 10
184.1469734647412
 20
-93.56480588873158
 30
0.0
 10
184.7336123690563
 20
-93.4757552937376
 30
0.0
 10
185.6104963755515
 20
-93.31647766415693
 30
0.0
 10
185.9022787008516
 20
-93.25910122902984
 30
0.0
 10
186.4848339316869
 20
-93.13586879495233
 30
0.0
 10
186.7774104691187
 20
-93.06945729430281
 30
0.0
 10
187.0657171481798
 20
-93.00000000000003
 30
0.0
  0
SPLINE
  5
149
330
126
100
AcDbEntity
  8
0
  6
Continuous
 62
     7
370
    25
100
AcDbSpline
210
0.0
220
0.0
230
1.0
 70
     8
 71
     3
 72
    14
 73
    10
 74
     0
 42
0.000000001
 43
0.00000001
 40
0.0
 40
0.0
 40
0.0
 40
0.0
 40
0.1249999999999973
 40
0.1249999999999973
 40
0.2499999999999945
 40
0.2499999999999945
 40
0.4999999999999966
 40
0.4999999999999966
 40
1.0
 40
1.0
 40
1.0
 40
1.0
 10
-192.9999999999999
 20
106.5839868725033
 30
0.0
 10
-193.0789029127588
 20
106.2650058062958
 30
0.0
 10
-193.1540818331122
 20
105.9407459858197
 30
0.0
 10
-193.2928174728774
 20
105.2955018263888
 30
0.0
 10
-193.3570620941524
 20
104.9722722008332
 30
0.0
 10
-193.5345258483305
 20
104.000762377442
 30
0.0
 10
-193.6324667428759
 20
103.3506597031438
 30
0.0
 10
-193.8663308268953
 20
101.3931391677089
 30
0.0
 10
-193.9422785237283
 20
100.0784984500568
 30
0.0
 10
-193.9422785237283
 20
98.75465168078554
 30
0.0
  0
SPLINE
  5
14F
330
126
100
AcDbEntity
  8
0
  6
Continuous
 62
     7
370
    25
100
AcDbSpline
210
0.0
220
0.0
230
1.0
 70
     8
 71
     3
 72
     8
 73
     4
 74
     0
 42
0.000000001
 43
0.00000001
 40
0.0000001999997767
 40
0.0000001999997767
 40
0.0000001999997767
 40
0.0000001999997767
 40
0.0049667068023436
 40
0.0049667068023436
 40
0.0049667068023436
 40
0.0049667068023436
 10
68.33496679312633
 20
-93.85993611911842
 30
0.0
 10
69.99046906064864
 20
-93.85993611911842
 30
0.0
 10
71.645965783466
 20
-93.85257055585926
 30
0.0
 10
73.3014680509883
 20
-93.85257055585926
 30
0.0
  0
SPLINE
  5
151
330
126
100
AcDbEntity
  8
0
  6
Continuous
 62
     7
370
    25
100
AcDbSpline
210
0.0
220
0.0
230
1.0
 70
     8
 71
     3
 72
    14
 73
    10
 74
     0
 42
0.000000001
 43
0.00000001
 40
0.0
 40
0.0
 40
0.0
 40
0.0
 40
0.1250000000000006
 40
0.1250000000000006
 40
0.2500000000000012
 40
0.2500000000000012
 40
0.5000000000000008
 40
0.5000000000000008
 40
1.0
 40
1.0
 40
1.0
 40
1.0
 10
187.0657171481798
 20
113.0
 30
0.0
 10
186.7774104691166
 20
113.0694572942939
 30
0.0
 10
186.4848339316868
 20
113.1358687949523
 30
0.0
 10
185.9022787008514
 20
113.2591012290298
 30
0.0
 10
185.6104963755515
 20
113.3164776641569
 30
0.0
 10
184.7336123690562
 20
113.4757552937375
 30
0.0
 10
184.1469734647411
 20
113.5648058887315
 30
0.0
 10
182.3807314418027
 20
113.7794562317939
 30
0.0
 10
181.1947988990141
 20
113.8525705558593
 30
0.0
 10
180.0000000000001
 20
113.8525705558593
 30
0.0
  0
SPLINE
  5
153
330
126
100
AcDbEntity
  8
0
  6
Continuous
 62
     7
370
    25
100
AcDbSpline
210
0.0
220
0.0
230
1.0
 70
     8
 71
     3
 72
    16
 73
    12
 74
     0
 42
0.000000001
 43
0.00000001
 40
0.0
 40
0.0
 40
0.0
 40
0.0
 40
0.5000000000000021
 40
0.5000000000000021
 40
0.7500000000000037
 40
0.7500000000000037
 40
0.8750000000000053
 40
0.8750000000000053
 40
0.9375000000000027
 40
0.9375000000000027
 40
1.0
 40
1.0
 40
1.0
 40
1.0
 10
194.2459666924152
 20
99.21320772688881
 30
0.0
 10
194.2459666924153
 20
100.6484785499622
 30
0.0
 10
194.1375895027591
 20
102.0674733285368
 30
0.0
 10
193.822851353672
 20
104.1734010989514
 30
0.0
 10
193.6925624399095
 20
104.8716200236725
 30
0.0
 10
193.4602315465684
 20
105.9135700863898
 30
0.0
 10
193.3766373840723
 20
106.2599905246991
 30
0.0
 10
193.2421575981219
 20
106.7783101234101
 30
0.0
 10
193.1958161856207
 20
106.950864820929
 30
0.0
 10
193.1001258751484
 20
107.2955428602552
 30
0.0
 10
193.0502710576454
 20
107.4691526684169
 30
0.0
 10
193.0000000000001
 20
107.6393575000651
 30
0.0
  0
SPLINE
  5
15B
330
126
100
AcDbEntity
  8
0
  6
Continuous
 62
     7
370
    25
100
AcDbSpline
210
0.0
220
0.0
230
1.0
 70
     8
 71
     3
 72
    14
 73
    10
 74
     0
 42
0.000000001
 43
0.00000001
 40
0.0
 40
0.0
 40
0.0
 40
0.0
 40
0.4999999999999956
 40
0.4999999999999956
 40
0.7499999999999928
 40
0.7499999999999928
 40
0.8749999999999964
 40
0.8749999999999964
 40
1.0
 40
1.0
 40
1.0
 40
1.0
 10
-179.1152728229211
 20
113.8599361191184
 30
0.0
 10
-180.3610757321372
 20
113.8599361191184
 30
0.0
 10
-181.5987158066897
 20
113.7902966955356
 30
0.0
 10
-183.4424371219606
 20
113.5765423601832
 30
0.0
 10
-184.054890780085
 20
113.487087787254
 30
0.0
 10
-184.970369325399
 20
113.3252188871089
 30
0.0
 10
-185.2749955317803
 20
113.2666502128549
 30
0.0
 10
-185.8831822342931
 20
113.1402529805864
 30
0.0
 10
-186.1886942136528
 20
113.0718300453166
 30
0.0
 10
-186.4896005546968
 20
113.0
 30
0.0
  0
SPLINE
  5
162
330
126
100
AcDbEntity
  8
0
  6
Continuous
 62
     7
370
    25
100
AcDbSpline
210
0.0
220
0.0
230
1.0
 70
     8
 71
     3
 72
     8
 73
     4
 74
     0
 42
0.000000001
 43
0.00000001
 40
0.0000001999997767
 40
0.0000001999997767
 40
0.0000001999997767
 40
0.0000001999997767
 40
0.0049667068023437
 40
0.0049667068023437
 40
0.0049667068023437
 40
0.0049667068023437
 10
73.30146805098832
 20
113.8525705558592
 30
0.0
 10
71.64596578346598
 20
113.8525705558592
 30
0.0
 10
69.99046906064862
 20
113.8599361191183
 30
0.0
 10
68.33496679312628
 20
113.8599361191183
 30
0.0
  0
SPLINE
  5
169
330
126
100
AcDbEntity
  8
0
  6
Continuous
 62
     7
370
    25
100
AcDbSpline
210
0.0
220
0.0
230
1.0
 70
     8
 71
     3
 72
     8
 73
     4
 74
     0
 42
0.000000001
 43
0.00000001
 40
0.0
 40
0.0
 40
0.0
 40
0.0
 40
1.0
 40
1.0
 40
1.0
 40
1.0
 10
73.3014680509883
 20
108.326109717965
 30
0.0
 10
71.64088751269455
 20
108.326109717965
 30
0.0
 10
69.98558846819478
 20
108.2978847581458
 30
0.0
 10
68.33496679312631
 20
108.2304546034416
 30
0.0
  0
SPLINE
  5
16D
330
126
100
AcDbEntity
  8
0
  6
Continuous
 62
     7
370
    25
100
AcDbSpline
210
0.0
220
0.0
230
1.0
 70
     8
 71
     3
 72
     8
 73
     4
 74
     0
 42
0.000000001
 43
0.00000001
 40
0.0
 40
0.0
 40
0.0
 40
0.0
 40
1.0
 40
1.0
 40
1.0
 40
1.0
 10
68.33496679312633
 20
-88.23045460344166
 30
0.0
 10
69.98535405475539
 20
-88.29787518203607
 30
0.0
 10
71.64116003608603
 20
-88.32610971796512
 30
0.0
 10
73.3014680509883
 20
-88.32610971796512
 30
0.0
  0
LWPOLYLINE
  5
17C
330
126
100
AcDbEntity
  8
0
  6
Continuous
 62
     7
370
    25
100
AcDbPolyline
 90
        8
 70
   128
 43
0.0
 10
68.3349667931
 20
108.2304546034
 10
65.7130499373
 20
107.8789998913
 10
63.2358764424
 20
107.3848043714
 10
60.9506965273
 20
106.7572944513
 10
58.9010982781
 20
106.00843941
 10
57.1261762378
 20
105.1525230935
 10
55.6597857078
 20
104.2058714611
 10
54.5298969831
 20
103.1865411796
  0
LWPOLYLINE
  5
181
330
126
100
AcDbEntity
  8
0
  6
Continuous
 62
     7
370
    25
100
AcDbPolyline
 90
        8
 70
   128
 43
0.0
 10
54.5298969831
 20
-83.1865411796
 10
55.6597857078
 20
-84.2058714611
 10
57.1261762378
 20
-85.1525230935
 10
58.9010982781
 20
-86.00843941
 10
60.9506965273
 20
-86.7572944513
 10
63.2358764424
 20
-87.3848043714
 10
65.7130499373
 20
-87.8789998913
 10
68.3349667931
 20
-88.2304546034
  0
CIRCLE
  5
190
330
126
100
AcDbEntity
  8
0
  6
Continuous
 62
     7
370
    25
100
AcDbCircle
 10
130.0
 20
10.0
 30
0.0
 40
17.50000000000003
  0
CIRCLE
  5
191
330
126
100
AcDbEntity
  8
0
  6
Continuous
 62
     7
370
    25
100
AcDbCircle
 10
130.0
 20
10.0
 30
0.0
 40
18.50000000000001
  0
LWPOLYLINE
  5
195
330
126
100
AcDbEntity
  8
0
  6
Continuous
 62
     7
370
    25
100
AcDbPolyline
 90
       37
 70
   128
 43
0.0
 10
55.0533329576
 20
10.0
 10
55.1147721917
 20
11.9101299543
 10
55.2972230941
 20
13.7622215766
 10
55.5951419864
 20
15.5
 10
55.9994767538
 20
17.0706637066
 10
56.497941889
 20
18.4264888743
 10
57.0753917811
 20
19.5262794416
 10
57.7142809074
 20
20.3366188286
 10
58.395196945
 20
20.8328852831
 10
59.0974506046
 20
21.0
 10
59.7997042643
 20
20.8328852831
 10
60.4806203019
 20
20.3366188286
 10
61.1195094282
 20
19.5262794416
 10
61.6969593203
 20
18.4264888743
 10
62.1954244555
 20
17.0706637066
 10
62.5997592229
 20
15.5
 10
62.8976781152
 20
13.7622215766
 10
63.0801290176
 20
11.9101299543
 10
63.1415682517
 20
10.0
 10
63.0801290176
 20
8.0898700457
 10
62.8976781152
 20
6.2377784234
 10
62.5997592229
 20
4.5
 10
62.1954244555
 20
2.9293362934
 10
61.6969593203
 20
1.5735111257
 10
61.1195094282
 20
0.4737205584
 10
60.4806203019
 20
-0.3366188286
 10
59.7997042643
 20
-0.8328852831
 10
59.0974506046
 20
-1.0
 10
58.395196945
 20
-0.8328852831
 10
57.7142809074
 20
-0.3366188286
 10
57.0753917811
 20
0.4737205584
 10
56.497941889
 20
1.5735111257
 10
55.9994767538
 20
2.9293362934
 10
55.5951419864
 20
4.5
 10
55.2972230941
 20
6.2377784234
 10
55.1147721917
 20
8.0898700457
 10
55.0533329576
 20
10.0
  0
CIRCLE
  5
1A6
330
126
100
AcDbEntity
  8
0
  6
Continuous
 62
     7
370
    25
100
AcDbCircle
 10
-50.0
 20
10.0
 30
0.0
 40
22.49999999999998
  0
CIRCLE
  5
1A7
330
126
100
AcDbEntity
  8
0
  6
Continuous
 62
     7
370
    25
100
AcDbCircle
 10
-50.0
 20
10.0
 30
0.0
 40
32.50000000000023
  0
LWPOLYLINE
  5
1AC
330
126
100
AcDbEntity
  8
0
  6
Continuous
 62
     8
370
    25
100
AcDbPolyline
 90
       10
 70
   128
 43
0.0
 10
55.991911511
 20
10.0
 10
56.0533507451
 20
8.2635182233
 10
56.2358016475
 20
6.5797985667
 10
56.5337205398
 20
5.0
 10
56.9380553072
 20
3.5721239031
 10
57.4365204424
 20
2.3395555688
 10
58.0139703345
 20
1.3397459622
 10
58.6528594608
 20
0.6030737921
 10
59.3337754984
 20
0.1519224699
 10
59.9619180351
 20
0.00167929
  0
LWPOLYLINE
  5
1AD
330
126
100
AcDbEntity
  8
0
  6
Continuous
 62
     8
370
    25
100
AcDbPolyline
 90
       11
 70
   128
 43
0.0
 10
60.0632837593
 20
19.9997729053
 10
60.036029158
 20
20.0
 10
59.3337754984
 20
19.8480775301
 10
58.6528594608
 20
19.3969262079
 10
58.0139703345
 20
18.6602540378
 10
57.4365204424
 20
17.6604444312
 10
56.9380553072
 20
16.4278760969
 10
56.5337205398
 20
15.0
 10
56.2358016475
 20
13.4202014333
 10
56.0533507451
 20
11.7364817767
 10
55.991911511
 20
10.0
  0
LINE
  5
1AE
330
126
100
AcDbEntity
  8
0
  6
Continuous
 62
     7
370
    25
100
AcDbLine
 10
-200.0
 20
-100.0
 30
0.0
 11
-200.0
 21
116.0
 31
0.0
  0
LINE
  5
1AF
330
126
100
AcDbEntity
  8
0
  6
Continuous
 62
     7
370
    25
100
AcDbLine
 10
200.0
 20
116.0
 30
0.0
 11
199.8989794856
 21
116.0
 31
0.0
  0
LINE
  5
1B0
330
126
100
AcDbEntity
  8
0
  6
Continuous
 62
     7
370
    25
100
AcDbLine
 10
-199.8989794856
 20
116.0
 30
0.0
 11
-200.0
 21
116.0
 31
0.0
  0
LINE
  5
1B1
330
126
100
AcDbEntity
  8
0
  6
Continuous
 62
     7
370
    25
100
AcDbLine
 10
200.0
 20
116.0
 30
0.0
 11
200.0
 21
-100.0
 31
0.0
  0
LINE
  5
1B2
330
126
100
AcDbEntity
  8
0
  6
Continuous
 62
     7
370
    25
100
AcDbLine
 10
193.0
 20
113.0
 30
0.0
 11
195.0
 21
120.0
 31
0.0
  0
LINE
  5
1B3
330
126
100
AcDbEntity
  8
0
  6
Continuous
 62
     7
370
    25
100
AcDbLine
 10
200.0
 20
115.0
 30
0.0
 11
193.0
 21
113.0
 31
0.0
  0
LINE
  5
1B4
330
126
100
AcDbEntity
  8
0
  6
Continuous
 62
     7
370
    25
100
AcDbLine
 10
-200.0
 20
-95.0
 30
0.0
 11
-193.0
 21
-93.0
 31
0.0
  0
LINE
  5
1B5
330
126
100
AcDbEntity
  8
0
  6
Continuous
 62
     7
370
    25
100
AcDbLine
 10
-193.0
 20
-93.0
 30
0.0
 11
-195.0
 21
-100.0
 31
0.0
  0
LINE
  5
1B6
330
126
100
AcDbEntity
  8
0
  6
Continuous
 62
     7
370
    25
100
AcDbLine
 10
-193.9422785237
 20
-78.7546516808
 30
0.0
 11
-188.3145071737
 21
-78.7546516808
 31
0.0
  0
LINE
  5
1B7
330
126
100
AcDbEntity
  8
0
  6
Continuous
 62
     7
370
    25
100
AcDbLine
 10
-179.1152728229
 20
-88.2304546034
 30
0.0
 11
-179.1152728229
 21
-93.8599361191
 31
0.0
  0
LINE
  5
1B8
330
126
100
AcDbEntity
  8
0
  6
Continuous
 62
     7
370
    25
100
AcDbLine
 10
-193.0
 20
-86.5839868725
 30
0.0
 11
-193.0
 21
-93.0
 31
0.0
  0
LINE
  5
1B9
330
126
100
AcDbEntity
  8
0
  6
Continuous
 62
     7
370
    25
100
AcDbLine
 10
-193.0
 20
-93.0
 30
0.0
 11
-186.4896005547
 21
-93.0
 31
0.0
  0
LINE
  5
1BA
330
126
100
AcDbEntity
  8
0
  6
Continuous
 62
     7
370
    25
100
AcDbLine
 10
-186.4896005547
 20
113.0
 30
0.0
 11
-193.0
 21
113.0
 31
0.0
  0
LINE
  5
1BB
330
126
100
AcDbEntity
  8
0
  6
Continuous
 62
     7
370
    25
100
AcDbLine
 10
-193.0
 20
113.0
 30
0.0
 11
-193.0
 21
106.5839868725
 31
0.0
  0
LINE
  5
1BC
330
126
100
AcDbEntity
  8
0
  6
Continuous
 62
     7
370
    25
100
AcDbLine
 10
-200.0
 20
115.0
 30
0.0
 11
-193.0
 21
113.0
 31
0.0
  0
LINE
  5
1BD
330
126
100
AcDbEntity
  8
0
  6
Continuous
 62
     7
370
    25
100
AcDbLine
 10
-193.9422785237
 20
-78.7546516808
 30
0.0
 11
-193.9422785237
 21
98.7546516808
 31
0.0
  0
LINE
  5
1BE
330
126
100
AcDbEntity
  8
0
  6
Continuous
 62
     7
370
    25
100
AcDbLine
 10
187.0657171482
 20
-93.0
 30
0.0
 11
193.0
 21
-93.0
 31
0.0
  0
LINE
  5
1BF
330
126
100
AcDbEntity
  8
0
  6
Continuous
 62
     7
370
    25
100
AcDbLine
 10
193.0
 20
-93.0
 30
0.0
 11
195.0
 21
-100.0
 31
0.0
  0
LINE
  5
1C0
330
126
100
AcDbEntity
  8
0
  6
Continuous
 62
     7
370
    25
100
AcDbLine
 10
200.0
 20
-100.0
 30
0.0
 11
-200.0
 21
-100.0
 31
0.0
  0
LINE
  5
1C1
330
126
100
AcDbEntity
  8
0
  6
Continuous
 62
     7
370
    25
100
AcDbLine
 10
68.3349667931
 20
-93.8599361191
 30
0.0
 11
-179.1152728229
 21
-93.8599361191
 31
0.0
  0
LINE
  5
1C2
330
126
100
AcDbEntity
  8
0
  6
Continuous
 62
     7
370
    25
100
AcDbLine
 10
73.301468051
 20
-93.8525705559
 30
0.0
 11
180.0
 21
-93.8525705559
 31
0.0
  0
LINE
  5
1C3
330
126
100
AcDbEntity
  8
0
  6
Continuous
 62
     7
370
    25
100
AcDbLine
 10
194.2459666924
 20
99.2132077269
 30
0.0
 11
73.301468051
 21
99.2132077269
 31
0.0
  0
LINE
  5
1C4
330
126
100
AcDbEntity
  8
0
  6
Continuous
 62
     7
370
    25
100
AcDbLine
 10
180.0
 20
-93.8525705559
 30
0.0
 11
180.0
 21
113.8525705559
 31
0.0
  0
LINE
  5
1C5
330
126
100
AcDbEntity
  8
0
  6
Continuous
 62
     7
370
    25
100
AcDbLine
 10
-195.0
 20
120.0
 30
0.0
 11
-193.0
 21
113.0
 31
0.0
  0
LINE
  5
1C6
330
126
100
AcDbEntity
  8
0
  6
Continuous
 62
     7
370
    25
100
AcDbLine
 10
193.0
 20
-93.0
 30
0.0
 11
193.0
 21
-87.6393575001
 31
0.0
  0
LINE
  5
1C7
330
126
100
AcDbEntity
  8
0
  6
Continuous
 62
     7
370
    25
100
AcDbLine
 10
-193.9422785237
 20
98.7546516808
 30
0.0
 11
-188.3145071737
 21
98.7546516808
 31
0.0
  0
LINE
  5
1C8
330
126
100
AcDbEntity
  8
0
  6
Continuous
 62
     7
370
    25
100
AcDbLine
 10
-179.1152728229
 20
108.2304546034
 30
0.0
 11
-179.1152728229
 21
113.8599361191
 31
0.0
  0
LINE
  5
1C9
330
126
100
AcDbEntity
  8
0
  6
Continuous
 62
     7
370
    25
100
AcDbLine
 10
-179.1152728229
 20
113.8599361191
 30
0.0
 11
68.3349667931
 21
113.8599361191
 31
0.0
  0
LINE
  5
1CA
330
126
100
AcDbEntity
  8
0
  6
Continuous
 62
     7
370
    25
100
AcDbLine
 10
-195.0
 20
120.0
 30
0.0
 11
195.0
 21
120.0
 31
0.0
  0
LINE
  5
1CB
330
126
100
AcDbEntity
  8
0
  6
Continuous
 62
     7
370
    25
100
AcDbLine
 10
193.0
 20
113.0
 30
0.0
 11
187.0657171482
 21
113.0
 31
0.0
  0
LINE
  5
1CC
330
126
100
AcDbEntity
  8
0
  6
Continuous
 62
     7
370
    25
100
AcDbLine
 10
73.301468051
 20
113.8525705559
 30
0.0
 11
180.0
 21
113.8525705559
 31
0.0
  0
LINE
  5
1CD
330
126
100
AcDbEntity
  8
0
  6
Continuous
 62
     7
370
    25
100
AcDbLine
 10
193.0
 20
-93.0
 30
0.0
 11
200.0
 21
-95.0
 31
0.0
  0
LINE
  5
1CE
330
126
100
AcDbEntity
  8
0
  6
Continuous
 62
     7
370
    25
100
AcDbLine
 10
193.0
 20
107.6393575001
 30
0.0
 11
193.0
 21
113.0
 31
0.0
  0
LINE
  5
1CF
330
126
100
AcDbEntity
  8
0
  6
Continuous
 62
     7
370
    25
100
AcDbLine
 10
194.2459666924
 20
-79.2132077269
 30
0.0
 11
194.2459666924
 21
99.2132077269
 31
0.0
  0
LINE
  5
1D0
330
126
100
AcDbEntity
  8
0
  6
Continuous
 62
     7
370
    25
100
AcDbLine
 10
68.3349667931
 20
108.2304546034
 30
0.0
 11
68.3349667931
 21
113.8599361191
 31
0.0
  0
LINE
  5
1D1
330
126
100
AcDbEntity
  8
0
  6
Continuous
 62
     7
370
    25
100
AcDbLine
 10
73.301468051
 20
113.8525705559
 30
0.0
 11
73.301468051
 21
-93.8525705559
 31
0.0
  0
LINE
  5
1D2
330
126
100
AcDbEntity
  8
0
  6
Continuous
 62
     7
370
    25
100
AcDbLine
 10
68.3349667931
 20
-88.2304546034
 30
0.0
 11
68.3349667931
 21
-93.8599361191
 31
0.0
  0
LINE
  5
1D3
330
126
100
AcDbEntity
  8
0
  6
Continuous
 62
     7
370
    25
100
AcDbLine
 10
180.0
 20
108.326109718
 30
0.0
 11
73.301468051
 21
108.326109718
 31
0.0
  0
LINE
  5
1D4
330
126
100
AcDbEntity
  8
0
  6
Continuous
 62
     7
370
    25
100
AcDbLine
 10
73.301468051
 20
-88.326109718
 30
0.0
 11
180.0
 21
-88.326109718
 31
0.0
  0
LINE
  5
1D5
330
126
100
AcDbEntity
  8
0
  6
Continuous
 62
     7
370
    25
100
AcDbLine
 10
68.3349667931
 20
108.2304546034
 30
0.0
 11
-179.1152728229
 21
108.2304546034
 31
0.0
  0
LINE
  5
1D6
330
126
100
AcDbEntity
  8
0
  6
Continuous
 62
     7
370
    25
100
AcDbLine
 10
-179.1152728229
 20
-88.2304546034
 30
0.0
 11
68.3349667931
 21
-88.2304546034
 31
0.0
  0
LINE
  5
1D7
330
126
100
AcDbEntity
  8
0
  6
Continuous
 62
     7
370
    25
100
AcDbLine
 10
-188.3145071737
 20
98.7546516808
 30
0.0
 11
-188.3145071737
 21
-78.7546516808
 31
0.0
  0
LINE
  5
1D8
330
126
100
AcDbEntity
  8
0
  6
Continuous
 62
     7
370
    25
100
AcDbLine
 10
189.1129019911
 20
-79.2132077269
 30
0.0
 11
189.1129019911
 21
99.2132077269
 31
0.0
  0
LINE
  5
1D9
330
126
100
AcDbEntity
  8
0
  6
Continuous
 62
     7
370
    25
100
AcDbLine
 10
-167.4078468947
 20
75.7573253739
 30
0.0
 11
-188.3145071737
 21
98.7546516808
 31
0.0
  0
LINE
  5
1DA
330
126
100
AcDbEntity
  8
0
  6
Continuous
 62
     7
370
    25
100
AcDbLine
 10
-179.1152728229
 20
108.2304546034
 30
0.0
 11
-158.0220613608
 21
85.0279219951
 31
0.0
  0
LINE
  5
1DB
330
126
100
AcDbEntity
  8
0
  6
Continuous
 62
     7
370
    25
100
AcDbLine
 10
-158.0220613608
 20
-65.0279219951
 30
0.0
 11
-179.1152728229
 21
-88.2304546034
 31
0.0
  0
LINE
  5
1DC
330
126
100
AcDbEntity
  8
0
  6
Continuous
 62
     7
370
    25
100
AcDbLine
 10
-188.3145071737
 20
-78.7546516808
 30
0.0
 11
-167.4078468947
 21
-55.7573253739
 31
0.0
  0
LINE
  5
1DD
330
126
100
AcDbEntity
  8
0
  6
Continuous
 62
     7
370
    25
100
AcDbLine
 10
73.301468051
 20
-79.2132077269
 30
0.0
 11
194.2459666924
 21
-79.2132077269
 31
0.0
  0
LINE
  5
1DE
330
126
100
AcDbEntity
  8
0
  6
Continuous
 62
     7
370
    25
100
AcDbLine
 10
38.0220613608
 20
-65.0279219951
 30
0.0
 11
-158.0220613608
 21
-65.0279219951
 31
0.0
  0
LINE
  5
1DF
330
126
100
AcDbEntity
  8
0
  6
Continuous
 62
     7
370
    25
100
AcDbLine
 10
54.5298969831
 20
-83.1865411796
 30
0.0
 11
38.0220613608
 21
-65.0279219951
 31
0.0
  0
LINE
  5
1E0
330
126
100
AcDbEntity
  8
0
  6
Continuous
 62
     7
370
    25
100
AcDbLine
 10
38.0220613608
 20
85.0279219951
 30
0.0
 11
54.5298969831
 21
103.1865411796
 31
0.0
  0
LINE
  5
1E1
330
126
100
AcDbEntity
  8
0
  6
Continuous
 62
     7
370
    25
100
AcDbLine
 10
-158.0220613608
 20
85.0279219951
 30
0.0
 11
38.0220613608
 21
85.0279219951
 31
0.0
  0
LINE
  5
1E2
330
126
100
AcDbEntity
  8
0
  6
Continuous
 62
     7
370
    25
100
AcDbLine
 10
-167.4078468947
 20
-55.7573253739
 30
0.0
 11
-167.4078468947
 21
75.7573253739
 31
0.0
  0
LINE
  5
1E3
330
126
100
AcDbEntity
  8
0
  6
Continuous
 62
     7
370
    25
100
AcDbLine
 10
63.915682517
 20
-73.9159445585
 30
0.0
 11
63.915682517
 21
93.9159445585
 31
0.0
  0
LINE
  5
1E4
330
126
100
AcDbEntity
  8
0
  6
Continuous
 62
     7
370
    25
100
AcDbLine
 10
63.915682517
 20
93.9159445585
 30
0.0
 11
47.4078468947
 21
75.7573253739
 31
0.0
  0
LINE
  5
1E5
330
126
100
AcDbEntity
  8
0
  6
Continuous
 62
     7
370
    25
100
AcDbLine
 10
47.4078468947
 20
-55.7573253739
 30
0.0
 11
63.915682517
 21
-73.9159445585
 31
0.0
  0
LINE
  5
1E6
330
126
100
AcDbEntity
  8
0
  6
Continuous
 62
     7
370
    25
100
AcDbLine
 10
47.4078468947
 20
75.7573253739
 30
0.0
 11
47.4078468947
 21
-55.7573253739
 31
0.0
  0
LINE
  5
1E7
330
126
100
AcDbEntity
  8
0
  6
Continuous
 62
     7
370
    25
100
AcDbLine
 10
59.9619180351
 20
0.00167929
 30
0.0
 11
60.036029158
 21
0.0
 31
0.0
  0
LINE
  5
1E8
330
126
100
AcDbEntity
  8
0
  6
Continuous
 62
     7
370
    25
100
AcDbLine
 10
47.4078468947
 20
75.7573253739
 30
0.0
 11
-167.4078468947
 21
75.7573253739
 31
0.0
  0
LINE
  5
1E9
330
126
100
AcDbEntity
  8
0
  6
Continuous
 62
     7
370
    25
100
AcDbLine
 10
-158.0220613608
 20
85.0279219951
 30
0.0
 11
-158.0220613608
 21
-65.0279219951
 31
0.0
  0
LINE
  5
1EA
330
126
100
AcDbEntity
  8
0
  6
Continuous
 62
     7
370
    25
100
AcDbLine
 10
38.0220613608
 20
-65.0279219951
 30
0.0
 11
38.0220613608
 21
85.0279219951
 31
0.0
  0
LINE
  5
1EB
330
126
100
AcDbEntity
  8
0
  6
Continuous
 62
     7
370
    25
100
AcDbLine
 10
-167.4078468947
 20
-55.7573253739
 30
0.0
 11
47.4078468947
 21
-55.7573253739
 31
0.0
  0
ARC
  5
1EC
330
126
100
AcDbEntity
  8
0
  6
Continuous
 62
     7
370
    25
100
AcDbCircle
 10
195.0
 20
115.0
 30
0.0
 40
5.000000000000028
100
AcDbArc
 50
0.0
 51
90.0
  0
ARC
  5
1ED
330
126
100
AcDbEntity
  8
0
  6
Continuous
 62
     7
370
    25
100
AcDbCircle
 10
-195.0
 20
-95.0
 30
0.0
 40
4.999999999999986
100
AcDbArc
 50
180.0
 51
270.0
  0
ARC
  5
1EE
330
126
100
AcDbEntity
  8
0
  6
Continuous
 62
     7
370
    25
100
AcDbCircle
 10
-179.7014300699
 20
-79.6008746639
 30
0.0
 40
15.02051325032004
100
AcDbArc
 50
207.7040761233
 51
243.1326357666
  0
ARC
  5
1EF
330
126
100
AcDbEntity
  8
0
  6
Continuous
 62
     7
370
    25
100
AcDbCircle
 10
-180.046828166
 20
-79.9315503771
 30
0.0
 40
8.351024291412832
100
AcDbArc
 50
171.8984124182
 51
276.4046642118
  0
ARC
  5
1F0
330
126
100
AcDbEntity
  8
0
  6
Continuous
 62
     7
370
    25
100
AcDbCircle
 10
180.0
 20
-79.2132077269
 30
0.0
 40
9.112901991076328
100
AcDbArc
 50
270.0
 51
0.0
  0
ARC
  5
1F1
330
126
100
AcDbEntity
  8
0
  6
Continuous
 62
     7
370
    25
100
AcDbCircle
 10
180.0
 20
-79.2132077269
 30
0.0
 40
15.49193338482977
100
AcDbArc
 50
297.1350938993
 51
327.0500901632
  0
ARC
  5
1F2
330
126
100
AcDbEntity
  8
0
  6
Continuous
 62
     7
370
    25
100
AcDbCircle
 10
-179.7014300699
 20
99.6008746639
 30
0.0
 40
15.02051325032027
100
AcDbArc
 50
116.8673642334
 51
152.2959238767
  0
ARC
  5
1F3
330
126
100
AcDbEntity
  8
0
  6
Continuous
 62
     7
370
    25
100
AcDbCircle
 10
180.0
 20
99.2132077269
 30
0.0
 40
15.49193338483016
100
AcDbArc
 50
32.9499098368
 51
62.8649061007
  0
ARC
  5
1F4
330
126
100
AcDbEntity
  8
0
  6
Continuous
 62
     7
370
    25
100
AcDbCircle
 10
180.0
 20
99.2132077269
 30
0.0
 40
9.11290199107627
100
AcDbArc
 50
0.0
 51
90.0
  0
ARC
  5
1F5
330
126
100
AcDbEntity
  8
0
  6
Continuous
 62
     7
370
    25
100
AcDbCircle
 10
-195.0
 20
115.0
 30
0.0
 40
5.000000000000028
100
AcDbArc
 50
90.0
 51
180.0
  0
ARC
  5
1F6
330
126
100
AcDbEntity
  8
0
  6
Continuous
 62
     7
370
    25
100
AcDbCircle
 10
-180.046828166
 20
99.9315503771
 30
0.0
 40
8.351024291412834
100
AcDbArc
 50
83.5953357882
 51
188.1015875818
  0
ARC
  5
1F7
330
126
100
AcDbEntity
  8
0
  6
Continuous
 62
     7
370
    25
100
AcDbCircle
 10
195.0
 20
-95.0
 30
0.0
 40
5.000000000000028
100
AcDbArc
 50
270.0
 51
0.0
  0
ARC
  5
1F8
330
126
100
AcDbEntity
  8
0
  6
Continuous
 62
     7
370
    25
100
AcDbCircle
 10
-156.5130484578
 20
74.1136581661
 30
0.0
 40
11.01808853072353
100
AcDbArc
 50
97.8718438746
 51
171.4206497467
  0
ARC
  5
1F9
330
126
100
AcDbEntity
  8
0
  6
Continuous
 62
     7
370
    25
100
AcDbCircle
 10
-156.5130484578
 20
-54.1136581661
 30
0.0
 40
11.01808853072344
100
AcDbArc
 50
188.5793502533
 51
262.1281561254
  0
ARC
  5
1FA
330
126
100
AcDbEntity
  8
0
  6
Continuous
 62
     7
370
    25
100
AcDbCircle
 10
72.8940739563
 20
88.9714530212
 30
0.0
 40
10.24985411599488
100
AcDbArc
 50
87.7221029532
 51
151.1579755985
  0
ARC
  5
1FB
330
126
100
AcDbEntity
  8
0
  6
Continuous
 62
     7
370
    25
100
AcDbCircle
 10
53.0208840801
 20
92.2722773506
 30
0.0
 40
11.01808853072352
100
AcDbArc
 50
8.5793502533
 51
82.1281561254
  0
ARC
  5
1FC
330
126
100
AcDbEntity
  8
0
  6
Continuous
 62
     7
370
    25
100
AcDbCircle
 10
53.0208840801
 20
-72.2722773506
 30
0.0
 40
11.01808853072357
100
AcDbArc
 50
277.8718438746
 51
351.4206497467
  0
ARC
  5
1FD
330
126
100
AcDbEntity
  8
0
  6
Continuous
 62
     7
370
    25
100
AcDbCircle
 10
72.8940739563
 20
-68.9714530212
 30
0.0
 40
10.24985411599486
100
AcDbArc
 50
208.8420244015
 51
272.2778970468
  0
ARC
  5
1FE
330
126
100
AcDbEntity
  8
0
  6
Continuous
 62
     7
370
    25
100
AcDbCircle
 10
36.5130484578
 20
74.1136581661
 30
0.0
 40
11.0180885307235
100
AcDbArc
 50
8.5793502533
 51
82.1281561254
  0
ARC
  5
1FF
330
126
100
AcDbEntity
  8
0
  6
Continuous
 62
     7
370
    25
100
AcDbCircle
 10
36.5130484578
 20
-54.1136581661
 30
0.0
 40
11.01808853072349
100
AcDbArc
 50
277.8718438746
 51
351.4206497467
  0
ARC
  5
200
330
126
100
AcDbEntity
  8
0
  6
Continuous
 62
     7
370
    25
100
AcDbCircle
 10
87.9985953214
 20
10.0
 30
0.0
 40
26.27088306659635
100
AcDbArc
 50
166.797712813
 51
193.202287187
  0
VIEWPORT
  5
205
330
126
100
AcDbEntity
  8
0
100
AcDbViewport
 10
0.0
 20
0.0
 30
0.0
 40
205.6
 41
156.0
 68
     1
 69
     1
 12
0.0
 22
426.0
 13
0.0
 23
0.0
 14
10.0
 24
10.0
 15
10.0
 25
10.0
 16
0.0
 26
0.0
 36
1.0
 17
0.0
 27
0.0
 37
0.0
 42
50.0
 43
0.0
 44
0.0
 45
869.04
 50
0.0
 51
0.0
 72
   100
 90
   557152
  1

281
     0
 71
     1
 74
     0
110
0.0
120
0.0
130
0.0
111
1.0
121
0.0
131
0.0
112
0.0
122
1.0
132
0.0
 79
     0
146
0.0
  0
ENDBLK
  5
129
330
126
100
AcDbEntity
  8
0
100
AcDbBlockEnd
  0
ENDSEC
  0
SECTION
  2
ENTITIES
  0
LWPOLYLINE
  5
77
330
1F
100
AcDbEntity
  8
0
  6
Continuous
 62
     7
370
    25
100
AcDbPolyline
 90
        9
 70
   128
 43
0.0
 10
-193.0
 20
852.0
 10
-193.390180644
 20
851.8654969628
 10
-193.7653668647
 20
851.4671567276
 10
-194.111140466
 20
850.8202872861
 10
-194.4142135624
 20
849.9497474683
 10
-194.6629392246
 20
848.8889916311
 10
-194.847759065
 20
847.6787840266
 10
-194.9615705608
 20
846.3656322541
 10
-195.0
 20
845.0
  0
LWPOLYLINE
  5
7A
330
1F
100
AcDbEntity
  8
0
  6
Continuous
 62
     7
370
    25
100
AcDbPolyline
 90
        9
 70
   128
 43
0.0
 10
193.0
 20
852.0
 10
193.390180644
 20
851.8654969628
 10
193.7653668647
 20
851.4671567276
 10
194.111140466
 20
850.8202872861
 10
194.4142135624
 20
849.9497474683
 10
194.6629392246
 20
848.8889916311
 10
194.847759065
 20
847.6787840266
 10
194.9615705608
 20
846.3656322541
 10
195.0
 20
845.0
  0
SPLINE
  5
81
330
1F
100
AcDbEntity
  8
0
  6
Continuous
 62
     7
370
    25
100
AcDbSpline
210
0.0
220
0.0
230
1.0
 70
     8
 71
     3
 72
    14
 73
    10
 74
     0
 42
0.000000001
 43
0.00000001
 40
0.0
 40
0.0
 40
0.0
 40
0.0
 40
0.5000000000000009
 40
0.5000000000000009
 40
0.7500000000000064
 40
0.7500000000000064
 40
0.8750000000000032
 40
0.8750000000000032
 40
1.0
 40
1.0
 40
1.0
 40
1.0
 10
180.0000000000001
 20
851.9478862575089
 30
0.0
 10
181.194798899014
 20
851.9478862575091
 30
0.0
 10
182.3807314418027
 20
851.9579520191895
 30
0.0
 10
184.1469734647412
 20
851.9775465879998
 30
0.0
 10
184.7336123690563
 20
851.9846233749207
 30
0.0
 10
185.6104963755515
 20
851.9930443002556
 30
0.0
 10
185.9022787008516
 20
851.9954746897905
 30
0.0
 10
186.4848339316869
 20
851.9989527254402
 30
0.0
 10
186.7774104691187
 20
852.0000000000001
 30
0.0
 10
187.0657171481798
 20
852.0
 30
0.0
  0
SPLINE
  5
84
330
1F
100
AcDbEntity
  8
0
  6
Continuous
 62
     7
370
    25
100
AcDbSpline
210
0.0
220
0.0
230
1.0
 70
     8
 71
     3
 72
    14
 73
    10
 74
     0
 42
0.000000001
 43
0.00000001
 40
0.0
 40
0.0
 40
0.0
 40
0.0
 40
0.1250000000000002
 40
0.1250000000000002
 40
0.2500000000000004
 40
0.2500000000000004
 40
0.4999999999999999
 40
0.4999999999999999
 40
1.0
 40
1.0
 40
1.0
 40
1.0
 10
-186.4896005546968
 20
852.0
 30
0.0
 10
-186.1886942136523
 20
852.0000000000001
 30
0.0
 10
-185.8831822342931
 20
851.9988803778419
 30
0.0
 10
-185.2749955317802
 20
851.9952051510938
 30
0.0
 10
-184.9703693253988
 20
851.9926498929295
 30
0.0
 10
-184.0548907800847
 20
851.9838689052693
 30
0.0
 10
-183.4424371219603
 20
851.976583657381
 30
0.0
 10
-181.5987158066891
 20
851.9567171581934
 30
0.0
 10
-180.3610757321364
 20
851.946978470604
 30
0.0
 10
-179.1152728229202
 20
851.946978470604
 30
0.0
  0
SPLINE
  5
86
330
1F
100
AcDbEntity
  8
0
  6
Continuous
 62
     7
370
    25
100
AcDbSpline
210
0.0
220
0.0
230
1.0
 70
     8
 71
     3
 72
     8
 73
     4
 74
     0
 42
0.000000001
 43
0.00000001
 40
0.0000001999997767
 40
0.0000001999997767
 40
0.0000001999997767
 40
0.0000001999997767
 40
0.0049667068023436
 40
0.0049667068023436
 40
0.0049667068023436
 40
0.0049667068023436
 10
68.33496679312633
 20
851.946978470604
 30
0.0
 10
69.99046906064864
 20
851.946978470604
 30
0.0
 10
71.645965783466
 20
851.9478862575089
 30
0.0
 10
73.3014680509883
 20
851.9478862575089
 30
0.0
  0
LINE
  5
9B
330
1F
100
AcDbEntity
  8
0
  6
Continuous
 62
     7
370
    25
100
AcDbLine
 10
-184.0
 20
427.0
 30
0.0
 11
184.0
 21
427.0
 31
0.0
  0
LINE
  5
9C
330
1F
100
AcDbEntity
  8
0
  6
Continuous
 62
     7
370
    25
100
AcDbLine
 10
184.0
 20
327.0
 30
0.0
 11
-184.0
 21
327.0
 31
0.0
  0
LINE
  5
9D
330
1F
100
AcDbEntity
  8
0
  6
Continuous
 62
     7
370
    25
100
AcDbLine
 10
200.0
 20
845.0
 30
0.0
 11
-200.0
 21
845.0
 31
0.0
  0
LINE
  5
9E
330
1F
100
AcDbEntity
  8
0
  6
Continuous
 62
     7
370
    25
100
AcDbLine
 10
-200.0
 20
845.0
 30
0.0
 11
-200.0
 21
0.0
 31
0.0
  0
LINE
  5
9F
330
1F
100
AcDbEntity
  8
0
  6
Continuous
 62
     7
370
    25
100
AcDbLine
 10
-195.0
 20
845.0
 30
0.0
 11
-195.0
 21
770.0
 31
0.0
  0
LINE
  5
A0
330
1F
100
AcDbEntity
  8
0
  6
Continuous
 62
     7
370
    25
100
AcDbLine
 10
195.0
 20
770.0
 30
0.0
 11
195.0
 21
845.0
 31
0.0
  0
LINE
  5
A1
330
1F
100
AcDbEntity
  8
0
  6
Continuous
 62
     7
370
    25
100
AcDbLine
 10
-200.0
 20
770.0
 30
0.0
 11
200.0
 21
770.0
 31
0.0
  0
LINE
  5
A2
330
1F
100
AcDbEntity
  8
0
  6
Continuous
 62
     7
370
    25
100
AcDbLine
 10
200.0
 20
845.0
 30
0.0
 11
200.0
 21
0.0
 31
0.0
  0
LINE
  5
A3
330
1F
100
AcDbEntity
  8
0
  6
Continuous
 62
     7
370
    25
100
AcDbLine
 10
187.0657171482
 20
852.0
 30
0.0
 11
193.0
 21
852.0
 31
0.0
  0
LINE
  5
A4
330
1F
100
AcDbEntity
  8
0
  6
Continuous
 62
     7
370
    25
100
AcDbLine
 10
-193.0
 20
852.0
 30
0.0
 11
-186.4896005547
 21
852.0
 31
0.0
  0
LINE
  5
A5
330
1F
100
AcDbEntity
  8
0
  6
Continuous
 62
     7
370
    25
100
AcDbLine
 10
68.3349667931
 20
851.9469784706
 30
0.0
 11
-179.1152728229
 21
851.9469784706
 31
0.0
  0
LINE
  5
A6
330
1F
100
AcDbEntity
  8
0
  6
Continuous
 62
     7
370
    25
100
AcDbLine
 10
73.301468051
 20
851.9478862575
 30
0.0
 11
180.0
 21
851.9478862575
 31
0.0
  0
LINE
  5
A7
330
1F
100
AcDbEntity
  8
0
  6
Continuous
 62
     7
370
    25
100
AcDbLine
 10
184.0
 20
770.0
 30
0.0
 11
184.0
 21
0.0
 31
0.0
  0
LINE
  5
A8
330
1F
100
AcDbEntity
  8
0
  6
Continuous
 62
     7
370
    25
100
AcDbLine
 10
184.0
 20
70.0
 30
0.0
 11
-184.0
 21
70.0
 31
0.0
  0
LINE
  5
A9
330
1F
100
AcDbEntity
  8
0
  6
Continuous
 62
     7
370
    25
100
AcDbLine
 10
184.0
 20
86.0
 30
0.0
 11
-184.0
 21
86.0
 31
0.0
  0
LINE
  5
AA
330
1F
100
AcDbEntity
  8
0
  6
Continuous
 62
     7
370
    25
100
AcDbLine
 10
-184.0
 20
770.0
 30
0.0
 11
-184.0
 21
0.0
 31
0.0
  0
LINE
  5
AB
330
1F
100
AcDbEntity
  8
0
  6
Continuous
 62
     7
370
    25
100
AcDbLine
 10
200.0
 20
0.0
 30
0.0
 11
-200.0
 21
0.0
 31
0.0
  0
LINE
  5
AC
330
1F
100
AcDbEntity
  8
0
  6
Continuous
 62
     7
370
    25
100
AcDbLine
 10
184.0
 20
186.0
 30
0.0
 11
-184.0
 21
186.0
 31
0.0
  0
LINE
  5
AD
330
1F
100
AcDbEntity
  8
0
  6
Continuous
 62
     7
370
    25
100
AcDbLine
 10
184.0
 20
311.0
 30
0.0
 11
-184.0
 21
311.0
 31
0.0
  0
LINE
  5
AE
330
1F
100
AcDbEntity
  8
0
  6
Continuous
 62
     7
370
    25
100
AcDbLine
 10
184.0
 20
670.0
 30
0.0
 11
-184.0
 21
670.0
 31
0.0
  0
ARC
  5
AF
330
1F
100
AcDbEntity
  8
0
  6
Continuous
 62
     7
370
    25
100
AcDbCircle
 10
-193.0
 20
845.0
 30
0.0
 40
7.000000000000028
100
AcDbArc
 50
90.0
 51
180.0
  0
ARC
  5
B0
330
1F
100
AcDbEntity
  8
0
  6
Continuous
 62
     7
370
    25
100
AcDbCircle
 10
193.0
 20
845.0
 30
0.0
 40
7.000000000000057
100
AcDbArc
 50
0.0
 51
90.0
  0
LWPOLYLINE
  5
BA
330
1B
100
AcDbEntity
 67
     1
  8
0
  6
Continuous
 62
     7
370
    25
100
AcDbPolyline
 90
        9
 70
   128
 43
0.0
 10
-193.0
 20
852.0
 10
-193.390180644
 20
851.8654969628
 10
-193.7653668647
 20
851.4671567276
 10
-194.111140466
 20
850.8202872861
 10
-194.4142135624
 20
849.9497474683
 10
-194.6629392246
 20
848.8889916311
 10
-194.847759065
 20
847.6787840266
 10
-194.9615705608
 20
846.3656322541
 10
-195.0
 20
845.0
  0
LWPOLYLINE
  5
BD
330
1B
100
AcDbEntity
 67
     1
  8
0
  6
Continuous
 62
     7
370
    25
100
AcDbPolyline
 90
        9
 70
   128
 43
0.0
 10
195.0
 20
845.0
 10
194.9615705608
 20
846.3656322541
 10
194.847759065
 20
847.6787840266
 10
194.6629392246
 20
848.8889916311
 10
194.4142135624
 20
849.9497474683
 10
194.111140466
 20
850.8202872861
 10
193.7653668647
 20
851.4671567276
 10
193.390180644
 20
851.8654969628
 10
193.0
 20
852.0
  0
SPLINE
  5
C0
330
1B
100
AcDbEntity
 67
     1
  8
0
  6
Continuous
 62
     7
370
    25
100
AcDbSpline
210
0.0
220
0.0
230
1.0
 70
     8
 71
     3
 72
    14
 73
    10
 74
     0
 42
0.000000001
 43
0.00000001
 40
0.0
 40
0.0
 40
0.0
 40
0.0
 40
0.4999999999999956
 40
0.4999999999999956
 40
0.7499999999999928
 40
0.7499999999999928
 40
0.8749999999999964
 40
0.8749999999999964
 40
1.0
 40
1.0
 40
1.0
 40
1.0
 10
179.1152728229211
 20
851.946978470604
 30
0.0
 10
180.3610757321372
 20
851.9469784706041
 30
0.0
 10
181.5987158066897
 20
851.9567171581934
 30
0.0
 10
183.4424371219606
 20
851.9765836573808
 30
0.0
 10
184.054890780085
 20
851.9838689052691
 30
0.0
 10
184.970369325399
 20
851.9926498929294
 30
0.0
 10
185.2749955317803
 20
851.9952051510936
 30
0.0
 10
185.8831822342931
 20
851.998880377842
 30
0.0
 10
186.1886942136528
 20
852.0000000000005
 30
0.0
 10
186.4896005546968
 20
852.0
 30
0.0
  0
SPLINE
  5
C4
330
1B
100
AcDbEntity
 67
     1
  8
0
  6
Continuous
 62
     7
370
    25
100
AcDbSpline
210
0.0
220
0.0
230
1.0
 70
     8
 71
     3
 72
    14
 73
    10
 74
     0
 42
0.000000001
 43
0.00000001
 40
0.0
 40
0.0
 40
0.0
 40
0.0
 40
0.1250000000000006
 40
0.1250000000000006
 40
0.2500000000000012
 40
0.2500000000000012
 40
0.5000000000000008
 40
0.5000000000000008
 40
1.0
 40
1.0
 40
1.0
 40
1.0
 10
-187.0657171481798
 20
852.0
 30
0.0
 10
-186.7774104691166
 20
852.0000000000001
 30
0.0
 10
-186.4848339316868
 20
851.9989527254401
 30
0.0
 10
-185.9022787008514
 20
851.9954746897902
 30
0.0
 10
-185.6104963755515
 20
851.9930443002559
 30
0.0
 10
-184.7336123690562
 20
851.9846233749207
 30
0.0
 10
-184.1469734647411
 20
851.977546588
 30
0.0
 10
-182.3807314418027
 20
851.9579520191893
 30
0.0
 10
-181.1947988990141
 20
851.9478862575089
 30
0.0
 10
-180.0000000000001
 20
851.9478862575089
 30
0.0
  0
SPLINE
  5
C6
330
1B
100
AcDbEntity
 67
     1
  8
0
  6
Continuous
 62
     7
370
    25
100
AcDbSpline
210
0.0
220
0.0
230
1.0
 70
     8
 71
     3
 72
     8
 73
     4
 74
     0
 42
0.000000001
 43
0.00000001
 40
0.0000001999997767
 40
0.0000001999997767
 40
0.0000001999997767
 40
0.0000001999997767
 40
0.0049667068023437
 40
0.0049667068023437
 40
0.0049667068023437
 40
0.0049667068023437
 10
-73.30146805098832
 20
851.9478862575089
 30
0.0
 10
-71.64596578346598
 20
851.9478862575089
 30
0.0
 10
-69.99046906064862
 20
851.946978470604
 30
0.0
 10
-68.33496679312628
 20
851.946978470604
 30
0.0
  0
LINE
  5
DD
330
1B
100
AcDbEntity
 67
     1
  8
0
  6
Continuous
 62
     7
370
    25
100
AcDbLine
 10
86.0884572681
 20
766.0
 30
0.0
 11
87.1602540378
 21
770.0
 31
0.0
  0
LINE
  5
DE
330
1B
100
AcDbEntity
 67
     1
  8
0
  6
Continuous
 62
     7
370
    25
100
AcDbLine
 10
-200.0
 20
84.0
 30
0.0
 11
200.0
 21
84.0
 31
0.0
  0
LINE
  5
DF
330
1B
100
AcDbEntity
 67
     1
  8
0
  6
Continuous
 62
     7
370
    25
100
AcDbLine
 10
-200.0
 20
766.0
 30
0.0
 11
200.0
 21
766.0
 31
0.0
  0
LINE
  5
E0
330
1B
100
AcDbEntity
 67
     1
  8
0
  6
Continuous
 62
     7
370
    25
100
AcDbLine
 10
195.0
 20
770.0
 30
0.0
 11
195.0
 21
845.0
 31
0.0
  0
LINE
  5
E1
330
1B
100
AcDbEntity
 67
     1
  8
0
  6
Continuous
 62
     7
370
    25
100
AcDbLine
 10
200.0
 20
845.0
 30
0.0
 11
200.0
 21
0.0
 31
0.0
  0
LINE
  5
E2
330
1B
100
AcDbEntity
 67
     1
  8
0
  6
Continuous
 62
     7
370
    25
100
AcDbLine
 10
200.0
 20
845.0
 30
0.0
 11
-200.0
 21
845.0
 31
0.0
  0
LINE
  5
E3
330
1B
100
AcDbEntity
 67
     1
  8
0
  6
Continuous
 62
     7
370
    25
100
AcDbLine
 10
179.1152728229
 20
851.9469784706
 30
0.0
 11
-68.3349667931
 21
851.9469784706
 31
0.0
  0
LINE
  5
E4
330
1B
100
AcDbEntity
 67
     1
  8
0
  6
Continuous
 62
     7
370
    25
100
AcDbLine
 10
186.4896005547
 20
852.0
 30
0.0
 11
193.0
 21
852.0
 31
0.0
  0
LINE
  5
E5
330
1B
100
AcDbEntity
 67
     1
  8
0
  6
Continuous
 62
     7
370
    25
100
AcDbLine
 10
-193.0
 20
852.0
 30
0.0
 11
-187.0657171482
 21
852.0
 31
0.0
  0
LINE
  5
E6
330
1B
100
AcDbEntity
 67
     1
  8
0
  6
Continuous
 62
     7
370
    25
100
AcDbLine
 10
-73.301468051
 20
851.9478862575
 30
0.0
 11
-180.0
 21
851.9478862575
 31
0.0
  0
LINE
  5
E7
330
1B
100
AcDbEntity
 67
     1
  8
0
  6
Continuous
 62
     7
370
    25
100
AcDbLine
 10
-200.0
 20
845.0
 30
0.0
 11
-200.0
 21
0.0
 31
0.0
  0
LINE
  5
E8
330
1B
100
AcDbEntity
 67
     1
  8
0
  6
Continuous
 62
     7
370
    25
100
AcDbLine
 10
-195.0
 20
845.0
 30
0.0
 11
-195.0
 21
770.0
 31
0.0
  0
LINE
  5
E9
330
1B
100
AcDbEntity
 67
     1
  8
0
  6
Continuous
 62
     7
370
    25
100
AcDbLine
 10
-200.0
 20
770.0
 30
0.0
 11
200.0
 21
770.0
 31
0.0
  0
LINE
  5
EA
330
1B
100
AcDbEntity
 67
     1
  8
0
  6
Continuous
 62
     7
370
    25
100
AcDbLine
 10
-80.9380086472
 20
766.0
 30
0.0
 11
-81.64331657
 21
770.0
 31
0.0
  0
LINE
  5
EB
330
1B
100
AcDbEntity
 67
     1
  8
0
  6
Continuous
 62
     7
370
    25
100
AcDbLine
 10
-184.0
 20
770.0
 30
0.0
 11
-184.0
 21
766.0
 31
0.0
  0
LINE
  5
EC
330
1B
100
AcDbEntity
 67
     1
  8
0
  6
Continuous
 62
     7
370
    25
100
AcDbLine
 10
-184.0
 20
84.0
 30
0.0
 11
-184.0
 21
80.0
 31
0.0
  0
LINE
  5
ED
330
1B
100
AcDbEntity
 67
     1
  8
0
  6
Continuous
 62
     7
370
    25
100
AcDbLine
 10
184.0
 20
80.0
 30
0.0
 11
184.0
 21
84.0
 31
0.0
  0
LINE
  5
EE
330
1B
100
AcDbEntity
 67
     1
  8
0
  6
Continuous
 62
     7
370
    25
100
AcDbLine
 10
184.0
 20
770.0
 30
0.0
 11
184.0
 21
766.0
 31
0.0
  0
LINE
  5
EF
330
1B
100
AcDbEntity
 67
     1
  8
0
  6
Continuous
 62
     7
370
    25
100
AcDbLine
 10
200.0
 20
80.0
 30
0.0
 11
-200.0
 21
80.0
 31
0.0
  0
LINE
  5
F0
330
1B
100
AcDbEntity
 67
     1
  8
0
  6
Continuous
 62
     7
370
    25
100
AcDbLine
 10
-200.0
 20
0.0
 30
0.0
 11
200.0
 21
0.0
 31
0.0
  0
LINE
  5
F1
330
1B
100
AcDbEntity
 67
     1
  8
0
  6
Continuous
 62
     8
370
    25
100
AcDbLine
 10
28.2360106031
 20
770.0
 30
0.0
 11
30.0442346101
 21
766.0
 31
0.0
  0
LINE
  5
F2
330
1B
100
AcDbEntity
 67
     1
  8
0
  6
Continuous
 62
     8
370
    25
100
AcDbLine
 10
26.648285652
 20
766.0
 30
0.0
 11
24.7732154638
 21
770.0
 31
0.0
  0
LINE
  5
F3
330
1B
100
AcDbEntity
 67
     1
  8
0
  6
Continuous
 62
     8
370
    25
100
AcDbLine
 10
-76.5661835106
 20
770.0
 30
0.0
 11
-75.8608755878
 21
766.0
 31
0.0
  0
ARC
  5
F4
330
1B
100
AcDbEntity
 67
     1
  8
0
  6
Continuous
 62
     7
370
    25
100
AcDbCircle
 10
-193.0
 20
845.0
 30
0.0
 40
7.000000000000028
100
AcDbArc
 50
90.0
 51
180.0
  0
ARC
  5
F5
330
1B
100
AcDbEntity
 67
     1
  8
0
  6
Continuous
 62
     7
370
    25
100
AcDbCircle
 10
193.0
 20
845.0
 30
0.0
 40
7.000000000000028
100
AcDbArc
 50
0.0
 51
90.0
  0
VIEWPORT
  5
201
330
1B
100
AcDbEntity
 67
     1
  8
0
100
AcDbViewport
 10
0.0
 20
0.0
 30
0.0
 40
205.6
 41
156.0
 68
     1
 69
     1
 12
0.0
 22
426.0
 13
0.0
 23
0.0
 14
10.0
 24
10.0
 15
10.0
 25
10.0
 16
0.0
 26
0.0
 36
1.0
 17
0.0
 27
0.0
 37
0.0
 42
50.0
 43
0.0
 44
0.0
 45
869.04
 50
0.0
 51
0.0
 72
   100
 90
   557152
  1

281
     0
 71
     1
 74
     0
110
0.0
120
0.0
130
0.0
111
1.0
121
0.0
131
0.0
112
0.0
122
1.0
132
0.0
 79
     0
146
0.0
  0
ENDSEC
  0
SECTION
  2
OBJECTS
  0
DICTIONARY
  5
C
330
0
100
AcDbDictionary
281
     1
  3
ACAD_GROUP
350
D
  3
ACAD_LAYOUT
350
1A
  3
ACAD_MLINESTYLE
350
17
  3
ACAD_PLOTSETTINGS
350
19
  3
ACAD_PLOTSTYLENAME
350
E
  3
ACAD_SCALELIST
350
47
  0
DICTIONARY
  5
D
102
{ACAD_REACTORS
330
C
102
}
330
C
100
AcDbDictionary
281
     1
  0
DICTIONARY
  5
1A
102
{ACAD_REACTORS
330
C
102
}
330
C
100
AcDbDictionary
281
     1
  3
_Back
350
1E
  3
_Left
350
26
  3
_Top
350
127
  3
Model
350
22
  0
DICTIONARY
  5
17
102
{ACAD_REACTORS
330
C
102
}
330
C
100
AcDbDictionary
281
     1
  3
Standard
350
18
  0
DICTIONARY
  5
19
102
{ACAD_REACTORS
330
C
102
}
330
C
100
AcDbDictionary
281
     1
  0
ACDBDICTIONARYWDFLT
  5
E
102
{ACAD_REACTORS
330
C
102
}
330
C
100
AcDbDictionary
281
     1
  3
Normal
350
F
100
AcDbDictionaryWithDefault
340
F
  0
DICTIONARY
  5
47
102
{ACAD_REACTORS
330
C
102
}
330
C
100
AcDbDictionary
281
     1
  3
A0
350
48
  3
A1
350
49
  3
A2
350
4A
  3
A3
350
4B
  3
A4
350
4C
  3
A5
350
4D
  3
A6
350
4E
  3
A7
350
4F
  3
A8
350
50
  3
A9
350
51
  3
B0
350
52
  3
B1
350
53
  3
B2
350
54
  3
B3
350
55
  3
B4
350
56
  3
B5
350
57
  3
B6
350
58
  3
B7
350
59
  3
B8
350
5A
  3
B9
350
5B
  3
C0
350
5C
  3
C1
350
5D
  3
C2
350
5E
  3
C3
350
5F
  3
C4
350
60
  3
C5
350
61
  3
C6
350
62
  3
C7
350
63
  3
C8
350
64
  3
C9
350
65
  3
D0
350
66
  3
D1
350
67
  3
D2
350
68
  0
LAYOUT
  5
1E
102
{ACAD_REACTORS
330
1A
102
}
330
1A
100
AcDbPlotSettings
  1

  2
none_device
  4
ISO_A4_(210.00_x_297.00_MM)
  6

 40
7.5
 41
20.0
 42
7.5
 43
20.0
 44
210.0
 45
297.0
 46
0.0
 47
0.0
 48
0.0
 49
0.0
140
0.0
141
0.0
142
1.0
143
4.3692307692
 70
   688
 72
     1
 73
     1
 74
     1
  7

 75
     0
147
0.2288732394
148
200.0
149
0.0
100
AcDbLayout
  1
_Back
 70
     1
 71
     1
 10
-287.3846153846
 20
-32.7692307692
 11
1010.2769230769
 21
884.7692307692
 12
0.0
 22
0.0
 32
0.0
 14
-200.0
 24
0.0
 34
0.0
 15
200.0
 25
852.0
 35
0.0
146
0.0
 13
0.0
 23
0.0
 33
0.0
 16
1.0
 26
0.0
 36
0.0
 17
0.0
 27
1.0
 37
0.0
 76
     0
330
1B
331
201
  0
LAYOUT
  5
26
102
{ACAD_REACTORS
330
1A
102
}
330
1A
100
AcDbPlotSettings
  1

  2
none_device
  4
ISO_A4_(210.00_x_297.00_MM)
  6

 40
7.5
 41
20.0
 42
7.5
 43
20.0
 44
210.0
 45
297.0
 46
0.0
 47
0.0
 48
0.0
 49
0.0
140
0.0
141
0.0
142
1.0
143
4.3692307692
 70
   688
 72
     1
 73
     1
 74
     1
  7

 75
     0
147
0.2288732394
148
200.0
149
0.0
100
AcDbLayout
  1
_Left
 70
     1
 71
     2
 10
0.0
 20
0.0
 11
0.0
 21
0.0
 12
0.0
 22
0.0
 32
0.0
 14
0.0
 24
0.0
 34
0.0
 15
0.0
 25
0.0
 35
0.0
146
0.0
 13
0.0
 23
0.0
 33
0.0
 16
1.0
 26
0.0
 36
0.0
 17
0.0
 27
1.0
 37
0.0
 76
     0
330
23
331
203
  0
LAYOUT
  5
127
102
{ACAD_REACTORS
330
1A
102
}
330
1A
100
AcDbPlotSettings
  1

  2
none_device
  4
ISO_A4_(210.00_x_297.00_MM)
  6

 40
7.5
 41
20.0
 42
7.5
 43
20.0
 44
210.0
 45
297.0
 46
0.0
 47
0.0
 48
0.0
 49
0.0
140
0.0
141
0.0
142
1.0
143
4.3692307692
 70
   688
 72
     1
 73
     1
 74
     1
  7

 75
     0
147
0.2288732394
148
200.0
149
0.0
100
AcDbLayout
  1
_Top
 70
     1
 71
     3
 10
0.0
 20
0.0
 11
0.0
 21
0.0
 12
0.0
 22
0.0
 32
0.0
 14
0.0
 24
0.0
 34
0.0
 15
0.0
 25
0.0
 35
0.0
146
0.0
 13
0.0
 23
0.0
 33
0.0
 16
1.0
 26
0.0
 36
0.0
 17
0.0
 27
1.0
 37
0.0
 76
     0
330
126
331
205
  0
LAYOUT
  5
22
102
{ACAD_REACTORS
330
1A
102
}
330
1A
100
AcDbPlotSettings
  1

  2
none_device
  4
ANSI_A_(11.00_x_8.50_Inches)
  6

 40
6.35
 41
19.05
 42
6.35000508
 43
19.05000254
 44
279.4
 45
215.9
 46
133.34999746
 47
-17.97050127
 48
0.0
 49
0.0
140
0.0
141
0.0
142
0.0098767606
143
1.0
 70
  1696
 72
     0
 73
     0
 74
     0
  7

 75
     0
147
0.0179189148
148
-1300.4909072572
149
0.0
100
AcDbLayout
  1
Model
 70
     1
 71
     0
 10
0.0
 20
0.0
 11
420.0
 21
297.0
 12
0.0
 22
0.0
 32
0.0
 14
-200.0
 24
0.0
 34
0.0
 15
200.0
 25
852.0
 35
0.0
146
0.0
 13
0.0
 23
0.0
 33
0.0
 16
1.0
 26
0.0
 36
0.0
 17
0.0
 27
1.0
 37
0.0
 76
     0
330
1F
331
29
  0
MLINESTYLE
  5
18
102
{ACAD_REACTORS
330
17
102
}
330
17
100
AcDbMlineStyle
  2
Standard
 70
     0
  3

 62
   256
 51
90.0
 52
90.0
 71
     2
 49
0.5
 62
   256
  6
BYLAYER
 49
-0.5
 62
   256
  6
BYLAYER
  0
ACDBPLACEHOLDER
  5
F
102
{ACAD_REACTORS
330
E
102
}
330
E
  0
SCALE
  5
48
102
{ACAD_REACTORS
330
47
102
}
330
47
100
AcDbScale
 70
     0
300
1:1
140
1.0
141
1.0
290
     1
  0
SCALE
  5
49
102
{ACAD_REACTORS
330
47
102
}
330
47
100
AcDbScale
 70
     0
300
1:2
140
1.0
141
2.0
290
     0
  0
SCALE
  5
4A
102
{ACAD_REACTORS
330
47
102
}
330
47
100
AcDbScale
 70
     0
300
1:4
140
1.0
141
4.0
290
     0
  0
SCALE
  5
4B
102
{ACAD_REACTORS
330
47
102
}
330
47
100
AcDbScale
 70
     0
300
1:5
140
1.0
141
5.0
290
     0
  0
SCALE
  5
4C
102
{ACAD_REACTORS
330
47
102
}
330
47
100
AcDbScale
 70
     0
300
1:8
140
1.0
141
8.0
290
     0
  0
SCALE
  5
4D
102
{ACAD_REACTORS
330
47
102
}
330
47
100
AcDbScale
 70
     0
300
1:10
140
1.0
141
10.0
290
     0
  0
SCALE
  5
4E
102
{ACAD_REACTORS
330
47
102
}
330
47
100
AcDbScale
 70
     0
300
1:16
140
1.0
141
16.0
290
     0
  0
SCALE
  5
4F
102
{ACAD_REACTORS
330
47
102
}
330
47
100
AcDbScale
 70
     0
300
1:20
140
1.0
141
20.0
290
     0
  0
SCALE
  5
50
102
{ACAD_REACTORS
330
47
102
}
330
47
100
AcDbScale
 70
     0
300
1:30
140
1.0
141
30.0
290
     0
  0
SCALE
  5
51
102
{ACAD_REACTORS
330
47
102
}
330
47
100
AcDbScale
 70
     0
300
1:40
140
1.0
141
40.0
290
     0
  0
SCALE
  5
52
102
{ACAD_REACTORS
330
47
102
}
330
47
100
AcDbScale
 70
     0
300
1:50
140
1.0
141
50.0
290
     0
  0
SCALE
  5
53
102
{ACAD_REACTORS
330
47
102
}
330
47
100
AcDbScale
 70
     0
300
1:100
140
1.0
141
100.0
290
     0
  0
SCALE
  5
54
102
{ACAD_REACTORS
330
47
102
}
330
47
100
AcDbScale
 70
     0
300
2:1
140
2.0
141
1.0
290
     0
  0
SCALE
  5
55
102
{ACAD_REACTORS
330
47
102
}
330
47
100
AcDbScale
 70
     0
300
4:1
140
4.0
141
1.0
290
     0
  0
SCALE
  5
56
102
{ACAD_REACTORS
330
47
102
}
330
47
100
AcDbScale
 70
     0
300
8:1
140
8.0
141
1.0
290
     0
  0
SCALE
  5
57
102
{ACAD_REACTORS
330
47
102
}
330
47
100
AcDbScale
 70
     0
300
10:1
140
10.0
141
1.0
290
     0
  0
SCALE
  5
58
102
{ACAD_REACTORS
330
47
102
}
330
47
100
AcDbScale
 70
     0
300
100:1
140
100.0
141
1.0
290
     0
  0
SCALE
  5
59
102
{ACAD_REACTORS
330
47
102
}
330
47
100
AcDbScale
 70
     0
300
1/128" = 1'-0"
140
0.0078125
141
12.0
290
     0
  0
SCALE
  5
5A
102
{ACAD_REACTORS
330
47
102
}
330
47
100
AcDbScale
 70
     0
300
1/64" = 1'-0"
140
0.015625
141
12.0
290
     0
  0
SCALE
  5
5B
102
{ACAD_REACTORS
330
47
102
}
330
47
100
AcDbScale
 70
     0
300
1/32" = 1'-0"
140
0.03125
141
12.0
290
     0
  0
SCALE
  5
5C
102
{ACAD_REACTORS
330
47
102
}
330
47
100
AcDbScale
 70
     0
300
1/16" = 1'-0"
140
0.0625
141
12.0
290
     0
  0
SCALE
  5
5D
102
{ACAD_REACTORS
330
47
102
}
330
47
100
AcDbScale
 70
     0
300
3/32" = 1'-0"
140
0.09375
141
12.0
290
     0
  0
SCALE
  5
5E
102
{ACAD_REACTORS
330
47
102
}
330
47
100
AcDbScale
 70
     0
300
1/8" = 1'-0"
140
0.125
141
12.0
290
     0
  0
SCALE
  5
5F
102
{ACAD_REACTORS
330
47
102
}
330
47
100
AcDbScale
 70
     0
300
3/16" = 1'-0"
140
0.1875
141
12.0
290
     0
  0
SCALE
  5
60
102
{ACAD_REACTORS
330
47
102
}
330
47
100
AcDbScale
 70
     0
300
1/4" = 1'-0"
140
0.25
141
12.0
290
     0
  0
SCALE
  5
61
102
{ACAD_REACTORS
330
47
102
}
330
47
100
AcDbScale
 70
     0
300
3/8" = 1'-0"
140
0.375
141
12.0
290
     0
  0
SCALE
  5
62
102
{ACAD_REACTORS
330
47
102
}
330
47
100
AcDbScale
 70
     0
300
1/2" = 1'-0"
140
0.5
141
12.0
290
     0
  0
SCALE
  5
63
102
{ACAD_REACTORS
330
47
102
}
330
47
100
AcDbScale
 70
     0
300
3/4" = 1'-0"
140
0.75
141
12.0
290
     0
  0
SCALE
  5
64
102
{ACAD_REACTORS
330
47
102
}
330
47
100
AcDbScale
 70
     0
300
1" = 1'-0"
140
1.0
141
12.0
290
     0
  0
SCALE
  5
65
102
{ACAD_REACTORS
330
47
102
}
330
47
100
AcDbScale
 70
     0
300
1-1/2" = 1'-0"
140
1.5
141
12.0
290
     0
  0
SCALE
  5
66
102
{ACAD_REACTORS
330
47
102
}
330
47
100
AcDbScale
 70
     0
300
3" = 1'-0"
140
3.0
141
12.0
290
     0
  0
SCALE
  5
67
102
{ACAD_REACTORS
330
47
102
}
330
47
100
AcDbScale
 70
     0
300
6" = 1'-0"
140
6.0
141
12.0
290
     0
  0
SCALE
  5
68
102
{ACAD_REACTORS
330
47
102
}
330
47
100
AcDbScale
 70
     0
300
1'-0" = 1'-0"
140
12.0
141
12.0
290
     0
  0
ENDSEC
  0
EOF
