  0
SECTION
  2
HEADER
  9
$ACADVER
  1
AC1015
  9
$ACADMAINTVER
 70
     6
  9
$DWGCODEPAGE
  3
ANSI_1252
  9
$INSBASE
 10
0.0
 20
0.0
 30
0.0
  9
$EXTMIN
 10
-497.975
 20
-0.0001861003
 30
0.0
  9
$EXTMAX
 10
497.975
 20
400.0
 30
0.0
  9
$LIMMIN
 10
0.0
 20
0.0
  9
$LIMMAX
 10
420.0
 20
297.0
  9
$ORTHOMODE
 70
     0
  9
$REGENMODE
 70
     1
  9
$FILLMODE
 70
     1
  9
$QTEXTMODE
 70
     0
  9
$MIRRTEXT
 70
     1
  9
$LTSCALE
 40
1.0
  9
$ATTMODE
 70
     1
  9
$TEXTSIZE
 40
3.5
  9
$TRACEWID
 40
1.0
  9
$TEXTSTYLE
  7
Standard
  9
$CLAYER
  8
0
  9
$CELTYPE
  6
ByLayer
  9
$CECOLOR
 62
   256
  9
$CELTSCALE
 40
1.0
  9
$DISPSILH
 70
     0
  9
$DIMSCALE
 40
1.0
  9
$DIMASZ
 40
3.302
  9
$DIMEXO
 40
1.0
  9
$DIMDLI
 40
3.75
  9
$DIMRND
 40
0.0
  9
$DIMDLE
 40
0.0
  9
$DIMEXE
 40
1.0
  9
$DIMTP
 40
0.0
  9
$DIMTM
 40
0.0
  9
$DIMTXT
 40
3.5
  9
$DIMCEN
 40
2.5
  9
$DIMTSZ
 40
0.0
  9
$DIMTOL
 70
     0
  9
$DIMLIM
 70
     0
  9
$DIMTIH
 70
     1
  9
$DIMTOH
 70
     1
  9
$DIMSE1
 70
     0
  9
$DIMSE2
 70
     0
  9
$DIMTAD
 70
     1
  9
$DIMZIN
 70
     1
  9
$DIMBLK
  1

  9
$DIMASO
 70
     1
  9
$DIMSHO
 70
     1
  9
$DIMPOST
  1

  9
$DIMAPOST
  1

  9
$DIMALT
 70
     0
  9
$DIMALTD
 70
     3
  9
$DIMALTF
 40
0.0393700787
  9
$DIMLFAC
 40
1.0
  9
$DIMTOFL
 70
     1
  9
$DIMTVP
 40
0.0
  9
$DIMTIX
 70
     0
  9
$DIMSOXD
 70
     0
  9
$DIMSAH
 70
     0
  9
$DIMBLK1
  1

  9
$DIMBLK2
  1

  9
$DIMSTYLE
  2
ISO-25
  9
$DIMCLRD
 70
     0
  9
$DIMCLRE
 70
     0
  9
$DIMCLRT
 70
     0
  9
$DIMTFAC
 40
1.0
  9
$DIMGAP
 40
1.524
  9
$DIMJUST
 70
     0
  9
$DIMSD1
 70
     0
  9
$DIMSD2
 70
     0
  9
$DIMTOLJ
 70
     0
  9
$DIMTZIN
 70
     1
  9
$DIMALTZ
 70
     0
  9
$DIMALTTZ
 70
     0
  9
$DIMUPT
 70
     0
  9
$DIMDEC
 70
     2
  9
$DIMTDEC
 70
     2
  9
$DIMALTU
 70
     2
  9
$DIMALTTD
 70
     3
  9
$DIMTXSTY
  7
Standard
  9
$DIMAUNIT
 70
     0
  9
$DIMADEC
 70
     2
  9
$DIMALTRND
 40
0.0
  9
$DIMAZIN
 70
     0
  9
$DIMDSEP
 70
    44
  9
$DIMATFIT
 70
     3
  9
$DIMFRAC
 70
     0
  9
$DIMLDRBLK
  1

  9
$DIMLUNIT
 70
     2
  9
$DIMLWD
 70
    -2
  9
$DIMLWE
 70
    -2
  9
$DIMTMOVE
 70
     0
  9
$LUNITS
 70
     2
  9
$LUPREC
 70
     2
  9
$SKETCHINC
 40
1.0
  9
$FILLETRAD
 40
10.0
  9
$AUNITS
 70
     0
  9
$AUPREC
 70
     2
  9
$MENU
  1
.
  9
$ELEVATION
 40
0.0
  9
$PELEVATION
 40
0.0
  9
$THICKNESS
 40
0.0
  9
$LIMCHECK
 70
     0
  9
$CHAMFERA
 40
0.0
  9
$CHAMFERB
 40
0.0
  9
$CHAMFERC
 40
0.0
  9
$CHAMFERD
 40
0.0
  9
$SKPOLY
 70
     0
  9
$TDCREATE
 40
2458934.612795602
  9
$TDUCREATE
 40
2458934.612795602
  9
$TDUPDATE
 40
2458934.612826435
  9
$TDUUPDATE
 40
2458934.612826435
  9
$TDINDWG
 40
0.0000000116
  9
$TDUSRTIMER
 40
0.0000000116
  9
$USRTIMER
 70
     1
  9
$ANGBASE
 50
0.0
  9
$ANGDIR
 70
     0
  9
$PDMODE
 70
     0
  9
$PDSIZE
 40
-1.0
  9
$PLINEWID
 40
0.0
  9
$SPLFRAME
 70
     0
  9
$SPLINETYPE
 70
     6
  9
$SPLINESEGS
 70
     8
  9
$HANDSEED
  5
1DA
  9
$SURFTAB1
 70
     6
  9
$SURFTAB2
 70
     6
  9
$SURFTYPE
 70
     6
  9
$SURFU
 70
     6
  9
$SURFV
 70
     6
  9
$UCSBASE
  2

  9
$UCSNAME
  2

  9
$UCSORG
 10
0.0
 20
0.0
 30
0.0
  9
$UCSXDIR
 10
1.0
 20
0.0
 30
0.0
  9
$UCSYDIR
 10
0.0
 20
1.0
 30
0.0
  9
$UCSORTHOREF
  2

  9
$UCSORTHOVIEW
 70
     0
  9
$UCSORGTOP
 10
0.0
 20
0.0
 30
0.0
  9
$UCSORGBOTTOM
 10
0.0
 20
0.0
 30
0.0
  9
$UCSORGLEFT
 10
0.0
 20
0.0
 30
0.0
  9
$UCSORGRIGHT
 10
0.0
 20
0.0
 30
0.0
  9
$UCSORGFRONT
 10
0.0
 20
0.0
 30
0.0
  9
$UCSORGBACK
 10
0.0
 20
0.0
 30
0.0
  9
$PUCSBASE
  2

  9
$PUCSNAME
  2

  9
$PUCSORG
 10
0.0
 20
0.0
 30
0.0
  9
$PUCSXDIR
 10
1.0
 20
0.0
 30
0.0
  9
$PUCSYDIR
 10
0.0
 20
1.0
 30
0.0
  9
$PUCSORTHOREF
  2

  9
$PUCSORTHOVIEW
 70
     0
  9
$PUCSORGTOP
 10
0.0
 20
0.0
 30
0.0
  9
$PUCSORGBOTTOM
 10
0.0
 20
0.0
 30
0.0
  9
$PUCSORGLEFT
 10
0.0
 20
0.0
 30
0.0
  9
$PUCSORGRIGHT
 10
0.0
 20
0.0
 30
0.0
  9
$PUCSORGFRONT
 10
0.0
 20
0.0
 30
0.0
  9
$PUCSORGBACK
 10
0.0
 20
0.0
 30
0.0
  9
$USERI1
 70
     0
  9
$USERI2
 70
     0
  9
$USERI3
 70
     0
  9
$USERI4
 70
     0
  9
$USERI5
 70
     0
  9
$USERR1
 40
0.0
  9
$USERR2
 40
0.0
  9
$USERR3
 40
0.0
  9
$USERR4
 40
0.0
  9
$USERR5
 40
0.0
  9
$WORLDVIEW
 70
     1
  9
$SHADEDGE
 70
     3
  9
$SHADEDIF
 70
    70
  9
$TILEMODE
 70
     1
  9
$MAXACTVP
 70
    64
  9
$PINSBASE
 10
0.0
 20
0.0
 30
0.0
  9
$PLIMCHECK
 70
     0
  9
$PEXTMIN
 10
-497.975
 20
0.0
 30
0.0
  9
$PEXTMAX
 10
497.975
 20
400.0
 30
0.0
  9
$PLIMMIN
 10
-575.4808365759
 20
-29.064688716
  9
$PLIMMAX
 10
575.4808365759
 20
784.7465953307
  9
$UNITMODE
 70
     0
  9
$VISRETAIN
 70
     1
  9
$PLINEGEN
 70
     0
  9
$PSLTSCALE
 70
     1
  9
$TREEDEPTH
 70
  3020
  9
$CMLSTYLE
  2
Standard
  9
$CMLJUST
 70
     0
  9
$CMLSCALE
 40
20.0
  9
$PROXYGRAPHICS
 70
     1
  9
$MEASUREMENT
 70
     1
  9
$CELWEIGHT
370
    -1
  9
$ENDCAPS
280
     0
  9
$JOINSTYLE
280
     0
  9
$LWDISPLAY
290
     1
  9
$INSUNITS
 70
     4
  9
$HYPERLINKBASE
  1

  9
$STYLESHEET
  1

  9
$XEDIT
290
     1
  9
$CEPSNTYPE
380
     0
  9
$PSTYLEMODE
290
     1
  9
$FINGERPRINTGUID
  2
{68f7cae6-d2cd-4feb-85d3-c60fab77cd9c}
  9
$VERSIONGUID
  2
{FAEB1C32-E019-11D5-929B-00C0DF256EC4}
  9
$EXTNAMES
290
     1
  9
$PSVPSCALE
 40
0.0
  9
$OLESTARTUP
290
     0
  0
ENDSEC
  0
SECTION
  2
CLASSES
  0
CLASS
  1
ACDBDICTIONARYWDFLT
  2
AcDbDictionaryWithDefault
  3
ObjectDBX Classes
 90
        0
280
     0
281
     0
  0
CLASS
  1
VISUALSTYLE
  2
AcDbVisualStyle
  3
ObjectDBX Classes
 90
     4095
280
     0
281
     0
  0
CLASS
  1
MATERIAL
  2
AcDbMaterial
  3
ObjectDBX Classes
 90
     1153
280
     0
281
     0
  0
CLASS
  1
SCALE
  2
AcDbScale
  3
ObjectDBX Classes
 90
     1153
280
     0
281
     0
  0
CLASS
  1
TABLESTYLE
  2
AcDbTableStyle
  3
ObjectDBX Classes
 90
     4095
280
     0
281
     0
  0
CLASS
  1
MLEADERSTYLE
  2
AcDbMLeaderStyle
  3
ACDB_MLEADERSTYLE_CLASS
 90
     4095
280
     0
281
     0
  0
CLASS
  1
SUN
  2
AcDbSun
  3
SCENEOE
 90
     1153
280
     0
281
     0
  0
CLASS
  1
ACDBPLACEHOLDER
  2
AcDbPlaceHolder
  3
ObjectDBX Classes
 90
        0
280
     0
281
     0
  0
CLASS
  1
LAYOUT
  2
AcDbLayout
  3
ObjectDBX Classes
 90
        0
280
     0
281
     0
  0
ENDSEC
  0
SECTION
  2
TABLES
  0
TABLE
  2
VPORT
  5
8
330
0
100
AcDbSymbolTable
 70
     1
  0
VPORT
  5
29
330
8
100
AcDbSymbolTableRecord
100
AcDbViewportTableRecord
  2
*Active
 70
     0
 10
0.0
 20
0.0
 11
1.0
 21
1.0
 12
0.0
 22
199.9999069499
 13
0.0
 23
0.0
 14
10.0
 24
10.0
 15
10.0
 25
10.0
 16
0.0
 26
0.0
 36
1.0
 17
0.0
 27
0.0
 37
0.0
 40
408.0001898223
 41
2.4898738416
 42
50.0
 43
0.0
 44
0.0
 50
0.0
 51
0.0
 71
     0
 72
   100
 73
     1
 74
     3
 75
     0
 76
     0
 77
     0
 78
     0
281
     0
 65
     1
110
0.0
120
0.0
130
0.0
111
1.0
121
0.0
131
0.0
112
0.0
122
1.0
132
0.0
 79
     0
146
0.0
  0
ENDTAB
  0
TABLE
  2
LTYPE
  5
5
330
0
100
AcDbSymbolTable
 70
     6
  0
LTYPE
  5
14
330
5
100
AcDbSymbolTableRecord
100
AcDbLinetypeTableRecord
  2
ByBlock
 70
     0
  3

 72
    65
 73
     0
 40
0.0
  0
LTYPE
  5
15
330
5
100
AcDbSymbolTableRecord
100
AcDbLinetypeTableRecord
  2
ByLayer
 70
     0
  3

 72
    65
 73
     0
 40
0.0
  0
LTYPE
  5
16
330
5
100
AcDbSymbolTableRecord
100
AcDbLinetypeTableRecord
  2
Continuous
 70
     0
  3
Solid line
 72
    65
 73
     0
 40
0.0
  0
LTYPE
  5
6E
330
5
100
AcDbSymbolTableRecord
100
AcDbLinetypeTableRecord
  2
HIDDEN
 70
     0
  3
Hidden __ __ __ __ __ __ __ __ __ __ __ __ __ __
 72
    65
 73
     2
 40
1.905
 49
1.27
 74
     0
 49
-0.635
 74
     0
  0
LTYPE
  5
6F
330
5
100
AcDbSymbolTableRecord
100
AcDbLinetypeTableRecord
  2
PHANTOM
 70
     0
  3
Phantom ______  __  __  ______  __  __  ______
 72
    65
 73
     6
 40
12.7
 49
6.35
 74
     0
 49
-1.27
 74
     0
 49
1.27
 74
     0
 49
-1.27
 74
     0
 49
1.27
 74
     0
 49
-1.27
 74
     0
  0
LTYPE
  5
70
330
5
100
AcDbSymbolTableRecord
100
AcDbLinetypeTableRecord
  2
CENTER
 70
     0
  3
Center ____ _ ____ _ ____ _ ____ _ ____ _ ____
 72
    65
 73
     4
 40
10.16
 49
6.35
 74
     0
 49
-1.27
 74
     0
 49
1.27
 74
     0
 49
-1.27
 74
     0
  0
LTYPE
  5
71
330
5
100
AcDbSymbolTableRecord
100
AcDbLinetypeTableRecord
  2
CENTERX2
 70
     0
  3
Center (2x) ________  __  ________  __  _____
 72
    65
 73
     4
 40
20.32
 49
12.7
 74
     0
 49
-2.54
 74
     0
 49
2.54
 74
     0
 49
-2.54
 74
     0
  0
LTYPE
  5
72
330
5
100
AcDbSymbolTableRecord
100
AcDbLinetypeTableRecord
  2
DOT2
 70
     0
  3
Dot (.5x) ........................................
 72
    65
 73
     2
 40
0.635
 49
0.0
 74
     0
 49
-0.635
 74
     0
  0
ENDTAB
  0
TABLE
  2
LAYER
  5
2
330
0
100
AcDbSymbolTable
 70
     1
  0
LAYER
  5
10
330
2
100
AcDbSymbolTableRecord
100
AcDbLayerTableRecord
  2
0
 70
     0
 62
     7
  6
Continuous
370
    -3
390
F
  0
ENDTAB
  0
TABLE
  2
STYLE
  5
3
330
0
100
AcDbSymbolTable
 70
     1
  0
STYLE
  5
11
330
3
100
AcDbSymbolTableRecord
100
AcDbTextStyleTableRecord
  2
Standard
 70
     0
 40
0.0
 41
1.0
 50
0.0
 71
     0
 42
3.5
  3
txt
  4

  0
ENDTAB
  0
TABLE
  2
VIEW
  5
6
330
0
100
AcDbSymbolTable
 70
     0
  0
ENDTAB
  0
TABLE
  2
UCS
  5
7
330
0
100
AcDbSymbolTable
 70
     0
  0
ENDTAB
  0
TABLE
  2
APPID
  5
9
330
0
100
AcDbSymbolTable
 70
     1
  0
APPID
  5
12
330
9
100
AcDbSymbolTableRecord
100
AcDbRegAppTableRecord
  2
ACAD
 70
     0
  0
ENDTAB
  0
TABLE
  2
DIMSTYLE
  5
A
330
0
100
AcDbSymbolTable
 70
     1
100
AcDbDimStyleTable
  0
DIMSTYLE
105
27
330
A
100
AcDbSymbolTableRecord
100
AcDbDimStyleTableRecord
  2
ISO-25
 70
     0
 41
2.5
 42
0.625
 43
3.75
 44
1.25
 73
     0
 74
     0
 77
     1
 78
     8
140
2.5
141
2.5
143
0.0393700787
147
0.625
171
     3
172
     1
178
     0
271
     2
272
     2
274
     3
278
    44
283
     0
284
     8
340
11
  0
ENDTAB
  0
TABLE
  2
BLOCK_RECORD
  5
1
330
0
100
AcDbSymbolTable
 70
     3
  0
BLOCK_RECORD
  5
1F
330
1
100
AcDbSymbolTableRecord
100
AcDbBlockTableRecord
  2
*Model_Space
340
22
  0
BLOCK_RECORD
  5
1B
330
1
100
AcDbSymbolTableRecord
100
AcDbBlockTableRecord
  2
*Paper_Space
340
1E
  0
BLOCK_RECORD
  5
23
330
1
100
AcDbSymbolTableRecord
100
AcDbBlockTableRecord
  2
*Paper_Space0
340
26
  0
BLOCK_RECORD
  5
F0
330
1
100
AcDbSymbolTableRecord
100
AcDbBlockTableRecord
  2
*Paper_Space1
340
F1
  0
BLOCK_RECORD
  5
158
330
1
100
AcDbSymbolTableRecord
100
AcDbBlockTableRecord
  2
*Paper_Space2
340
159
  0
ENDTAB
  0
ENDSEC
  0
SECTION
  2
BLOCKS
  0
BLOCK
  5
20
330
1F
100
AcDbEntity
  8
0
100
AcDbBlockBegin
  2
*Model_Space
 70
     0
 10
0.0
 20
0.0
 30
0.0
  3
*Model_Space
  1

  0
ENDBLK
  5
21
330
1F
100
AcDbEntity
  8
0
100
AcDbBlockEnd
  0
BLOCK
  5
1C
330
1B
100
AcDbEntity
 67
     1
  8
0
100
AcDbBlockBegin
  2
*Paper_Space
 70
     0
 10
0.0
 20
0.0
 30
0.0
  3
*Paper_Space
  1

  0
ENDBLK
  5
1D
330
1B
100
AcDbEntity
 67
     1
  8
0
100
AcDbBlockEnd
  0
BLOCK
  5
24
330
23
100
AcDbEntity
  8
0
100
AcDbBlockBegin
  2
*Paper_Space0
 70
     0
 10
0.0
 20
0.0
 30
0.0
  3
*Paper_Space0
  1

  0
SPLINE
  5
E1
330
23
100
AcDbEntity
  8
0
  6
Continuous
 62
     7
370
    25
100
AcDbSpline
210
0.0
220
0.0
230
1.0
 70
     8
 71
     3
 72
    10
 73
     6
 74
     0
 42
0.000000001
 43
0.00000001
 40
0.0
 40
0.0
 40
0.0
 40
0.0
 40
0.5
 40
0.5
 40
1.0
 40
1.0
 40
1.0
 40
1.0
 10
232.8483642846827
 20
361.9694269027202
 30
0.0
 10
232.7479337031732
 20
361.7508009637456
 30
0.0
 10
232.6642901204918
 20
361.5271873665342
 30
0.0
 10
232.540709909704
 20
361.0674845839552
 30
0.0
 10
232.4999999999998
 20
360.8287167632888
 30
0.0
 10
232.4999999999997
 20
360.5857864376271
 30
0.0
  0
SPLINE
  5
E5
330
23
100
AcDbEntity
  8
0
  6
Continuous
 62
     7
370
    25
100
AcDbSpline
210
0.0
220
0.0
230
1.0
 70
     8
 71
     3
 72
    14
 73
    10
 74
     0
 42
0.000000001
 43
0.00000001
 40
0.0
 40
0.0
 40
0.0
 40
0.0
 40
0.2499999999999999
 40
0.2499999999999999
 40
0.4999999999999999
 40
0.4999999999999999
 40
0.7499999999999999
 40
0.7499999999999999
 40
1.0
 40
1.0
 40
1.0
 40
1.0
 10
232.4999999999997
 20
2.000000000000113
 30
0.0
 10
232.4999999999998
 20
1.821767880193698
 30
0.0
 10
232.5335918197663
 20
1.650283166930278
 30
0.0
 10
232.6534606266884
 20
1.31794154917253
 30
0.0
 10
232.7378814644113
 20
1.161879885835881
 30
0.0
 10
232.9357703009456
 20
0.8716705173137385
 30
0.0
 10
233.0492806891062
 20
0.7376650399854023
 30
0.0
 10
233.2895258345773
 20
0.497048708175768
 30
0.0
 10
233.4187716171648
 20
0.3882347655506657
 30
0.0
 10
233.5485835071361
 20
0.2969226005370973
 30
0.0
  0
SPLINE
  5
E6
330
23
100
AcDbEntity
  8
0
  6
Continuous
 62
     7
370
    25
100
AcDbSpline
210
0.0
220
0.0
230
1.0
 70
     8
 71
     3
 72
    10
 73
     6
 74
     0
 42
0.000000001
 43
0.00000001
 40
0.0
 40
0.0
 40
0.0
 40
0.0
 40
0.5
 40
0.5
 40
1.0
 40
1.0
 40
1.0
 40
1.0
 10
232.4999999999997
 20
362.0000000000001
 30
0.0
 10
232.4999999999997
 20
362.0000000000001
 30
0.0
 10
232.5398048823373
 20
362.0005592458918
 30
0.0
 10
232.663285619467
 20
361.9942817081485
 30
0.0
 10
232.7480830371438
 20
361.9871652635692
 30
0.0
 10
232.8483642846827
 20
361.9694269027202
 30
0.0
  0
LINE
  5
E8
330
23
100
AcDbEntity
  8
0
  6
Continuous
 62
     7
370
    25
100
AcDbLine
 10
230.5
 20
0.0
 30
0.0
 11
230.5
 21
400.0
 31
0.0
  0
LINE
  5
E9
330
23
100
AcDbEntity
  8
0
  6
Continuous
 62
     7
370
    25
100
AcDbLine
 10
232.5
 20
0.0
 30
0.0
 11
-212.5
 21
0.0
 31
0.0
  0
LINE
  5
EA
330
23
100
AcDbEntity
  8
0
  6
Continuous
 62
     7
370
    25
100
AcDbLine
 10
-212.5
 20
400.0
 30
0.0
 11
232.5
 21
400.0
 31
0.0
  0
LINE
  5
EB
330
23
100
AcDbEntity
  8
0
  6
Continuous
 62
     7
370
    25
100
AcDbLine
 10
-212.5
 20
0.0
 30
0.0
 11
-212.5
 21
400.0
 31
0.0
  0
LINE
  5
EC
330
23
100
AcDbEntity
  8
0
  6
Continuous
 62
     7
370
    25
100
AcDbLine
 10
232.5
 20
0.0
 30
0.0
 11
232.5
 21
400.0
 31
0.0
  0
LINE
  5
ED
330
23
100
AcDbEntity
  8
0
  6
Continuous
 62
     7
370
    25
100
AcDbLine
 10
234.5
 20
360.0
 30
0.0
 11
234.5
 21
2.0
 31
0.0
  0
ARC
  5
EE
330
23
100
AcDbEntity
  8
0
  6
Continuous
 62
     7
370
    25
100
AcDbCircle
 10
232.5
 20
360.0
 30
0.0
 40
2.000000000000115
100
AcDbArc
 50
0.0
 51
79.9689326305
  0
ARC
  5
EF
330
23
100
AcDbEntity
  8
0
  6
Continuous
 62
     7
370
    25
100
AcDbCircle
 10
232.5
 20
2.0
 30
0.0
 40
2.000000000000255
100
AcDbArc
 50
270.0
 51
0.0
  0
VIEWPORT
  5
1D4
330
23
100
AcDbEntity
  8
0
100
AcDbViewport
 10
0.0
 20
0.0
 30
0.0
 40
205.6
 41
156.0
 68
     1
 69
     1
 12
0.0
 22
199.9999069499
 13
0.0
 23
0.0
 14
10.0
 24
10.0
 15
10.0
 25
10.0
 16
0.0
 26
0.0
 36
1.0
 17
0.0
 27
0.0
 37
0.0
 42
50.0
 43
0.0
 44
0.0
 45
770.7955447471
 50
0.0
 51
0.0
 72
   100
 90
   557152
  1

281
     0
 71
     1
 74
     0
110
0.0
120
0.0
130
0.0
111
1.0
121
0.0
131
0.0
112
0.0
122
1.0
132
0.0
 79
     0
146
0.0
  0
ENDBLK
  5
25
330
23
100
AcDbEntity
  8
0
100
AcDbBlockEnd
  0
BLOCK
  5
F2
330
F0
100
AcDbEntity
  8
0
100
AcDbBlockBegin
  2
*Paper_Space1
 70
     0
 10
0.0
 20
0.0
 30
0.0
  3
*Paper_Space1
  1

  0
SPLINE
  5
123
330
F0
100
AcDbEntity
  8
0
  6
Continuous
 62
     7
370
    25
100
AcDbSpline
210
0.0
220
0.0
230
1.0
 70
     8
 71
     3
 72
    10
 73
     6
 74
     0
 42
0.000000001
 43
0.00000001
 40
0.0
 40
0.0
 40
0.0
 40
0.0
 40
0.5
 40
0.5
 40
1.0
 40
1.0
 40
1.0
 40
1.0
 10
489.9694269027198
 20
-232.8483642846828
 30
0.0
 10
489.7508009637452
 20
-232.7479337031733
 30
0.0
 10
489.5271873665337
 20
-232.6642901204918
 30
0.0
 10
489.0674845839546
 20
-232.5407099097041
 30
0.0
 10
488.8287167632882
 20
-232.4999999999997
 30
0.0
 10
488.5857864376265
 20
-232.4999999999997
 30
0.0
  0
SPLINE
  5
126
330
F0
100
AcDbEntity
  8
0
  6
Continuous
 62
     7
370
    25
100
AcDbSpline
210
0.0
220
0.0
230
1.0
 70
     8
 71
     3
 72
    10
 73
     6
 74
     0
 42
0.000000001
 43
0.00000001
 40
0.0
 40
0.0
 40
0.0
 40
0.0
 40
0.5
 40
0.5
 40
1.0
 40
1.0
 40
1.0
 40
1.0
 10
489.9999999999998
 20
-232.4999999999997
 30
0.0
 10
489.9999999999998
 20
-232.4999999999997
 30
0.0
 10
490.0005592458915
 20
-232.5398048823374
 30
0.0
 10
489.9942817081483
 20
-232.6632856194672
 30
0.0
 10
489.9871652635689
 20
-232.7480830371439
 30
0.0
 10
489.9694269027198
 20
-232.8483642846828
 30
0.0
  0
SPLINE
  5
12C
330
F0
100
AcDbEntity
  8
0
  6
Continuous
 62
     7
370
    25
100
AcDbSpline
210
0.0
220
0.0
230
1.0
 70
     8
 71
     3
 72
    10
 73
     6
 74
     0
 42
0.000000001
 43
0.00000001
 40
0.0
 40
0.0
 40
0.0
 40
0.0
 40
0.5
 40
0.5
 40
1.0
 40
1.0
 40
1.0
 40
1.0
 10
-488.5857864376271
 20
-232.4999999999997
 30
0.0
 10
-488.8283045682359
 20
-232.4999999999997
 30
0.0
 10
-489.0631684540206
 20
-232.5398048823373
 30
0.0
 10
-489.5243857539353
 20
-232.663285619467
 30
0.0
 10
-489.7511260467934
 20
-232.7480830371438
 30
0.0
 10
-489.9694269027201
 20
-232.8483642846827
 30
0.0
  0
SPLINE
  5
12D
330
F0
100
AcDbEntity
  8
0
  6
Continuous
 62
     7
370
    25
100
AcDbSpline
210
0.0
220
0.0
230
1.0
 70
     8
 71
     3
 72
    10
 73
     6
 74
     0
 42
0.000000001
 43
0.00000001
 40
0.0
 40
0.0
 40
0.0
 40
0.0
 40
0.5
 40
0.5
 40
1.0
 40
1.0
 40
1.0
 40
1.0
 10
-489.9694269027201
 20
-232.8483642846827
 30
0.0
 10
-489.9871916786757
 20
-232.7479337031732
 30
0.0
 10
-489.9942007993446
 20
-232.6642901204918
 30
0.0
 10
-490.0005426201532
 20
-232.540709909704
 30
0.0
 10
-490.0000000000002
 20
-232.4999999999998
 30
0.0
 10
-490.0000000000001
 20
-232.4999999999997
 30
0.0
  0
LINE
  5
131
330
F0
100
AcDbEntity
  8
0
  6
Continuous
 62
     7
370
    25
100
AcDbLine
 10
478.975
 20
-215.5
 30
0.0
 11
478.975
 21
212.5
 31
0.0
  0
LINE
  5
132
330
F0
100
AcDbEntity
  8
0
  6
Continuous
 62
     7
370
    25
100
AcDbLine
 10
-478.975
 20
212.5
 30
0.0
 11
-478.975
 21
-215.5
 31
0.0
  0
LINE
  5
133
330
F0
100
AcDbEntity
  8
0
  6
Continuous
 62
     7
370
    25
100
AcDbLine
 10
478.975
 20
-196.5
 30
0.0
 11
-478.975
 21
-196.5
 31
0.0
  0
LINE
  5
134
330
F0
100
AcDbEntity
  8
0
  6
Continuous
 62
     7
370
    25
100
AcDbLine
 10
478.975
 20
-215.5
 30
0.0
 11
-478.975
 21
-215.5
 31
0.0
  0
LINE
  5
135
330
F0
100
AcDbEntity
  8
0
  6
Continuous
 62
     7
370
    25
100
AcDbLine
 10
-438.0
 20
164.5
 30
0.0
 11
-438.0
 21
-196.5
 31
0.0
  0
LINE
  5
136
330
F0
100
AcDbEntity
  8
0
  6
Continuous
 62
     7
370
    25
100
AcDbLine
 10
-454.0
 20
-196.5
 30
0.0
 11
-454.0
 21
164.5
 31
0.0
  0
LINE
  5
137
330
F0
100
AcDbEntity
  8
0
  6
Continuous
 62
     7
370
    25
100
AcDbLine
 10
438.0
 20
164.5
 30
0.0
 11
438.0
 21
-196.5
 31
0.0
  0
LINE
  5
138
330
F0
100
AcDbEntity
  8
0
  6
Continuous
 62
     7
370
    25
100
AcDbLine
 10
454.0
 20
-196.5
 30
0.0
 11
454.0
 21
164.5
 31
0.0
  0
LINE
  5
139
330
F0
100
AcDbEntity
  8
0
  6
Continuous
 62
     7
370
    25
100
AcDbLine
 10
454.0
 20
164.5
 30
0.0
 11
-454.0
 21
164.5
 31
0.0
  0
LINE
  5
13A
330
F0
100
AcDbEntity
  8
0
  6
Continuous
 62
     7
370
    25
100
AcDbLine
 10
-438.0
 20
148.5
 30
0.0
 11
438.0
 21
148.5
 31
0.0
  0
LINE
  5
13B
330
F0
100
AcDbEntity
  8
0
  6
Continuous
 62
     7
370
    25
100
AcDbLine
 10
-467.025
 20
46.8
 30
0.0
 11
-454.0
 21
46.8
 31
0.0
  0
LINE
  5
13C
330
F0
100
AcDbEntity
  8
0
  6
Continuous
 62
     7
370
    25
100
AcDbLine
 10
-465.645
 20
-183.2
 30
0.0
 11
-465.645
 21
46.8
 31
0.0
  0
LINE
  5
13D
330
F0
100
AcDbEntity
  8
0
  6
Continuous
 62
     7
370
    25
100
AcDbLine
 10
-467.025
 20
-183.2
 30
0.0
 11
-454.0
 21
-183.2
 31
0.0
  0
LINE
  5
13E
330
F0
100
AcDbEntity
  8
0
  6
Continuous
 62
     7
370
    25
100
AcDbLine
 10
-467.025
 20
-183.2
 30
0.0
 11
-467.025
 21
46.8
 31
0.0
  0
LINE
  5
13F
330
F0
100
AcDbEntity
  8
0
  6
Continuous
 62
     7
370
    25
100
AcDbLine
 10
-465.225
 20
46.8
 30
0.0
 11
-465.225
 21
-183.2
 31
0.0
  0
LINE
  5
140
330
F0
100
AcDbEntity
  8
0
  6
Continuous
 62
     7
370
    25
100
AcDbLine
 10
478.975
 20
46.8
 30
0.0
 11
458.975
 21
46.8
 31
0.0
  0
LINE
  5
141
330
F0
100
AcDbEntity
  8
0
  6
Continuous
 62
     7
370
    25
100
AcDbLine
 10
478.975
 20
-183.2
 30
0.0
 11
458.975
 21
-183.2
 31
0.0
  0
LINE
  5
142
330
F0
100
AcDbEntity
  8
0
  6
Continuous
 62
     7
370
    25
100
AcDbLine
 10
477.595
 20
-183.2
 30
0.0
 11
477.595
 21
46.8
 31
0.0
  0
LINE
  5
143
330
F0
100
AcDbEntity
  8
0
  6
Continuous
 62
     7
370
    25
100
AcDbLine
 10
477.175
 20
46.8
 30
0.0
 11
477.175
 21
-183.2
 31
0.0
  0
LINE
  5
144
330
F0
100
AcDbEntity
  8
0
  6
Continuous
 62
     7
370
    25
100
AcDbLine
 10
458.975
 20
137.5
 30
0.0
 11
454.0
 21
137.5
 31
0.0
  0
LINE
  5
145
330
F0
100
AcDbEntity
  8
0
  6
Continuous
 62
     7
370
    25
100
AcDbLine
 10
455.475
 20
-185.5
 30
0.0
 11
455.475
 21
137.5
 31
0.0
  0
LINE
  5
146
330
F0
100
AcDbEntity
  8
0
  6
Continuous
 62
     7
370
    25
100
AcDbLine
 10
458.975
 20
-185.5
 30
0.0
 11
454.0
 21
-185.5
 31
0.0
  0
LINE
  5
147
330
F0
100
AcDbEntity
  8
0
  6
Continuous
 62
     7
370
    25
100
AcDbLine
 10
458.975
 20
137.5
 30
0.0
 11
458.975
 21
-185.5
 31
0.0
  0
LINE
  5
148
330
F0
100
AcDbEntity
  8
0
  6
Continuous
 62
     7
370
    25
100
AcDbLine
 10
-495.975
 20
-232.5
 30
0.0
 11
-478.975
 21
-215.5
 31
0.0
  0
LINE
  5
149
330
F0
100
AcDbEntity
  8
0
  6
Continuous
 62
     7
370
    25
100
AcDbLine
 10
-497.975
 20
212.5
 30
0.0
 11
-497.975
 21
-230.5
 31
0.0
  0
LINE
  5
14A
330
F0
100
AcDbEntity
  8
0
  6
Continuous
 62
     7
370
    25
100
AcDbLine
 10
497.975
 20
212.5
 30
0.0
 11
-497.975
 21
212.5
 31
0.0
  0
LINE
  5
14B
330
F0
100
AcDbEntity
  8
0
  6
Continuous
 62
     7
370
    25
100
AcDbLine
 10
497.975
 20
-230.5
 30
0.0
 11
497.975
 21
212.5
 31
0.0
  0
LINE
  5
14C
330
F0
100
AcDbEntity
  8
0
  6
Continuous
 62
     7
370
    25
100
AcDbLine
 10
478.975
 20
-215.5
 30
0.0
 11
495.975
 21
-232.5
 31
0.0
  0
LINE
  5
14D
330
F0
100
AcDbEntity
  8
0
  6
Continuous
 62
     7
370
    25
100
AcDbLine
 10
488.5857864376
 20
-232.5
 30
0.0
 11
471.5857864376
 21
-215.5
 31
0.0
  0
LINE
  5
14E
330
F0
100
AcDbEntity
  8
0
  6
Continuous
 62
     7
370
    25
100
AcDbLine
 10
473.0
 20
-215.5
 30
0.0
 11
490.0
 21
-232.5
 31
0.0
  0
LINE
  5
14F
330
F0
100
AcDbEntity
  8
0
  6
Continuous
 62
     7
370
    25
100
AcDbLine
 10
488.5857864376
 20
-232.5
 30
0.0
 11
-488.5857864376
 21
-232.5
 31
0.0
  0
LINE
  5
150
330
F0
100
AcDbEntity
  8
0
  6
Continuous
 62
     7
370
    25
100
AcDbLine
 10
-471.5857864376
 20
-215.5
 30
0.0
 11
-488.5857864376
 21
-232.5
 31
0.0
  0
LINE
  5
151
330
F0
100
AcDbEntity
  8
0
  6
Continuous
 62
     7
370
    25
100
AcDbLine
 10
488.0
 20
-234.5
 30
0.0
 11
-488.0
 21
-234.5
 31
0.0
  0
LINE
  5
152
330
F0
100
AcDbEntity
  8
0
  6
Continuous
 62
     7
370
    25
100
AcDbLine
 10
-490.0
 20
-232.5
 30
0.0
 11
-473.0
 21
-215.5
 31
0.0
  0
LINE
  5
153
330
F0
100
AcDbEntity
  8
0
  6
Continuous
 62
     7
370
    25
100
AcDbLine
 10
478.975
 20
196.5
 30
0.0
 11
-478.975
 21
196.5
 31
0.0
  0
ARC
  5
154
330
F0
100
AcDbEntity
  8
0
  6
Continuous
 62
     7
370
    25
100
AcDbCircle
 10
-495.975
 20
-230.5
 30
0.0
 40
2.000000000000057
100
AcDbArc
 50
180.0
 51
270.0
  0
ARC
  5
155
330
F0
100
AcDbEntity
  8
0
  6
Continuous
 62
     7
370
    25
100
AcDbCircle
 10
495.975
 20
-230.5
 30
0.0
 40
2.000000000000114
100
AcDbArc
 50
270.0
 51
360.0
  0
ARC
  5
156
330
F0
100
AcDbEntity
  8
0
  6
Continuous
 62
     7
370
    25
100
AcDbCircle
 10
488.0
 20
-232.5
 30
0.0
 40
2.000000000000028
100
AcDbArc
 50
270.0
 51
349.9689326305
  0
ARC
  5
157
330
F0
100
AcDbEntity
  8
0
  6
Continuous
 62
     7
370
    25
100
AcDbCircle
 10
-488.0
 20
-232.5
 30
0.0
 40
2.000000000000057
100
AcDbArc
 50
190.0310673695
 51
270.0
  0
VIEWPORT
  5
1D6
330
F0
100
AcDbEntity
  8
0
100
AcDbViewport
 10
0.0
 20
0.0
 30
0.0
 40
205.6
 41
156.0
 68
     1
 69
     1
 12
0.0
 22
199.9999069499
 13
0.0
 23
0.0
 14
10.0
 24
10.0
 15
10.0
 25
10.0
 16
0.0
 26
0.0
 36
1.0
 17
0.0
 27
0.0
 37
0.0
 42
50.0
 43
0.0
 44
0.0
 45
770.7955447471
 50
0.0
 51
0.0
 72
   100
 90
   557152
  1

281
     0
 71
     1
 74
     0
110
0.0
120
0.0
130
0.0
111
1.0
121
0.0
131
0.0
112
0.0
122
1.0
132
0.0
 79
     0
146
0.0
  0
ENDBLK
  5
F3
330
F0
100
AcDbEntity
  8
0
100
AcDbBlockEnd
  0
BLOCK
  5
15A
330
158
100
AcDbEntity
  8
0
100
AcDbBlockBegin
  2
*Paper_Space2
 70
     0
 10
0.0
 20
0.0
 30
0.0
  3
*Paper_Space2
  1

  0
LWPOLYLINE
  5
18C
330
158
100
AcDbEntity
  8
0
  6
Continuous
 62
     7
370
    25
100
AcDbPolyline
 90
        8
 70
   128
 43
0.0
 10
181.8120469631
 20
0.5056556734
 10
181.4647145801
 20
0.3051306225
 10
181.0857250501
 20
0.0863205021
 10
180.6900955803
 20
-0.1421044828
 10
180.2935027246
 20
-0.3710931446
 10
179.9116612104
 20
-0.5915719602
 10
179.559701253
 20
-0.7948046037
 10
179.2515690308
 20
-0.9727381171
  0
SPLINE
  5
18D
330
158
100
AcDbEntity
  8
0
  6
Continuous
 62
     7
370
    25
100
AcDbSpline
210
0.0
220
0.0
230
1.0
 70
     8
 71
     3
 72
    10
 73
     6
 74
     0
 42
0.000000001
 43
0.00000001
 40
0.0
 40
0.0
 40
0.0
 40
0.0
 40
0.5
 40
0.5
 40
1.0
 40
1.0
 40
1.0
 40
1.0
 10
182.0799961555352
 20
-0.4944195837119914
 30
0.0
 10
182.0799961555352
 20
-0.2963936324476835
 30
0.0
 10
182.0522452998722
 20
-0.1210944853228813
 30
0.0
 10
181.9604923437945
 20
0.2076654418498858
 30
0.0
 10
181.8954994285081
 20
0.3610984563818809
 30
0.0
 10
181.812046963104
 20
0.5056556733821771
 30
0.0
  0
SPLINE
  5
18F
330
158
100
AcDbEntity
  8
0
  6
Continuous
 62
     7
370
    25
100
AcDbSpline
210
0.0
220
0.0
230
1.0
 70
     8
 71
     3
 72
    14
 73
    10
 74
     0
 42
0.000000001
 43
0.00000001
 40
0.0
 40
0.0
 40
0.0
 40
0.0
 40
0.2499999999999999
 40
0.2499999999999999
 40
0.4999999999999999
 40
0.4999999999999999
 40
0.7499999999999999
 40
0.7499999999999999
 40
1.0
 40
1.0
 40
1.0
 40
1.0
 10
181.1285796626715
 20
-294.9918120053876
 30
0.0
 10
181.277080432405
 20
-294.8967635171407
 30
0.0
 10
181.407362125837
 20
-294.7818947187815
 30
0.0
 10
181.6384439403786
 20
-294.522031953426
 30
0.0
 10
181.7386347641837
 20
-294.3765288368365
 30
0.0
 10
181.9018067109617
 20
-294.0747205232025
 30
0.0
 10
181.9670633491128
 20
-293.9141518489424
 30
0.0
 10
182.0558876419825
 20
-293.5976092350114
 30
0.0
 10
182.0799961555351
 20
-293.439822015606
 30
0.0
 10
182.079996155535
 20
-293.2943487721821
 30
0.0
  0
SPLINE
  5
191
330
158
100
AcDbEntity
  8
0
  6
Continuous
 62
     7
370
    25
100
AcDbSpline
210
0.0
220
0.0
230
1.0
 70
     8
 71
     3
 72
    10
 73
     6
 74
     0
 42
0.000000001
 43
0.00000001
 40
0.0
 40
0.0
 40
0.0
 40
0.0
 40
0.5
 40
0.5
 40
1.0
 40
1.0
 40
1.0
 40
1.0
 10
181.812046963104
 20
0.5056556733821771
 30
0.0
 10
181.7284702243357
 20
0.6504015036906674
 30
0.0
 10
181.6294964778987
 20
0.7815483638123899
 30
0.0
 10
181.3918219280752
 20
1.024825202960683
 30
0.0
 10
181.2517738361663
 20
1.138466074534605
 30
0.0
 10
181.079996155535
 20
1.237631218773572
 30
0.0
  0
SPLINE
  5
194
330
158
100
AcDbEntity
  8
0
  6
Continuous
 62
     7
370
    25
100
AcDbSpline
210
0.0
220
0.0
230
1.0
 70
     8
 71
     3
 72
    10
 73
     6
 74
     0
 42
0.000000001
 43
0.00000001
 40
0.0
 40
0.0
 40
0.0
 40
0.0
 40
0.5
 40
0.5
 40
1.0
 40
1.0
 40
1.0
 40
1.0
 10
-509.8846494072802
 20
400.1230305877305
 30
0.0
 10
-510.0561356219944
 20
400.222027472277
 30
0.0
 10
-510.2503557705138
 20
400.3021079957206
 30
0.0
 10
-510.6637997174545
 20
400.4348475647135
 30
0.0
 10
-510.884090145169
 20
400.4869783546357
 30
0.0
 10
-511.1093617108942
 20
400.5206703418874
 30
0.0
  0
LWPOLYLINE
  5
198
330
158
100
AcDbEntity
  8
0
  6
Continuous
 62
     7
370
    25
100
AcDbPolyline
 90
        5
 70
   128
 43
0.0
 10
-510.8846494073
 20
105.1128097973
 10
-511.141588261
 20
104.9644284439
 10
-511.3293683952
 20
104.8559737922
 10
-511.4402187452
 20
104.7919341131
 10
-511.4704358383
 20
104.7744548073
  0
LINE
  5
19D
330
158
100
AcDbEntity
  8
0
  6
Continuous
 62
     7
370
    25
100
AcDbLine
 10
-515.6953988625
 20
434.9842964974
 30
0.0
 11
-515.6953988625
 21
108.3679717431
 31
0.0
  0
LINE
  5
19E
330
158
100
AcDbEntity
  8
0
  6
Continuous
 62
     7
370
    25
100
AcDbLine
 10
-511.4704358383
 20
104.7744548073
 30
0.0
 11
180.6659451213
 21
-294.787373008
 31
0.0
  0
LINE
  5
19F
330
158
100
AcDbEntity
  8
0
  6
Continuous
 62
     7
370
    25
100
AcDbLine
 10
-511.4704358449
 20
399.4055916546
 30
0.0
 11
-511.4704358449
 21
104.7744548187
 31
0.0
  0
LINE
  5
1A0
330
158
100
AcDbEntity
  8
0
  6
Continuous
 62
     7
370
    25
100
AcDbLine
 10
186.3049591731
 20
43.1288130253
 30
0.0
 11
488.946661521
 21
217.8401489553
 31
0.0
  0
LINE
  5
1A1
330
158
100
AcDbEntity
  8
0
  6
Continuous
 62
     7
370
    25
100
AcDbLine
 10
186.3049591731
 20
43.1288130253
 30
0.0
 11
-491.0679818645
 21
434.1678883855
 31
0.0
  0
LINE
  5
1A2
330
158
100
AcDbEntity
  8
0
  6
Continuous
 62
     7
370
    25
100
AcDbLine
 10
-188.4262795167
 20
608.8792243156
 30
0.0
 11
-491.0679818645
 21
434.1678883855
 31
0.0
  0
LINE
  5
1A3
330
158
100
AcDbEntity
  8
0
  6
Continuous
 62
     7
370
    25
100
AcDbLine
 10
199.7399880157
 20
50.8846900876
 30
0.0
 11
-477.632953022
 21
441.9237654479
 31
0.0
  0
LINE
  5
1A4
330
158
100
AcDbEntity
  8
0
  6
Continuous
 62
     7
370
    25
100
AcDbLine
 10
182.0799961555
 20
-11.5900245727
 30
0.0
 11
186.3049591731
 21
-14.0290438067
 31
0.0
  0
LINE
  5
1A5
330
158
100
AcDbEntity
  8
0
  6
Continuous
 62
     7
370
    25
100
AcDbLine
 10
-491.0679818645
 20
434.1678883855
 30
0.0
 11
-491.0679818645
 21
389.2603996329
 31
0.0
  0
LINE
  5
1A6
330
158
100
AcDbEntity
  8
0
  6
Continuous
 62
     7
370
    25
100
AcDbLine
 10
182.0799961555
 20
-147.9548614588
 30
0.0
 11
186.3049591731
 21
-145.5158422247
 31
0.0
  0
LINE
  5
1A7
330
158
100
AcDbEntity
  8
0
  6
Continuous
 62
     7
370
    25
100
AcDbLine
 10
182.0799961555
 20
-224.709697776
 30
0.0
 11
186.3049591731
 21
-222.270678542
 31
0.0
  0
LINE
  5
1A8
330
158
100
AcDbEntity
  8
0
  6
Continuous
 62
     7
370
    25
100
AcDbLine
 10
186.3049591731
 20
-132.4533124356
 30
0.0
 11
182.0799961555
 21
-134.8923316696
 31
0.0
  0
LINE
  5
1A9
330
158
100
AcDbEntity
  8
0
  6
Continuous
 62
     7
370
    25
100
AcDbLine
 10
-204.7074131535
 20
293.3033723765
 30
0.0
 11
-212.4471997642
 21
288.835288672
 31
0.0
  0
LINE
  5
1AA
330
158
100
AcDbEntity
  8
0
  6
Continuous
 62
     7
370
    25
100
AcDbLine
 10
-193.3937046545
 20
363.5248205981
 30
0.0
 11
-267.6104935549
 21
320.6803803355
 31
0.0
  0
LINE
  5
1AB
330
158
100
AcDbEntity
  8
0
  6
Continuous
 62
     7
370
    25
100
AcDbLine
 10
-278.9242020539
 20
327.2116452301
 30
0.0
 11
-204.7074131535
 21
370.0560854927
 31
0.0
  0
LINE
  5
1AC
330
158
100
AcDbEntity
  8
0
  6
Continuous
 62
     7
370
    25
100
AcDbLine
 10
273.956776916
 20
93.7291303502
 30
0.0
 11
-204.7074131535
 21
370.0560854927
 31
0.0
  0
LINE
  5
1AD
330
158
100
AcDbEntity
  8
0
  6
Continuous
 62
     7
370
    25
100
AcDbLine
 10
-204.7074131535
 20
356.9935557036
 30
0.0
 11
262.643068417
 21
87.1978654556
 31
0.0
  0
LINE
  5
1AE
330
158
100
AcDbEntity
  8
0
  6
Continuous
 62
     7
370
    25
100
AcDbLine
 10
-204.7074131535
 20
356.9935557036
 30
0.0
 11
-204.7074131535
 21
293.3033723765
 31
0.0
  0
LINE
  5
1AF
330
158
100
AcDbEntity
  8
0
  6
Continuous
 62
     7
370
    25
100
AcDbLine
 10
-204.7074131535
 20
293.3033723765
 30
0.0
 11
207.4797746263
 21
55.3527737921
 31
0.0
  0
LINE
  5
1B0
330
158
100
AcDbEntity
  8
0
  6
Continuous
 62
     7
370
    25
100
AcDbLine
 10
184.5371922202
 20
-227.1503425859
 30
0.0
 11
184.5371922202
 21
-223.2911886818
 31
0.0
  0
LINE
  5
1B1
330
158
100
AcDbEntity
  8
0
  6
Continuous
 62
     7
370
    25
100
AcDbLine
 10
186.3049591731
 20
-229.8039343494
 30
0.0
 11
185.9514057825
 21
-229.5998323215
 31
0.0
  0
LINE
  5
1B2
330
158
100
AcDbEntity
  8
0
  6
Continuous
 62
     7
370
    25
100
AcDbLine
 10
185.9514057825
 20
-230.8246435393
 30
0.0
 11
186.3049591731
 21
-231.0287455673
 31
0.0
  0
LINE
  5
1B3
330
158
100
AcDbEntity
  8
0
  6
Continuous
 62
     7
370
    25
100
AcDbLine
 10
183.4765320484
 20
-223.9034947656
 30
0.0
 11
183.4765320484
 21
-226.538036502
 31
0.0
  0
LINE
  5
1B4
330
158
100
AcDbEntity
  8
0
  6
Continuous
 62
     7
370
    25
100
AcDbLine
 10
-511.4704358449
 20
107.5515636312
 30
0.0
 11
-515.1096124249
 21
107.5515636312
 31
0.0
  0
LINE
  5
1B5
330
158
100
AcDbEntity
  8
0
  6
Continuous
 62
     7
370
    25
100
AcDbLine
 10
-515.1096124249
 20
107.5515636312
 30
0.0
 11
-515.1096124249
 21
434.1678883855
 31
0.0
  0
LINE
  5
1B6
330
158
100
AcDbEntity
  8
0
  6
Continuous
 62
     7
370
    25
100
AcDbLine
 10
-515.1096124249
 20
434.1678883855
 30
0.0
 11
-491.0679818645
 21
434.1678883855
 31
0.0
  0
LINE
  5
1B7
330
158
100
AcDbEntity
  8
0
  6
Continuous
 62
     7
370
    25
100
AcDbLine
 10
-188.4262795167
 20
608.8792243156
 30
0.0
 11
-201.8613083592
 21
616.6351013779
 31
0.0
  0
LINE
  5
1B8
330
158
100
AcDbEntity
  8
0
  6
Continuous
 62
     7
370
    25
100
AcDbLine
 10
-201.8613083592
 20
616.6351013779
 30
0.0
 11
-515.1096124249
 21
435.8007046092
 31
0.0
  0
LINE
  5
1B9
330
158
100
AcDbEntity
  8
0
  6
Continuous
 62
     7
370
    25
100
AcDbLine
 10
-188.4262795167
 20
360.6571871054
 30
0.0
 11
-188.4262795167
 21
608.8792243156
 31
0.0
  0
LINE
  5
1BA
330
158
100
AcDbEntity
  8
0
  6
Continuous
 62
     7
370
    25
100
AcDbLine
 10
488.946661521
 20
217.8401489553
 30
0.0
 11
502.3816903635
 21
210.084271893
 31
0.0
  0
LINE
  5
1BB
330
158
100
AcDbEntity
  8
0
  6
Continuous
 62
     7
370
    25
100
AcDbLine
 10
189.1333862979
 20
29.2498751243
 30
0.0
 11
502.3816903635
 21
210.084271893
 31
0.0
  0
LINE
  5
1BC
330
158
100
AcDbEntity
  8
0
  6
Continuous
 62
     7
370
    25
100
AcDbLine
 10
186.3049591731
 20
43.1288130253
 30
0.0
 11
186.3049591731
 21
-297.36644963
 31
0.0
  0
LINE
  5
1BD
330
158
100
AcDbEntity
  8
0
  6
Continuous
 62
     7
370
    25
100
AcDbLine
 10
189.1333862979
 20
29.2498751243
 30
0.0
 11
189.1333862979
 21
-297.36644963
 31
0.0
  0
LINE
  5
1BE
330
158
100
AcDbEntity
  8
0
  6
Continuous
 62
     7
370
    25
100
AcDbLine
 10
502.3816903635
 20
210.084271893
 30
0.0
 11
502.3816903635
 21
-116.5320528613
 31
0.0
  0
LINE
  5
1BF
330
158
100
AcDbEntity
  8
0
  6
Continuous
 62
     7
370
    25
100
AcDbLine
 10
502.3816903635
 20
-116.5320528613
 30
0.0
 11
189.1333862979
 21
-297.36644963
 31
0.0
  0
LINE
  5
1C0
330
158
100
AcDbEntity
  8
0
  6
Continuous
 62
     7
370
    25
100
AcDbLine
 10
179.2515690308
 20
-293.2943487722
 30
0.0
 11
179.2515690308
 21
-0.9727381171
 31
0.0
  0
LINE
  5
1C1
330
158
100
AcDbEntity
  8
0
  6
Continuous
 62
     7
370
    25
100
AcDbLine
 10
182.0799961555
 20
-293.2943487722
 30
0.0
 11
182.0799961555
 21
-0.4944195837
 31
0.0
  0
LINE
  5
1C2
330
158
100
AcDbEntity
  8
0
  6
Continuous
 62
     7
370
    25
100
AcDbLine
 10
179.2515690308
 20
-0.9727381171
 30
0.0
 11
-510.8846494073
 21
397.4344204524
 31
0.0
  0
LINE
  5
1C3
330
158
100
AcDbEntity
  8
0
  6
Continuous
 62
     7
370
    25
100
AcDbLine
 10
181.0799961555
 20
1.2376312188
 30
0.0
 11
-509.8846494073
 21
400.1230305877
 31
0.0
  0
LINE
  5
1C4
330
158
100
AcDbEntity
  8
0
  6
Continuous
 62
     7
370
    25
100
AcDbLine
 10
-510.8846494073
 20
105.1128097973
 30
0.0
 11
179.2515690308
 21
-293.2943487722
 31
0.0
  0
LINE
  5
1C5
330
158
100
AcDbEntity
  8
0
  6
Continuous
 62
     7
370
    25
100
AcDbLine
 10
-510.8846494073
 20
397.4344204524
 30
0.0
 11
-510.8846494073
 21
105.1128097973
 31
0.0
  0
LINE
  5
1C6
330
158
100
AcDbEntity
  8
0
  6
Continuous
 62
     7
370
    25
100
AcDbLine
 10
182.0799961555
 20
-263.0849927337
 30
0.0
 11
186.3049591731
 21
-265.5240119677
 31
0.0
  0
LINE
  5
1C7
330
158
100
AcDbEntity
  8
0
  6
Continuous
 62
     7
370
    25
100
AcDbLine
 10
182.0799961555
 20
-278.5992681595
 30
0.0
 11
186.3049591731
 21
-281.0382873936
 31
0.0
  0
LINE
  5
1C8
330
158
100
AcDbEntity
  8
0
  6
Continuous
 62
     8
370
    25
100
AcDbLine
 10
186.3049591731
 20
-226.1298324461
 30
0.0
 11
184.5371922202
 21
-227.1503425859
 31
0.0
  0
LINE
  5
1C9
330
158
100
AcDbEntity
  8
0
  6
Continuous
 62
     8
370
    25
100
AcDbLine
 10
186.3049591731
 20
-229.3957302935
 30
0.0
 11
185.9514057825
 21
-229.5998323215
 31
0.0
  0
ARC
  5
1CA
330
158
100
AcDbEntity
  8
0
  6
Continuous
 62
     7
370
    25
100
AcDbCircle
 10
187.6076244229
 20
-227.0106208814
 30
0.0
 40
3.07360961514436
100
AcDbArc
 50
182.6054784857
 51
237.39452166
  0
ARC
  5
1CB
330
158
100
AcDbEntity
  8
0
  6
Continuous
 62
     7
370
    25
100
AcDbCircle
 10
188.8497884032
 20
-226.2935235191
 30
0.0
 40
5.378816826502522
100
AcDbArc
 50
182.6054784857
 51
237.39452166
  0
ARC
  5
1CC
330
158
100
AcDbEntity
  8
0
  6
Continuous
 62
     7
370
    25
100
AcDbCircle
 10
-514.7997583713
 20
434.9842964974
 30
0.0
 40
0.8732306336686381
100
AcDbArc
 50
110.7834207995
 51
249.2165792005
  0
ARC
  5
1CD
330
158
100
AcDbEntity
  8
0
  6
Continuous
 62
     7
370
    25
100
AcDbCircle
 10
-514.6944847375
 20
108.4677844969
 30
0.0
 40
1.005878556988042
100
AcDbArc
 50
185.6947992512
 51
245.6253417064
  0
ARC
  5
1CE
330
158
100
AcDbEntity
  8
0
  6
Continuous
 62
     7
370
    25
100
AcDbCircle
 10
187.7191727355
 20
31.9792972942
 30
0.0
 40
3.07404381582341
100
AcDbArc
 50
242.6096722366
 51
297.3903277634
  0
ARC
  5
1CF
330
158
100
AcDbEntity
  8
0
  6
Continuous
 62
     7
370
    25
100
AcDbCircle
 10
187.7191727355
 20
-294.6370274601
 30
0.0
 40
3.074043815823819
100
AcDbArc
 50
242.6096722366
 51
297.3903277634
  0
ARC
  5
1D0
330
158
100
AcDbEntity
  8
0
  6
Continuous
 62
     7
370
    25
100
AcDbCircle
 10
182.4830874625
 20
-291.6075262082
 30
0.0
 40
3.645282120316768
100
AcDbArc
 50
207.5641401249
 51
248.1870107686
  0
ARC
  5
1D1
330
158
100
AcDbEntity
  8
0
  6
Continuous
 62
     7
370
    25
100
AcDbCircle
 10
-508.7734324395
 20
399.1394455205
 30
0.0
 40
2.71373314239365
100
AcDbArc
 50
149.4043596989
 51
218.9244452587
  0
VIEWPORT
  5
1D8
330
158
100
AcDbEntity
  8
0
100
AcDbViewport
 10
0.0
 20
0.0
 30
0.0
 40
205.6
 41
156.0
 68
     1
 69
     1
 12
0.0
 22
199.9999069499
 13
0.0
 23
0.0
 14
10.0
 24
10.0
 15
10.0
 25
10.0
 16
0.0
 26
0.0
 36
1.0
 17
0.0
 27
0.0
 37
0.0
 42
50.0
 43
0.0
 44
0.0
 45
770.7955447471
 50
0.0
 51
0.0
 72
   100
 90
   557152
  1

281
     0
 71
     1
 74
     0
110
0.0
120
0.0
130
0.0
111
1.0
121
0.0
131
0.0
112
0.0
122
1.0
132
0.0
 79
     0
146
0.0
  0
ENDBLK
  5
15B
330
158
100
AcDbEntity
  8
0
100
AcDbBlockEnd
  0
ENDSEC
  0
SECTION
  2
ENTITIES
  0
SPLINE
  5
8A
330
1F
100
AcDbEntity
  8
0
  6
Continuous
 62
     7
370
    25
100
AcDbSpline
210
0.0
220
0.0
230
1.0
 70
     8
 71
     3
 72
    10
 73
     6
 74
     0
 42
0.000000001
 43
0.00000001
 40
0.0
 40
0.0
 40
0.0
 40
0.0
 40
0.5
 40
0.5
 40
1.0
 40
1.0
 40
1.0
 40
1.0
 10
489.9694269027198
 20
361.96942690272
 30
0.0
 10
489.7508009637452
 20
361.9871916786757
 30
0.0
 10
489.5271873665337
 20
361.9942007993446
 30
0.0
 10
489.0674845839546
 20
362.0005426201532
 30
0.0
 10
488.8287167632882
 20
362.0000000000002
 30
0.0
 10
488.5857864376265
 20
362.0000000000001
 30
0.0
  0
SPLINE
  5
8E
330
1F
100
AcDbEntity
  8
0
  6
Continuous
 62
     7
370
    25
100
AcDbSpline
210
0.0
220
0.0
230
1.0
 70
     8
 71
     3
 72
    10
 73
     6
 74
     0
 42
0.000000001
 43
0.00000001
 40
0.0
 40
0.0
 40
0.0
 40
0.0
 40
0.5
 40
0.5
 40
1.0
 40
1.0
 40
1.0
 40
1.0
 10
-488.5857864376271
 20
362.0000000000001
 30
0.0
 10
-488.8283045682359
 20
362.0000000000001
 30
0.0
 10
-489.0631684540206
 20
362.0005592458918
 30
0.0
 10
-489.5243857539353
 20
361.9942817081485
 30
0.0
 10
-489.7511260467934
 20
361.9871652635692
 30
0.0
 10
-489.9694269027201
 20
361.9694269027202
 30
0.0
  0
SPLINE
  5
90
330
1F
100
AcDbEntity
  8
0
  6
Continuous
 62
     7
370
    25
100
AcDbSpline
210
0.0
220
0.0
230
1.0
 70
     8
 71
     3
 72
    10
 73
     6
 74
     0
 42
0.000000001
 43
0.00000001
 40
0.0
 40
0.0
 40
0.0
 40
0.0
 40
0.5
 40
0.5
 40
1.0
 40
1.0
 40
1.0
 40
1.0
 10
-489.9694269027201
 20
361.9694269027202
 30
0.0
 10
-489.9871916786757
 20
361.7508009637456
 30
0.0
 10
-489.9942007993446
 20
361.5271873665342
 30
0.0
 10
-490.0005426201532
 20
361.0674845839552
 30
0.0
 10
-490.0000000000002
 20
360.8287167632888
 30
0.0
 10
-490.0000000000001
 20
360.5857864376271
 30
0.0
  0
SPLINE
  5
92
330
1F
100
AcDbEntity
  8
0
  6
Continuous
 62
     7
370
    25
100
AcDbSpline
210
0.0
220
0.0
230
1.0
 70
     8
 71
     3
 72
    14
 73
    10
 74
     0
 42
0.000000001
 43
0.00000001
 40
0.0
 40
0.0
 40
0.0
 40
0.0
 40
0.2499999999999999
 40
0.2499999999999999
 40
0.4999999999999999
 40
0.4999999999999999
 40
0.7499999999999999
 40
0.7499999999999999
 40
1.0
 40
1.0
 40
1.0
 40
1.0
 10
-490.0
 20
2.000000000000113
 30
0.0
 10
-490.0000000000001
 20
1.821767880193698
 30
0.0
 10
-490.0006178032832
 20
1.650283166930278
 30
0.0
 10
-489.9950062258611
 20
1.31794154917253
 30
0.0
 10
-489.9883380460128
 20
1.161879885835881
 30
0.0
 10
-489.9545280814423
 20
0.8716705173137385
 30
0.0
 10
-489.927314335101
 20
0.7376650399854023
 30
0.0
 10
-489.8419822958557
 20
0.497048708175768
 30
0.0
 10
-489.7830024850153
 20
0.3882347655506657
 30
0.0
 10
-489.703077399463
 20
0.2969226005370973
 30
0.0
  0
SPLINE
  5
95
330
1F
100
AcDbEntity
  8
0
  6
Continuous
 62
     7
370
    25
100
AcDbSpline
210
0.0
220
0.0
230
1.0
 70
     8
 71
     3
 72
    10
 73
     6
 74
     0
 42
0.000000001
 43
0.00000001
 40
0.0
 40
0.0
 40
0.0
 40
0.0
 40
0.5
 40
0.5
 40
1.0
 40
1.0
 40
1.0
 40
1.0
 10
489.9999999999998
 20
360.5857864376271
 30
0.0
 10
489.9999999999998
 20
360.8283045682358
 30
0.0
 10
490.0005592458915
 20
361.0631684540206
 30
0.0
 10
489.9942817081483
 20
361.5243857539353
 30
0.0
 10
489.9871652635689
 20
361.7511260467933
 30
0.0
 10
489.9694269027198
 20
361.96942690272
 30
0.0
  0
SPLINE
  5
97
330
1F
100
AcDbEntity
  8
0
  6
Continuous
 62
     7
370
    25
100
AcDbSpline
210
0.0
220
0.0
230
1.0
 70
     8
 71
     3
 72
    14
 73
    10
 74
     0
 42
0.000000001
 43
0.00000001
 40
0.0
 40
0.0
 40
0.0
 40
0.0
 40
0.2499999999999999
 40
0.2499999999999999
 40
0.4999999999999999
 40
0.4999999999999999
 40
0.7499999999999999
 40
0.7499999999999999
 40
1.0
 40
1.0
 40
1.0
 40
1.0
 10
489.7030773994628
 20
0.296922600537125
 30
0.0
 10
489.7831072141691
 20
0.3883544156670082
 30
0.0
 10
489.840888922032
 20
0.4946959865739786
 30
0.0
 10
489.9267837263982
 20
0.7354522176411804
 30
0.0
 10
489.9542318427222
 20
0.8702563185042089
 30
0.0
 10
489.9880536640366
 20
1.158329565616456
 30
0.0
 10
489.9949170938155
 20
1.315700975348194
 30
0.0
 10
490.0006000042176
 20
1.646247852301413
 30
0.0
 10
489.9999999999999
 20
1.821842042300681
 30
0.0
 10
489.9999999999999
 20
2.00000000000014
 30
0.0
  0
LINE
  5
98
330
1F
100
AcDbEntity
  8
0
  6
Continuous
 62
     7
370
    25
100
AcDbLine
 10
-478.975
 20
400.0
 30
0.0
 11
-478.975
 21
362.0
 31
0.0
  0
LINE
  5
99
330
1F
100
AcDbEntity
  8
0
  6
Continuous
 62
     7
370
    25
100
AcDbLine
 10
478.975
 20
362.0
 30
0.0
 11
478.975
 21
400.0
 31
0.0
  0
LINE
  5
9A
330
1F
100
AcDbEntity
  8
0
  6
Continuous
 62
     7
370
    25
100
AcDbLine
 10
-495.975
 20
0.0
 30
0.0
 11
-495.975
 21
400.0
 31
0.0
  0
LINE
  5
9B
330
1F
100
AcDbEntity
  8
0
  6
Continuous
 62
     7
370
    25
100
AcDbLine
 10
-497.975
 20
0.0
 30
0.0
 11
-497.975
 21
400.0
 31
0.0
  0
LINE
  5
9C
330
1F
100
AcDbEntity
  8
0
  6
Continuous
 62
     7
370
    25
100
AcDbLine
 10
497.975
 20
400.0
 30
0.0
 11
-497.975
 21
400.0
 31
0.0
  0
LINE
  5
9D
330
1F
100
AcDbEntity
  8
0
  6
Continuous
 62
     7
370
    25
100
AcDbLine
 10
495.975
 20
400.0
 30
0.0
 11
495.975
 21
0.0
 31
0.0
  0
LINE
  5
9E
330
1F
100
AcDbEntity
  8
0
  6
Continuous
 62
     7
370
    25
100
AcDbLine
 10
497.975
 20
0.0
 30
0.0
 11
-497.975
 21
0.0
 31
0.0
  0
LINE
  5
9F
330
1F
100
AcDbEntity
  8
0
  6
Continuous
 62
     7
370
    25
100
AcDbLine
 10
497.975
 20
400.0
 30
0.0
 11
497.975
 21
0.0
 31
0.0
  0
LINE
  5
A0
330
1F
100
AcDbEntity
  8
0
  6
Continuous
 62
     7
370
    25
100
AcDbLine
 10
-488.0
 20
2.0
 30
0.0
 11
488.0
 21
2.0
 31
0.0
  0
LINE
  5
A1
330
1F
100
AcDbEntity
  8
0
  6
Continuous
 62
     7
370
    25
100
AcDbLine
 10
489.7030773995
 20
0.2969226005
 30
0.0
 11
488.0
 21
2.0
 31
0.0
  0
LINE
  5
A2
330
1F
100
AcDbEntity
  8
0
  6
Continuous
 62
     7
370
    25
100
AcDbLine
 10
-488.0
 20
2.0
 30
0.0
 11
-489.7030773995
 21
0.2969226005
 31
0.0
  0
LINE
  5
A3
330
1F
100
AcDbEntity
  8
0
  6
Continuous
 62
     7
370
    25
100
AcDbLine
 10
489.9694269027
 20
361.9694269027
 30
0.0
 11
488.0
 21
360.0
 31
0.0
  0
LINE
  5
A4
330
1F
100
AcDbEntity
  8
0
  6
Continuous
 62
     7
370
    25
100
AcDbLine
 10
488.0
 20
360.0
 30
0.0
 11
-488.0
 21
360.0
 31
0.0
  0
LINE
  5
A5
330
1F
100
AcDbEntity
  8
0
  6
Continuous
 62
     7
370
    25
100
AcDbLine
 10
-488.0
 20
360.0
 30
0.0
 11
-489.9694269027
 21
361.9694269027
 31
0.0
  0
LINE
  5
A6
330
1F
100
AcDbEntity
  8
0
  6
Continuous
 62
     7
370
    25
100
AcDbLine
 10
488.5857864376
 20
362.0
 30
0.0
 11
-488.5857864376
 21
362.0
 31
0.0
  0
LINE
  5
A7
330
1F
100
AcDbEntity
  8
0
  6
Continuous
 62
     7
370
    25
100
AcDbLine
 10
-488.0
 20
360.0
 30
0.0
 11
-488.0
 21
2.0
 31
0.0
  0
LINE
  5
A8
330
1F
100
AcDbEntity
  8
0
  6
Continuous
 62
     7
370
    25
100
AcDbLine
 10
-490.0
 20
360.5857864376
 30
0.0
 11
-490.0
 21
2.0
 31
0.0
  0
LINE
  5
A9
330
1F
100
AcDbEntity
  8
0
  6
Continuous
 62
     7
370
    25
100
AcDbLine
 10
488.0
 20
2.0
 30
0.0
 11
488.0
 21
360.0
 31
0.0
  0
LINE
  5
AA
330
1F
100
AcDbEntity
  8
0
  6
Continuous
 62
     7
370
    25
100
AcDbLine
 10
490.0
 20
2.0
 30
0.0
 11
490.0
 21
360.5857864376
 31
0.0
  0
ARC
  5
AB
330
1F
100
AcDbEntity
  8
0
  6
Continuous
 62
     7
370
    25
100
AcDbCircle
 10
487.2338175115
 20
10.4093339801
 30
0.0
 40
10.40952008043469
100
AcDbArc
 50
269.657392831
 51
283.7220304885
  0
ARC
  5
AC
330
1F
100
AcDbEntity
  8
0
  6
Continuous
 62
     7
370
    25
100
AcDbCircle
 10
-487.2338175115
 20
10.4093339801
 30
0.0
 40
10.4095200804351
100
AcDbArc
 50
256.2779695115
 51
270.342607169
  0
LINE
  5
CA
330
1B
100
AcDbEntity
 67
     1
  8
0
  6
Continuous
 62
     7
370
    25
100
AcDbLine
 10
-497.975
 20
400.0
 30
0.0
 11
497.975
 21
400.0
 31
0.0
  0
LINE
  5
CB
330
1B
100
AcDbEntity
 67
     1
  8
0
  6
Continuous
 62
     7
370
    25
100
AcDbLine
 10
478.975
 20
330.0
 30
0.0
 11
-478.975
 21
330.0
 31
0.0
  0
LINE
  5
CC
330
1B
100
AcDbEntity
 67
     1
  8
0
  6
Continuous
 62
     7
370
    25
100
AcDbLine
 10
-454.0
 20
144.0
 30
0.0
 11
-454.0
 21
89.0
 31
0.0
  0
LINE
  5
CD
330
1B
100
AcDbEntity
 67
     1
  8
0
  6
Continuous
 62
     7
370
    25
100
AcDbLine
 10
438.0
 20
144.0
 30
0.0
 11
438.0
 21
89.0
 31
0.0
  0
LINE
  5
CE
330
1B
100
AcDbEntity
 67
     1
  8
0
  6
Continuous
 62
     7
370
    25
100
AcDbLine
 10
454.0
 20
144.0
 30
0.0
 11
454.0
 21
89.0
 31
0.0
  0
LINE
  5
CF
330
1B
100
AcDbEntity
 67
     1
  8
0
  6
Continuous
 62
     7
370
    25
100
AcDbLine
 10
-438.0
 20
144.0
 30
0.0
 11
-438.0
 21
89.0
 31
0.0
  0
LINE
  5
D0
330
1B
100
AcDbEntity
 67
     1
  8
0
  6
Continuous
 62
     7
370
    25
100
AcDbLine
 10
-454.0
 20
144.0
 30
0.0
 11
454.0
 21
144.0
 31
0.0
  0
LINE
  5
D1
330
1B
100
AcDbEntity
 67
     1
  8
0
  6
Continuous
 62
     7
370
    25
100
AcDbLine
 10
478.975
 20
0.0
 30
0.0
 11
478.975
 21
400.0
 31
0.0
  0
LINE
  5
D2
330
1B
100
AcDbEntity
 67
     1
  8
0
  6
Continuous
 62
     7
370
    25
100
AcDbLine
 10
497.975
 20
0.0
 30
0.0
 11
497.975
 21
400.0
 31
0.0
  0
LINE
  5
D3
330
1B
100
AcDbEntity
 67
     1
  8
0
  6
Continuous
 62
     7
370
    25
100
AcDbLine
 10
-497.975
 20
0.0
 30
0.0
 11
497.975
 21
0.0
 31
0.0
  0
LINE
  5
D4
330
1B
100
AcDbEntity
 67
     1
  8
0
  6
Continuous
 62
     7
370
    25
100
AcDbLine
 10
-497.975
 20
400.0
 30
0.0
 11
-497.975
 21
0.0
 31
0.0
  0
LINE
  5
D5
330
1B
100
AcDbEntity
 67
     1
  8
0
  6
Continuous
 62
     7
370
    25
100
AcDbLine
 10
-478.975
 20
400.0
 30
0.0
 11
-478.975
 21
0.0
 31
0.0
  0
LINE
  5
D6
330
1B
100
AcDbEntity
 67
     1
  8
0
  6
Continuous
 62
     7
370
    25
100
AcDbLine
 10
-473.0
 20
330.0
 30
0.0
 11
-473.0
 21
89.0
 31
0.0
  0
LINE
  5
D7
330
1B
100
AcDbEntity
 67
     1
  8
0
  6
Continuous
 62
     7
370
    25
100
AcDbLine
 10
473.0
 20
89.0
 30
0.0
 11
473.0
 21
330.0
 31
0.0
  0
LINE
  5
D8
330
1B
100
AcDbEntity
 67
     1
  8
0
  6
Continuous
 62
     7
370
    25
100
AcDbLine
 10
-478.975
 20
89.0
 30
0.0
 11
478.975
 21
89.0
 31
0.0
  0
LINE
  5
D9
330
1B
100
AcDbEntity
 67
     1
  8
0
  6
Continuous
 62
     7
370
    25
100
AcDbLine
 10
-478.975
 20
19.0
 30
0.0
 11
478.975
 21
19.0
 31
0.0
  0
VIEWPORT
  5
1D2
330
1B
100
AcDbEntity
 67
     1
  8
0
100
AcDbViewport
 10
0.0
 20
0.0
 30
0.0
 40
205.6
 41
156.0
 68
     1
 69
     1
 12
0.0
 22
199.9999069499
 13
0.0
 23
0.0
 14
10.0
 24
10.0
 15
10.0
 25
10.0
 16
0.0
 26
0.0
 36
1.0
 17
0.0
 27
0.0
 37
0.0
 42
50.0
 43
0.0
 44
0.0
 45
770.7955447471
 50
0.0
 51
0.0
 72
   100
 90
   557152
  1

281
     0
 71
     1
 74
     0
110
0.0
120
0.0
130
0.0
111
1.0
121
0.0
131
0.0
112
0.0
122
1.0
132
0.0
 79
     0
146
0.0
  0
ENDSEC
  0
SECTION
  2
OBJECTS
  0
DICTIONARY
  5
C
330
0
100
AcDbDictionary
281
     1
  3
ACAD_GROUP
350
D
  3
ACAD_LAYOUT
350
1A
  3
ACAD_MLINESTYLE
350
17
  3
ACAD_PLOTSETTINGS
350
19
  3
ACAD_PLOTSTYLENAME
350
E
  3
ACAD_SCALELIST
350
47
  0
DICTIONARY
  5
D
102
{ACAD_REACTORS
330
C
102
}
330
C
100
AcDbDictionary
281
     1
  0
DICTIONARY
  5
1A
102
{ACAD_REACTORS
330
C
102
}
330
C
100
AcDbDictionary
281
     1
  3
_Back
350
1E
  3
_Isometric
350
159
  3
_Left
350
26
  3
_Top
350
F1
  3
Model
350
22
  0
DICTIONARY
  5
17
102
{ACAD_REACTORS
330
C
102
}
330
C
100
AcDbDictionary
281
     1
  3
Standard
350
18
  0
DICTIONARY
  5
19
102
{ACAD_REACTORS
330
C
102
}
330
C
100
AcDbDictionary
281
     1
  0
ACDBDICTIONARYWDFLT
  5
E
102
{ACAD_REACTORS
330
C
102
}
330
C
100
AcDbDictionary
281
     1
  3
Normal
350
F
100
AcDbDictionaryWithDefault
340
F
  0
DICTIONARY
  5
47
102
{ACAD_REACTORS
330
C
102
}
330
C
100
AcDbDictionary
281
     1
  3
A0
350
48
  3
A1
350
49
  3
A2
350
4A
  3
A3
350
4B
  3
A4
350
4C
  3
A5
350
4D
  3
A6
350
4E
  3
A7
350
4F
  3
A8
350
50
  3
A9
350
51
  3
B0
350
52
  3
B1
350
53
  3
B2
350
54
  3
B3
350
55
  3
B4
350
56
  3
B5
350
57
  3
B6
350
58
  3
B7
350
59
  3
B8
350
5A
  3
B9
350
5B
  3
C0
350
5C
  3
C1
350
5D
  3
C2
350
5E
  3
C3
350
5F
  3
C4
350
60
  3
C5
350
61
  3
C6
350
62
  3
C7
350
63
  3
C8
350
64
  3
C9
350
65
  3
D0
350
66
  3
D1
350
67
  3
D2
350
68
  0
LAYOUT
  5
1E
102
{ACAD_REACTORS
330
1A
102
}
330
1A
100
AcDbPlotSettings
  1

  2
none_device
  4
ISO_A4_(210.00_x_297.00_MM)
  6

 40
7.5
 41
20.0
 42
7.5
 43
20.0
 44
210.0
 45
297.0
 46
0.0
 47
0.0
 48
0.0
 49
0.0
140
0.0
141
0.0
142
1.0
143
3.8752918288
 70
   688
 72
     1
 73
     1
 74
     1
  7

 75
     0
147
0.2580450826
148
497.975
149
0.0
100
AcDbLayout
  1
_Back
 70
     1
 71
     1
 10
-575.4808365759
 20
-29.064688716
 11
575.4808365759
 21
784.7465953307
 12
0.0
 22
0.0
 32
0.0
 14
-497.975
 24
0.0
 34
0.0
 15
497.975
 25
400.0
 35
0.0
146
0.0
 13
0.0
 23
0.0
 33
0.0
 16
1.0
 26
0.0
 36
0.0
 17
0.0
 27
1.0
 37
0.0
 76
     0
330
1B
331
1D2
  0
LAYOUT
  5
159
102
{ACAD_REACTORS
330
1A
102
}
330
1A
100
AcDbPlotSettings
  1

  2
none_device
  4
ISO_A4_(210.00_x_297.00_MM)
  6

 40
7.5
 41
20.0
 42
7.5
 43
20.0
 44
210.0
 45
297.0
 46
0.0
 47
0.0
 48
0.0
 49
0.0
140
0.0
141
0.0
142
1.0
143
3.8752918288
 70
   688
 72
     1
 73
     1
 74
     1
  7

 75
     0
147
0.2580450826
148
497.975
149
0.0
100
AcDbLayout
  1
_Isometric
 70
     1
 71
     4
 10
0.0
 20
0.0
 11
0.0
 21
0.0
 12
0.0
 22
0.0
 32
0.0
 14
0.0
 24
0.0
 34
0.0
 15
0.0
 25
0.0
 35
0.0
146
0.0
 13
0.0
 23
0.0
 33
0.0
 16
1.0
 26
0.0
 36
0.0
 17
0.0
 27
1.0
 37
0.0
 76
     0
330
158
331
1D8
  0
LAYOUT
  5
26
102
{ACAD_REACTORS
330
1A
102
}
330
1A
100
AcDbPlotSettings
  1

  2
none_device
  4
ISO_A4_(210.00_x_297.00_MM)
  6

 40
7.5
 41
20.0
 42
7.5
 43
20.0
 44
210.0
 45
297.0
 46
0.0
 47
0.0
 48
0.0
 49
0.0
140
0.0
141
0.0
142
1.0
143
3.8752918288
 70
   688
 72
     1
 73
     1
 74
     1
  7

 75
     0
147
0.2580450826
148
497.975
149
0.0
100
AcDbLayout
  1
_Left
 70
     1
 71
     2
 10
0.0
 20
0.0
 11
0.0
 21
0.0
 12
0.0
 22
0.0
 32
0.0
 14
0.0
 24
0.0
 34
0.0
 15
0.0
 25
0.0
 35
0.0
146
0.0
 13
0.0
 23
0.0
 33
0.0
 16
1.0
 26
0.0
 36
0.0
 17
0.0
 27
1.0
 37
0.0
 76
     0
330
23
331
1D4
  0
LAYOUT
  5
F1
102
{ACAD_REACTORS
330
1A
102
}
330
1A
100
AcDbPlotSettings
  1

  2
none_device
  4
ISO_A4_(210.00_x_297.00_MM)
  6

 40
7.5
 41
20.0
 42
7.5
 43
20.0
 44
210.0
 45
297.0
 46
0.0
 47
0.0
 48
0.0
 49
0.0
140
0.0
141
0.0
142
1.0
143
3.8752918288
 70
   688
 72
     1
 73
     1
 74
     1
  7

 75
     0
147
0.2580450826
148
497.975
149
0.0
100
AcDbLayout
  1
_Top
 70
     1
 71
     3
 10
0.0
 20
0.0
 11
0.0
 21
0.0
 12
0.0
 22
0.0
 32
0.0
 14
0.0
 24
0.0
 34
0.0
 15
0.0
 25
0.0
 35
0.0
146
0.0
 13
0.0
 23
0.0
 33
0.0
 16
1.0
 26
0.0
 36
0.0
 17
0.0
 27
1.0
 37
0.0
 76
     0
330
F0
331
1D6
  0
LAYOUT
  5
22
102
{ACAD_REACTORS
330
1A
102
}
330
1A
100
AcDbPlotSettings
  1

  2
none_device
  4
ANSI_A_(11.00_x_8.50_Inches)
  6

 40
6.35
 41
19.05
 42
6.35000508
 43
19.05000254
 44
279.4
 45
215.9
 46
133.34999746
 47
33.353862617
 48
0.0
 49
0.0
140
0.0
141
0.0
142
0.0109342838
143
1.0
 70
  1696
 72
     0
 73
     0
 74
     0
  7

 75
     0
147
0.0179189148
148
-1300.4909072572
149
0.0
100
AcDbLayout
  1
Model
 70
     1
 71
     0
 10
0.0
 20
0.0
 11
420.0
 21
297.0
 12
0.0
 22
0.0
 32
0.0
 14
-497.975
 24
-0.0001861003
 34
0.0
 15
497.975
 25
400.0
 35
0.0
146
0.0
 13
0.0
 23
0.0
 33
0.0
 16
1.0
 26
0.0
 36
0.0
 17
0.0
 27
1.0
 37
0.0
 76
     0
330
1F
331
29
  0
MLINESTYLE
  5
18
102
{ACAD_REACTORS
330
17
102
}
330
17
100
AcDbMlineStyle
  2
Standard
 70
     0
  3

 62
   256
 51
90.0
 52
90.0
 71
     2
 49
0.5
 62
   256
  6
BYLAYER
 49
-0.5
 62
   256
  6
BYLAYER
  0
ACDBPLACEHOLDER
  5
F
102
{ACAD_REACTORS
330
E
102
}
330
E
  0
SCALE
  5
48
102
{ACAD_REACTORS
330
47
102
}
330
47
100
AcDbScale
 70
     0
300
1:1
140
1.0
141
1.0
290
     1
  0
SCALE
  5
49
102
{ACAD_REACTORS
330
47
102
}
330
47
100
AcDbScale
 70
     0
300
1:2
140
1.0
141
2.0
290
     0
  0
SCALE
  5
4A
102
{ACAD_REACTORS
330
47
102
}
330
47
100
AcDbScale
 70
     0
300
1:4
140
1.0
141
4.0
290
     0
  0
SCALE
  5
4B
102
{ACAD_REACTORS
330
47
102
}
330
47
100
AcDbScale
 70
     0
300
1:5
140
1.0
141
5.0
290
     0
  0
SCALE
  5
4C
102
{ACAD_REACTORS
330
47
102
}
330
47
100
AcDbScale
 70
     0
300
1:8
140
1.0
141
8.0
290
     0
  0
SCALE
  5
4D
102
{ACAD_REACTORS
330
47
102
}
330
47
100
AcDbScale
 70
     0
300
1:10
140
1.0
141
10.0
290
     0
  0
SCALE
  5
4E
102
{ACAD_REACTORS
330
47
102
}
330
47
100
AcDbScale
 70
     0
300
1:16
140
1.0
141
16.0
290
     0
  0
SCALE
  5
4F
102
{ACAD_REACTORS
330
47
102
}
330
47
100
AcDbScale
 70
     0
300
1:20
140
1.0
141
20.0
290
     0
  0
SCALE
  5
50
102
{ACAD_REACTORS
330
47
102
}
330
47
100
AcDbScale
 70
     0
300
1:30
140
1.0
141
30.0
290
     0
  0
SCALE
  5
51
102
{ACAD_REACTORS
330
47
102
}
330
47
100
AcDbScale
 70
     0
300
1:40
140
1.0
141
40.0
290
     0
  0
SCALE
  5
52
102
{ACAD_REACTORS
330
47
102
}
330
47
100
AcDbScale
 70
     0
300
1:50
140
1.0
141
50.0
290
     0
  0
SCALE
  5
53
102
{ACAD_REACTORS
330
47
102
}
330
47
100
AcDbScale
 70
     0
300
1:100
140
1.0
141
100.0
290
     0
  0
SCALE
  5
54
102
{ACAD_REACTORS
330
47
102
}
330
47
100
AcDbScale
 70
     0
300
2:1
140
2.0
141
1.0
290
     0
  0
SCALE
  5
55
102
{ACAD_REACTORS
330
47
102
}
330
47
100
AcDbScale
 70
     0
300
4:1
140
4.0
141
1.0
290
     0
  0
SCALE
  5
56
102
{ACAD_REACTORS
330
47
102
}
330
47
100
AcDbScale
 70
     0
300
8:1
140
8.0
141
1.0
290
     0
  0
SCALE
  5
57
102
{ACAD_REACTORS
330
47
102
}
330
47
100
AcDbScale
 70
     0
300
10:1
140
10.0
141
1.0
290
     0
  0
SCALE
  5
58
102
{ACAD_REACTORS
330
47
102
}
330
47
100
AcDbScale
 70
     0
300
100:1
140
100.0
141
1.0
290
     0
  0
SCALE
  5
59
102
{ACAD_REACTORS
330
47
102
}
330
47
100
AcDbScale
 70
     0
300
1/128" = 1'-0"
140
0.0078125
141
12.0
290
     0
  0
SCALE
  5
5A
102
{ACAD_REACTORS
330
47
102
}
330
47
100
AcDbScale
 70
     0
300
1/64" = 1'-0"
140
0.015625
141
12.0
290
     0
  0
SCALE
  5
5B
102
{ACAD_REACTORS
330
47
102
}
330
47
100
AcDbScale
 70
     0
300
1/32" = 1'-0"
140
0.03125
141
12.0
290
     0
  0
SCALE
  5
5C
102
{ACAD_REACTORS
330
47
102
}
330
47
100
AcDbScale
 70
     0
300
1/16" = 1'-0"
140
0.0625
141
12.0
290
     0
  0
SCALE
  5
5D
102
{ACAD_REACTORS
330
47
102
}
330
47
100
AcDbScale
 70
     0
300
3/32" = 1'-0"
140
0.09375
141
12.0
290
     0
  0
SCALE
  5
5E
102
{ACAD_REACTORS
330
47
102
}
330
47
100
AcDbScale
 70
     0
300
1/8" = 1'-0"
140
0.125
141
12.0
290
     0
  0
SCALE
  5
5F
102
{ACAD_REACTORS
330
47
102
}
330
47
100
AcDbScale
 70
     0
300
3/16" = 1'-0"
140
0.1875
141
12.0
290
     0
  0
SCALE
  5
60
102
{ACAD_REACTORS
330
47
102
}
330
47
100
AcDbScale
 70
     0
300
1/4" = 1'-0"
140
0.25
141
12.0
290
     0
  0
SCALE
  5
61
102
{ACAD_REACTORS
330
47
102
}
330
47
100
AcDbScale
 70
     0
300
3/8" = 1'-0"
140
0.375
141
12.0
290
     0
  0
SCALE
  5
62
102
{ACAD_REACTORS
330
47
102
}
330
47
100
AcDbScale
 70
     0
300
1/2" = 1'-0"
140
0.5
141
12.0
290
     0
  0
SCALE
  5
63
102
{ACAD_REACTORS
330
47
102
}
330
47
100
AcDbScale
 70
     0
300
3/4" = 1'-0"
140
0.75
141
12.0
290
     0
  0
SCALE
  5
64
102
{ACAD_REACTORS
330
47
102
}
330
47
100
AcDbScale
 70
     0
300
1" = 1'-0"
140
1.0
141
12.0
290
     0
  0
SCALE
  5
65
102
{ACAD_REACTORS
330
47
102
}
330
47
100
AcDbScale
 70
     0
300
1-1/2" = 1'-0"
140
1.5
141
12.0
290
     0
  0
SCALE
  5
66
102
{ACAD_REACTORS
330
47
102
}
330
47
100
AcDbScale
 70
     0
300
3" = 1'-0"
140
3.0
141
12.0
290
     0
  0
SCALE
  5
67
102
{ACAD_REACTORS
330
47
102
}
330
47
100
AcDbScale
 70
     0
300
6" = 1'-0"
140
6.0
141
12.0
290
     0
  0
SCALE
  5
68
102
{ACAD_REACTORS
330
47
102
}
330
47
100
AcDbScale
 70
     0
300
1'-0" = 1'-0"
140
12.0
141
12.0
290
     0
  0
ENDSEC
  0
EOF
