  0
SECTION
  2
HEADER
  9
$ACADVER
  1
AC1015
  9
$ACADMAINTVER
 70
     6
  9
$DWGCODEPAGE
  3
ANSI_1252
  9
$INSBASE
 10
0.0
 20
0.0
 30
0.0
  9
$EXTMIN
 10
-180.0
 20
0.0
 30
0.0
  9
$EXTMAX
 10
180.0
 20
56.291495957
 30
0.0
  9
$LIMMIN
 10
0.0
 20
0.0
  9
$LIMMAX
 10
420.0
 20
297.0
  9
$ORTHOMODE
 70
     0
  9
$REGENMODE
 70
     1
  9
$FILLMODE
 70
     1
  9
$QTEXTMODE
 70
     0
  9
$MIRRTEXT
 70
     1
  9
$LTSCALE
 40
1.0
  9
$ATTMODE
 70
     1
  9
$TEXTSIZE
 40
3.5
  9
$TRACEWID
 40
1.0
  9
$TEXTSTYLE
  7
Standard
  9
$CLAYER
  8
0
  9
$CELTYPE
  6
ByLayer
  9
$CECOLOR
 62
   256
  9
$CELTSCALE
 40
1.0
  9
$DISPSILH
 70
     0
  9
$DIMSCALE
 40
1.0
  9
$DIMASZ
 40
3.302
  9
$DIMEXO
 40
1.0
  9
$DIMDLI
 40
3.75
  9
$DIMRND
 40
0.0
  9
$DIMDLE
 40
0.0
  9
$DIMEXE
 40
1.0
  9
$DIMTP
 40
0.0
  9
$DIMTM
 40
0.0
  9
$DIMTXT
 40
3.5
  9
$DIMCEN
 40
2.5
  9
$DIMTSZ
 40
0.0
  9
$DIMTOL
 70
     0
  9
$DIMLIM
 70
     0
  9
$DIMTIH
 70
     1
  9
$DIMTOH
 70
     1
  9
$DIMSE1
 70
     0
  9
$DIMSE2
 70
     0
  9
$DIMTAD
 70
     1
  9
$DIMZIN
 70
     1
  9
$DIMBLK
  1

  9
$DIMASO
 70
     1
  9
$DIMSHO
 70
     1
  9
$DIMPOST
  1

  9
$DIMAPOST
  1

  9
$DIMALT
 70
     0
  9
$DIMALTD
 70
     3
  9
$DIMALTF
 40
0.0393700787
  9
$DIMLFAC
 40
1.0
  9
$DIMTOFL
 70
     1
  9
$DIMTVP
 40
0.0
  9
$DIMTIX
 70
     0
  9
$DIMSOXD
 70
     0
  9
$DIMSAH
 70
     0
  9
$DIMBLK1
  1

  9
$DIMBLK2
  1

  9
$DIMSTYLE
  2
ISO-25
  9
$DIMCLRD
 70
     0
  9
$DIMCLRE
 70
     0
  9
$DIMCLRT
 70
     0
  9
$DIMTFAC
 40
1.0
  9
$DIMGAP
 40
1.524
  9
$DIMJUST
 70
     0
  9
$DIMSD1
 70
     0
  9
$DIMSD2
 70
     0
  9
$DIMTOLJ
 70
     0
  9
$DIMTZIN
 70
     1
  9
$DIMALTZ
 70
     0
  9
$DIMALTTZ
 70
     0
  9
$DIMUPT
 70
     0
  9
$DIMDEC
 70
     2
  9
$DIMTDEC
 70
     2
  9
$DIMALTU
 70
     2
  9
$DIMALTTD
 70
     3
  9
$DIMTXSTY
  7
Standard
  9
$DIMAUNIT
 70
     0
  9
$DIMADEC
 70
     2
  9
$DIMALTRND
 40
0.0
  9
$DIMAZIN
 70
     0
  9
$DIMDSEP
 70
    44
  9
$DIMATFIT
 70
     3
  9
$DIMFRAC
 70
     0
  9
$DIMLDRBLK
  1

  9
$DIMLUNIT
 70
     2
  9
$DIMLWD
 70
    -2
  9
$DIMLWE
 70
    -2
  9
$DIMTMOVE
 70
     0
  9
$LUNITS
 70
     2
  9
$LUPREC
 70
     2
  9
$SKETCHINC
 40
1.0
  9
$FILLETRAD
 40
10.0
  9
$AUNITS
 70
     0
  9
$AUPREC
 70
     2
  9
$MENU
  1
.
  9
$ELEVATION
 40
0.0
  9
$PELEVATION
 40
0.0
  9
$THICKNESS
 40
0.0
  9
$LIMCHECK
 70
     0
  9
$CHAMFERA
 40
0.0
  9
$CHAMFERB
 40
0.0
  9
$CHAMFERC
 40
0.0
  9
$CHAMFERD
 40
0.0
  9
$SKPOLY
 70
     0
  9
$TDCREATE
 40
2459314.635473021
  9
$TDUCREATE
 40
2459314.593806354
  9
$TDUPDATE
 40
2459314.635580787
  9
$TDUUPDATE
 40
2459314.59391412
  9
$TDINDWG
 40
0.0000000116
  9
$TDUSRTIMER
 40
0.0000000116
  9
$USRTIMER
 70
     1
  9
$ANGBASE
 50
0.0
  9
$ANGDIR
 70
     0
  9
$PDMODE
 70
     0
  9
$PDSIZE
 40
-1.0
  9
$PLINEWID
 40
0.0
  9
$SPLFRAME
 70
     0
  9
$SPLINETYPE
 70
     6
  9
$SPLINESEGS
 70
     8
  9
$HANDSEED
  5
4DC
  9
$SURFTAB1
 70
     6
  9
$SURFTAB2
 70
     6
  9
$SURFTYPE
 70
     6
  9
$SURFU
 70
     6
  9
$SURFV
 70
     6
  9
$UCSBASE
  2

  9
$UCSNAME
  2

  9
$UCSORG
 10
0.0
 20
0.0
 30
0.0
  9
$UCSXDIR
 10
1.0
 20
0.0
 30
0.0
  9
$UCSYDIR
 10
0.0
 20
1.0
 30
0.0
  9
$UCSORTHOREF
  2

  9
$UCSORTHOVIEW
 70
     0
  9
$UCSORGTOP
 10
0.0
 20
0.0
 30
0.0
  9
$UCSORGBOTTOM
 10
0.0
 20
0.0
 30
0.0
  9
$UCSORGLEFT
 10
0.0
 20
0.0
 30
0.0
  9
$UCSORGRIGHT
 10
0.0
 20
0.0
 30
0.0
  9
$UCSORGFRONT
 10
0.0
 20
0.0
 30
0.0
  9
$UCSORGBACK
 10
0.0
 20
0.0
 30
0.0
  9
$PUCSBASE
  2

  9
$PUCSNAME
  2

  9
$PUCSORG
 10
0.0
 20
0.0
 30
0.0
  9
$PUCSXDIR
 10
1.0
 20
0.0
 30
0.0
  9
$PUCSYDIR
 10
0.0
 20
1.0
 30
0.0
  9
$PUCSORTHOREF
  2

  9
$PUCSORTHOVIEW
 70
     0
  9
$PUCSORGTOP
 10
0.0
 20
0.0
 30
0.0
  9
$PUCSORGBOTTOM
 10
0.0
 20
0.0
 30
0.0
  9
$PUCSORGLEFT
 10
0.0
 20
0.0
 30
0.0
  9
$PUCSORGRIGHT
 10
0.0
 20
0.0
 30
0.0
  9
$PUCSORGFRONT
 10
0.0
 20
0.0
 30
0.0
  9
$PUCSORGBACK
 10
0.0
 20
0.0
 30
0.0
  9
$USERI1
 70
     0
  9
$USERI2
 70
     0
  9
$USERI3
 70
     0
  9
$USERI4
 70
     0
  9
$USERI5
 70
     0
  9
$USERR1
 40
0.0
  9
$USERR2
 40
0.0
  9
$USERR3
 40
0.0
  9
$USERR4
 40
0.0
  9
$USERR5
 40
0.0
  9
$WORLDVIEW
 70
     1
  9
$SHADEDGE
 70
     3
  9
$SHADEDIF
 70
    70
  9
$TILEMODE
 70
     1
  9
$MAXACTVP
 70
    64
  9
$PINSBASE
 10
0.0
 20
0.0
 30
0.0
  9
$PLIMCHECK
 70
     0
  9
$PEXTMIN
 10
-180.0
 20
0.0
 30
0.0
  9
$PEXTMAX
 10
180.0
 20
56.291495957
 30
0.0
  9
$PLIMMIN
 10
-208.0155642023
 20
-10.5058365759
  9
$PLIMMAX
 10
208.0155642023
 20
283.6575875486
  9
$UNITMODE
 70
     0
  9
$VISRETAIN
 70
     1
  9
$PLINEGEN
 70
     0
  9
$PSLTSCALE
 70
     1
  9
$TREEDEPTH
 70
  3020
  9
$CMLSTYLE
  2
Standard
  9
$CMLJUST
 70
     0
  9
$CMLSCALE
 40
20.0
  9
$PROXYGRAPHICS
 70
     1
  9
$MEASUREMENT
 70
     1
  9
$CELWEIGHT
370
    -1
  9
$ENDCAPS
280
     0
  9
$JOINSTYLE
280
     0
  9
$LWDISPLAY
290
     1
  9
$INSUNITS
 70
     4
  9
$HYPERLINKBASE
  1

  9
$STYLESHEET
  1

  9
$XEDIT
290
     1
  9
$CEPSNTYPE
380
     0
  9
$PSTYLEMODE
290
     1
  9
$FINGERPRINTGUID
  2
{6d37fa12-e610-494d-bf14-42c9821717c3}
  9
$VERSIONGUID
  2
{FAEB1C32-E019-11D5-929B-00C0DF256EC4}
  9
$EXTNAMES
290
     1
  9
$PSVPSCALE
 40
0.0
  9
$OLESTARTUP
290
     0
  0
ENDSEC
  0
SECTION
  2
CLASSES
  0
CLASS
  1
ACDBDICTIONARYWDFLT
  2
AcDbDictionaryWithDefault
  3
ObjectDBX Classes
 90
        0
280
     0
281
     0
  0
CLASS
  1
VISUALSTYLE
  2
AcDbVisualStyle
  3
ObjectDBX Classes
 90
     4095
280
     0
281
     0
  0
CLASS
  1
MATERIAL
  2
AcDbMaterial
  3
ObjectDBX Classes
 90
     1153
280
     0
281
     0
  0
CLASS
  1
SCALE
  2
AcDbScale
  3
ObjectDBX Classes
 90
     1153
280
     0
281
     0
  0
CLASS
  1
TABLESTYLE
  2
AcDbTableStyle
  3
ObjectDBX Classes
 90
     4095
280
     0
281
     0
  0
CLASS
  1
MLEADERSTYLE
  2
AcDbMLeaderStyle
  3
ACDB_MLEADERSTYLE_CLASS
 90
     4095
280
     0
281
     0
  0
CLASS
  1
SUN
  2
AcDbSun
  3
SCENEOE
 90
     1153
280
     0
281
     0
  0
CLASS
  1
ACDBPLACEHOLDER
  2
AcDbPlaceHolder
  3
ObjectDBX Classes
 90
        0
280
     0
281
     0
  0
CLASS
  1
LAYOUT
  2
AcDbLayout
  3
ObjectDBX Classes
 90
        0
280
     0
281
     0
  0
ENDSEC
  0
SECTION
  2
TABLES
  0
TABLE
  2
VPORT
  5
8
330
0
100
AcDbSymbolTable
 70
     1
  0
VPORT
  5
29
330
8
100
AcDbSymbolTableRecord
100
AcDbViewportTableRecord
  2
*Active
 70
     0
 10
0.0
 20
0.0
 11
1.0
 21
1.0
 12
0.0
 22
28.1457479785
 13
0.0
 23
0.0
 14
10.0
 24
10.0
 15
10.0
 25
10.0
 16
0.0
 26
0.0
 36
1.0
 17
0.0
 27
0.0
 37
0.0
 40
57.4173258762
 41
6.3952821626
 42
50.0
 43
0.0
 44
0.0
 50
0.0
 51
0.0
 71
     0
 72
   100
 73
     1
 74
     3
 75
     0
 76
     0
 77
     0
 78
     0
281
     0
 65
     1
110
0.0
120
0.0
130
0.0
111
1.0
121
0.0
131
0.0
112
0.0
122
1.0
132
0.0
 79
     0
146
0.0
  0
ENDTAB
  0
TABLE
  2
LTYPE
  5
5
330
0
100
AcDbSymbolTable
 70
     6
  0
LTYPE
  5
14
330
5
100
AcDbSymbolTableRecord
100
AcDbLinetypeTableRecord
  2
ByBlock
 70
     0
  3

 72
    65
 73
     0
 40
0.0
  0
LTYPE
  5
15
330
5
100
AcDbSymbolTableRecord
100
AcDbLinetypeTableRecord
  2
ByLayer
 70
     0
  3

 72
    65
 73
     0
 40
0.0
  0
LTYPE
  5
16
330
5
100
AcDbSymbolTableRecord
100
AcDbLinetypeTableRecord
  2
Continuous
 70
     0
  3
Solid line
 72
    65
 73
     0
 40
0.0
  0
LTYPE
  5
6E
330
5
100
AcDbSymbolTableRecord
100
AcDbLinetypeTableRecord
  2
HIDDEN
 70
     0
  3
Hidden __ __ __ __ __ __ __ __ __ __ __ __ __ __
 72
    65
 73
     2
 40
1.905
 49
1.27
 74
     0
 49
-0.635
 74
     0
  0
LTYPE
  5
6F
330
5
100
AcDbSymbolTableRecord
100
AcDbLinetypeTableRecord
  2
PHANTOM
 70
     0
  3
Phantom ______  __  __  ______  __  __  ______
 72
    65
 73
     6
 40
12.7
 49
6.35
 74
     0
 49
-1.27
 74
     0
 49
1.27
 74
     0
 49
-1.27
 74
     0
 49
1.27
 74
     0
 49
-1.27
 74
     0
  0
LTYPE
  5
70
330
5
100
AcDbSymbolTableRecord
100
AcDbLinetypeTableRecord
  2
CENTER
 70
     0
  3
Center ____ _ ____ _ ____ _ ____ _ ____ _ ____
 72
    65
 73
     4
 40
10.16
 49
6.35
 74
     0
 49
-1.27
 74
     0
 49
1.27
 74
     0
 49
-1.27
 74
     0
  0
LTYPE
  5
71
330
5
100
AcDbSymbolTableRecord
100
AcDbLinetypeTableRecord
  2
CENTERX2
 70
     0
  3
Center (2x) ________  __  ________  __  _____
 72
    65
 73
     4
 40
20.32
 49
12.7
 74
     0
 49
-2.54
 74
     0
 49
2.54
 74
     0
 49
-2.54
 74
     0
  0
LTYPE
  5
72
330
5
100
AcDbSymbolTableRecord
100
AcDbLinetypeTableRecord
  2
DOT2
 70
     0
  3
Dot (.5x) ........................................
 72
    65
 73
     2
 40
0.635
 49
0.0
 74
     0
 49
-0.635
 74
     0
  0
ENDTAB
  0
TABLE
  2
LAYER
  5
2
330
0
100
AcDbSymbolTable
 70
     1
  0
LAYER
  5
10
330
2
100
AcDbSymbolTableRecord
100
AcDbLayerTableRecord
  2
0
 70
     0
 62
     7
  6
Continuous
370
    -3
390
F
  0
ENDTAB
  0
TABLE
  2
STYLE
  5
3
330
0
100
AcDbSymbolTable
 70
     1
  0
STYLE
  5
11
330
3
100
AcDbSymbolTableRecord
100
AcDbTextStyleTableRecord
  2
Standard
 70
     0
 40
0.0
 41
1.0
 50
0.0
 71
     0
 42
3.5
  3
txt
  4

  0
ENDTAB
  0
TABLE
  2
VIEW
  5
6
330
0
100
AcDbSymbolTable
 70
     0
  0
ENDTAB
  0
TABLE
  2
UCS
  5
7
330
0
100
AcDbSymbolTable
 70
     0
  0
ENDTAB
  0
TABLE
  2
APPID
  5
9
330
0
100
AcDbSymbolTable
 70
     1
  0
APPID
  5
12
330
9
100
AcDbSymbolTableRecord
100
AcDbRegAppTableRecord
  2
ACAD
 70
     0
  0
ENDTAB
  0
TABLE
  2
DIMSTYLE
  5
A
330
0
100
AcDbSymbolTable
 70
     1
100
AcDbDimStyleTable
  0
DIMSTYLE
105
27
330
A
100
AcDbSymbolTableRecord
100
AcDbDimStyleTableRecord
  2
ISO-25
 70
     0
 41
2.5
 42
0.625
 43
3.75
 44
1.25
 73
     0
 74
     0
 77
     1
 78
     8
140
2.5
141
2.5
143
0.0393700787
147
0.625
171
     3
172
     1
178
     0
271
     2
272
     2
274
     3
278
    44
283
     0
284
     8
340
11
  0
ENDTAB
  0
TABLE
  2
BLOCK_RECORD
  5
1
330
0
100
AcDbSymbolTable
 70
     7
  0
BLOCK_RECORD
  5
1F
330
1
100
AcDbSymbolTableRecord
100
AcDbBlockTableRecord
  2
*Model_Space
340
22
  0
BLOCK_RECORD
  5
1B
330
1
100
AcDbSymbolTableRecord
100
AcDbBlockTableRecord
  2
*Paper_Space
340
1E
  0
BLOCK_RECORD
  5
23
330
1
100
AcDbSymbolTableRecord
100
AcDbBlockTableRecord
  2
*Paper_Space0
340
26
  0
BLOCK_RECORD
  5
1D8
330
1
100
AcDbSymbolTableRecord
100
AcDbBlockTableRecord
  2
*Paper_Space1
340
1D9
  0
BLOCK_RECORD
  5
22D
330
1
100
AcDbSymbolTableRecord
100
AcDbBlockTableRecord
  2
*Paper_Space2
340
22E
  0
BLOCK_RECORD
  5
245
330
1
100
AcDbSymbolTableRecord
100
AcDbBlockTableRecord
  2
*Paper_Space3
340
246
  0
BLOCK_RECORD
  5
449
330
1
100
AcDbSymbolTableRecord
100
AcDbBlockTableRecord
  2
*Paper_Space4
340
44A
  0
BLOCK_RECORD
  5
476
330
1
100
AcDbSymbolTableRecord
100
AcDbBlockTableRecord
  2
*Paper_Space5
340
477
  0
BLOCK_RECORD
  5
4A2
330
1
100
AcDbSymbolTableRecord
100
AcDbBlockTableRecord
  2
*Paper_Space6
340
4A3
  0
ENDTAB
  0
ENDSEC
  0
SECTION
  2
BLOCKS
  0
BLOCK
  5
20
330
1F
100
AcDbEntity
  8
0
100
AcDbBlockBegin
  2
*Model_Space
 70
     0
 10
0.0
 20
0.0
 30
0.0
  3
*Model_Space
  1

  0
ENDBLK
  5
21
330
1F
100
AcDbEntity
  8
0
100
AcDbBlockEnd
  0
BLOCK
  5
1C
330
1B
100
AcDbEntity
 67
     1
  8
0
100
AcDbBlockBegin
  2
*Paper_Space
 70
     0
 10
0.0
 20
0.0
 30
0.0
  3
*Paper_Space
  1

  0
ENDBLK
  5
1D
330
1B
100
AcDbEntity
 67
     1
  8
0
100
AcDbBlockEnd
  0
BLOCK
  5
24
330
23
100
AcDbEntity
  8
0
100
AcDbBlockBegin
  2
*Paper_Space0
 70
     0
 10
0.0
 20
0.0
 30
0.0
  3
*Paper_Space0
  1

  0
LWPOLYLINE
  5
18A
330
23
100
AcDbEntity
  8
0
  6
Continuous
 62
     7
370
    25
100
AcDbPolyline
 90
        3
 70
   128
 43
0.0
 10
341.0
 20
5.0
 10
341.2126914578
 20
7.4310744873
 10
341.583592135
 20
9.0
  0
LWPOLYLINE
  5
19C
330
23
100
AcDbEntity
  8
0
  6
Continuous
 62
     7
370
    25
100
AcDbPolyline
 90
        3
 70
   128
 43
0.0
 10
59.0
 20
5.0
 10
58.7873085422
 20
7.4310744873
 10
58.416407865
 20
9.0
  0
LWPOLYLINE
  5
1A5
330
23
100
AcDbEntity
  8
0
  6
Continuous
 62
     7
370
    25
100
AcDbPolyline
 90
        3
 70
   128
 43
0.0
 10
0.0
 20
9.0
 10
-1.5171629151
 20
11.278396934
 10
-1.5269646543
 20
11.291495957
  0
LINE
  5
1BB
330
23
100
AcDbEntity
  8
0
  6
Continuous
 62
     7
370
    25
100
AcDbLine
 10
400.0
 20
10.0
 30
0.0
 11
400.0
 21
11.291495957
 31
0.0
  0
LINE
  5
1BC
330
23
100
AcDbEntity
  8
0
  6
Continuous
 62
     7
370
    25
100
AcDbLine
 10
341.0
 20
0.0
 30
0.0
 11
341.0
 21
5.0
 31
0.0
  0
LINE
  5
1BD
330
23
100
AcDbEntity
  8
0
  6
Continuous
 62
     7
370
    25
100
AcDbLine
 10
409.0338017673
 20
13.291495957
 30
0.0
 11
409.0338017673
 21
51.291495957
 31
0.0
  0
LINE
  5
1BE
330
23
100
AcDbEntity
  8
0
  6
Continuous
 62
     7
370
    25
100
AcDbLine
 10
399.0
 20
9.0
 30
0.0
 11
0.0
 21
9.0
 31
0.0
  0
LINE
  5
1BF
330
23
100
AcDbEntity
  8
0
  6
Continuous
 62
     7
370
    25
100
AcDbLine
 10
0.0
 20
10.0
 30
0.0
 11
400.0
 21
10.0
 31
0.0
  0
LINE
  5
1C0
330
23
100
AcDbEntity
  8
0
  6
Continuous
 62
     7
370
    25
100
AcDbLine
 10
0.0
 20
11.291495957
 30
0.0
 11
0.0
 21
9.0
 31
0.0
  0
LINE
  5
1C1
330
23
100
AcDbEntity
  8
0
  6
Continuous
 62
     7
370
    25
100
AcDbLine
 10
99.5
 20
5.5
 30
0.0
 11
96.5
 21
5.5
 31
0.0
  0
LINE
  5
1C2
330
23
100
AcDbEntity
  8
0
  6
Continuous
 62
     7
370
    25
100
AcDbLine
 10
295.4583333333
 20
5.5
 30
0.0
 11
282.875
 21
5.5
 31
0.0
  0
LINE
  5
1C3
330
23
100
AcDbEntity
  8
0
  6
Continuous
 62
     7
370
    25
100
AcDbLine
 10
59.0
 20
5.0
 30
0.0
 11
341.0
 21
5.0
 31
0.0
  0
LINE
  5
1C4
330
23
100
AcDbEntity
  8
0
  6
Continuous
 62
     7
370
    25
100
AcDbLine
 10
59.0
 20
0.0
 30
0.0
 11
341.0
 21
0.0
 31
0.0
  0
LINE
  5
1C5
330
23
100
AcDbEntity
  8
0
  6
Continuous
 62
     7
370
    25
100
AcDbLine
 10
230.0
 20
11.291495957
 30
0.0
 11
230.0
 21
0.0
 31
0.0
  0
LINE
  5
1C6
330
23
100
AcDbEntity
  8
0
  6
Continuous
 62
     7
370
    25
100
AcDbLine
 10
135.0
 20
0.0
 30
0.0
 11
135.0
 21
9.0
 31
0.0
  0
LINE
  5
1C7
330
23
100
AcDbEntity
  8
0
  6
Continuous
 62
     7
370
    25
100
AcDbLine
 10
59.0
 20
0.0
 30
0.0
 11
59.0
 21
5.0
 31
0.0
  0
LINE
  5
1C8
330
23
100
AcDbEntity
  8
0
  6
Continuous
 62
     7
370
    25
100
AcDbLine
 10
-30.9661982327
 20
56.291495957
 30
0.0
 11
404.0338017673
 21
56.291495957
 31
0.0
  0
LINE
  5
1C9
330
23
100
AcDbEntity
  8
0
  6
Continuous
 62
     7
370
    25
100
AcDbLine
 10
229.0338017673
 20
56.291495957
 30
0.0
 11
229.0338017673
 21
11.291495957
 31
0.0
  0
LINE
  5
1CA
330
23
100
AcDbEntity
  8
0
  6
Continuous
 62
     7
370
    25
100
AcDbLine
 10
409.0338017673
 20
51.291495957
 30
0.0
 11
-30.9661982327
 21
51.291495957
 31
0.0
  0
LINE
  5
1CB
330
23
100
AcDbEntity
  8
0
  6
Continuous
 62
     7
370
    25
100
AcDbLine
 10
-30.9661982327
 20
56.291495957
 30
0.0
 11
-30.9661982327
 21
13.291495957
 31
0.0
  0
LINE
  5
1CC
330
23
100
AcDbEntity
  8
0
  6
Continuous
 62
     7
370
    25
100
AcDbLine
 10
-30.9661982327
 20
13.291495957
 30
0.0
 11
409.0338017673
 21
13.291495957
 31
0.0
  0
LINE
  5
1CD
330
23
100
AcDbEntity
  8
0
  6
Continuous
 62
     7
370
    25
100
AcDbLine
 10
407.0338017673
 20
11.291495957
 30
0.0
 11
-28.9661982327
 21
11.291495957
 31
0.0
  0
ARC
  5
1CE
330
23
100
AcDbEntity
  8
0
  6
Continuous
 62
     7
370
    25
100
AcDbCircle
 10
399.0
 20
10.0
 30
0.0
 40
0.9999999999999432
100
AcDbArc
 50
270.0
 51
0.0
  0
ARC
  5
1CF
330
23
100
AcDbEntity
  8
0
  6
Continuous
 62
     7
370
    25
100
AcDbCircle
 10
295.4583333333
 20
15.5
 30
0.0
 40
10.00000000000007
100
AcDbArc
 50
270.0
 51
319.4583981265
  0
ARC
  5
1D0
330
23
100
AcDbEntity
  8
0
  6
Continuous
 62
     7
370
    25
100
AcDbCircle
 10
282.875
 20
15.5
 30
0.0
 40
9.999999999999842
100
AcDbArc
 50
220.5416018735
 51
270.0
  0
ARC
  5
1D1
330
23
100
AcDbEntity
  8
0
  6
Continuous
 62
     7
370
    25
100
AcDbCircle
 10
404.0338017673
 20
51.291495957
 30
0.0
 40
5.0
100
AcDbArc
 50
0.0
 51
90.0
  0
ARC
  5
1D2
330
23
100
AcDbEntity
  8
0
  6
Continuous
 62
     7
370
    25
100
AcDbCircle
 10
407.0338017673
 20
13.291495957
 30
0.0
 40
2.000000000000171
100
AcDbArc
 50
270.0
 51
360.0
  0
ARC
  5
1D3
330
23
100
AcDbEntity
  8
0
  6
Continuous
 62
     7
370
    25
100
AcDbCircle
 10
96.5
 20
15.5
 30
0.0
 40
10.00000000000009
100
AcDbArc
 50
220.5416018735
 51
270.0
  0
ARC
  5
1D4
330
23
100
AcDbEntity
  8
0
  6
Continuous
 62
     7
370
    25
100
AcDbCircle
 10
99.5
 20
15.5
 30
0.0
 40
10.00000000000012
100
AcDbArc
 50
270.0
 51
319.4583981265
  0
ARC
  5
1D5
330
23
100
AcDbEntity
  8
0
  6
Continuous
 62
     7
370
    25
100
AcDbCircle
 10
-28.9661982327
 20
13.291495957
 30
0.0
 40
1.999999999999993
100
AcDbArc
 50
180.0
 51
270.0
  0
ARC
  5
1D6
330
23
100
AcDbEntity
  8
0
  6
Continuous
 62
     8
370
    25
100
AcDbCircle
 10
292.7122362104
 20
14.299612248
 30
0.0
 40
8.800396585353033
100
AcDbArc
 50
217.0277335389
 51
269.2350356671
  0
ARC
  5
1D7
330
23
100
AcDbEntity
  8
0
  6
Continuous
 62
     8
370
    25
100
AcDbCircle
 10
283.1289028771
 20
14.299612248
 30
0.0
 40
8.800396585352871
100
AcDbArc
 50
217.0277335389
 51
269.2350356671
  0
VIEWPORT
  5
4CE
330
23
100
AcDbEntity
  8
0
100
AcDbViewport
 10
0.0
 20
0.0
 30
0.0
 40
205.6
 41
156.0
 68
     1
 69
     1
 12
0.0
 22
28.1457479785
 13
0.0
 23
0.0
 14
10.0
 24
10.0
 15
10.0
 25
10.0
 16
0.0
 26
0.0
 36
1.0
 17
0.0
 27
0.0
 37
0.0
 42
50.0
 43
0.0
 44
0.0
 45
278.6147859922
 50
0.0
 51
0.0
 72
   100
 90
   557152
  1

281
     0
 71
     1
 74
     0
110
0.0
120
0.0
130
0.0
111
1.0
121
0.0
131
0.0
112
0.0
122
1.0
132
0.0
 79
     0
146
0.0
  0
ENDBLK
  5
25
330
23
100
AcDbEntity
  8
0
100
AcDbBlockEnd
  0
BLOCK
  5
1DA
330
1D8
100
AcDbEntity
  8
0
100
AcDbBlockBegin
  2
*Paper_Space1
 70
     0
 10
0.0
 20
0.0
 30
0.0
  3
*Paper_Space1
  1

  0
LWPOLYLINE
  5
1DF
330
1D8
100
AcDbEntity
  8
0
  6
Continuous
 62
     7
370
    25
100
AcDbPolyline
 90
        3
 70
   128
 43
0.0
 10
-341.583592135
 20
9.0
 10
-341.2126914578
 20
7.4310744873
 10
-341.0
 20
5.0
  0
LWPOLYLINE
  5
1F1
330
1D8
100
AcDbEntity
  8
0
  6
Continuous
 62
     7
370
    25
100
AcDbPolyline
 90
        3
 70
   128
 43
0.0
 10
-59.0
 20
5.0
 10
-58.7873085422
 20
7.4310744873
 10
-58.416407865
 20
9.0
  0
LWPOLYLINE
  5
1FA
330
1D8
100
AcDbEntity
  8
0
  6
Continuous
 62
     7
370
    25
100
AcDbPolyline
 90
        3
 70
   128
 43
0.0
 10
0.0
 20
9.0
 10
1.5171629151
 20
11.278396934
 10
1.5269646543
 20
11.291495957
  0
LINE
  5
210
330
1D8
100
AcDbEntity
  8
0
  6
Continuous
 62
     7
370
    25
100
AcDbLine
 10
-400.0
 20
11.291495957
 30
0.0
 11
-400.0
 21
10.0
 31
0.0
  0
LINE
  5
211
330
1D8
100
AcDbEntity
  8
0
  6
Continuous
 62
     7
370
    25
100
AcDbLine
 10
-341.0
 20
5.0
 30
0.0
 11
-341.0
 21
0.0
 31
0.0
  0
LINE
  5
212
330
1D8
100
AcDbEntity
  8
0
  6
Continuous
 62
     7
370
    25
100
AcDbLine
 10
-409.0338017673
 20
51.291495957
 30
0.0
 11
-409.0338017673
 21
13.291495957
 31
0.0
  0
LINE
  5
213
330
1D8
100
AcDbEntity
  8
0
  6
Continuous
 62
     7
370
    25
100
AcDbLine
 10
0.0
 20
9.0
 30
0.0
 11
-399.0
 21
9.0
 31
0.0
  0
LINE
  5
214
330
1D8
100
AcDbEntity
  8
0
  6
Continuous
 62
     7
370
    25
100
AcDbLine
 10
-400.0
 20
10.0
 30
0.0
 11
0.0
 21
10.0
 31
0.0
  0
LINE
  5
215
330
1D8
100
AcDbEntity
  8
0
  6
Continuous
 62
     7
370
    25
100
AcDbLine
 10
0.0
 20
11.291495957
 30
0.0
 11
0.0
 21
9.0
 31
0.0
  0
LINE
  5
216
330
1D8
100
AcDbEntity
  8
0
  6
Continuous
 62
     7
370
    25
100
AcDbLine
 10
-96.5
 20
5.5
 30
0.0
 11
-99.5
 21
5.5
 31
0.0
  0
LINE
  5
217
330
1D8
100
AcDbEntity
  8
0
  6
Continuous
 62
     7
370
    25
100
AcDbLine
 10
-282.875
 20
5.5
 30
0.0
 11
-295.4583333333
 21
5.5
 31
0.0
  0
LINE
  5
218
330
1D8
100
AcDbEntity
  8
0
  6
Continuous
 62
     7
370
    25
100
AcDbLine
 10
-341.0
 20
5.0
 30
0.0
 11
-59.0
 21
5.0
 31
0.0
  0
LINE
  5
219
330
1D8
100
AcDbEntity
  8
0
  6
Continuous
 62
     7
370
    25
100
AcDbLine
 10
-135.0
 20
0.0
 30
0.0
 11
-135.0
 21
9.0
 31
0.0
  0
LINE
  5
21A
330
1D8
100
AcDbEntity
  8
0
  6
Continuous
 62
     7
370
    25
100
AcDbLine
 10
-341.0
 20
0.0
 30
0.0
 11
-59.0
 21
0.0
 31
0.0
  0
LINE
  5
21B
330
1D8
100
AcDbEntity
  8
0
  6
Continuous
 62
     7
370
    25
100
AcDbLine
 10
-230.0
 20
11.291495957
 30
0.0
 11
-230.0
 21
0.0
 31
0.0
  0
LINE
  5
21C
330
1D8
100
AcDbEntity
  8
0
  6
Continuous
 62
     7
370
    25
100
AcDbLine
 10
-59.0
 20
0.0
 30
0.0
 11
-59.0
 21
5.0
 31
0.0
  0
LINE
  5
21D
330
1D8
100
AcDbEntity
  8
0
  6
Continuous
 62
     7
370
    25
100
AcDbLine
 10
-229.0338017673
 20
56.291495957
 30
0.0
 11
-229.0338017673
 21
11.291495957
 31
0.0
  0
LINE
  5
21E
330
1D8
100
AcDbEntity
  8
0
  6
Continuous
 62
     7
370
    25
100
AcDbLine
 10
-404.0338017673
 20
56.291495957
 30
0.0
 11
30.9661982327
 21
56.291495957
 31
0.0
  0
LINE
  5
21F
330
1D8
100
AcDbEntity
  8
0
  6
Continuous
 62
     7
370
    25
100
AcDbLine
 10
30.9661982327
 20
51.291495957
 30
0.0
 11
-409.0338017673
 21
51.291495957
 31
0.0
  0
LINE
  5
220
330
1D8
100
AcDbEntity
  8
0
  6
Continuous
 62
     7
370
    25
100
AcDbLine
 10
30.9661982327
 20
56.291495957
 30
0.0
 11
30.9661982327
 21
13.291495957
 31
0.0
  0
LINE
  5
221
330
1D8
100
AcDbEntity
  8
0
  6
Continuous
 62
     7
370
    25
100
AcDbLine
 10
-409.0338017673
 20
13.291495957
 30
0.0
 11
30.9661982327
 21
13.291495957
 31
0.0
  0
LINE
  5
222
330
1D8
100
AcDbEntity
  8
0
  6
Continuous
 62
     7
370
    25
100
AcDbLine
 10
28.9661982327
 20
11.291495957
 30
0.0
 11
-407.0338017673
 21
11.291495957
 31
0.0
  0
ARC
  5
223
330
1D8
100
AcDbEntity
  8
0
  6
Continuous
 62
     7
370
    25
100
AcDbCircle
 10
-399.0
 20
10.0
 30
0.0
 40
0.9999999999999432
100
AcDbArc
 50
180.0
 51
270.0
  0
ARC
  5
224
330
1D8
100
AcDbEntity
  8
0
  6
Continuous
 62
     7
370
    25
100
AcDbCircle
 10
-295.4583333333
 20
15.5
 30
0.0
 40
9.999999999999808
100
AcDbArc
 50
220.5416018735
 51
270.0
  0
ARC
  5
225
330
1D8
100
AcDbEntity
  8
0
  6
Continuous
 62
     7
370
    25
100
AcDbCircle
 10
-282.875
 20
15.5
 30
0.0
 40
9.99999999999984
100
AcDbArc
 50
270.0
 51
319.4583981265
  0
ARC
  5
226
330
1D8
100
AcDbEntity
  8
0
  6
Continuous
 62
     7
370
    25
100
AcDbCircle
 10
-404.0338017673
 20
51.291495957
 30
0.0
 40
5.0
100
AcDbArc
 50
90.0
 51
180.0
  0
ARC
  5
227
330
1D8
100
AcDbEntity
  8
0
  6
Continuous
 62
     7
370
    25
100
AcDbCircle
 10
-407.0338017673
 20
13.291495957
 30
0.0
 40
2.000000000000227
100
AcDbArc
 50
180.0
 51
270.0
  0
ARC
  5
228
330
1D8
100
AcDbEntity
  8
0
  6
Continuous
 62
     7
370
    25
100
AcDbCircle
 10
-99.5
 20
15.5
 30
0.0
 40
10.00000000000011
100
AcDbArc
 50
220.5416018735
 51
270.0
  0
ARC
  5
229
330
1D8
100
AcDbEntity
  8
0
  6
Continuous
 62
     7
370
    25
100
AcDbCircle
 10
-96.5
 20
15.5
 30
0.0
 40
10.00000000000002
100
AcDbArc
 50
270.0
 51
319.4583981265
  0
ARC
  5
22A
330
1D8
100
AcDbEntity
  8
0
  6
Continuous
 62
     7
370
    25
100
AcDbCircle
 10
28.9661982327
 20
13.291495957
 30
0.0
 40
1.999999999999998
100
AcDbArc
 50
270.0
 51
0.0
  0
ARC
  5
22B
330
1D8
100
AcDbEntity
  8
0
  6
Continuous
 62
     8
370
    25
100
AcDbCircle
 10
-292.7122362104
 20
14.299612248
 30
0.0
 40
8.800396585352685
100
AcDbArc
 50
270.7649643329
 51
322.9722664611
  0
ARC
  5
22C
330
1D8
100
AcDbEntity
  8
0
  6
Continuous
 62
     8
370
    25
100
AcDbCircle
 10
-283.1289028771
 20
14.299612248
 30
0.0
 40
8.800396585353013
100
AcDbArc
 50
270.7649643329
 51
322.9722664611
  0
VIEWPORT
  5
4D0
330
1D8
100
AcDbEntity
  8
0
100
AcDbViewport
 10
0.0
 20
0.0
 30
0.0
 40
205.6
 41
156.0
 68
     1
 69
     1
 12
0.0
 22
28.1457479785
 13
0.0
 23
0.0
 14
10.0
 24
10.0
 15
10.0
 25
10.0
 16
0.0
 26
0.0
 36
1.0
 17
0.0
 27
0.0
 37
0.0
 42
50.0
 43
0.0
 44
0.0
 45
278.6147859922
 50
0.0
 51
0.0
 72
   100
 90
   557152
  1

281
     0
 71
     1
 74
     0
110
0.0
120
0.0
130
0.0
111
1.0
121
0.0
131
0.0
112
0.0
122
1.0
132
0.0
 79
     0
146
0.0
  0
ENDBLK
  5
1DB
330
1D8
100
AcDbEntity
  8
0
100
AcDbBlockEnd
  0
BLOCK
  5
22F
330
22D
100
AcDbEntity
  8
0
100
AcDbBlockBegin
  2
*Paper_Space2
 70
     0
 10
0.0
 20
0.0
 30
0.0
  3
*Paper_Space2
  1

  0
LINE
  5
23C
330
22D
100
AcDbEntity
  8
0
  6
Continuous
 62
     7
370
    25
100
AcDbLine
 10
-175.0
 20
30.9661982327
 30
0.0
 11
-175.0
 21
-229.0338017673
 31
0.0
  0
LINE
  5
23D
330
22D
100
AcDbEntity
  8
0
  6
Continuous
 62
     7
370
    25
100
AcDbLine
 10
-180.0
 20
-229.0338017673
 30
0.0
 11
-175.0
 21
-229.0338017673
 31
0.0
  0
LINE
  5
23E
330
22D
100
AcDbEntity
  8
0
  6
Continuous
 62
     7
370
    25
100
AcDbLine
 10
-180.0
 20
-229.0338017673
 30
0.0
 11
-180.0
 21
30.9661982327
 31
0.0
  0
LINE
  5
23F
330
22D
100
AcDbEntity
  8
0
  6
Continuous
 62
     7
370
    25
100
AcDbLine
 10
180.0
 20
-229.0338017673
 30
0.0
 11
175.0
 21
-229.0338017673
 31
0.0
  0
LINE
  5
240
330
22D
100
AcDbEntity
  8
0
  6
Continuous
 62
     7
370
    25
100
AcDbLine
 10
180.0
 20
30.9661982327
 30
0.0
 11
180.0
 21
-229.0338017673
 31
0.0
  0
LINE
  5
241
330
22D
100
AcDbEntity
  8
0
  6
Continuous
 62
     7
370
    25
100
AcDbLine
 10
175.0
 20
-229.0338017673
 30
0.0
 11
175.0
 21
30.9661982327
 31
0.0
  0
LINE
  5
242
330
22D
100
AcDbEntity
  8
0
  6
Continuous
 62
     7
370
    25
100
AcDbLine
 10
180.0
 20
30.9661982327
 30
0.0
 11
-180.0
 21
30.9661982327
 31
0.0
  0
ARC
  5
243
330
22D
100
AcDbEntity
  8
0
  6
Continuous
 62
     7
370
    25
100
AcDbCircle
 10
0.0
 20
-229.0338017673
 30
0.0
 40
180.0
100
AcDbArc
 50
180.0
 51
0.0
  0
ARC
  5
244
330
22D
100
AcDbEntity
  8
0
  6
Continuous
 62
     7
370
    25
100
AcDbCircle
 10
0.0
 20
-229.0338017673
 30
0.0
 40
175.0
100
AcDbArc
 50
180.0
 51
0.0
  0
VIEWPORT
  5
4D2
330
22D
100
AcDbEntity
  8
0
100
AcDbViewport
 10
0.0
 20
0.0
 30
0.0
 40
205.6
 41
156.0
 68
     1
 69
     1
 12
0.0
 22
28.1457479785
 13
0.0
 23
0.0
 14
10.0
 24
10.0
 15
10.0
 25
10.0
 16
0.0
 26
0.0
 36
1.0
 17
0.0
 27
0.0
 37
0.0
 42
50.0
 43
0.0
 44
0.0
 45
278.6147859922
 50
0.0
 51
0.0
 72
   100
 90
   557152
  1

281
     0
 71
     1
 74
     0
110
0.0
120
0.0
130
0.0
111
1.0
121
0.0
131
0.0
112
0.0
122
1.0
132
0.0
 79
     0
146
0.0
  0
ENDBLK
  5
230
330
22D
100
AcDbEntity
  8
0
100
AcDbBlockEnd
  0
BLOCK
  5
247
330
245
100
AcDbEntity
  8
0
100
AcDbBlockBegin
  2
*Paper_Space3
 70
     0
 10
0.0
 20
0.0
 30
0.0
  3
*Paper_Space3
  1

  0
SPLINE
  5
25C
330
245
100
AcDbEntity
  8
0
  6
Continuous
 62
     7
370
    25
100
AcDbSpline
210
0.0
220
0.0
230
1.0
 70
     8
 71
     3
 72
    30
 73
    26
 74
     0
 42
0.000000001
 43
0.00000001
 40
0.0
 40
0.0
 40
0.0
 40
0.0
 40
0.1250000000000013
 40
0.1250000000000013
 40
0.1875000000000014
 40
0.1875000000000014
 40
0.2500000000000015
 40
0.2500000000000015
 40
0.3750000000000002
 40
0.3750000000000002
 40
0.4374999999999996
 40
0.4374999999999996
 40
0.4999999999999989
 40
0.4999999999999989
 40
0.6249999999999996
 40
0.6249999999999996
 40
0.6874999999999999
 40
0.6874999999999999
 40
0.7500000000000001
 40
0.7500000000000001
 40
0.8125000000000004
 40
0.8125000000000004
 40
0.8750000000000008
 40
0.8750000000000008
 40
1.0
 40
1.0
 40
1.0
 40
1.0
 10
-121.2682079355014
 20
109.3524601648211
 30
0.0
 10
-120.4981498016508
 20
109.0657249289334
 30
0.0
 10
-119.7665131078724
 20
108.7185949546209
 30
0.0
 10
-118.7267810081041
 20
108.1022081235087
 30
0.0
 10
-118.3898940742692
 20
107.8806827992652
 30
0.0
 10
-117.736464570964
 20
107.4030172865886
 30
0.0
 10
-117.4181066909099
 20
107.1451122925483
 30
0.0
 10
-116.5142665702942
 20
106.3307067006015
 30
0.0
 10
-115.976875620463
 20
105.7335025062211
 30
0.0
 10
-115.2736440075267
 20
104.7482693000121
 30
0.0
 10
-115.0565063102695
 20
104.4048539755996
 30
0.0
 10
-114.6594786145384
 20
103.6852683285477
 30
0.0
 10
-114.4833866295084
 20
103.3156628883143
 30
0.0
 10
-114.0248097036629
 20
102.1869938259496
 30
0.0
 10
-113.8091525328197
 20
101.4029777646722
 30
0.0
 10
-113.6223584989659
 20
100.1862471289043
 30
0.0
 10
-113.5837022517649
 20
99.77722165029735
 30
0.0
 10
-113.5516445123655
 20
98.96639172318646
 30
0.0
 10
-113.5579110796296
 20
98.563081055283
 30
0.0
 10
-113.6120035648568
 20
97.75980436930432
 30
0.0
 10
-113.6598392712908
 20
97.35983962621025
 30
0.0
 10
-113.7955969392299
 20
96.56250445169242
 30
0.0
 10
-113.8839341952786
 20
96.16368863681171
 30
0.0
 10
-114.2059472823087
 20
94.98047033533328
 30
0.0
 10
-114.493289857846
 20
94.21675169538909
 30
0.0
 10
-114.847793604342
 20
93.47494904857561
 30
0.0
  0
SPLINE
  5
262
330
245
100
AcDbEntity
  8
0
  6
Continuous
 62
     7
370
    25
100
AcDbSpline
210
0.0
220
0.0
230
1.0
 70
     8
 71
     3
 72
    60
 73
    56
 74
     0
 42
0.000000001
 43
0.00000001
 40
0.0
 40
0.0
 40
0.0
 40
0.0
 40
0.0624999999999962
 40
0.0624999999999962
 40
0.0937499999999956
 40
0.0937499999999956
 40
0.1249999999999951
 40
0.1249999999999951
 40
0.1562499999999945
 40
0.1562499999999945
 40
0.187499999999994
 40
0.187499999999994
 40
0.2499999999999954
 40
0.2499999999999954
 40
0.3124999999999969
 40
0.3124999999999969
 40
0.3749999999999983
 40
0.3749999999999983
 40
0.4062500000000006
 40
0.4062500000000006
 40
0.4375000000000029
 40
0.4375000000000029
 40
0.4531250000000041
 40
0.4531250000000041
 40
0.4687500000000052
 40
0.4687500000000052
 40
0.4843750000000064
 40
0.4843750000000064
 40
0.5000000000000075
 40
0.5000000000000075
 40
0.5156250000000087
 40
0.5156250000000087
 40
0.5312500000000099
 40
0.5312500000000099
 40
0.562500000000009
 40
0.562500000000009
 40
0.5937500000000082
 40
0.5937500000000082
 40
0.6250000000000074
 40
0.6250000000000074
 40
0.6875000000000057
 40
0.6875000000000057
 40
0.7187500000000051
 40
0.7187500000000051
 40
0.7500000000000046
 40
0.7500000000000046
 40
0.8125000000000033
 40
0.8125000000000033
 40
0.8437500000000028
 40
0.8437500000000028
 40
0.8750000000000022
 40
0.8750000000000022
 40
0.937500000000001
 40
0.937500000000001
 40
1.0
 40
1.0
 40
1.0
 40
1.0
 10
-107.0184184106471
 20
294.5914709608295
 30
0.0
 10
-106.2925082878572
 20
294.0906427273202
 30
0.0
 10
-105.6207524323039
 20
293.5446617664326
 30
0.0
 10
-104.6880989419578
 20
292.6625811845529
 30
0.0
 10
-104.3895138630466
 20
292.3576425975908
 30
0.0
 10
-103.8186546367534
 20
291.7277914262529
 30
0.0
 10
-103.5507938687632
 20
291.4078215501182
 30
0.0
 10
-103.0474185071362
 20
290.7583027244467
 30
0.0
 10
-102.8119136412868
 20
290.4287526516347
 30
0.0
 10
-102.3715527641019
 20
289.7601999482315
 30
0.0
 10
-102.166103715134
 20
289.4200981429938
 30
0.0
 10
-101.5985574986538
 20
288.392754907942
 30
0.0
 10
-101.2892863605809
 20
287.7079407609957
 30
0.0
 10
-100.7907872355213
 20
286.33113721148
 30
0.0
 10
-100.6016114950699
 20
285.6394147634804
 30
0.0
 10
-100.3420087162203
 20
284.2349838323407
 30
0.0
 10
-100.2739189931009
 20
283.5371928292646
 30
0.0
 10
-100.2684230197563
 20
282.4763913823468
 30
0.0
 10
-100.2828483309199
 20
282.1202174422651
 30
0.0
 10
-100.3490258775714
 20
281.3948498397134
 30
0.0
 10
-100.4005605208106
 20
281.0258870540846
 30
0.0
 10
-100.5145347992527
 20
280.4513422894597
 30
0.0
 10
-100.5588597489349
 20
280.2560172998787
 30
0.0
 10
-100.6598869020465
 20
279.8649129255518
 30
0.0
 10
-100.7167655674977
 20
279.6681082918752
 30
0.0
 10
-100.8450702338487
 20
279.270616700611
 30
0.0
 10
-100.9164894516156
 20
279.0699263499662
 30
0.0
 10
-101.0764519044006
 20
278.6631103878019
 30
0.0
 10
-101.1649628798413
 20
278.4576897586696
 30
0.0
 10
-101.3519694027625
 20
278.0599244333833
 30
0.0
 10
-101.451334400096
 20
277.8652569856962
 30
0.0
 10
-101.661455784941
 20
277.484039810108
 30
0.0
 10
-101.7733329468754
 20
277.29579782802
 30
0.0
 10
-102.1162531889758
 20
276.7573693310164
 30
0.0
 10
-102.3535673109814
 20
276.432885347625
 30
0.0
 10
-102.8469585224788
 20
275.8278775013432
 30
0.0
 10
-103.1046450573644
 20
275.5463123591792
 30
0.0
 10
-103.630551222296
 20
275.0258728307048
 30
0.0
 10
-103.8995791109082
 20
274.7858015897621
 30
0.0
 10
-104.7299341852617
 20
274.1107578501662
 30
0.0
 10
-105.3145001732349
 20
273.7200969292892
 30
0.0
 10
-106.2528687499301
 20
273.2027928367478
 30
0.0
 10
-106.5768117271807
 20
273.0418452608929
 30
0.0
 10
-107.2378171797378
 20
272.7471710775609
 30
0.0
 10
-107.57581185866
 20
272.6128523225641
 30
0.0
 10
-108.6142518046211
 20
272.2478889122681
 30
0.0
 10
-109.3389275081525
 20
272.0547699590086
 30
0.0
 10
-110.4849327537901
 20
271.8453436504697
 30
0.0
 10
-110.8768097827154
 20
271.7890251632015
 30
0.0
 10
-111.6829417081512
 20
271.7058158085323
 30
0.0
 10
-112.0912894398167
 20
271.6795902212664
 30
0.0
 10
-113.3289833166119
 20
271.6483634163463
 30
0.0
 10
-114.1743942410504
 20
271.6903088055512
 30
0.0
 10
-115.9015280017988
 20
271.9148712063993
 30
0.0
 10
-116.7587977565926
 20
272.094169007621
 30
0.0
 10
-117.6097577121227
 20
272.3431799809107
 30
0.0
  0
SPLINE
  5
264
330
245
100
AcDbEntity
  8
0
  6
Continuous
 62
     7
370
    25
100
AcDbSpline
210
0.0
220
0.0
230
1.0
 70
     8
 71
     3
 72
    60
 73
    56
 74
     0
 42
0.000000001
 43
0.00000001
 40
0.0
 40
0.0
 40
0.0
 40
0.0
 40
0.0625000000000062
 40
0.0625000000000062
 40
0.093750000000009
 40
0.093750000000009
 40
0.1250000000000118
 40
0.1250000000000118
 40
0.1562500000000146
 40
0.1562500000000146
 40
0.1875000000000175
 40
0.1875000000000175
 40
0.2500000000000231
 40
0.2500000000000231
 40
0.3125000000000288
 40
0.3125000000000288
 40
0.3750000000000344
 40
0.3750000000000344
 40
0.4062500000000361
 40
0.4062500000000361
 40
0.4375000000000379
 40
0.4375000000000379
 40
0.4531250000000388
 40
0.4531250000000388
 40
0.4687500000000396
 40
0.4687500000000396
 40
0.4843750000000405
 40
0.4843750000000405
 40
0.5000000000000414
 40
0.5000000000000414
 40
0.5156250000000423
 40
0.5156250000000423
 40
0.5312500000000432
 40
0.5312500000000432
 40
0.5625000000000416
 40
0.5625000000000416
 40
0.5937500000000402
 40
0.5937500000000402
 40
0.6250000000000387
 40
0.6250000000000387
 40
0.6875000000000324
 40
0.6875000000000324
 40
0.7187500000000293
 40
0.7187500000000293
 40
0.7500000000000262
 40
0.7500000000000262
 40
0.81250000000002
 40
0.81250000000002
 40
0.8437500000000169
 40
0.8437500000000169
 40
0.8750000000000138
 40
0.8750000000000138
 40
0.9375000000000069
 40
0.9375000000000069
 40
1.0
 40
1.0
 40
1.0
 40
1.0
 10
117.6097577121228
 20
272.3431799809107
 30
0.0
 10
116.7633371674658
 20
272.0954973464134
 30
0.0
 10
115.916012893618
 20
271.9183174545803
 30
0.0
 10
114.6433156242425
 20
271.7505368045991
 30
0.0
 10
114.2183682020043
 20
271.7110364311827
 30
0.0
 10
113.3695583608279
 20
271.6650515662627
 30
0.0
 10
112.9523150504994
 20
271.6588764024548
 30
0.0
 10
112.1307871067458
 20
271.6776726049101
 30
0.0
 10
111.7265077347072
 20
271.7026522300718
 30
0.0
 10
110.9299357259336
 20
271.7823607880906
 30
0.0
 10
110.5364160083483
 20
271.8373224248866
 30
0.0
 10
109.3811626024425
 20
272.0445237728328
 30
0.0
 10
108.6546192341078
 20
272.236236544008
 30
0.0
 10
107.2716490548116
 20
272.7173632163322
 30
0.0
 10
106.6154623942486
 20
273.0066493590023
 30
0.0
 10
105.3616695998494
 20
273.690625580695
 30
0.0
 10
104.7771160314148
 20
274.077724560284
 30
0.0
 10
103.9502593461616
 20
274.7422830133623
 30
0.0
 10
103.6828930014147
 20
274.9780439153207
 30
0.0
 10
103.1615886770482
 20
275.4867475892893
 30
0.0
 10
102.9076927138001
 20
275.7593759012433
 30
0.0
 10
102.533592061676
 20
276.2100870335495
 30
0.0
 10
102.4099277001798
 20
276.3676423521362
 30
0.0
 10
102.1700500080866
 20
276.6926466753682
 30
0.0
 10
102.0531521392283
 20
276.8608790583284
 30
0.0
 10
101.8255148965853
 20
277.2110831963608
 30
0.0
 10
101.7147686124222
 20
277.3930518256694
 30
0.0
 10
101.4998537246407
 20
277.7737075814152
 30
0.0
 10
101.3962119873226
 20
277.9719251838937
 30
0.0
 10
101.2053731904966
 20
278.3678661482322
 30
0.0
 10
101.1169213960385
 20
278.5677288459553
 30
0.0
 10
100.9535009161663
 20
278.9711780721175
 30
0.0
 10
100.8779253438844
 20
279.1767014918468
 30
0.0
 10
100.6762061298415
 20
279.7823489945361
 30
0.0
 10
100.573966558658
 20
280.1711354630057
 30
0.0
 10
100.4154390142866
 20
280.9355557657979
 30
0.0
 10
100.3593575414186
 20
281.3130953636471
 30
0.0
 10
100.2869720659398
 20
282.0494342394722
 30
0.0
 10
100.2702486663657
 20
282.4096154903524
 30
0.0
 10
100.2698116839337
 20
283.4797432439026
 30
0.0
 10
100.3351444671879
 20
284.179789654384
 30
0.0
 10
100.5252460228077
 20
285.2343040015789
 30
0.0
 10
100.6045616209098
 20
285.5872235541419
 30
0.0
 10
100.792593376012
 20
286.2860834411764
 30
0.0
 10
100.9014376543348
 20
286.6331206927791
 30
0.0
 10
101.2728796512005
 20
287.6692609608834
 30
0.0
 10
101.5798817706518
 20
288.3535120142615
 30
0.0
 10
102.1398701080337
 20
289.3750796643628
 30
0.0
 10
102.3432302746061
 20
289.7147618988985
 30
0.0
 10
102.7869012710984
 20
290.3929422029349
 30
0.0
 10
103.0240040831099
 20
290.7264356930061
 30
0.0
 10
103.7801191864055
 20
291.7068188816472
 30
0.0
 10
104.3456999992835
 20
292.3365786699316
 30
0.0
 10
105.608944887274
 20
293.5355914523309
 30
0.0
 10
106.2886151825621
 20
294.0879567514858
 30
0.0
 10
107.0184184106472
 20
294.5914709608296
 30
0.0
  0
SPLINE
  5
268
330
245
100
AcDbEntity
  8
0
  6
Continuous
 62
     7
370
    25
100
AcDbSpline
210
0.0
220
0.0
230
1.0
 70
     8
 71
     3
 72
    30
 73
    26
 74
     0
 42
0.000000001
 43
0.00000001
 40
0.0
 40
0.0
 40
0.0
 40
0.0
 40
0.1250000000000054
 40
0.1250000000000054
 40
0.1875000000000068
 40
0.1875000000000068
 40
0.2500000000000082
 40
0.2500000000000082
 40
0.3750000000000089
 40
0.3750000000000089
 40
0.4375000000000093
 40
0.4375000000000093
 40
0.5000000000000097
 40
0.5000000000000097
 40
0.6250000000000075
 40
0.6250000000000075
 40
0.6875000000000069
 40
0.6875000000000069
 40
0.7500000000000061
 40
0.7500000000000061
 40
0.8125000000000053
 40
0.8125000000000053
 40
0.8750000000000046
 40
0.8750000000000046
 40
1.0
 40
1.0
 40
1.0
 40
1.0
 10
114.8477936043421
 20
93.47494904857557
 30
0.0
 10
114.4934832906048
 20
94.21634693540055
 30
0.0
 10
114.2087746936964
 20
94.97445806550982
 30
0.0
 10
113.8897244081333
 20
96.14029788304012
 30
0.0
 10
113.8015062175595
 20
96.53372364010464
 30
0.0
 10
113.6637562385847
 20
97.33131965381256
 30
0.0
 10
113.6141460644445
 20
97.73802047304609
 30
0.0
 10
113.5304321610308
 20
98.95176485066605
 30
0.0
 10
113.5591950436941
 20
99.7546437825897
 30
0.0
 10
113.7384438306511
 20
100.9517607544953
 30
0.0
 10
113.8210405798651
 20
101.349580615275
 30
0.0
 10
114.0357799825146
 20
102.1428784682724
 30
0.0
 10
114.1660899778087
 20
102.5309968442459
 30
0.0
 10
114.6209278441343
 20
103.661177876034
 30
0.0
 10
115.0108440940203
 20
104.3747285173706
 30
0.0
 10
115.7222843934888
 20
105.3793071113053
 30
0.0
 10
115.9788009752865
 20
105.7002360611682
 30
0.0
 10
116.5193497829877
 20
106.3054466491843
 30
0.0
 10
116.8041903188087
 20
106.591041876496
 30
0.0
 10
117.401424722805
 20
107.130940476122
 30
0.0
 10
117.7138247419579
 20
107.3852361279951
 30
0.0
 10
118.365640613089
 20
107.8640989424518
 30
0.0
 10
118.7063596964695
 20
108.0894165654322
 30
0.0
 10
119.7603013642281
 20
108.7162378622419
 30
0.0
 10
120.4977293948396
 20
109.0655683882243
 30
0.0
 10
121.2682079355014
 20
109.352460164821
 30
0.0
  0
LWPOLYLINE
  5
2DF
330
245
100
AcDbEntity
  8
0
  6
Continuous
 62
     7
370
    25
100
AcDbPolyline
 90
       10
 70
   128
 43
0.0
 10
152.299833018
 20
288.0780371503
 10
152.1413155492
 20
288.387420044
 10
151.9599932454
 20
288.6747422891
 10
151.7613754929
 20
288.9312737448
 10
151.5514971918
 20
289.1492198324
 10
151.3367353879
 20
289.3219583705
 10
151.1236155101
 20
289.444240786
 10
150.9186130979
 20
289.5123515894
 10
150.7279570459
 20
289.5242212687
 10
150.5574403418
 20
289.4794891694
  0
LWPOLYLINE
  5
2E3
330
245
100
AcDbEntity
  8
0
  6
Continuous
 62
     7
370
    25
100
AcDbPolyline
 90
        9
 70
   128
 43
0.0
 10
-150.5574403418
 20
289.4794891694
 10
-150.750801288
 20
289.5258421629
 10
-150.9687560142
 20
289.5005445553
 10
-151.2029286425
 20
289.4045685195
 10
-151.44432005
 20
289.2416023609
 10
-151.6836537003
 20
289.0179087774
 10
-151.9117321355
 20
288.742084188
 10
-152.1197904293
 20
288.424728377
 10
-152.299833018
 20
288.0780371503
  0
LWPOLYLINE
  5
2E5
330
245
100
AcDbEntity
  8
0
  6
Continuous
 62
     7
370
    25
100
AcDbPolyline
 90
        9
 70
   128
 43
0.0
 10
-141.548788403
 20
308.4511824483
 10
-141.7101248166
 20
308.5674047232
 10
-141.8332366296
 20
308.7490299227
 10
-141.9133927242
 20
308.9890782923
 10
-141.9475127465
 20
309.2783249078
 10
-141.9342854832
 20
309.6056541839
 10
-141.8742192507
 20
309.9584870401
 10
-141.7696223605
 20
310.3232643077
 10
-141.6245144125
 20
310.6859678007
  0
LWPOLYLINE
  5
2E8
330
245
100
AcDbEntity
  8
0
  6
Continuous
 62
     7
370
    25
100
AcDbPolyline
 90
        9
 70
   128
 43
0.0
 10
-162.0
 20
108.5
 10
-162.195090322
 20
108.5384294392
 10
-162.3826834324
 20
108.652240935
 10
-162.555570233
 20
108.8370607754
 10
-162.7071067812
 20
109.0857864376
 10
-162.8314696123
 20
109.388859534
 10
-162.9238795325
 20
109.7346331353
 10
-162.9807852804
 20
110.109819356
 10
-163.0
 20
110.5
  0
LWPOLYLINE
  5
2EC
330
245
100
AcDbEntity
  8
0
  6
Continuous
 62
     7
370
    25
100
AcDbPolyline
 90
        9
 70
   128
 43
0.0
 10
141.6245144125
 20
310.6859678007
 10
141.7696223605
 20
310.3232643077
 10
141.8742192507
 20
309.9584870401
 10
141.9342854832
 20
309.6056541839
 10
141.9475127465
 20
309.2783249078
 10
141.9133927242
 20
308.9890782923
 10
141.8332366296
 20
308.7490299227
 10
141.7101248166
 20
308.5674047232
 10
141.548788403
 20
308.4511824483
  0
LWPOLYLINE
  5
2F1
330
245
100
AcDbEntity
  8
0
  6
Continuous
 62
     7
370
    25
100
AcDbPolyline
 90
        9
 70
   128
 43
0.0
 10
163.0
 20
85.5
 10
162.9807852804
 20
85.890180644
 10
162.9238795325
 20
86.2653668647
 10
162.8314696123
 20
86.611140466
 10
162.7071067812
 20
86.9142135624
 10
162.555570233
 20
87.1629392246
 10
162.3826834324
 20
87.347759065
 10
162.195090322
 20
87.4615705608
 10
162.0
 20
87.5
  0
LWPOLYLINE
  5
2FF
330
245
100
AcDbEntity
  8
0
  6
Continuous
 62
     7
370
    25
100
AcDbPolyline
 90
        9
 70
   128
 43
0.0
 10
163.0
 20
110.5
 10
162.9807852804
 20
110.109819356
 10
162.9238795325
 20
109.7346331353
 10
162.8314696123
 20
109.388859534
 10
162.7071067812
 20
109.0857864376
 10
162.555570233
 20
108.8370607754
 10
162.3826834324
 20
108.652240935
 10
162.195090322
 20
108.5384294392
 10
162.0
 20
108.5
  0
LWPOLYLINE
  5
303
330
245
100
AcDbEntity
  8
0
  6
Continuous
 62
     7
370
    25
100
AcDbPolyline
 90
        9
 70
   128
 43
0.0
 10
-162.0
 20
87.5
 10
-162.195090322
 20
87.4615705608
 10
-162.3826834324
 20
87.347759065
 10
-162.555570233
 20
87.1629392246
 10
-162.7071067812
 20
86.9142135624
 10
-162.8314696123
 20
86.611140466
 10
-162.9238795325
 20
86.2653668647
 10
-162.9807852804
 20
85.890180644
 10
-163.0
 20
85.5
  0
LINE
  5
36C
330
245
100
AcDbEntity
  8
0
  6
Continuous
 62
     7
370
    25
100
AcDbLine
 10
87.0
 20
-30.4661982327
 30
0.0
 11
102.0
 21
-30.4661982327
 31
0.0
  0
LINE
  5
36D
330
245
100
AcDbEntity
  8
0
  6
Continuous
 62
     7
370
    25
100
AcDbLine
 10
-102.0
 20
-30.4661982327
 30
0.0
 11
-87.0
 21
-30.4661982327
 31
0.0
  0
LINE
  5
36E
330
245
100
AcDbEntity
  8
0
  6
Continuous
 62
     7
370
    25
100
AcDbLine
 10
35.0
 20
59.0
 30
0.0
 11
-35.0
 21
59.0
 31
0.0
  0
LINE
  5
36F
330
245
100
AcDbEntity
  8
0
  6
Continuous
 62
     7
370
    25
100
AcDbLine
 10
-111.0
 20
135.0
 30
0.0
 11
-111.0
 21
230.0
 31
0.0
  0
LINE
  5
370
330
245
100
AcDbEntity
  8
0
  6
Continuous
 62
     7
370
    25
100
AcDbLine
 10
111.0
 20
230.0
 30
0.0
 11
111.0
 21
135.0
 31
0.0
  0
LINE
  5
371
330
245
100
AcDbEntity
  8
0
  6
Continuous
 62
     7
370
    25
100
AcDbLine
 10
35.0
 20
65.0
 30
0.0
 11
-35.0
 21
65.0
 31
0.0
  0
LINE
  5
372
330
245
100
AcDbEntity
  8
0
  6
Continuous
 62
     7
370
    25
100
AcDbLine
 10
105.0
 20
230.0
 30
0.0
 11
105.0
 21
135.0
 31
0.0
  0
LINE
  5
373
330
245
100
AcDbEntity
  8
0
  6
Continuous
 62
     7
370
    25
100
AcDbLine
 10
-105.0
 20
135.0
 30
0.0
 11
-105.0
 21
230.0
 31
0.0
  0
LINE
  5
374
330
245
100
AcDbEntity
  8
0
  6
Continuous
 62
     7
370
    25
100
AcDbLine
 10
-125.0
 20
135.0
 30
0.0
 11
-111.0
 21
135.0
 31
0.0
  0
LINE
  5
375
330
245
100
AcDbEntity
  8
0
  6
Continuous
 62
     7
370
    25
100
AcDbLine
 10
-125.0
 20
230.0
 30
0.0
 11
-125.0
 21
135.0
 31
0.0
  0
LINE
  5
376
330
245
100
AcDbEntity
  8
0
  6
Continuous
 62
     7
370
    25
100
AcDbLine
 10
-125.0
 20
230.0
 30
0.0
 11
-111.0
 21
230.0
 31
0.0
  0
LINE
  5
377
330
245
100
AcDbEntity
  8
0
  6
Continuous
 62
     7
370
    25
100
AcDbLine
 10
-35.0
 20
59.0
 30
0.0
 11
-35.0
 21
45.0
 31
0.0
  0
LINE
  5
378
330
245
100
AcDbEntity
  8
0
  6
Continuous
 62
     7
370
    25
100
AcDbLine
 10
-35.0
 20
45.0
 30
0.0
 11
35.0
 21
45.0
 31
0.0
  0
LINE
  5
379
330
245
100
AcDbEntity
  8
0
  6
Continuous
 62
     7
370
    25
100
AcDbLine
 10
35.0
 20
59.0
 30
0.0
 11
35.0
 21
45.0
 31
0.0
  0
LINE
  5
37A
330
245
100
AcDbEntity
  8
0
  6
Continuous
 62
     7
370
    25
100
AcDbLine
 10
125.0
 20
230.0
 30
0.0
 11
111.0
 21
230.0
 31
0.0
  0
LINE
  5
37B
330
245
100
AcDbEntity
  8
0
  6
Continuous
 62
     7
370
    25
100
AcDbLine
 10
111.0
 20
135.0
 30
0.0
 11
125.0
 21
135.0
 31
0.0
  0
LINE
  5
37C
330
245
100
AcDbEntity
  8
0
  6
Continuous
 62
     7
370
    25
100
AcDbLine
 10
125.0
 20
135.0
 30
0.0
 11
125.0
 21
230.0
 31
0.0
  0
LINE
  5
37D
330
245
100
AcDbEntity
  8
0
  6
Continuous
 62
     7
370
    25
100
AcDbLine
 10
131.1707913265
 20
302.5943970908
 30
0.0
 11
134.5041246598
 21
295.3219223477
 31
0.0
  0
LINE
  5
37E
330
245
100
AcDbEntity
  8
0
  6
Continuous
 62
     7
370
    25
100
AcDbLine
 10
135.7541246598
 20
292.594744319
 30
0.0
 11
139.0874579932
 21
285.3222695759
 31
0.0
  0
LINE
  5
37F
330
245
100
AcDbEntity
  8
0
  6
Continuous
 62
     7
370
    25
100
AcDbLine
 10
131.1707913265
 20
302.5943970908
 30
0.0
 11
110.2624264401
 21
293.0110637574
 31
0.0
  0
LINE
  5
380
330
245
100
AcDbEntity
  8
0
  6
Continuous
 62
     7
370
    25
100
AcDbLine
 10
134.5041246598
 20
295.3219223477
 30
0.0
 11
113.5957597735
 21
285.7385890143
 31
0.0
  0
LINE
  5
381
330
245
100
AcDbEntity
  8
0
  6
Continuous
 62
     7
370
    25
100
AcDbLine
 10
110.2624264401
 20
293.0110637574
 30
0.0
 11
113.5957597735
 21
285.7385890143
 31
0.0
  0
LINE
  5
382
330
245
100
AcDbEntity
  8
0
  6
Continuous
 62
     7
370
    25
100
AcDbLine
 10
114.8457597735
 20
283.0114109857
 30
0.0
 11
118.1790931068
 21
275.7389362426
 31
0.0
  0
LINE
  5
383
330
245
100
AcDbEntity
  8
0
  6
Continuous
 62
     7
370
    25
100
AcDbLine
 10
126.5
 20
96.5
 30
0.0
 11
149.5
 21
96.5
 31
0.0
  0
LINE
  5
384
330
245
100
AcDbEntity
  8
0
  6
Continuous
 62
     7
370
    25
100
AcDbLine
 10
149.5
 20
96.5
 30
0.0
 11
149.5
 21
88.5
 31
0.0
  0
LINE
  5
385
330
245
100
AcDbEntity
  8
0
  6
Continuous
 62
     7
370
    25
100
AcDbLine
 10
126.5
 20
88.5
 30
0.0
 11
149.5
 21
88.5
 31
0.0
  0
LINE
  5
386
330
245
100
AcDbEntity
  8
0
  6
Continuous
 62
     7
370
    25
100
AcDbLine
 10
126.5
 20
96.5
 30
0.0
 11
126.5
 21
88.5
 31
0.0
  0
LINE
  5
387
330
245
100
AcDbEntity
  8
0
  6
Continuous
 62
     7
370
    25
100
AcDbLine
 10
114.8457597735
 20
283.0114109857
 30
0.0
 11
135.7541246598
 21
292.594744319
 31
0.0
  0
LINE
  5
388
330
245
100
AcDbEntity
  8
0
  6
Continuous
 62
     7
370
    25
100
AcDbLine
 10
118.1790931068
 20
275.7389362426
 30
0.0
 11
139.0874579932
 21
285.3222695759
 31
0.0
  0
LINE
  5
389
330
245
100
AcDbEntity
  8
0
  6
Continuous
 62
     7
370
    25
100
AcDbLine
 10
-110.2624264401
 20
293.0110637574
 30
0.0
 11
-113.5957597735
 21
285.7385890143
 31
0.0
  0
LINE
  5
38A
330
245
100
AcDbEntity
  8
0
  6
Continuous
 62
     7
370
    25
100
AcDbLine
 10
-114.8457597735
 20
283.0114109857
 30
0.0
 11
-118.1790931068
 21
275.7389362426
 31
0.0
  0
LINE
  5
38B
330
245
100
AcDbEntity
  8
0
  6
Continuous
 62
     7
370
    25
100
AcDbLine
 10
149.5
 20
107.5
 30
0.0
 11
126.5
 21
107.5
 31
0.0
  0
LINE
  5
38C
330
245
100
AcDbEntity
  8
0
  6
Continuous
 62
     7
370
    25
100
AcDbLine
 10
149.5
 20
107.5
 30
0.0
 11
149.5
 21
99.5
 31
0.0
  0
LINE
  5
38D
330
245
100
AcDbEntity
  8
0
  6
Continuous
 62
     7
370
    25
100
AcDbLine
 10
149.5
 20
99.5
 30
0.0
 11
126.5
 21
99.5
 31
0.0
  0
LINE
  5
38E
330
245
100
AcDbEntity
  8
0
  6
Continuous
 62
     7
370
    25
100
AcDbLine
 10
126.5
 20
107.5
 30
0.0
 11
126.5
 21
99.5
 31
0.0
  0
LINE
  5
38F
330
245
100
AcDbEntity
  8
0
  6
Continuous
 62
     7
370
    25
100
AcDbLine
 10
-135.7541246598
 20
292.594744319
 30
0.0
 11
-139.0874579932
 21
285.3222695759
 31
0.0
  0
LINE
  5
390
330
245
100
AcDbEntity
  8
0
  6
Continuous
 62
     7
370
    25
100
AcDbLine
 10
-131.1707913265
 20
302.5943970908
 30
0.0
 11
-134.5041246598
 21
295.3219223477
 31
0.0
  0
LINE
  5
391
330
245
100
AcDbEntity
  8
0
  6
Continuous
 62
     7
370
    25
100
AcDbLine
 10
-135.7541246598
 20
292.594744319
 30
0.0
 11
-114.8457597735
 21
283.0114109857
 31
0.0
  0
LINE
  5
392
330
245
100
AcDbEntity
  8
0
  6
Continuous
 62
     7
370
    25
100
AcDbLine
 10
-139.0874579932
 20
285.3222695759
 30
0.0
 11
-118.1790931068
 21
275.7389362426
 31
0.0
  0
LINE
  5
393
330
245
100
AcDbEntity
  8
0
  6
Continuous
 62
     7
370
    25
100
AcDbLine
 10
-110.2624264401
 20
293.0110637574
 30
0.0
 11
-131.1707913265
 21
302.5943970908
 31
0.0
  0
LINE
  5
394
330
245
100
AcDbEntity
  8
0
  6
Continuous
 62
     7
370
    25
100
AcDbLine
 10
-113.5957597735
 20
285.7385890143
 30
0.0
 11
-134.5041246598
 21
295.3219223477
 31
0.0
  0
LINE
  5
395
330
245
100
AcDbEntity
  8
0
  6
Continuous
 62
     7
370
    25
100
AcDbLine
 10
-149.5
 20
96.5
 30
0.0
 11
-149.5
 21
88.5
 31
0.0
  0
LINE
  5
396
330
245
100
AcDbEntity
  8
0
  6
Continuous
 62
     7
370
    25
100
AcDbLine
 10
-149.5
 20
107.5
 30
0.0
 11
-149.5
 21
99.5
 31
0.0
  0
LINE
  5
397
330
245
100
AcDbEntity
  8
0
  6
Continuous
 62
     7
370
    25
100
AcDbLine
 10
-126.5
 20
99.5
 30
0.0
 11
-149.5
 21
99.5
 31
0.0
  0
LINE
  5
398
330
245
100
AcDbEntity
  8
0
  6
Continuous
 62
     7
370
    25
100
AcDbLine
 10
-149.5
 20
96.5
 30
0.0
 11
-126.5
 21
96.5
 31
0.0
  0
LINE
  5
399
330
245
100
AcDbEntity
  8
0
  6
Continuous
 62
     7
370
    25
100
AcDbLine
 10
-126.5
 20
96.5
 30
0.0
 11
-126.5
 21
88.5
 31
0.0
  0
LINE
  5
39A
330
245
100
AcDbEntity
  8
0
  6
Continuous
 62
     7
370
    25
100
AcDbLine
 10
-149.5
 20
88.5
 30
0.0
 11
-126.5
 21
88.5
 31
0.0
  0
LINE
  5
39B
330
245
100
AcDbEntity
  8
0
  6
Continuous
 62
     7
370
    25
100
AcDbLine
 10
-126.5
 20
107.5
 30
0.0
 11
-149.5
 21
107.5
 31
0.0
  0
LINE
  5
39C
330
245
100
AcDbEntity
  8
0
  6
Continuous
 62
     7
370
    25
100
AcDbLine
 10
-126.5
 20
107.5
 30
0.0
 11
-126.5
 21
99.5
 31
0.0
  0
LINE
  5
39D
330
245
100
AcDbEntity
  8
0
  6
Continuous
 62
     7
370
    25
100
AcDbLine
 10
107.0184184106
 20
294.5914709608
 30
0.0
 11
108.1707930287
 21
292.9568356071
 31
0.0
  0
LINE
  5
39E
330
245
100
AcDbEntity
  8
0
  6
Continuous
 62
     7
370
    25
100
AcDbLine
 10
117.6097577121
 20
272.3431799809
 30
0.0
 11
117.0675180419
 21
274.268271184
 31
0.0
  0
LINE
  5
39F
330
245
100
AcDbEntity
  8
0
  6
Continuous
 62
     7
370
    25
100
AcDbLine
 10
-108.1707930287
 20
292.9568356071
 30
0.0
 11
-107.0184184106
 21
294.5914709608
 31
0.0
  0
LINE
  5
3A0
330
245
100
AcDbEntity
  8
0
  6
Continuous
 62
     7
370
    25
100
AcDbLine
 10
-117.0675180419
 20
274.268271184
 30
0.0
 11
-117.6097577121
 21
272.3431799809
 31
0.0
  0
LINE
  5
3A1
330
245
100
AcDbEntity
  8
0
  6
Continuous
 62
     7
370
    25
100
AcDbLine
 10
169.0
 20
0.0
 30
0.0
 11
169.0
 21
230.0
 31
0.0
  0
LINE
  5
3A2
330
245
100
AcDbEntity
  8
0
  6
Continuous
 62
     7
370
    25
100
AcDbLine
 10
170.0
 20
230.0
 30
0.0
 11
169.0
 21
230.0
 31
0.0
  0
LINE
  5
3A3
330
245
100
AcDbEntity
  8
0
  6
Continuous
 62
     7
370
    25
100
AcDbLine
 10
170.0
 20
230.0
 30
0.0
 11
170.0
 21
0.0
 31
0.0
  0
LINE
  5
3A4
330
245
100
AcDbEntity
  8
0
  6
Continuous
 62
     7
370
    25
100
AcDbLine
 10
-170.0
 20
230.0
 30
0.0
 11
-169.0
 21
230.0
 31
0.0
  0
LINE
  5
3A5
330
245
100
AcDbEntity
  8
0
  6
Continuous
 62
     7
370
    25
100
AcDbLine
 10
-170.0
 20
0.0
 30
0.0
 11
-170.0
 21
230.0
 31
0.0
  0
LINE
  5
3A6
330
245
100
AcDbEntity
  8
0
  6
Continuous
 62
     7
370
    25
100
AcDbLine
 10
-169.0
 20
230.0
 30
0.0
 11
-169.0
 21
0.0
 31
0.0
  0
LINE
  5
3A7
330
245
100
AcDbEntity
  8
0
  6
Continuous
 62
     7
370
    25
100
AcDbLine
 10
-164.5
 20
6.0
 30
0.0
 11
-164.5
 21
230.0
 31
0.0
  0
LINE
  5
3A8
330
245
100
AcDbEntity
  8
0
  6
Continuous
 62
     7
370
    25
100
AcDbLine
 10
-170.0
 20
0.0
 30
0.0
 11
170.0
 21
0.0
 31
0.0
  0
LINE
  5
3A9
330
245
100
AcDbEntity
  8
0
  6
Continuous
 62
     7
370
    25
100
AcDbLine
 10
164.5
 20
6.0
 30
0.0
 11
-164.5
 21
6.0
 31
0.0
  0
LINE
  5
3AA
330
245
100
AcDbEntity
  8
0
  6
Continuous
 62
     7
370
    25
100
AcDbLine
 10
164.5
 20
230.0
 30
0.0
 11
164.5
 21
6.0
 31
0.0
  0
LINE
  5
3AB
330
245
100
AcDbEntity
  8
0
  6
Continuous
 62
     7
370
    25
100
AcDbLine
 10
87.0
 20
8.0
 30
0.0
 11
87.0
 21
-30.4661982327
 31
0.0
  0
LINE
  5
3AC
330
245
100
AcDbEntity
  8
0
  6
Continuous
 62
     7
370
    25
100
AcDbLine
 10
-87.0
 20
8.0
 30
0.0
 11
-87.0
 21
-30.4661982327
 31
0.0
  0
LINE
  5
3AD
330
245
100
AcDbEntity
  8
0
  6
Continuous
 62
     7
370
    25
100
AcDbLine
 10
-164.5
 20
230.0
 30
0.0
 11
-163.0
 21
230.0
 31
0.0
  0
LINE
  5
3AE
330
245
100
AcDbEntity
  8
0
  6
Continuous
 62
     7
370
    25
100
AcDbLine
 10
164.5
 20
230.0
 30
0.0
 11
163.0
 21
230.0
 31
0.0
  0
LINE
  5
3AF
330
245
100
AcDbEntity
  8
0
  6
Continuous
 62
     7
370
    25
100
AcDbLine
 10
164.0
 20
6.0
 30
0.0
 11
164.0
 21
230.0
 31
0.0
  0
LINE
  5
3B0
330
245
100
AcDbEntity
  8
0
  6
Continuous
 62
     7
370
    25
100
AcDbLine
 10
-102.0
 20
-17.5
 30
0.0
 11
-87.0
 21
-17.5
 31
0.0
  0
LINE
  5
3B1
330
245
100
AcDbEntity
  8
0
  6
Continuous
 62
     7
370
    25
100
AcDbLine
 10
-102.0
 20
0.0
 30
0.0
 11
-102.0
 21
-30.4661982327
 31
0.0
  0
LINE
  5
3B2
330
245
100
AcDbEntity
  8
0
  6
Continuous
 62
     7
370
    25
100
AcDbLine
 10
102.0
 20
-17.5
 30
0.0
 11
87.0
 21
-17.5
 31
0.0
  0
LINE
  5
3B3
330
245
100
AcDbEntity
  8
0
  6
Continuous
 62
     7
370
    25
100
AcDbLine
 10
102.0
 20
0.0
 30
0.0
 11
102.0
 21
-30.4661982327
 31
0.0
  0
LINE
  5
3B4
330
245
100
AcDbEntity
  8
0
  6
Continuous
 62
     7
370
    25
100
AcDbLine
 10
-164.0
 20
230.0
 30
0.0
 11
-164.0
 21
6.0
 31
0.0
  0
LINE
  5
3B5
330
245
100
AcDbEntity
  8
0
  6
Continuous
 62
     7
370
    25
100
AcDbLine
 10
126.5
 20
87.5
 30
0.0
 11
162.0
 21
87.5
 31
0.0
  0
LINE
  5
3B6
330
245
100
AcDbEntity
  8
0
  6
Continuous
 62
     7
370
    25
100
AcDbLine
 10
162.0
 20
108.5
 30
0.0
 11
126.5
 21
108.5
 31
0.0
  0
LINE
  5
3B7
330
245
100
AcDbEntity
  8
0
  6
Continuous
 62
     7
370
    25
100
AcDbLine
 10
-126.5
 20
108.5
 30
0.0
 11
-162.0
 21
108.5
 31
0.0
  0
LINE
  5
3B8
330
245
100
AcDbEntity
  8
0
  6
Continuous
 62
     7
370
    25
100
AcDbLine
 10
-162.0
 20
87.5
 30
0.0
 11
-126.5
 21
87.5
 31
0.0
  0
LINE
  5
3B9
330
245
100
AcDbEntity
  8
0
  6
Continuous
 62
     7
370
    25
100
AcDbLine
 10
-150.5574403418
 20
289.4794891694
 30
0.0
 11
-118.5957597735
 21
274.8298768997
 31
0.0
  0
LINE
  5
3BA
330
245
100
AcDbEntity
  8
0
  6
Continuous
 62
     7
370
    25
100
AcDbLine
 10
-109.8457597735
 20
293.9201231003
 30
0.0
 11
-141.548788403
 21
308.4511824483
 31
0.0
  0
LINE
  5
3BB
330
245
100
AcDbEntity
  8
0
  6
Continuous
 62
     7
370
    25
100
AcDbLine
 10
141.548788403
 20
308.4511824483
 30
0.0
 11
109.8457597735
 21
293.9201231003
 31
0.0
  0
LINE
  5
3BC
330
245
100
AcDbEntity
  8
0
  6
Continuous
 62
     7
370
    25
100
AcDbLine
 10
118.5957597735
 20
274.8298768997
 30
0.0
 11
150.5574403418
 21
289.4794891694
 31
0.0
  0
LINE
  5
3BD
330
245
100
AcDbEntity
  8
0
  6
Continuous
 62
     7
370
    25
100
AcDbLine
 10
121.2682079355
 20
109.3524601648
 30
0.0
 11
122.1052946658
 21
107.5360665384
 31
0.0
  0
LINE
  5
3BE
330
245
100
AcDbEntity
  8
0
  6
Continuous
 62
     7
370
    25
100
AcDbLine
 10
114.8477936043
 20
93.4749490486
 30
0.0
 11
116.7121466276
 21
94.1989572008
 31
0.0
  0
LINE
  5
3BF
330
245
100
AcDbEntity
  8
0
  6
Continuous
 62
     7
370
    25
100
AcDbLine
 10
-122.1052946658
 20
107.5360665384
 30
0.0
 11
-121.2682079355
 21
109.3524601648
 31
0.0
  0
LINE
  5
3C0
330
245
100
AcDbEntity
  8
0
  6
Continuous
 62
     7
370
    25
100
AcDbLine
 10
-116.7121466276
 20
94.1989572008
 30
0.0
 11
-114.8477936043
 21
93.4749490486
 31
0.0
  0
LINE
  5
3C1
330
245
100
AcDbEntity
  8
0
  6
Continuous
 62
     7
370
    25
100
AcDbLine
 10
153.2088923609
 20
288.494703817
 30
0.0
 11
119.4290931068
 21
273.0117582139
 31
0.0
  0
LINE
  5
3C2
330
245
100
AcDbEntity
  8
0
  6
Continuous
 62
     7
370
    25
100
AcDbLine
 10
-118.5957597735
 20
274.8298768997
 30
0.0
 11
-119.4290931068
 21
273.0117582139
 31
0.0
  0
LINE
  5
3C3
330
245
100
AcDbEntity
  8
0
  6
Continuous
 62
     7
370
    25
100
AcDbLine
 10
-119.4290931068
 20
273.0117582139
 30
0.0
 11
-153.2088923609
 21
288.494703817
 31
0.0
  0
LINE
  5
3C4
330
245
100
AcDbEntity
  8
0
  6
Continuous
 62
     7
370
    25
100
AcDbLine
 10
-142.5335737554
 20
311.1026344674
 30
0.0
 11
-109.0124264401
 21
295.7382417861
 31
0.0
  0
LINE
  5
3C5
330
245
100
AcDbEntity
  8
0
  6
Continuous
 62
     7
370
    25
100
AcDbLine
 10
119.4290931068
 20
273.0117582139
 30
0.0
 11
118.5957597735
 21
274.8298768997
 31
0.0
  0
LINE
  5
3C6
330
245
100
AcDbEntity
  8
0
  6
Continuous
 62
     7
370
    25
100
AcDbLine
 10
-164.0
 20
110.5
 30
0.0
 11
-126.5
 21
110.5
 31
0.0
  0
LINE
  5
3C7
330
245
100
AcDbEntity
  8
0
  6
Continuous
 62
     7
370
    25
100
AcDbLine
 10
-126.5
 20
108.5
 30
0.0
 11
-126.5
 21
110.5
 31
0.0
  0
LINE
  5
3C8
330
245
100
AcDbEntity
  8
0
  6
Continuous
 62
     7
370
    25
100
AcDbLine
 10
109.0124264401
 20
295.7382417861
 30
0.0
 11
142.5335737554
 21
311.1026344674
 31
0.0
  0
LINE
  5
3C9
330
245
100
AcDbEntity
  8
0
  6
Continuous
 62
     7
370
    25
100
AcDbLine
 10
109.0124264401
 20
295.7382417861
 30
0.0
 11
109.8457597735
 21
293.9201231003
 31
0.0
  0
LINE
  5
3CA
330
245
100
AcDbEntity
  8
0
  6
Continuous
 62
     7
370
    25
100
AcDbLine
 10
164.0
 20
85.5
 30
0.0
 11
126.5
 21
85.5
 31
0.0
  0
LINE
  5
3CB
330
245
100
AcDbEntity
  8
0
  6
Continuous
 62
     7
370
    25
100
AcDbLine
 10
126.5
 20
85.5
 30
0.0
 11
126.5
 21
87.5
 31
0.0
  0
LINE
  5
3CC
330
245
100
AcDbEntity
  8
0
  6
Continuous
 62
     7
370
    25
100
AcDbLine
 10
-109.8457597735
 20
293.9201231003
 30
0.0
 11
-109.0124264401
 21
295.7382417861
 31
0.0
  0
LINE
  5
3CD
330
245
100
AcDbEntity
  8
0
  6
Continuous
 62
     7
370
    25
100
AcDbLine
 10
-126.5
 20
87.5
 30
0.0
 11
-126.5
 21
85.5
 31
0.0
  0
LINE
  5
3CE
330
245
100
AcDbEntity
  8
0
  6
Continuous
 62
     7
370
    25
100
AcDbLine
 10
126.5
 20
110.5
 30
0.0
 11
126.5
 21
108.5
 31
0.0
  0
LINE
  5
3CF
330
245
100
AcDbEntity
  8
0
  6
Continuous
 62
     7
370
    25
100
AcDbLine
 10
126.5
 20
110.5
 30
0.0
 11
164.0
 21
110.5
 31
0.0
  0
LINE
  5
3D0
330
245
100
AcDbEntity
  8
0
  6
Continuous
 62
     7
370
    25
100
AcDbLine
 10
-126.5
 20
85.5
 30
0.0
 11
-164.0
 21
85.5
 31
0.0
  0
LINE
  5
3D1
330
245
100
AcDbEntity
  8
0
  6
Continuous
 62
     7
370
    25
100
AcDbLine
 10
163.0
 20
230.0
 30
0.0
 11
163.0
 21
110.5
 31
0.0
  0
LINE
  5
3D2
330
245
100
AcDbEntity
  8
0
  6
Continuous
 62
     7
370
    25
100
AcDbLine
 10
-142.45268291
 20
311.2602801604
 30
0.0
 11
-141.5840689898
 21
310.7647906472
 31
0.0
  0
LINE
  5
3D3
330
245
100
AcDbEntity
  8
0
  6
Continuous
 62
     7
370
    25
100
AcDbLine
 10
141.5840689898
 20
310.7647906472
 30
0.0
 11
142.45268291
 21
311.2602801604
 31
0.0
  0
LINE
  5
3D4
330
245
100
AcDbEntity
  8
0
  6
Continuous
 62
     7
370
    25
100
AcDbLine
 10
153.2597955723
 20
288.3732392551
 30
0.0
 11
152.3252846237
 21
288.0173048694
 31
0.0
  0
LINE
  5
3D5
330
245
100
AcDbEntity
  8
0
  6
Continuous
 62
     7
370
    25
100
AcDbLine
 10
-152.3252846237
 20
288.0173048694
 30
0.0
 11
-153.2597955723
 21
288.3732392551
 31
0.0
  0
LINE
  5
3D6
330
245
100
AcDbEntity
  8
0
  6
Continuous
 62
     7
370
    25
100
AcDbLine
 10
-102.0
 20
8.0
 30
0.0
 11
-87.0
 21
8.0
 31
0.0
  0
LINE
  5
3D7
330
245
100
AcDbEntity
  8
0
  6
Continuous
 62
     7
370
    25
100
AcDbLine
 10
-102.0
 20
8.0
 30
0.0
 11
-102.0
 21
6.0
 31
0.0
  0
LINE
  5
3D8
330
245
100
AcDbEntity
  8
0
  6
Continuous
 62
     7
370
    25
100
AcDbLine
 10
102.0
 20
8.0
 30
0.0
 11
87.0
 21
8.0
 31
0.0
  0
LINE
  5
3D9
330
245
100
AcDbEntity
  8
0
  6
Continuous
 62
     7
370
    25
100
AcDbLine
 10
102.0
 20
8.0
 30
0.0
 11
102.0
 21
6.0
 31
0.0
  0
LINE
  5
3DA
330
245
100
AcDbEntity
  8
0
  6
Continuous
 62
     7
370
    25
100
AcDbLine
 10
163.0
 20
85.5
 30
0.0
 11
163.0
 21
6.0
 31
0.0
  0
LINE
  5
3DB
330
245
100
AcDbEntity
  8
0
  6
Continuous
 62
     7
370
    25
100
AcDbLine
 10
-163.0
 20
110.5
 30
0.0
 11
-163.0
 21
230.0
 31
0.0
  0
LINE
  5
3DC
330
245
100
AcDbEntity
  8
0
  6
Continuous
 62
     7
370
    25
100
AcDbLine
 10
-163.0
 20
6.0
 30
0.0
 11
-163.0
 21
85.5
 31
0.0
  0
LINE
  5
3DD
330
245
100
AcDbEntity
  8
0
  6
Continuous
 62
     7
370
    25
100
AcDbLine
 10
87.0
 20
-15.0
 30
0.0
 11
-87.0
 21
-15.0
 31
0.0
  0
LINE
  5
3DE
330
245
100
AcDbEntity
  8
0
  6
Continuous
 62
     7
370
    25
100
AcDbLine
 10
178.0
 20
-28.9661982327
 30
0.0
 11
178.0
 21
229.0338017673
 31
0.0
  0
LINE
  5
3DF
330
245
100
AcDbEntity
  8
0
  6
Continuous
 62
     7
370
    25
100
AcDbLine
 10
178.0
 20
229.0338017673
 30
0.0
 11
180.0
 21
229.0338017673
 31
0.0
  0
LINE
  5
3E0
330
245
100
AcDbEntity
  8
0
  6
Continuous
 62
     7
370
    25
100
AcDbLine
 10
180.0
 20
229.0338017673
 30
0.0
 11
180.0
 21
-30.9661982327
 31
0.0
  0
LINE
  5
3E1
330
245
100
AcDbEntity
  8
0
  6
Continuous
 62
     7
370
    25
100
AcDbLine
 10
178.0
 20
-28.9661982327
 30
0.0
 11
180.0
 21
-30.9661982327
 31
0.0
  0
LINE
  5
3E2
330
245
100
AcDbEntity
  8
0
  6
Continuous
 62
     7
370
    25
100
AcDbLine
 10
-175.0
 20
229.0338017673
 30
0.0
 11
-177.0
 21
229.0338017673
 31
0.0
  0
LINE
  5
3E3
330
245
100
AcDbEntity
  8
0
  6
Continuous
 62
     7
370
    25
100
AcDbLine
 10
175.0
 20
229.0338017673
 30
0.0
 11
177.0
 21
229.0338017673
 31
0.0
  0
LINE
  5
3E4
330
245
100
AcDbEntity
  8
0
  6
Continuous
 62
     7
370
    25
100
AcDbLine
 10
-177.0
 20
-30.9661982327
 30
0.0
 11
-177.0
 21
229.0338017673
 31
0.0
  0
LINE
  5
3E5
330
245
100
AcDbEntity
  8
0
  6
Continuous
 62
     7
370
    25
100
AcDbLine
 10
-178.0
 20
-28.9661982327
 30
0.0
 11
-122.5
 21
-28.9661982327
 31
0.0
  0
LINE
  5
3E6
330
245
100
AcDbEntity
  8
0
  6
Continuous
 62
     7
370
    25
100
AcDbLine
 10
175.0
 20
-28.9661982327
 30
0.0
 11
175.0
 21
229.0338017673
 31
0.0
  0
LINE
  5
3E7
330
245
100
AcDbEntity
  8
0
  6
Continuous
 62
     7
370
    25
100
AcDbLine
 10
177.0
 20
229.0338017673
 30
0.0
 11
177.0
 21
-30.9661982327
 31
0.0
  0
LINE
  5
3E8
330
245
100
AcDbEntity
  8
0
  6
Continuous
 62
     7
370
    25
100
AcDbLine
 10
122.5
 20
-28.9661982327
 30
0.0
 11
178.0
 21
-28.9661982327
 31
0.0
  0
LINE
  5
3E9
330
245
100
AcDbEntity
  8
0
  6
Continuous
 62
     7
370
    25
100
AcDbLine
 10
-178.0
 20
229.0338017673
 30
0.0
 11
-180.0
 21
229.0338017673
 31
0.0
  0
LINE
  5
3EA
330
245
100
AcDbEntity
  8
0
  6
Continuous
 62
     7
370
    25
100
AcDbLine
 10
-180.0
 20
-30.9661982327
 30
0.0
 11
-180.0
 21
229.0338017673
 31
0.0
  0
LINE
  5
3EB
330
245
100
AcDbEntity
  8
0
  6
Continuous
 62
     7
370
    25
100
AcDbLine
 10
-178.0
 20
229.0338017673
 30
0.0
 11
-178.0
 21
-28.9661982327
 31
0.0
  0
LINE
  5
3EC
330
245
100
AcDbEntity
  8
0
  6
Continuous
 62
     7
370
    25
100
AcDbLine
 10
-180.0
 20
-30.9661982327
 30
0.0
 11
-178.0
 21
-28.9661982327
 31
0.0
  0
LINE
  5
3ED
330
245
100
AcDbEntity
  8
0
  6
Continuous
 62
     7
370
    25
100
AcDbLine
 10
-175.0
 20
229.0338017673
 30
0.0
 11
-175.0
 21
-28.9661982327
 31
0.0
  0
LINE
  5
3EE
330
245
100
AcDbEntity
  8
0
  6
Continuous
 62
     7
370
    25
100
AcDbLine
 10
-122.5
 20
0.0
 30
0.0
 11
-122.5
 21
-30.9661982327
 31
0.0
  0
LINE
  5
3EF
330
245
100
AcDbEntity
  8
0
  6
Continuous
 62
     7
370
    25
100
AcDbLine
 10
-102.5
 20
0.0
 30
0.0
 11
-102.5
 21
-30.9661982327
 31
0.0
  0
LINE
  5
3F0
330
245
100
AcDbEntity
  8
0
  6
Continuous
 62
     7
370
    25
100
AcDbLine
 10
122.5
 20
0.0
 30
0.0
 11
122.5
 21
-30.9661982327
 31
0.0
  0
LINE
  5
3F1
330
245
100
AcDbEntity
  8
0
  6
Continuous
 62
     7
370
    25
100
AcDbLine
 10
102.5
 20
0.0
 30
0.0
 11
102.5
 21
-30.9661982327
 31
0.0
  0
LINE
  5
3F2
330
245
100
AcDbEntity
  8
0
  6
Continuous
 62
     7
370
    25
100
AcDbLine
 10
180.0
 20
-30.9661982327
 30
0.0
 11
-180.0
 21
-30.9661982327
 31
0.0
  0
LINE
  5
3F3
330
245
100
AcDbEntity
  8
0
  6
Continuous
 62
     7
370
    25
100
AcDbLine
 10
-175.0
 20
-25.9661982327
 30
0.0
 11
-122.5
 21
-25.9661982327
 31
0.0
  0
LINE
  5
3F4
330
245
100
AcDbEntity
  8
0
  6
Continuous
 62
     7
370
    25
100
AcDbLine
 10
-122.5
 20
-27.9661982327
 30
0.0
 11
-175.0
 21
-27.9661982327
 31
0.0
  0
LINE
  5
3F5
330
245
100
AcDbEntity
  8
0
  6
Continuous
 62
     7
370
    25
100
AcDbLine
 10
165.0
 20
-25.9661982327
 30
0.0
 11
165.0
 21
-30.9661982327
 31
0.0
  0
LINE
  5
3F6
330
245
100
AcDbEntity
  8
0
  6
Continuous
 62
     7
370
    25
100
AcDbLine
 10
175.0
 20
-27.9661982327
 30
0.0
 11
122.5
 21
-27.9661982327
 31
0.0
  0
LINE
  5
3F7
330
245
100
AcDbEntity
  8
0
  6
Continuous
 62
     7
370
    25
100
AcDbLine
 10
-165.0
 20
-30.9661982327
 30
0.0
 11
-165.0
 21
-25.9661982327
 31
0.0
  0
LINE
  5
3F8
330
245
100
AcDbEntity
  8
0
  6
Continuous
 62
     7
370
    25
100
AcDbLine
 10
122.5
 20
-25.9661982327
 30
0.0
 11
175.0
 21
-25.9661982327
 31
0.0
  0
LINE
  5
3F9
330
245
100
AcDbEntity
  8
0
  6
Continuous
 62
     7
370
    25
100
AcDbLine
 10
102.5
 20
-0.9661982327
 30
0.0
 11
102.0
 21
-0.9661982327
 31
0.0
  0
LINE
  5
3FA
330
245
100
AcDbEntity
  8
0
  6
Continuous
 62
     7
370
    25
100
AcDbLine
 10
-102.0
 20
-0.9661982327
 30
0.0
 11
-102.5
 21
-0.9661982327
 31
0.0
  0
LINE
  5
3FB
330
245
100
AcDbEntity
  8
0
  6
Continuous
 62
     8
370
    25
100
AcDbLine
 10
102.5
 20
-27.9657099216
 30
0.0
 11
102.0
 21
-27.9657099216
 31
0.0
  0
LINE
  5
3FC
330
245
100
AcDbEntity
  8
0
  6
Continuous
 62
     8
370
    25
100
AcDbLine
 10
87.0
 20
-27.9657099216
 30
0.0
 11
-87.0
 21
-27.9657099216
 31
0.0
  0
LINE
  5
3FD
330
245
100
AcDbEntity
  8
0
  6
Continuous
 62
     8
370
    25
100
AcDbLine
 10
-102.0
 20
-27.9657099216
 30
0.0
 11
-102.5
 21
-27.9657099216
 31
0.0
  0
LINE
  5
3FE
330
245
100
AcDbEntity
  8
0
  6
Continuous
 62
     8
370
    25
100
AcDbLine
 10
-102.5
 20
-28.9661982327
 30
0.0
 11
-102.0
 21
-28.9661982327
 31
0.0
  0
LINE
  5
3FF
330
245
100
AcDbEntity
  8
0
  6
Continuous
 62
     8
370
    25
100
AcDbLine
 10
-87.0
 20
-28.9661982327
 30
0.0
 11
87.0
 21
-28.9661982327
 31
0.0
  0
LINE
  5
400
330
245
100
AcDbEntity
  8
0
  6
Continuous
 62
     8
370
    25
100
AcDbLine
 10
102.0
 20
-28.9661982327
 30
0.0
 11
102.5
 21
-28.9661982327
 31
0.0
  0
LINE
  5
401
330
245
100
AcDbEntity
  8
0
  6
Continuous
 62
     8
370
    25
100
AcDbLine
 10
-102.5
 20
-25.9659540771
 30
0.0
 11
-102.0
 21
-25.9659540771
 31
0.0
  0
LINE
  5
402
330
245
100
AcDbEntity
  8
0
  6
Continuous
 62
     8
370
    25
100
AcDbLine
 10
-87.0
 20
-25.9659540771
 30
0.0
 11
87.0
 21
-25.9659540771
 31
0.0
  0
LINE
  5
403
330
245
100
AcDbEntity
  8
0
  6
Continuous
 62
     8
370
    25
100
AcDbLine
 10
102.0
 20
-25.9659540771
 30
0.0
 11
102.5
 21
-25.9659540771
 31
0.0
  0
LINE
  5
404
330
245
100
AcDbEntity
  8
0
  6
Continuous
 62
     8
370
    25
100
AcDbLine
 10
-102.5
 20
-25.0413982327
 30
0.0
 11
-102.0
 21
-25.0413982327
 31
0.0
  0
LINE
  5
405
330
245
100
AcDbEntity
  8
0
  6
Continuous
 62
     8
370
    25
100
AcDbLine
 10
-87.0
 20
-25.0413982327
 30
0.0
 11
87.0
 21
-25.0413982327
 31
0.0
  0
LINE
  5
406
330
245
100
AcDbEntity
  8
0
  6
Continuous
 62
     8
370
    25
100
AcDbLine
 10
102.0
 20
-25.0413982327
 30
0.0
 11
102.5
 21
-25.0413982327
 31
0.0
  0
ARC
  5
407
330
245
100
AcDbEntity
  8
0
  6
Continuous
 62
     7
370
    25
100
AcDbCircle
 10
35.0
 20
135.0
 30
0.0
 40
76.0
100
AcDbArc
 50
270.0
 51
0.0
  0
ARC
  5
408
330
245
100
AcDbEntity
  8
0
  6
Continuous
 62
     7
370
    25
100
AcDbCircle
 10
-35.0
 20
135.0
 30
0.0
 40
75.99999999999997
100
AcDbArc
 50
180.0
 51
270.0
  0
ARC
  5
409
330
245
100
AcDbEntity
  8
0
  6
Continuous
 62
     7
370
    25
100
AcDbCircle
 10
0.0
 20
230.0
 30
0.0
 40
111.0000000000001
100
AcDbArc
 50
0.0
 51
180.0
  0
ARC
  5
40A
330
245
100
AcDbEntity
  8
0
  6
Continuous
 62
     7
370
    25
100
AcDbCircle
 10
0.0
 20
230.0
 30
0.0
 40
105.0000000000001
100
AcDbArc
 50
0.0
 51
180.0
  0
ARC
  5
40B
330
245
100
AcDbEntity
  8
0
  6
Continuous
 62
     7
370
    25
100
AcDbCircle
 10
35.0
 20
135.0
 30
0.0
 40
69.99999999999999
100
AcDbArc
 50
270.0
 51
0.0
  0
ARC
  5
40C
330
245
100
AcDbEntity
  8
0
  6
Continuous
 62
     7
370
    25
100
AcDbCircle
 10
-35.0
 20
135.0
 30
0.0
 40
69.99999999999999
100
AcDbArc
 50
180.0
 51
270.0
  0
ARC
  5
40D
330
245
100
AcDbEntity
  8
0
  6
Continuous
 62
     7
370
    25
100
AcDbCircle
 10
-35.0
 20
135.0
 30
0.0
 40
90.0000000000002
100
AcDbArc
 50
207.4768028962
 51
270.0
  0
ARC
  5
40E
330
245
100
AcDbEntity
  8
0
  6
Continuous
 62
     7
370
    25
100
AcDbCircle
 10
-35.0
 20
135.0
 30
0.0
 40
89.99999999999793
100
AcDbArc
 50
180.0
 51
196.5572146397
  0
ARC
  5
40F
330
245
100
AcDbEntity
  8
0
  6
Continuous
 62
     7
370
    25
100
AcDbCircle
 10
0.0
 20
230.0
 30
0.0
 40
125.0000000000019
100
AcDbArc
 50
160.1995420864
 51
180.0
  0
ARC
  5
410
330
245
100
AcDbEntity
  8
0
  6
Continuous
 62
     7
370
    25
100
AcDbCircle
 10
0.0
 20
230.0
 30
0.0
 40
125.0000000000002
100
AcDbArc
 50
31.1132791532
 51
148.8867208468
  0
ARC
  5
411
330
245
100
AcDbEntity
  8
0
  6
Continuous
 62
     7
370
    25
100
AcDbCircle
 10
0.0
 20
230.0
 30
0.0
 40
125.0000000000023
100
AcDbArc
 50
0.0
 51
19.8004579136
  0
ARC
  5
412
330
245
100
AcDbEntity
  8
0
  6
Continuous
 62
     7
370
    25
100
AcDbCircle
 10
35.0
 20
135.0
 30
0.0
 40
89.99999999999976
100
AcDbArc
 50
343.4427853603
 51
0.0
  0
ARC
  5
413
330
245
100
AcDbEntity
  8
0
  6
Continuous
 62
     7
370
    25
100
AcDbCircle
 10
35.0
 20
135.0
 30
0.0
 40
90.00000000000013
100
AcDbArc
 50
270.0
 51
332.5231971038
  0
ARC
  5
414
330
245
100
AcDbEntity
  8
0
  6
Continuous
 62
     7
370
    25
100
AcDbCircle
 10
135.1291246598
 20
293.9583333333
 30
0.0
 40
1.499999999999864
100
AcDbArc
 50
294.6243183522
 51
114.6243183522
  0
ARC
  5
415
330
245
100
AcDbEntity
  8
0
  6
Continuous
 62
     7
370
    25
100
AcDbCircle
 10
135.1291246598
 20
293.9583333333
 30
0.0
 40
9.499999999999844
100
AcDbArc
 50
294.6243183522
 51
114.6243183522
  0
ARC
  5
416
330
245
100
AcDbEntity
  8
0
  6
Continuous
 62
     7
370
    25
100
AcDbCircle
 10
114.2207597735
 20
284.375
 30
0.0
 40
1.49999999999996
100
AcDbArc
 50
114.6243183522
 51
294.6243183522
  0
ARC
  5
417
330
245
100
AcDbEntity
  8
0
  6
Continuous
 62
     7
370
    25
100
AcDbCircle
 10
114.2207597735
 20
284.375
 30
0.0
 40
9.500000000000044
100
AcDbArc
 50
114.6243183522
 51
294.6243183522
  0
ARC
  5
418
330
245
100
AcDbEntity
  8
0
  6
Continuous
 62
     7
370
    25
100
AcDbCircle
 10
-114.2207597735
 20
284.375
 30
0.0
 40
1.500000000000006
100
AcDbArc
 50
245.3756816478
 51
65.3756816478
  0
ARC
  5
419
330
245
100
AcDbEntity
  8
0
  6
Continuous
 62
     7
370
    25
100
AcDbCircle
 10
-114.2207597735
 20
284.375
 30
0.0
 40
9.50000000000005
100
AcDbArc
 50
245.3756816478
 51
65.3756816478
  0
ARC
  5
41A
330
245
100
AcDbEntity
  8
0
  6
Continuous
 62
     7
370
    25
100
AcDbCircle
 10
149.5
 20
98.0
 30
0.0
 40
1.500000000000014
100
AcDbArc
 50
270.0
 51
90.0
  0
ARC
  5
41B
330
245
100
AcDbEntity
  8
0
  6
Continuous
 62
     7
370
    25
100
AcDbCircle
 10
149.5
 20
98.0
 30
0.0
 40
9.500000000000028
100
AcDbArc
 50
270.0
 51
90.0
  0
ARC
  5
41C
330
245
100
AcDbEntity
  8
0
  6
Continuous
 62
     7
370
    25
100
AcDbCircle
 10
-135.1291246598
 20
293.9583333333
 30
0.0
 40
1.499999999999936
100
AcDbArc
 50
65.3756816478
 51
245.3756816478
  0
ARC
  5
41D
330
245
100
AcDbEntity
  8
0
  6
Continuous
 62
     7
370
    25
100
AcDbCircle
 10
-135.1291246598
 20
293.9583333333
 30
0.0
 40
9.4999999999999
100
AcDbArc
 50
65.3756816478
 51
245.3756816478
  0
ARC
  5
41E
330
245
100
AcDbEntity
  8
0
  6
Continuous
 62
     7
370
    25
100
AcDbCircle
 10
126.5
 20
98.0
 30
0.0
 40
1.5
100
AcDbArc
 50
90.0
 51
270.0
  0
ARC
  5
41F
330
245
100
AcDbEntity
  8
0
  6
Continuous
 62
     7
370
    25
100
AcDbCircle
 10
126.5
 20
98.0
 30
0.0
 40
9.5
100
AcDbArc
 50
90.0
 51
270.0
  0
ARC
  5
420
330
245
100
AcDbEntity
  8
0
  6
Continuous
 62
     7
370
    25
100
AcDbCircle
 10
-149.5
 20
98.0
 30
0.0
 40
1.500000000000014
100
AcDbArc
 50
90.0
 51
270.0
  0
ARC
  5
421
330
245
100
AcDbEntity
  8
0
  6
Continuous
 62
     7
370
    25
100
AcDbCircle
 10
-149.5
 20
98.0
 30
0.0
 40
9.500000000000014
100
AcDbArc
 50
90.0
 51
270.0
  0
ARC
  5
422
330
245
100
AcDbEntity
  8
0
  6
Continuous
 62
     7
370
    25
100
AcDbCircle
 10
-126.5
 20
98.0
 30
0.0
 40
1.5
100
AcDbArc
 50
270.0
 51
90.0
  0
ARC
  5
423
330
245
100
AcDbEntity
  8
0
  6
Continuous
 62
     7
370
    25
100
AcDbCircle
 10
-126.5
 20
98.0
 30
0.0
 40
9.5
100
AcDbArc
 50
270.0
 51
90.0
  0
ARC
  5
424
330
245
100
AcDbEntity
  8
0
  6
Continuous
 62
     7
370
    25
100
AcDbCircle
 10
0.0
 20
230.0
 30
0.0
 40
170.0000000000001
100
AcDbArc
 50
0.0
 51
180.0
  0
ARC
  5
425
330
245
100
AcDbEntity
  8
0
  6
Continuous
 62
     7
370
    25
100
AcDbCircle
 10
0.0
 20
230.0
 30
0.0
 40
169.0000000000001
100
AcDbArc
 50
0.0
 51
180.0
  0
ARC
  5
426
330
245
100
AcDbEntity
  8
0
  6
Continuous
 62
     7
370
    25
100
AcDbCircle
 10
0.0
 20
230.0
 30
0.0
 40
164.5000000000001
100
AcDbArc
 50
0.0
 51
180.0
  0
ARC
  5
427
330
245
100
AcDbEntity
  8
0
  6
Continuous
 62
     7
370
    25
100
AcDbCircle
 10
0.0
 20
230.0
 30
0.0
 40
164.0000000000014
100
AcDbArc
 50
0.0
 51
180.0
  0
ARC
  5
428
330
245
100
AcDbEntity
  8
0
  6
Continuous
 62
     7
370
    25
100
AcDbCircle
 10
162.0
 20
85.5
 30
0.0
 40
1.999999999999972
100
AcDbArc
 50
0.0
 51
90.0
  0
ARC
  5
429
330
245
100
AcDbEntity
  8
0
  6
Continuous
 62
     7
370
    25
100
AcDbCircle
 10
126.5
 20
98.0
 30
0.0
 40
10.5
100
AcDbArc
 50
90.0
 51
270.0
  0
ARC
  5
42A
330
245
100
AcDbEntity
  8
0
  6
Continuous
 62
     7
370
    25
100
AcDbCircle
 10
162.0
 20
110.5
 30
0.0
 40
1.999999999999943
100
AcDbArc
 50
270.0
 51
0.0
  0
ARC
  5
42B
330
245
100
AcDbEntity
  8
0
  6
Continuous
 62
     7
370
    25
100
AcDbCircle
 10
-126.5
 20
98.0
 30
0.0
 40
10.5
100
AcDbArc
 50
270.0
 51
90.0
  0
ARC
  5
42C
330
245
100
AcDbEntity
  8
0
  6
Continuous
 62
     7
370
    25
100
AcDbCircle
 10
-162.0
 20
85.5
 30
0.0
 40
1.999999999999986
100
AcDbArc
 50
90.0
 51
180.0
  0
ARC
  5
42D
330
245
100
AcDbEntity
  8
0
  6
Continuous
 62
     7
370
    25
100
AcDbCircle
 10
-162.0
 20
110.5
 30
0.0
 40
2.0
100
AcDbArc
 50
180.0
 51
270.0
  0
ARC
  5
42E
330
245
100
AcDbEntity
  8
0
  6
Continuous
 62
     7
370
    25
100
AcDbCircle
 10
-140.7154550696
 20
310.269301134
 30
0.0
 40
2.000000000000095
100
AcDbArc
 50
150.2979654303
 51
245.3756816478
  0
ARC
  5
42F
330
245
100
AcDbEntity
  8
0
  6
Continuous
 62
     7
370
    25
100
AcDbCircle
 10
-151.3907736751
 20
287.6613704837
 30
0.0
 40
2.000000000000074
100
AcDbArc
 50
65.3756816478
 51
159.1492784137
  0
ARC
  5
430
330
245
100
AcDbEntity
  8
0
  6
Continuous
 62
     7
370
    25
100
AcDbCircle
 10
-114.2207597735
 20
284.375
 30
0.0
 40
10.49999999999999
100
AcDbArc
 50
245.3756816478
 51
65.3756816478
  0
ARC
  5
431
330
245
100
AcDbEntity
  8
0
  6
Continuous
 62
     7
370
    25
100
AcDbCircle
 10
151.3907736751
 20
287.6613704837
 30
0.0
 40
1.999999999999966
100
AcDbArc
 50
20.8507215863
 51
114.6243183522
  0
ARC
  5
432
330
245
100
AcDbEntity
  8
0
  6
Continuous
 62
     7
370
    25
100
AcDbCircle
 10
140.7154550696
 20
310.269301134
 30
0.0
 40
2.000000000000169
100
AcDbArc
 50
294.6243183522
 51
29.7020345697
  0
ARC
  5
433
330
245
100
AcDbEntity
  8
0
  6
Continuous
 62
     7
370
    25
100
AcDbCircle
 10
114.2207597735
 20
284.375
 30
0.0
 40
10.49999999999998
100
AcDbArc
 50
114.6243183522
 51
294.6243183522
  0
ARC
  5
434
330
245
100
AcDbEntity
  8
0
  6
Continuous
 62
     7
370
    25
100
AcDbCircle
 10
114.2207597735
 20
284.375
 30
0.0
 40
12.50000000000478
100
AcDbArc
 50
285.7309144258
 51
294.6243183522
  0
ARC
  5
435
330
245
100
AcDbEntity
  8
0
  6
Continuous
 62
     7
370
    25
100
AcDbCircle
 10
126.5
 20
98.0
 30
0.0
 40
12.49999999999995
100
AcDbArc
 50
201.2233243121
 51
270.0
  0
ARC
  5
436
330
245
100
AcDbEntity
  8
0
  6
Continuous
 62
     7
370
    25
100
AcDbCircle
 10
-126.5
 20
98.0
 30
0.0
 40
12.49999999999933
100
AcDbArc
 50
65.257341848
 51
90.0
  0
ARC
  5
437
330
245
100
AcDbEntity
  8
0
  6
Continuous
 62
     7
370
    25
100
AcDbCircle
 10
-114.2207597735
 20
284.375
 30
0.0
 40
12.49999999999514
100
AcDbArc
 50
54.817177359
 51
65.3756816478
  0
ARC
  5
438
330
245
100
AcDbEntity
  8
0
  6
Continuous
 62
     7
370
    25
100
AcDbCircle
 10
-126.5
 20
98.0
 30
0.0
 40
12.5
100
AcDbArc
 50
270.0
 51
338.7766756879
  0
ARC
  5
439
330
245
100
AcDbEntity
  8
0
  6
Continuous
 62
     7
370
    25
100
AcDbCircle
 10
114.2207597735
 20
284.375
 30
0.0
 40
12.49999999999916
100
AcDbArc
 50
114.6243183522
 51
125.182822641
  0
ARC
  5
43A
330
245
100
AcDbEntity
  8
0
  6
Continuous
 62
     7
370
    25
100
AcDbCircle
 10
-114.2207597735
 20
284.375
 30
0.0
 40
12.49999999998801
100
AcDbArc
 50
245.3756816478
 51
254.2690855742
  0
ARC
  5
43B
330
245
100
AcDbEntity
  8
0
  6
Continuous
 62
     7
370
    25
100
AcDbCircle
 10
126.5
 20
98.0
 30
0.0
 40
12.49999999999991
100
AcDbArc
 50
90.0
 51
114.742658152
  0
ARC
  5
43C
330
245
100
AcDbEntity
  8
0
  6
Continuous
 62
     7
370
    25
100
AcDbCircle
 10
0.0
 20
230.0
 30
0.0
 40
163.0000000000003
100
AcDbArc
 50
29.7020345697
 51
150.2979654303
  0
ARC
  5
43D
330
245
100
AcDbEntity
  8
0
  6
Continuous
 62
     7
370
    25
100
AcDbCircle
 10
151.3907736751
 20
287.6613704836
 30
0.0
 40
1.000000000048993
100
AcDbArc
 50
20.8507215864
 51
24.6243183521
  0
ARC
  5
43E
330
245
100
AcDbEntity
  8
0
  6
Continuous
 62
     7
370
    25
100
AcDbCircle
 10
0.0
 20
230.0
 30
0.0
 40
162.9999999999988
100
AcDbArc
 50
159.1492784137
 51
180.0
  0
ARC
  5
43F
330
245
100
AcDbEntity
  8
0
  6
Continuous
 62
     7
370
    25
100
AcDbCircle
 10
0.0
 20
230.0
 30
0.0
 40
162.9999999999992
100
AcDbArc
 50
0.0
 51
20.8507215863
  0
ARC
  5
440
330
245
100
AcDbEntity
  8
0
  6
Continuous
 62
     7
370
    25
100
AcDbCircle
 10
-140.7154550696
 20
310.269301134
 30
0.0
 40
0.9999999999871467
100
AcDbArc
 50
150.2979654303
 51
155.3756816479
  0
ARC
  5
441
330
245
100
AcDbEntity
  8
0
  6
Continuous
 62
     7
370
    25
100
AcDbCircle
 10
140.7154550696
 20
310.269301134
 30
0.0
 40
0.9999999999933106
100
AcDbArc
 50
24.6243183521
 51
29.7020345697
  0
ARC
  5
442
330
245
100
AcDbEntity
  8
0
  6
Continuous
 62
     7
370
    25
100
AcDbCircle
 10
-151.3907736751
 20
287.6613704836
 30
0.0
 40
1.000000000055464
100
AcDbArc
 50
155.3756816479
 51
159.1492784135
  0
ARC
  5
443
330
245
100
AcDbEntity
  8
0
  6
Continuous
 62
     7
370
    25
100
AcDbCircle
 10
0.0
 20
229.0338017673
 30
0.0
 40
175.0
100
AcDbArc
 50
0.0
 51
180.0
  0
ARC
  5
444
330
245
100
AcDbEntity
  8
0
  6
Continuous
 62
     7
370
    25
100
AcDbCircle
 10
0.0
 20
229.0338017673
 30
0.0
 40
177.0
100
AcDbArc
 50
0.0
 51
180.0
  0
ARC
  5
445
330
245
100
AcDbEntity
  8
0
  6
Continuous
 62
     7
370
    25
100
AcDbCircle
 10
-177.0
 20
-28.9661982327
 30
0.0
 40
1.999999999999972
100
AcDbArc
 50
270.0
 51
0.0
  0
ARC
  5
446
330
245
100
AcDbEntity
  8
0
  6
Continuous
 62
     7
370
    25
100
AcDbCircle
 10
0.0
 20
229.0338017673
 30
0.0
 40
178.0
100
AcDbArc
 50
0.0
 51
180.0
  0
ARC
  5
447
330
245
100
AcDbEntity
  8
0
  6
Continuous
 62
     7
370
    25
100
AcDbCircle
 10
0.0
 20
229.0338017673
 30
0.0
 40
180.0
100
AcDbArc
 50
0.0
 51
180.0
  0
ARC
  5
448
330
245
100
AcDbEntity
  8
0
  6
Continuous
 62
     7
370
    25
100
AcDbCircle
 10
177.0
 20
-28.9661982327
 30
0.0
 40
1.999999999999915
100
AcDbArc
 50
180.0
 51
270.0
  0
VIEWPORT
  5
4D4
330
245
100
AcDbEntity
  8
0
100
AcDbViewport
 10
0.0
 20
0.0
 30
0.0
 40
205.6
 41
156.0
 68
     1
 69
     1
 12
0.0
 22
28.1457479785
 13
0.0
 23
0.0
 14
10.0
 24
10.0
 15
10.0
 25
10.0
 16
0.0
 26
0.0
 36
1.0
 17
0.0
 27
0.0
 37
0.0
 42
50.0
 43
0.0
 44
0.0
 45
278.6147859922
 50
0.0
 51
0.0
 72
   100
 90
   557152
  1

281
     0
 71
     1
 74
     0
110
0.0
120
0.0
130
0.0
111
1.0
121
0.0
131
0.0
112
0.0
122
1.0
132
0.0
 79
     0
146
0.0
  0
ENDBLK
  5
248
330
245
100
AcDbEntity
  8
0
100
AcDbBlockEnd
  0
BLOCK
  5
44B
330
449
100
AcDbEntity
  8
0
100
AcDbBlockBegin
  2
*Paper_Space4
 70
     0
 10
0.0
 20
0.0
 30
0.0
  3
*Paper_Space4
  1

  0
SPLINE
  5
44D
330
449
100
AcDbEntity
  8
0
  6
Continuous
 62
     7
370
    25
100
AcDbSpline
210
0.0
220
0.0
230
1.0
 70
     8
 71
     3
 72
    26
 73
    22
 74
     0
 42
0.000000001
 43
0.00000001
 40
0.0
 40
0.0
 40
0.0
 40
0.0
 40
0.0301541681757101
 40
0.0873167602058385
 40
0.1444928723094356
 40
0.2016670983361283
 40
0.2588294662527996
 40
0.3159679581540746
 40
0.3730679143794658
 40
0.4301120389160976
 40
0.487080675962691
 40
0.5439524574224377
 40
0.600705403440383
 40
0.6573185073094469
 40
0.7137737486301001
 40
0.7700583640672612
 40
0.8261670896560571
 40
0.8821040105864697
 40
0.9378836496929299
 40
0.9935310103583894
 40
1.0
 40
1.0
 40
1.0
 40
1.0
 10
-288.1948378898537
 20
24.15502702575527
 30
0.0
 10
-289.1387888613013
 20
23.60269426451682
 30
0.0
 10
-291.8721668851841
 20
22.00331646089581
 30
0.0
 10
-296.2232642222983
 20
19.25342391613973
 30
0.0
 10
-301.1638019589569
 20
15.86702279798751
 30
0.0
 10
-305.8574187570462
 20
12.3544576732337
 30
0.0
 10
-310.298611590776
 20
8.724082881835287
 30
0.0
 10
-314.4776682586392
 20
4.981430531433031
 30
0.0
 10
-318.3865227857033
 20
1.133233923528043
 30
0.0
 10
-322.0171803757822
 20
-2.813559337112706
 30
0.0
 10
-325.3622221650764
 20
-6.85148952958603
 30
0.0
 10
-328.4147871357485
 20
-10.97265482899178
 30
0.0
 10
-331.1686824990253
 20
-15.16871727618101
 30
0.0
 10
-333.6185752519175
 20
-19.43096646624431
 30
0.0
 10
-335.7597440426408
 20
-23.75042958169528
 30
0.0
 10
-337.5894241585478
 20
-28.11796971932688
 30
0.0
 10
-339.1020606438713
 20
-32.52459086169623
 30
0.0
 10
-340.3069570720624
 20
-36.96106342976448
 30
0.0
 10
-341.1624297836713
 20
-41.42006354401151
 30
0.0
 10
-341.6267437399769
 20
-44.57530472205115
 30
0.0
 10
-341.7129190152415
 20
-46.2433265981668
 30
0.0
 10
-341.7218935760501
 20
-46.41703957687901
 30
0.0
  0
SPLINE
  5
44F
330
449
100
AcDbEntity
  8
0
  6
Continuous
 62
     7
370
    25
100
AcDbSpline
210
0.0
220
0.0
230
1.0
 70
     8
 71
     3
 72
    61
 73
    57
 74
     0
 42
0.000000001
 43
0.00000001
 40
0.0
 40
0.0
 40
0.0
 40
0.0
 40
0.0153165778096659
 40
0.033955388951788
 40
0.0526142144857392
 40
0.0712957812566622
 40
0.0900012108504183
 40
0.1087301844177995
 40
0.1274812288572014
 40
0.1462520586893923
 40
0.1650399153208407
 40
0.1838418622538919
 40
0.2026550143134462
 40
0.2214766958534253
 40
0.2403045345311624
 40
0.2591365033005949
 40
0.2779709249132318
 40
0.2968064520462303
 40
0.3156417955971564
 40
0.3344761847522049
 40
0.3533091053074225
 40
0.3721402091210279
 40
0.3909692815910004
 40
0.4097962138829595
 40
0.4286209797909604
 40
0.4474436168331935
 40
0.4662642110574117
 40
0.485082885001051
 40
0.5038997882760063
 40
0.5227150903006254
 40
0.5415289747646937
 40
0.5603416354766333
 40
0.5791532733011167
 40
0.5979640939463963
 40
0.6167743064039695
 40
0.6355841218780305
 40
0.6543937530696144
 40
0.6732034137007178
 40
0.692013261212853
 40
0.7108234960397495
 40
0.7296343332346271
 40
0.748445987618592
 40
0.7672586731626265
 40
0.7860726020593181
 40
0.8048879833533564
 40
0.8237050209767233
 40
0.8425239110012216
 40
0.8613448378799085
 40
0.880167969398731
 40
0.8989934500016045
 40
0.9178213920867536
 40
0.9366518648042198
 40
0.9554848798212487
 40
0.9743203734774433
 40
0.993158184748515
 40
1.0
 40
1.0
 40
1.0
 40
1.0
 10
-340.569347933863
 20
-95.52303277536554
 30
0.0
 10
-340.3045964251397
 20
-96.7192759930778
 30
0.0
 10
-339.7176676368695
 20
-99.37123286249845
 30
0.0
 10
-338.4335874416221
 20
-103.4434704194178
 30
0.0
 10
-336.7922761452604
 20
-107.7382328646966
 30
0.0
 10
-334.8341596204103
 20
-111.988662320907
 30
0.0
 10
-332.573706623534
 20
-116.1882751134651
 30
0.0
 10
-330.0114613317537
 20
-120.329289267382
 30
0.0
 10
-327.1525256378071
 20
-124.4042347632758
 30
0.0
 10
-324.001616079676
 20
-128.4056025014095
 30
0.0
 10
-320.5643782434535
 20
-132.3260208139555
 30
0.0
 10
-316.8469978786325
 20
-136.1582807748486
 30
0.0
 10
-312.856255046982
 20
-139.8953865605814
 30
0.0
 10
-308.5994539660559
 20
-143.5305819958695
 30
0.0
 10
-304.0843874179047
 20
-147.0573680175656
 30
0.0
 10
-299.3192971326197
 20
-150.4695104443782
 30
0.0
 10
-294.3128422273705
 20
-153.7610420338996
 30
0.0
 10
-289.074094564957
 20
-156.9262479055499
 30
0.0
 10
-283.6124967065032
 20
-159.9596801573122
 30
0.0
 10
-277.9378382046831
 20
-162.8561575748744
 30
0.0
 10
-272.0602128674469
 20
-165.6107735542701
 30
0.0
 10
-265.9900287861799
 20
-168.2188801859105
 30
0.0
 10
-259.7379994142098
 20
-170.6760869108636
 30
0.0
 10
-253.3151291859059
 20
-172.9782632182394
 30
0.0
 10
-246.732698542338
 20
-175.121542257058
 30
0.0
 10
-240.0022481740198
 20
-177.1023251043475
 30
0.0
 10
-233.1355623911206
 20
-178.917285443938
 30
0.0
 10
-226.1446516012932
 20
-180.5633744373639
 30
0.0
 10
-219.0417339219267
 20
-182.0378256003834
 30
0.0
 10
-211.8392159830364
 20
-183.3381595308003
 30
0.0
 10
-204.5496729942978
 20
-184.4621883628024
 30
0.0
 10
-197.1858281587198
 20
-185.4080198486873
 30
0.0
 10
-189.760531519198
 20
-186.1740609904167
 30
0.0
 10
-182.2867383245861
 20
-186.7590211611171
 30
0.0
 10
-174.77748700073
 20
-187.161914670944
 30
0.0
 10
-167.2458768093998
 20
-187.3820627431704
 30
0.0
 10
-159.7050452770478
 20
-187.419094875639
 30
0.0
 10
-152.1681530769944
 20
-187.272949717481
 30
0.0
 10
-144.6483554674921
 20
-186.9438759228406
 30
0.0
 10
-137.1587773280364
 20
-186.4324317030209
 30
0.0
 10
-129.7124827898612
 20
-185.739482615969
 30
0.0
 10
-122.3224583584302
 20
-184.8661995404699
 30
0.0
 10
-115.001592480525
 20
-183.8140562439887
 30
0.0
 10
-107.7626535045487
 20
-182.5848262343794
 30
0.0
 10
-100.6182679853619
 20
-181.1805790333822
 30
0.0
 10
-93.58089963161305
 20
-179.6036757847498
 30
0.0
 10
-86.6628282019241
 20
-177.8567646836803
 30
0.0
 10
-79.87613137415339
 20
-175.9427746329125
 30
0.0
 10
-73.23265875035999
 20
-173.8649133770975
 30
0.0
 10
-66.74403891035513
 20
-171.6266471780527
 30
0.0
 10
-60.4215672536989
 20
-169.2317481722243
 30
0.0
 10
-54.27654341288871
 20
-166.6840885403958
 30
0.0
 10
-48.31893545879851
 20
-163.988380091615
 30
0.0
 10
-42.56229504255005
 20
-161.1473862065615
 30
0.0
 10
-38.18511330543731
 20
-158.8039293528838
 30
0.0
 10
-35.73832551070105
 20
-157.4046951511864
 30
0.0
 10
-35.08642856677668
 20
-157.0318975992764
 30
0.0
  0
LWPOLYLINE
  5
453
330
449
100
AcDbEntity
  8
0
  6
Continuous
 62
     7
370
    25
100
AcDbPolyline
 90
       71
 70
   128
 43
0.0
 10
-285.6950410583
 20
23.9074867733
 10
-291.1221789109
 20
20.6306047665
 10
-296.2891839133
 20
17.2164599513
 10
-301.1856504049
 20
13.6719279611
 10
-305.801717554
 20
10.0041470114
 10
-310.1280892156
 20
6.2205035251
 10
-314.1560526529
 20
2.3286172566
 10
-317.8774960836
 20
-1.6636740531
 10
-321.2849250159
 20
-5.7483304607
 10
-324.3714773414
 20
-9.9171260117
 10
-327.1309371546
 20
-14.1616653067
 10
-329.5577472705
 20
-18.4734004084
 10
-331.6470204165
 20
-22.8436480561
 10
-333.3945490747
 20
-27.2636071526
 10
-334.7968139548
 20
-31.7243764887
 10
-335.8509910819
 20
-36.2169726684
 10
-336.5549574837
 20
-40.732348201
 10
-336.9072954656
 20
-45.261409721
 10
-336.9072954656
 20
-49.7950363014
 10
-336.5549574837
 20
-54.3240978214
 10
-335.8509910819
 20
-58.839473354
 10
-334.7968139548
 20
-63.3320695337
 10
-333.3945490747
 20
-67.7928388698
 10
-331.6470204165
 20
-72.2127979664
 10
-329.5577472705
 20
-76.5830456141
 10
-327.1309371546
 20
-80.8947807157
 10
-324.3714773414
 20
-85.1393200107
 10
-321.2849250159
 20
-89.3081155617
 10
-317.8774960836
 20
-93.3927719693
 10
-314.1560526529
 20
-97.385063279
 10
-310.1280892156
 20
-101.2769495475
 10
-305.801717554
 20
-105.0605930339
 10
-301.1856504049
 20
-108.7283739835
 10
-296.2891839133
 20
-112.2729059738
 10
-291.1221789109
 20
-115.6870507889
 10
-285.6950410583
 20
-118.9639327957
 10
-280.0186998887
 20
-122.0969527898
 10
-274.104586798
 20
-125.079801286
 10
-267.9646120228
 20
-127.9064712242
 10
-261.6111406551
 20
-130.5712700676
 10
-255.0569677408
 20
-133.0688312657
 10
-248.3152925119
 20
-135.3941250628
 10
-241.399691805
 20
-137.5424686266
 10
-234.3240927198
 20
-139.509535479
 10
-227.102744571
 20
-141.2913642092
 10
-219.7501901928
 20
-142.8843664514
 10
-212.2812366512
 20
-144.2853341108
 10
-204.7109254247
 20
-145.4914458252
 10
-197.0545021127
 20
-146.5002726461
 10
-189.3273857327
 20
-147.3097829305
 10
-181.5451376687
 20
-147.9183464323
 10
-173.7234303327
 20
-148.3247375858
 10
-165.8780156024
 20
-148.5281379732
 10
-158.0246930989
 20
-148.5281379732
 10
-150.1792783685
 20
-148.3247375858
 10
-142.3575710325
 20
-147.9183464323
 10
-134.5753229686
 20
-147.3097829305
 10
-126.8482065885
 20
-146.5002726461
 10
-119.1917832765
 20
-145.4914458252
 10
-111.62147205
 20
-144.2853341108
 10
-104.1525185085
 20
-142.8843664514
 10
-96.7999641303
 20
-141.2913642092
 10
-89.5786159815
 20
-139.509535479
 10
-82.5030168962
 20
-137.5424686266
 10
-75.5874161894
 20
-135.3941250628
 10
-68.8457409604
 20
-133.0688312657
 10
-62.2915680461
 20
-130.5712700676
 10
-55.9380966785
 20
-127.9064712242
 10
-49.7981219032
 20
-125.079801286
 10
-43.8840088125
 20
-122.0969527898
 10
-38.207667643
 20
-118.9639327957
  0
LWPOLYLINE
  5
460
330
449
100
AcDbEntity
  8
0
  6
Continuous
 62
     8
370
    25
100
AcDbPolyline
 90
       54
 70
   128
 43
0.0
 10
-34.672133737
 20
-125.0876571347
 10
-40.4266971591
 20
-128.2658617371
 10
-46.4191508044
 20
-131.2940107051
 10
-52.6377641635
 20
-134.166176295
 10
-59.0703640088
 20
-136.8767361078
 10
-65.704358224
 20
-139.4203840953
 10
-72.5267604538
 20
-141.7921409471
 10
-79.5242155256
 20
-143.9873638379
 10
-86.6830255925
 20
-146.0017555156
 10
-93.9891769474
 20
-147.8313727141
 10
-101.4283674562
 20
-149.4726338717
 10
-108.986034554
 20
-150.9223261427
 10
-116.6473837525
 20
-152.1776116863
 10
-124.3974176009
 20
-153.2360332222
 10
-132.2209650441
 20
-154.0955188405
 10
-140.1027111205
 20
-154.7543860577
 10
-148.027226942
 20
-155.2113451102
 10
-155.9789998968
 20
-155.4655014795
 10
-163.9424640159
 20
-155.5163576422
 10
-171.9020304443
 20
-155.3638140453
 10
-179.842117957
 20
-155.0081692998
 10
-187.7471834598
 20
-154.4501195971
 10
-195.6017524157
 20
-153.6907573458
 10
-203.3904491372
 20
-152.731569033
 10
-211.0980268846
 20
-151.5744323149
 10
-218.7093977127
 20
-150.221612341
 10
-226.2096620055
 20
-148.6757573199
 10
-233.5841376435
 20
-146.9398933355
 10
-240.8183887443
 20
-145.0174184229
 10
-247.8982539217
 20
-142.9120959172
 10
-254.8098740071
 20
-140.6280470859
 10
-261.5397191796
 20
-138.1697430619
 10
-268.0746154513
 20
-135.5419960908
 10
-274.4017704559
 20
-132.7499501108
 10
-280.5087984902
 20
-129.7990706828
 10
-286.3837447602
 20
-126.6951342919
 10
-292.0151087826
 20
-123.4442170395
 10
-297.3918668979
 20
-120.0526827487
 10
-302.5034938496
 20
-116.5271705071
 10
-307.3399833879
 20
-112.8745816705
 10
-311.8918678574
 20
-109.1020663531
 10
-316.1502367305
 20
-105.2170094308
 10
-320.1067540502
 20
-101.2270160849
 10
-323.7536747479
 20
-97.1398969147
 10
-327.0838598052
 20
-92.9636526481
 10
-330.0907902285
 20
-88.7064584792
 10
-332.7685798102
 20
-84.3766480656
 10
-335.1119866515
 20
-79.9826972144
 10
-337.1164234234
 20
-75.5332072909
 10
-338.7779663468
 20
-71.0368883804
 10
-340.0933628735
 20
-66.5025422384
 10
-341.0600380529
 20
-61.9390450604
 10
-341.6760995731
 20
-57.3553301065
 10
-341.7320108932
 20
-56.7392286977
  0
LWPOLYLINE
  5
462
330
449
100
AcDbEntity
  8
0
  6
Continuous
 62
     8
370
    25
100
AcDbPolyline
 90
       52
 70
   128
 43
0.0
 10
-340.6208016827
 20
-95.2506525734
 10
-340.0933628735
 20
-97.5310930901
 10
-338.7779663468
 20
-102.065439232
 10
-337.1164234234
 20
-106.5617581425
 10
-335.1119866515
 20
-111.0112480661
 10
-332.7685798102
 20
-115.4051989172
 10
-330.0907902285
 20
-119.7350093308
 10
-327.0838598052
 20
-123.9922034997
 10
-323.7536747479
 20
-128.1684477664
 10
-320.1067540502
 20
-132.2555669365
 10
-316.1502367305
 20
-136.2455602824
 10
-311.8918678574
 20
-140.1306172048
 10
-307.3399833879
 20
-143.9031325222
 10
-302.5034938496
 20
-147.5557213588
 10
-297.3918668979
 20
-151.0812336004
 10
-292.0151087826
 20
-154.4727678912
 10
-286.3837447602
 20
-157.7236851436
 10
-280.5087984902
 20
-160.8276215344
 10
-274.4017704559
 20
-163.7785009624
 10
-268.0746154513
 20
-166.5705469425
 10
-261.5397191796
 20
-169.1982939136
 10
-254.8098740071
 20
-171.6565979375
 10
-247.8982539217
 20
-173.9406467688
 10
-240.8183887443
 20
-176.0459692746
 10
-233.5841376435
 20
-177.9684441871
 10
-226.2096620055
 20
-179.7043081716
 10
-218.7093977127
 20
-181.2501631927
 10
-211.0980268846
 20
-182.6029831665
 10
-203.3904491372
 20
-183.7601198846
 10
-195.6017524157
 20
-184.7193081974
 10
-187.7471834598
 20
-185.4786704488
 10
-179.842117957
 20
-186.0367201515
 10
-171.9020304443
 20
-186.3923648969
 10
-163.9424640159
 20
-186.5449084939
 10
-155.9789998968
 20
-186.4940523311
 10
-148.027226942
 20
-186.2398959619
 10
-140.1027111205
 20
-185.7829369093
 10
-132.2209650441
 20
-185.1240696921
 10
-124.3974176009
 20
-184.2645840739
 10
-116.6473837525
 20
-183.206162538
 10
-108.986034554
 20
-181.9508769944
 10
-101.4283674562
 20
-180.5011847234
 10
-93.9891769474
 20
-178.8599235658
 10
-86.6830255925
 20
-177.0303063673
 10
-79.5242155256
 20
-175.0159146895
 10
-72.5267604538
 20
-172.8206917988
 10
-65.704358224
 20
-170.4489349469
 10
-59.0703640088
 20
-167.9052869595
 10
-52.6377641635
 20
-165.1947271467
 10
-46.4191508044
 20
-162.3225615568
 10
-40.4266971591
 20
-159.2944125887
 10
-34.672133737
 20
-156.1162079863
  0
LINE
  5
464
330
449
100
AcDbEntity
  8
0
  6
Continuous
 62
     7
370
    25
100
AcDbLine
 10
-341.9513543506
 20
-51.6109270706
 30
0.0
 11
-341.9513543506
 21
-82.6394779223
 31
0.0
  0
LINE
  5
465
330
449
100
AcDbEntity
  8
0
  6
Continuous
 62
     7
370
    25
100
AcDbLine
 10
-35.0864285668
 20
-157.0318975993
 30
0.0
 11
148.347039712
 21
-51.1380103767
 31
0.0
  0
LINE
  5
466
330
449
100
AcDbEntity
  8
0
  6
Continuous
 62
     7
370
    25
100
AcDbLine
 10
-104.3470747814
 20
130.2880815627
 30
0.0
 11
-288.1948378899
 21
24.1550270258
 31
0.0
  0
LINE
  5
467
330
449
100
AcDbEntity
  8
0
  6
Continuous
 62
     7
370
    25
100
AcDbLine
 10
-34.672133737
 20
-125.0876571347
 30
0.0
 11
-34.672133737
 21
-156.1162079863
 31
0.0
  0
LINE
  5
468
330
449
100
AcDbEntity
  8
0
  6
Continuous
 62
     7
370
    25
100
AcDbLine
 10
-38.207667643
 20
-118.9639327957
 30
0.0
 11
145.6400954655
 21
-12.8308782587
 31
0.0
  0
LINE
  5
469
330
449
100
AcDbEntity
  8
0
  6
Continuous
 62
     7
370
    25
100
AcDbLine
 10
-101.8472779498
 20
130.0405413102
 30
0.0
 11
-285.6950410583
 21
23.9074867733
 31
0.0
  0
LINE
  5
46A
330
449
100
AcDbEntity
  8
0
  6
Continuous
 62
     7
370
    25
100
AcDbLine
 10
145.6400954655
 20
-12.8308782587
 30
0.0
 11
-101.8472779498
 21
130.0405413102
 31
0.0
  0
LINE
  5
46B
330
449
100
AcDbEntity
  8
0
  6
Continuous
 62
     7
370
    25
100
AcDbLine
 10
149.1756293715
 20
-18.9546025977
 30
0.0
 11
-34.672133737
 21
-125.0876571347
 31
0.0
  0
LINE
  5
46C
330
449
100
AcDbEntity
  8
0
  6
Continuous
 62
     7
370
    25
100
AcDbLine
 10
-34.672133737
 20
-156.1162079863
 30
0.0
 11
149.1756293715
 21
-49.9831534494
 31
0.0
  0
LINE
  5
46D
330
449
100
AcDbEntity
  8
0
  6
Continuous
 62
     7
370
    25
100
AcDbLine
 10
149.1756293715
 20
-18.9546025977
 30
0.0
 11
149.1756293715
 21
-49.9831534494
 31
0.0
  0
ARC
  5
46E
330
449
100
AcDbEntity
  8
0
  6
Continuous
 62
     7
370
    25
100
AcDbCircle
 10
-281.8763680963
 20
-51.6110175719
 30
0.0
 40
60.07492425275321
100
AcDbArc
 50
175.3006816507
 51
184.8969329604
  0
ARC
  5
46F
330
449
100
AcDbEntity
  8
0
  6
Continuous
 62
     7
370
    25
100
AcDbCircle
 10
-42.3482142439
 20
-125.436961396
 30
0.0
 40
7.684024037860375
100
AcDbArc
 50
2.6054784857
 51
57.39452166
  0
ARC
  5
470
330
449
100
AcDbEntity
  8
0
  6
Continuous
 62
     7
370
    25
100
AcDbCircle
 10
-281.1892506032
 20
-82.6044985471
 30
0.0
 40
60.76211381580858
100
AcDbArc
 50
180.0329838868
 51
192.0125327297
  0
ARC
  5
471
330
449
100
AcDbEntity
  8
0
  6
Continuous
 62
     7
370
    25
100
AcDbCircle
 10
141.4995488646
 20
-19.303906859
 30
0.0
 40
7.68402403786037
100
AcDbArc
 50
2.6054784857
 51
57.39452166
  0
ARC
  5
472
330
449
100
AcDbEntity
  8
0
  6
Continuous
 62
     7
370
    25
100
AcDbCircle
 10
147.7448129687
 20
-49.8312454523
 30
0.0
 40
1.43885774765246
100
AcDbArc
 50
294.7427624865
 51
353.9396805874
  0
ARC
  5
473
330
449
100
AcDbEntity
  8
0
  6
Continuous
 62
     7
370
    25
100
AcDbCircle
 10
-103.311878224
 20
127.9961346646
 30
0.0
 40
2.514886179508906
100
AcDbArc
 50
54.3824225248
 51
114.3071190461
  0
ARC
  5
474
330
449
100
AcDbEntity
  8
0
  6
Continuous
 62
     8
370
    25
100
AcDbCircle
 10
-287.1597161068
 20
21.8628719297
 30
0.0
 40
2.515098975410869
100
AcDbArc
 50
54.3837999178
 51
114.2913080115
  0
ARC
  5
475
330
449
100
AcDbEntity
  8
0
  6
Continuous
 62
     8
370
    25
100
AcDbCircle
 10
-35.6735031472
 20
-156.2147386928
 30
0.0
 40
1.006205245301951
100
AcDbArc
 50
305.7071606064
 51
5.6195841006
  0
VIEWPORT
  5
4D6
330
449
100
AcDbEntity
  8
0
100
AcDbViewport
 10
0.0
 20
0.0
 30
0.0
 40
205.6
 41
156.0
 68
     1
 69
     1
 12
0.0
 22
28.1457479785
 13
0.0
 23
0.0
 14
10.0
 24
10.0
 15
10.0
 25
10.0
 16
0.0
 26
0.0
 36
1.0
 17
0.0
 27
0.0
 37
0.0
 42
50.0
 43
0.0
 44
0.0
 45
278.6147859922
 50
0.0
 51
0.0
 72
   100
 90
   557152
  1

281
     0
 71
     1
 74
     0
110
0.0
120
0.0
130
0.0
111
1.0
121
0.0
131
0.0
112
0.0
122
1.0
132
0.0
 79
     0
146
0.0
  0
ENDBLK
  5
44C
330
449
100
AcDbEntity
  8
0
100
AcDbBlockEnd
  0
BLOCK
  5
478
330
476
100
AcDbEntity
  8
0
100
AcDbBlockBegin
  2
*Paper_Space5
 70
     0
 10
0.0
 20
0.0
 30
0.0
  3
*Paper_Space5
  1

  0
SPLINE
  5
47A
330
476
100
AcDbEntity
  8
0
  6
Continuous
 62
     7
370
    25
100
AcDbSpline
210
0.0
220
0.0
230
1.0
 70
     8
 71
     3
 72
    19
 73
    15
 74
     0
 42
0.000000001
 43
0.00000001
 40
0.0
 40
0.0
 40
0.0
 40
0.0
 40
0.0498889943633191
 40
0.1441156457619296
 40
0.2382084148026179
 40
0.332061504569777
 40
0.425610829058148
 40
0.5187956498243628
 40
0.6115661680035489
 40
0.7038919550905752
 40
0.7957696489995422
 40
0.8872281915596353
 40
0.978330198853159
 40
1.0
 40
1.0
 40
1.0
 40
1.0
 10
-265.1545812807387
 20
-14.71937799496513
 30
0.0
 10
-265.7877782434657
 20
-15.34762251847253
 30
0.0
 10
-267.6169109077427
 20
-17.16244894175746
 30
0.0
 10
-270.4259287248444
 20
-20.23191401828969
 30
0.0
 10
-273.480506392517
 20
-23.94854811503457
 30
0.0
 10
-276.2315433955275
 20
-27.73782681204951
 30
0.0
 10
-278.6771877745054
 20
-31.58914065050039
 30
0.0
 10
-280.8108670267613
 20
-35.49400928021798
 30
0.0
 10
-282.6296200726377
 20
-39.4430443782606
 30
0.0
 10
-284.1282631288656
 20
-43.42702332001119
 30
0.0
 10
-285.3143988583224
 20
-47.43658625814901
 30
0.0
 10
-286.154434211053
 20
-51.46411124152061
 30
0.0
 10
-286.6160964533634
 20
-54.47757550406857
 30
0.0
 10
-286.6971885592897
 20
-56.14770019922621
 30
0.0
 10
-286.7127709094738
 20
-56.46862499891703
 30
0.0
  0
SPLINE
  5
47C
330
476
100
AcDbEntity
  8
0
  6
Continuous
 62
     7
370
    25
100
AcDbSpline
210
0.0
220
0.0
230
1.0
 70
     8
 71
     3
 72
    69
 73
    65
 74
     0
 42
0.000000001
 43
0.00000001
 40
0.0
 40
0.0
 40
0.0
 40
0.0
 40
0.0059737483738676
 40
0.0222313275177001
 40
0.0385138274104453
 40
0.0548266448597917
 40
0.0711723072274916
 40
0.0875506891549756
 40
0.1039595440137393
 40
0.1203951863914955
 40
0.1368531732898466
 40
0.1533288776348446
 40
0.1698179039300778
 40
0.1863163429671917
 40
0.2028208915019339
 40
0.2193288741532937
 40
0.2358382031850978
 40
0.2523468862175121
 40
0.2688539127189287
 40
0.2853585967382326
 40
0.3018605059226582
 40
0.3183594017563227
 40
0.3348551909483109
 40
0.3513478869083772
 40
0.3678375798435174
 40
0.3843244139500387
 40
0.4008085702934749
 40
0.4172902541607006
 40
0.4337696858772486
 40
0.45024709427897
 40
0.4667227121979357
 40
0.4831967734646063
 40
0.4996695110431864
 40
0.5161411560074978
 40
0.5326119371352298
 40
0.5490820809519347
 40
0.5655518120965516
 40
0.5820213539098027
 40
0.598490929167723
 40
0.614960692140534
 40
0.63143086117746
 40
0.6479016617667738
 40
0.6643733217902132
 40
0.6808460721500748
 40
0.69732014718978
 40
0.7137957848103442
 40
0.7302732261572119
 40
0.7467527147121378
 40
0.763234494572203
 40
0.7797188076285908
 40
0.7962058892681374
 40
0.8126959621064749
 40
0.8291892271195218
 40
0.8456858513674946
 40
0.8621859513050795
 40
0.878689570452461
 40
0.8951966499902207
 40
0.9117069906877645
 40
0.9282202045734651
 40
0.9447356550627184
 40
0.961252385124567
 40
0.9777685536915776
 40
0.9942820561163058
 40
1.0
 40
1.0
 40
1.0
 40
1.0
 10
-285.8552108660646
 20
-102.8251133606074
 30
0.0
 10
-285.7676729626264
 20
-103.3060484037546
 30
0.0
 10
-285.4419003187596
 20
-105.0958500140327
 30
0.0
 10
-284.5532349981335
 20
-108.1728337692295
 30
0.0
 10
-283.1926896832575
 20
-112.0484288984933
 30
0.0
 10
-281.5010334425321
 20
-115.8895275143809
 30
0.0
 10
-279.5067981457026
 20
-119.6913108338687
 30
0.0
 10
-277.2058206461631
 20
-123.4464909130179
 30
0.0
 10
-274.6036469085602
 20
-127.1482241433043
 30
0.0
 10
-271.7041971344983
 20
-130.7894649594656
 30
0.0
 10
-268.5128017424117
 20
-134.3632844991741
 30
0.0
 10
-265.0353236974962
 20
-137.8629106733123
 30
0.0
 10
-261.27830451328
 20
-141.2818089472216
 30
0.0
 10
-257.2488290868304
 20
-144.6137152959889
 30
0.0
 10
-252.9544747134322
 20
-147.8526505868004
 30
0.0
 10
-248.4032536892913
 20
-150.992917650398
 30
0.0
 10
-243.6036160272626
 20
-154.0290643103279
 30
0.0
 10
-238.5643771074851
 20
-156.9559065970015
 30
0.0
 10
-233.2946972571622
 20
-159.7685126294784
 30
0.0
 10
-227.8040184355502
 20
-162.4622105567131
 30
0.0
 10
-222.1021110677041
 20
-165.0325465489024
 30
0.0
 10
-216.1990655309304
 20
-167.4752815506771
 30
0.0
 10
-210.1052831289759
 20
-169.7863909089568
 30
0.0
 10
-203.8314659361047
 20
-171.9620662447543
 30
0.0
 10
-197.388605200004
 20
-173.9987189658945
 30
0.0
 10
-190.7879682016565
 20
-175.8929848897518
 30
0.0
 10
-184.0410835979897
 20
-177.6417295373606
 30
0.0
 10
-177.159725345784
 20
-179.242053750488
 30
0.0
 10
-170.1558953412341
 20
-180.6912993631082
 30
0.0
 10
-163.0418049227466
 20
-181.9870547249151
 30
0.0
 10
-155.8298553844203
 20
-183.1271599271661
 30
0.0
 10
-148.5326176404447
 20
-184.1097116218091
 30
0.0
 10
-141.162811170274
 20
-184.9330673555225
 30
0.0
 10
-133.7332823632027
 20
-185.5958493630276
 30
0.0
 10
-126.2569823702438
 20
-186.0969477805973
 30
0.0
 10
-118.7469445617917
 20
-186.4355232526001
 30
0.0
 10
-111.2162616810578
 20
-186.6110089123308
 30
0.0
 10
-103.6780627786667
 20
-186.623111724393
 30
0.0
 10
-96.14550048422254
 20
-186.4718133902237
 30
0.0
 10
-88.6317180232623
 20
-186.1573712386779
 30
0.0
 10
-81.1498248730879
 20
-185.6803176543467
 30
0.0
 10
-73.7128631605451
 20
-185.0414575702837
 30
0.0
 10
-66.3337942752765
 20
-184.2418666287296
 30
0.0
 10
-59.02547689043805
 20
-183.2828886230022
 30
0.0
 10
-51.800644451498
 20
-182.1661322475966
 30
0.0
 10
-44.67188305806751
 20
-180.8934671985635
 30
0.0
 10
-37.65160983326016
 20
-179.4670196369559
 30
0.0
 10
-30.75205188514365
 20
-177.8891670364357
 30
0.0
 10
-23.98522597615707
 20
-176.1625324484458
 30
0.0
 10
-17.3629190317939
 20
-174.2899782353811
 30
0.0
 10
-10.89666962903377
 20
-172.2745993487028
 30
0.0
 10
-4.597750643711207
 20
-170.1197162571324
 30
0.0
 10
1.522846835316061
 20
-167.8288677014505
 30
0.0
 10
7.454427888507309
 20
-165.4058034273185
 30
0.0
 10
13.18660720279313
 20
-162.8544774647775
 30
0.0
 10
18.70931788928079
 20
-160.1790413889049
 30
0.0
 10
24.01282869432261
 20
-157.383841767485
 30
0.0
 10
29.0877206439833
 20
-154.4734088418605
 30
0.0
 10
33.92500612777653
 20
-151.4524882899628
 30
0.0
 10
38.51570853159981
 20
-148.3259267664822
 30
0.0
 10
42.85240855862714
 20
-145.0991540425471
 30
0.0
 10
46.92336839663293
 20
-141.7765383245247
 30
0.0
 10
49.90446035919306
 20
-139.1100987899212
 30
0.0
 10
51.5190811581643
 20
-137.5512522896886
 30
0.0
 10
51.93436278194537
 20
-137.1503158554159
 30
0.0
  0
LWPOLYLINE
  5
47F
330
476
100
AcDbEntity
  8
0
  6
Continuous
 62
     7
370
    25
100
AcDbPolyline
 90
        3
 70
   128
 43
0.0
 10
-286.7479210347
 20
-64.0315670294
 10
-286.8888949325
 20
-60.4704992266
 10
-286.7520114148
 20
-56.7451324368
  0
LWPOLYLINE
  5
480
330
476
100
AcDbEntity
  8
0
  6
Continuous
 62
     7
370
    25
100
AcDbPolyline
 90
       71
 70
   128
 43
0.0
 10
-261.6621904875
 20
-14.011698356
 10
-265.1705308565
 20
-17.6304125416
 10
-268.3601133256
 20
-21.3265504801
 10
-271.2245145
 20
-25.0926686414
 10
-273.7579658571
 20
-28.9211825649
 10
-275.955365363
 20
-32.8043821329
 10
-277.8122877475
 20
-36.7344470984
 10
-279.3249934161
 20
-40.7034628335
 10
-280.4904359808
 20
-44.7034362688
 10
-281.3062683954
 20
-48.72631199
 10
-281.7708476821
 20
-52.7639884609
 10
-281.8832382399
 20
-56.8083343383
 10
-281.6432137292
 20
-60.851204848
 10
-281.0512575275
 20
-64.8844581867
 10
-280.1085617558
 20
-68.8999719189
 10
-278.8170248778
 20
-72.8896593345
 10
-277.179247877
 20
-76.8454857339
 10
-275.1985290184
 20
-80.7594846091
 10
-272.878857206
 20
-84.6237736875
 10
-270.2249039502
 20
-88.4305708049
 10
-267.2420139597
 20
-92.1722095787
 10
-263.936194378
 20
-95.8411548463
 10
-260.3141026856
 20
-99.4300178401
 10
-256.3830332934
 20
-102.9315710678
 10
-252.1509028518
 20
-106.3387628672
 10
-247.6262343083
 20
-109.6447316073
 10
-242.8181397433
 20
-112.8428195072
 10
-237.7363020193
 20
-115.9265860433
 10
-232.3909552811
 20
-118.8898209204
 10
-226.7928643459
 20
-121.7265565776
 10
-220.9533030236
 20
-124.431080207
 10
-214.8840314136
 20
-126.9979452578
 10
-208.5972722214
 20
-129.4219824054
 10
-202.1056861431
 20
-131.6983099616
 10
-195.4223463692
 20
-133.8223437057
 10
-188.5607122567
 20
-135.7898061164
 10
-181.5346022234
 20
-137.5967349862
 10
-174.35816592
 20
-139.2394914008
 10
-167.045855734
 20
-140.7147670675
 10
-159.612397685
 20
-142.0195909774
 10
-152.0727617683
 20
-143.1513353887
 10
-144.4421318073
 20
-144.1077211188
 10
-136.7358748751
 20
-144.8868221343
 10
-128.9695103477
 20
-145.4870694292
 10
-121.1586786496
 20
-145.9072541855
 10
-113.3191097564
 20
-146.146530207
 10
-105.4665915166
 20
-146.2044156235
 10
-97.6169378568
 20
-146.0807938616
 10
-89.7859569349
 20
-145.775913879
 10
-81.9894193042
 20
-145.2903896635
 10
-74.243026154
 20
-144.6251989962
 10
-66.5623776892
 20
-143.7816814826
 10
-58.9629417136
 20
-142.7615358547
 10
-51.4600224799
 20
-141.56681655
 10
-44.0687298689
 20
-140.1999295743
 10
-36.8039489604
 20
-138.6636276559
 10
-29.6803100562
 20
-136.9610047025
 10
-22.7121592171
 20
-135.0954895701
 10
-15.9135293715
 20
-133.070839158
 10
-9.2981120551
 20
-130.8911308426
 10
-2.8792298381
 20
-128.5607542664
 10
3.3301905051
 20
-126.0844024976
 10
9.3176440282
 20
-123.4670625792
 10
15.0710727967
 20
-120.7140054855
 10
20.5788901707
 20
-117.830775507
 10
25.8300041389
 20
-114.8231790853
 10
30.8138396568
 20
-111.6972731192
 10
35.5203599428
 20
-108.4593527674
 10
39.9400866914
 20
-105.1159387705
 10
44.0641191612
 20
-101.6737643194
 10
47.8841520996
 20
-98.1397614954
  0
LWPOLYLINE
  5
48D
330
476
100
AcDbEntity
  8
0
  6
Continuous
 62
     8
370
    25
100
AcDbPolyline
 90
       61
 70
   128
 43
0.0
 10
52.306242708
 20
-103.6274274723
 10
48.4345967958
 20
-107.2118438051
 10
44.2588976114
 20
-110.7045485199
 10
39.7873192819
 20
-114.0987044831
 10
35.0286151318
 20
-117.3876674751
 10
29.9921005482
 20
-120.5649991963
 10
24.6876347447
 20
-123.6244798708
 10
19.1256014622
 20
-126.5601204213
 10
13.3168886422
 20
-129.3661741938
 10
7.2728671127
 20
-132.037148206
 10
1.0053683297
 20
-134.5678139011
 10
-5.4733387836
 20
-136.953217382
 10
-12.1505718538
 20
-139.1886891094
 10
-19.0132598835
 20
-141.2698530424
 10
-26.0479688388
 20
-143.1926352049
 10
-33.2409279465
 20
-144.9532716606
 10
-40.5780566512
 20
-146.5483158808
 10
-48.0449921792
 20
-147.9746454916
 10
-55.6271176533
 20
-149.2294683859
 10
-63.3095907069
 20
-150.3103281888
 10
-71.0773725383
 20
-151.2151090666
 10
-78.9152573498
 20
-151.9420398682
 10
-86.8079021137
 20
-152.4896975924
 10
-94.7398566073
 20
-152.8570101736
 10
-102.6955936572
 20
-153.04325858
 10
-110.6595395345
 20
-153.0480782216
 10
-118.6161044412
 20
-152.8714596639
 10
-126.5497130278
 20
-152.5137486459
 10
-134.4448348829
 20
-151.9756454038
 10
-142.2860149348
 20
-151.2582032998
 10
-150.0579037053
 20
-150.3628267607
 10
-157.7452873572
 20
-149.291268528
 10
-165.3331174759
 20
-148.0456262273
 10
-172.8065405277
 20
-146.6283382619
 10
-180.150926936
 20
-145.0421790395
 10
-187.3518997195
 20
-143.2902535414
 10
-194.3953626359
 20
-141.3759912439
 10
-201.2675277756
 20
-139.3031394053
 10
-207.9549425528
 20
-137.0757557306
 10
-214.4445160389
 20
-134.6982004278
 10
-220.7235445892
 20
-132.1751276732
 10
-226.7797367103
 20
-129.5114765
 10
-232.6012371218
 20
-126.7124611305
 10
-238.1766499633
 20
-123.7835607689
 10
-243.4950611022
 20
-120.730508875
 10
-248.5460594991
 20
-117.5592819413
 10
-253.3197575874
 20
-114.2760877936
 10
-257.8068106289
 20
-110.8873534384
 10
-261.9984350065
 20
-107.3997124825
 10
-265.8864254187
 20
-103.8199921467
 10
-269.4631709418
 20
-100.1551999018
 10
-272.7216699283
 20
-96.4125097507
 10
-275.6555437134
 20
-92.5992481851
 10
-278.2590491015
 20
-88.7228798435
 10
-280.5270896086
 20
-84.7909928991
 10
-282.4552254387
 20
-80.8112842052
 10
-284.0396821756
 20
-76.7915442283
 10
-285.2773581706
 20
-72.7396417984
 10
-286.165830615
 20
-68.6635087047
 10
-286.7033602821
 20
-64.5711241692
 10
-286.7479210347
 20
-64.0315670294
  0
LWPOLYLINE
  5
48F
330
476
100
AcDbEntity
  8
0
  6
Continuous
 62
     8
370
    25
100
AcDbPolyline
 90
       59
 70
   128
 43
0.0
 10
-285.9205770301
 20
-102.5377102613
 10
-285.2773581706
 20
-105.3119992251
 10
-284.0396821756
 20
-109.363901655
 10
-282.4552254387
 20
-113.3836416318
 10
-280.5270896086
 20
-117.3633503258
 10
-278.2590491015
 20
-121.2952372702
 10
-275.6555437134
 20
-125.1716056117
 10
-272.7216699283
 20
-128.9848671774
 10
-269.4631709418
 20
-132.7275573285
 10
-265.8864254187
 20
-136.3923495734
 10
-261.9984350065
 20
-139.9720699091
 10
-257.8068106289
 20
-143.4597108651
 10
-253.3197575874
 20
-146.8484452202
 10
-248.5460594991
 20
-150.131639368
 10
-243.4950611022
 20
-153.3028663017
 10
-238.1766499633
 20
-156.3559181955
 10
-232.6012371218
 20
-159.2848185572
 10
-226.7797367103
 20
-162.0838339266
 10
-220.7235445892
 20
-164.7474850998
 10
-214.4445160389
 20
-167.2705578545
 10
-207.9549425528
 20
-169.6481131573
 10
-201.2675277756
 20
-171.875496832
 10
-194.3953626359
 20
-173.9483486706
 10
-187.3518997195
 20
-175.8626109681
 10
-180.150926936
 20
-177.6145364662
 10
-172.8065405277
 20
-179.2006956886
 10
-165.3331174759
 20
-180.617983654
 10
-157.7452873572
 20
-181.8636259547
 10
-150.0579037053
 20
-182.9351841874
 10
-142.2860149348
 20
-183.8305607265
 10
-134.4448348829
 20
-184.5480028305
 10
-126.5497130278
 20
-185.0861060726
 10
-118.6161044412
 20
-185.4438170906
 10
-110.6595395345
 20
-185.6204356483
 10
-102.6955936572
 20
-185.6156160066
 10
-94.7398566073
 20
-185.4293676002
 10
-86.8079021137
 20
-185.0620550191
 10
-78.9152573498
 20
-184.5143972949
 10
-71.0773725383
 20
-183.7874664933
 10
-63.3095907069
 20
-182.8826856155
 10
-55.6271176533
 20
-181.8018258126
 10
-48.0449921792
 20
-180.5470029183
 10
-40.5780566512
 20
-179.1206733075
 10
-33.2409279465
 20
-177.5256290873
 10
-26.0479688388
 20
-175.7649926316
 10
-19.0132598835
 20
-173.8422104691
 10
-12.1505718538
 20
-171.761046536
 10
-5.4733387836
 20
-169.5255748086
 10
1.0053683297
 20
-167.1401713278
 10
7.2728671127
 20
-164.6095056327
 10
13.3168886422
 20
-161.9385316204
 10
19.1256014622
 20
-159.132477848
 10
24.6876347447
 20
-156.1968372975
 10
29.9921005482
 20
-153.137356623
 10
35.0286151318
 20
-149.9600249018
 10
39.7873192819
 20
-146.6710619098
 10
44.2588976114
 20
-143.2769059466
 10
48.4345967958
 20
-139.7842012318
 10
52.306242708
 20
-136.199784899
  0
LINE
  5
491
330
476
100
AcDbEntity
  8
0
  6
Continuous
 62
     7
370
    25
100
AcDbLine
 10
-286.8890191939
 20
-60.3615664292
 30
0.0
 11
-286.8890191939
 21
-92.9339238559
 31
0.0
  0
LINE
  5
492
330
476
100
AcDbEntity
  8
0
  6
Continuous
 62
     7
370
    25
100
AcDbLine
 10
51.9343627819
 20
-137.1503158554
 30
0.0
 11
173.0789279352
 21
-18.9095064075
 31
0.0
  0
LINE
  5
493
330
476
100
AcDbEntity
  8
0
  6
Continuous
 62
     7
370
    25
100
AcDbLine
 10
-143.8137801589
 20
103.7129637741
 30
0.0
 11
-265.1545812807
 21
-14.719377995
 31
0.0
  0
LINE
  5
494
330
476
100
AcDbEntity
  8
0
  6
Continuous
 62
     7
370
    25
100
AcDbLine
 10
52.306242708
 20
-103.6274274723
 30
0.0
 11
52.306242708
 21
-136.199784899
 31
0.0
  0
LINE
  5
495
330
476
100
AcDbEntity
  8
0
  6
Continuous
 62
     7
370
    25
100
AcDbLine
 10
47.8841520996
 20
-98.1397614954
 30
0.0
 11
169.2249532214
 21
20.2925802738
 31
0.0
  0
LINE
  5
496
330
476
100
AcDbEntity
  8
0
  6
Continuous
 62
     7
370
    25
100
AcDbLine
 10
-140.3213893657
 20
104.4206434131
 30
0.0
 11
-261.6621904875
 21
-14.011698356
 31
0.0
  0
LINE
  5
497
330
476
100
AcDbEntity
  8
0
  6
Continuous
 62
     7
370
    25
100
AcDbLine
 10
169.2249532214
 20
20.2925802738
 30
0.0
 11
-140.3213893657
 21
104.4206434131
 31
0.0
  0
LINE
  5
498
330
476
100
AcDbEntity
  8
0
  6
Continuous
 62
     7
370
    25
100
AcDbLine
 10
173.6470438298
 20
14.8049142968
 30
0.0
 11
52.306242708
 21
-103.6274274723
 31
0.0
  0
LINE
  5
499
330
476
100
AcDbEntity
  8
0
  6
Continuous
 62
     7
370
    25
100
AcDbLine
 10
52.306242708
 20
-136.199784899
 30
0.0
 11
173.6470438298
 21
-17.7674431299
 31
0.0
  0
LINE
  5
49A
330
476
100
AcDbEntity
  8
0
  6
Continuous
 62
     7
370
    25
100
AcDbLine
 10
173.6470438298
 20
14.8049142968
 30
0.0
 11
173.6470438298
 21
-17.7674431299
 31
0.0
  0
ARC
  5
49B
330
476
100
AcDbEntity
  8
0
  6
Continuous
 62
     7
370
    25
100
AcDbCircle
 10
46.2443817338
 20
-103.9866725284
 30
0.0
 40
6.072496643082566
100
AcDbArc
 50
3.391562315
 51
74.3338098233
  0
ARC
  5
49C
330
476
100
AcDbEntity
  8
0
  6
Continuous
 62
     7
370
    25
100
AcDbCircle
 10
-238.519252633
 20
-92.9070568882
 30
0.0
 40
48.36977402259281
100
AcDbArc
 50
180.0318249147
 51
191.4846140842
  0
ARC
  5
49D
330
476
100
AcDbEntity
  8
0
  6
Continuous
 62
     7
370
    25
100
AcDbCircle
 10
167.5851828557
 20
14.4456692408
 30
0.0
 40
6.072496643082637
100
AcDbArc
 50
3.391562315
 51
74.3338098233
  0
ARC
  5
49E
330
476
100
AcDbEntity
  8
0
  6
Continuous
 62
     7
370
    25
100
AcDbCircle
 10
171.9795781889
 20
-17.6503028304
 30
0.0
 40
1.671575159382134
100
AcDbArc
 50
311.1226383778
 51
355.981544547
  0
ARC
  5
49F
330
476
100
AcDbEntity
  8
0
  6
Continuous
 62
     7
370
    25
100
AcDbCircle
 10
-141.4515216148
 20
101.0265391209
 30
0.0
 40
3.577309442425078
100
AcDbArc
 50
71.583829316
 51
131.326192755
  0
ARC
  5
4A0
330
476
100
AcDbEntity
  8
0
  6
Continuous
 62
     8
370
    25
100
AcDbCircle
 10
-262.7923404738
 20
-17.4060746573
 30
0.0
 40
3.577573125209415
100
AcDbArc
 50
71.5849360252
 51
131.3012166641
  0
ARC
  5
4A1
330
476
100
AcDbEntity
  8
0
  6
Continuous
 62
     8
370
    25
100
AcDbCircle
 10
51.0156999559
 20
-136.2428739481
 30
0.0
 40
1.291261887121237
100
AcDbArc
 50
315.3192770328
 51
1.9122992011
  0
VIEWPORT
  5
4D8
330
476
100
AcDbEntity
  8
0
100
AcDbViewport
 10
0.0
 20
0.0
 30
0.0
 40
205.6
 41
156.0
 68
     1
 69
     1
 12
0.0
 22
28.1457479785
 13
0.0
 23
0.0
 14
10.0
 24
10.0
 15
10.0
 25
10.0
 16
0.0
 26
0.0
 36
1.0
 17
0.0
 27
0.0
 37
0.0
 42
50.0
 43
0.0
 44
0.0
 45
278.6147859922
 50
0.0
 51
0.0
 72
   100
 90
   557152
  1

281
     0
 71
     1
 74
     0
110
0.0
120
0.0
130
0.0
111
1.0
121
0.0
131
0.0
112
0.0
122
1.0
132
0.0
 79
     0
146
0.0
  0
ENDBLK
  5
479
330
476
100
AcDbEntity
  8
0
100
AcDbBlockEnd
  0
BLOCK
  5
4A4
330
4A2
100
AcDbEntity
  8
0
100
AcDbBlockBegin
  2
*Paper_Space6
 70
     0
 10
0.0
 20
0.0
 30
0.0
  3
*Paper_Space6
  1

  0
SPLINE
  5
4A6
330
4A2
100
AcDbEntity
  8
0
  6
Continuous
 62
     7
370
    25
100
AcDbSpline
210
0.0
220
0.0
230
1.0
 70
     8
 71
     3
 72
    17
 73
    13
 74
     0
 42
0.000000001
 43
0.00000001
 40
0.0
 40
0.0
 40
0.0
 40
0.0
 40
0.0613874922869268
 40
0.1789959014346207
 40
0.2960591250671765
 40
0.4119930514914941
 40
0.5262957130606583
 40
0.6385571133875332
 40
0.7485979404404853
 40
0.8565542601175133
 40
0.9628699801009403
 40
1.0
 40
1.0
 40
1.0
 40
1.0
 10
-247.9803769723329
 20
1.318199251937574
 30
0.0
 10
-248.4755426684482
 20
0.8724439989028915
 30
0.0
 10
-249.9193649656905
 20
-0.4273055162464096
 30
0.0
 10
-252.0850774224042
 20
-2.634426724445999
 30
0.0
 10
-254.3653274354707
 20
-5.32251240715749
 30
0.0
 10
-256.3163090878163
 20
-8.066077048529282
 30
0.0
 10
-257.9334359642103
 20
-10.85064668430255
 30
0.0
 10
-259.2079661671497
 20
-13.66203029259354
 30
0.0
 10
-260.1477909420307
 20
-16.48538115208854
 30
0.0
 10
-260.7286777468179
 20
-19.30747744094984
 30
0.0
 10
-260.9902909812628
 20
-21.51914275889956
 30
0.0
 10
-260.9498894735355
 20
-22.78275416707087
 30
0.0
 10
-260.939431799525
 20
-23.1098319650488
 30
0.0
  0
SPLINE
  5
4A8
330
4A2
100
AcDbEntity
  8
0
  6
Continuous
 62
     7
370
    25
100
AcDbSpline
210
0.0
220
0.0
230
1.0
 70
     8
 71
     3
 72
    73
 73
    69
 74
     0
 42
0.000000001
 43
0.00000001
 40
0.0
 40
0.0
 40
0.0
 40
0.0
 40
0.0039013220587464
 40
0.0188062304201904
 40
0.0338051214947556
 40
0.0489313206601767
 40
0.0641930467235315
 40
0.0795771304543857
 40
0.0950575955226717
 40
0.1106048777597948
 40
0.126192410603414
 40
0.1417996424400508
 40
0.1574117506133908
 40
0.1730183136220066
 40
0.1886152083397977
 40
0.2042005406871263
 40
0.2197737918076344
 40
0.2353352415496058
 40
0.2508855987005753
 40
0.2664257730867873
 40
0.2819567403185516
 40
0.2974794650709193
 40
0.3129948604176877
 40
0.3285037688509373
 40
0.344006955993927
 40
0.3595051114708157
 40
0.3749988535766289
 40
0.3904887357488679
 40
0.4059752536795106
 40
0.4214588524179216
 40
0.4369399331244353
 40
0.4524188593186771
 40
0.467895962574525
 40
0.4833715476745353
 40
0.4988458972697236
 40
0.5143192761069175
 40
0.5297919348929435
 40
0.5452641138664734
 40
0.5607360461477507
 40
0.5762079609346379
 40
0.5916800215289006
 40
0.6071524467329426
 40
0.6226254706811144
 40
0.6380993350689488
 40
0.653574292509837
 40
0.6690506101184224
 40
0.6845285733906565
 40
0.7000084904538333
 40
0.7154906967595713
 40
0.7309755602883132
 40
0.7464634873212996
 40
0.7619549288094303
 40
0.7774503873173538
 40
0.7929504244298199
 40
0.8084556683491627
 40
0.8239668211457529
 40
0.8394846646795684
 40
0.8550100634825591
 40
0.8705439617072334
 40
0.8860873693398161
 40
0.9016413298399557
 40
0.9172068566095836
 40
0.9327848184124532
 40
0.9483757431653552
 40
0.9639794948903203
 40
0.9795947613677564
 40
0.995218276841847
 40
1.0
 40
1.0
 40
1.0
 40
1.0
 10
-260.5640452274963
 20
-62.95311632650573
 30
0.0
 10
-260.5302474159944
 20
-63.18173007729444
 30
0.0
 10
-260.3673258675473
 20
-64.2837572388095
 30
0.0
 10
-259.7617149808739
 20
-66.24477380191898
 30
0.0
 10
-258.7390926582415
 20
-68.83035990433214
 30
0.0
 10
-257.3776404315129
 20
-71.3963899589912
 30
0.0
 10
-255.7082299733772
 20
-73.9413527069273
 30
0.0
 10
-253.722926071737
 20
-76.45967815880222
 30
0.0
 10
-251.4269396562668
 20
-78.94532443742891
 30
0.0
 10
-248.8246037760606
 20
-81.39188741176945
 30
0.0
 10
-245.9225445472855
 20
-83.79349335493427
 30
0.0
 10
-242.7280259345155
 20
-86.14501679575083
 30
0.0
 10
-239.2488209215337
 20
-88.44205205923079
 30
0.0
 10
-235.4927445095547
 20
-90.68087199390358
 30
0.0
 10
-231.4675538801552
 20
-92.85823691617735
 30
0.0
 10
-227.1808802716623
 20
-94.97124838383343
 30
0.0
 10
-222.6405247537129
 20
-97.0171139607289
 30
0.0
 10
-217.8545289937143
 20
-98.99309715113414
 30
0.0
 10
-212.8312295141745
 20
-100.8964967371451
 30
0.0
 10
-207.5792940811975
 20
-102.7246440791042
 30
0.0
 10
-202.1077428852316
 20
-104.4749104098418
 30
0.0
 10
-196.4259577333921
 20
-106.1447190320023
 30
0.0
 10
-190.5436822552829
 20
-107.7315593901046
 30
0.0
 10
-184.4710155272493
 20
-109.23300132133
 30
0.0
 10
-178.2184009343412
 20
-110.6467086040375
 30
0.0
 10
-171.7966115956723
 20
-111.9704513982627
 30
0.0
 10
-165.2167333012734
 20
-113.2021174376385
 30
0.0
 10
-158.4901456316111
 20
-114.339721971968
 30
0.0
 10
-151.6285017334757
 20
-115.3814165270717
 30
0.0
 10
-144.6437070874061
 20
-116.3254965754515
 30
0.0
 10
-137.5478975056785
 20
-117.1704082165628
 30
0.0
 10
-130.353416533641
 20
-117.9147539598756
 30
0.0
 10
-123.0727923817999
 20
-118.5572976934721
 30
0.0
 10
-115.7187144850822
 20
-119.0969689089489
 30
0.0
 10
-108.3040097647011
 20
-119.5328662415323
 30
0.0
 10
-100.8416186537704
 20
-119.8642603733231
 30
0.0
 10
-93.34457093838991
 20
-120.0905963377551
 30
0.0
 10
-85.82596145902752
 20
-120.2114952546281
 30
0.0
 10
-78.29892571459914
 20
-120.2267555174138
 30
0.0
 10
-70.7766259496785
 20
-120.1363535741596
 30
0.0
 10
-63.27221794209397
 20
-119.940444646445
 30
0.0
 10
-55.79882462373757
 20
-119.6393624129582
 30
0.0
 10
-48.36950127113737
 20
-119.2336173207599
 30
0.0
 10
-40.99721997473879
 20
-118.7238951259494
 30
0.0
 10
-33.69484718347724
 20
-118.1110549604564
 30
0.0
 10
-26.47511962690001
 20
-117.3961267769242
 30
0.0
 10
-19.35062042762128
 20
-116.580308185081
 30
0.0
 10
-12.33375544607272
 20
-115.664960636206
 30
0.0
 10
-5.436729904998217
 20
-114.6516048996739
 30
0.0
 10
1.32847465023013
 20
-113.5419157604025
 30
0.0
 10
7.950122986195741
 20
-112.337715847841
 30
0.0
 10
14.4167483214859
 20
-111.0409684855233
 30
0.0
 10
20.71717385315923
 20
-109.6537694251416
 30
0.0
 10
26.84053350420736
 20
-108.1783373006628
 30
0.0
 10
32.77629166604864
 20
-106.6170026094286
 30
0.0
 10
38.51426159024452
 20
-104.9721949967332
 30
0.0
 10
44.04462202183363
 20
-103.246428617973
 30
0.0
 10
49.35793115241802
 20
-101.4422853138427
 30
0.0
 10
54.44513781152433
 20
-99.56239558976553
 30
0.0
 10
59.2975851299251
 20
-97.60941687252071
 30
0.0
 10
63.90701724007992
 20
-95.58601151092083
 30
0.0
 10
68.2655393637416
 20
-93.49481799411943
 30
0.0
 10
72.36570283736644
 20
-91.33844663715716
 30
0.0
 10
76.20005583195767
 20
-89.11939735217001
 30
0.0
 10
79.76260107379447
 20
-86.84030925251759
 30
0.0
 10
83.04301662779935
 20
-84.50305879992678
 30
0.0
 10
85.35252691428526
 20
-82.66550724091744
 30
0.0
 10
86.56647745356484
 20
-81.60784398065513
 30
0.0
 10
86.85095221571503
 20
-81.35999326955722
 30
0.0
  0
LWPOLYLINE
  5
4AB
330
4A2
100
AcDbEntity
  8
0
  6
Continuous
 62
     7
370
    25
100
AcDbPolyline
 90
       71
 70
   128
 43
0.0
 10
-244.6731878335
 20
2.28224446
 10
-247.2842250878
 20
-0.1866094976
 10
-249.5603390593
 20
-2.692025398
 10
-251.4969459575
 20
-5.228957667
 10
-253.0901457137
 20
-7.7922972607
 10
-254.3367298357
 20
-10.3768819542
 10
-255.2341878689
 20
-12.977506738
 10
-255.7807124524
 20
-15.5889342998
 10
-255.9752029583
 20
-18.2059055721
 10
-255.8172677086
 20
-20.8231503229
 10
-255.3072247639
 20
-23.4353977697
 10
-254.4461012828
 20
-26.0373871938
 10
-253.2356314535
 20
-28.6238785346
 10
-251.678253001
 20
-31.189662943
 10
-249.7771022783
 20
-33.7295732705
 10
-247.5360079499
 20
-36.2384944758
 10
-244.9594832816
 20
-38.7113739254
 10
-242.0527170512
 20
-41.1432315693
 10
-238.821563099
 20
-43.5291699698
 10
-235.272528539
 20
-45.8643841644
 10
-231.4127606546
 20
-48.1441713426
 10
-227.2500325046
 20
-50.3639403164
 10
-222.7927272695
 20
-52.5192207664
 10
-218.0498213688
 20
-54.6056722448
 10
-213.0308663839
 20
-56.6190929158
 10
-207.7459698221
 20
-58.5554280182
 10
-202.2057747619
 20
-60.4107780308
 10
-196.4214384186
 20
-62.1814065257
 10
-190.4046096761
 20
-63.8637476925
 10
-184.1674056265
 20
-65.4544135202
 10
-177.7223871688
 20
-66.9502006193
 10
-171.0825337124
 20
-68.3480966739
 10
-164.2612170386
 20
-69.6452865072
 10
-157.2721743714
 20
-70.8391577516
 10
-150.1294807125
 20
-71.9273061093
 10
-142.8475204964
 20
-72.9075401942
 10
-135.4409586218
 20
-73.7778859454
 10
-127.9247109188
 20
-74.5365906024
 10
-120.3139141099
 20
-75.182126235
 10
-112.623895327
 20
-75.7131928203
 10
-104.8701412446
 20
-76.1287208608
 10
-97.0682668914
 20
-76.4278735385
 10
-89.2339842041
 20
-76.6100483996
 10
-81.3830703855
 20
-76.6748785682
 10
-73.5313361311
 20
-76.622233485
 10
-65.6945937888
 20
-76.4522191702
 10
-57.8886255148
 20
-76.1651780099
 10
-50.1291514903
 20
-75.7616880669
 10
-42.4317982634
 20
-75.2425619161
 10
-34.812067279
 20
-74.6088450087
 10
-27.2853036614
 20
-73.8618135661
 10
-19.8666653107
 20
-73.0029720102
 10
-12.5710923773
 20
-72.0340499336
 10
-5.4132771742
 20
-70.9569986165
 10
1.5923654113
 20
-69.7739870968
 10
8.4317269475
 20
-68.4873978023
 10
15.0910338704
 20
-67.0998217526
 10
21.5568752221
 20
-65.6140533413
 10
27.8162296587
 20
-64.0330847081
 10
33.8564916732
 20
-62.3600997135
 10
39.6654969818
 20
-60.5984675267
 10
45.231547021
 20
-58.7517358404
 10
50.5434325067
 20
-56.8236237264
 10
55.5904560084
 20
-54.818014146
 10
60.3624534925
 20
-52.73894613
 10
64.8498147912
 20
-50.5906066446
 10
69.0435029558
 20
-48.3773221597
 10
72.9350724567
 20
-46.1035499356
 10
76.5166861908
 20
-43.7738690471
 10
79.7811312645
 20
-41.3929711614
 10
82.72183352
 20
-38.9656510899
  0
LWPOLYLINE
  5
4AD
330
4A2
100
AcDbEntity
  8
0
  6
Continuous
 62
     7
370
    25
100
AcDbPolyline
 90
        3
 70
   128
 43
0.0
 10
-260.9756771567
 20
-58.8824921042
 10
-260.8533921947
 20
-61.0937670679
 10
-260.6247229497
 20
-62.62741972
  0
LWPOLYLINE
  5
4B8
330
4A2
100
AcDbEntity
  8
0
  6
Continuous
 62
     8
370
    25
100
AcDbPolyline
 90
       64
 70
   128
 43
0.0
 10
87.3989052536
 20
-44.2689519487
 10
84.4191117301
 20
-46.730779455
 10
81.1155501404
 20
-49.1462619764
 10
77.4946873615
 20
-51.5106710926
 10
73.5636114022
 20
-53.8193783616
 10
69.3300175284
 20
-56.0678643806
 10
64.802193199
 20
-58.2517276324
 10
59.9890018425
 20
-60.3666931024
 10
54.8998655072
 20
-62.4086206463
 10
49.5447464164
 20
-64.3735130949
 10
43.9341274672
 20
-66.2575240791
 10
38.0789917097
 20
-68.0569655589
 10
31.9908008471
 20
-69.7683150431
 10
25.6814727989
 20
-71.3882224847
 10
19.163358371
 20
-72.9135168388
 10
12.4492170785
 20
-74.3412122702
 10
5.5521921683
 20
-75.6685139978
 10
-1.5142151094
 20
-76.8928237664
 10
-8.7361719306
 20
-78.011744932
 10
-16.0995409756
 20
-79.0230871539
 10
-23.5899081039
 20
-79.9248706821
 10
-31.1926105698
 20
-80.7153302332
 10
-38.8927657265
 20
-81.3929184454
 10
-46.6753001584
 20
-81.9563089079
 10
-54.5249791891
 20
-82.4043987575
 10
-62.4264367032
 20
-82.7363108373
 10
-70.3642052266
 20
-82.9513954137
 10
-78.3227462046
 20
-83.0492314486
 10
-86.2864804195
 20
-83.0296274234
 10
-94.2398184876
 20
-82.8926217139
 10
-102.1671913761
 20
-82.6384825152
 10
-110.0530808805
 20
-82.2677073167
 10
-117.8820500015
 20
-81.7810219282
 10
-125.6387731646
 20
-81.1793790593
 10
-133.3080662199
 20
-80.4639564542
 10
-140.8749161661
 20
-79.6361545861
 10
-148.324510539
 20
-78.6975939161
 10
-155.6422664079
 20
-77.6501117209
 10
-162.813858922
 20
-76.4957584959
 10
-169.8252493521
 20
-75.2367939418
 10
-176.6627125723
 20
-73.875682541
 10
-183.3128639272
 20
-72.4150887327
 10
-189.7626854332
 20
-70.8578716981
 10
-195.9995512619
 20
-69.2070797626
 10
-202.0112524555
 20
-67.465944429
 10
-207.7860208266
 20
-65.6378740513
 10
-213.3125519949
 20
-63.7264471632
 10
-218.5800275163
 20
-61.7354054727
 10
-223.5781360598
 20
-59.6686465373
 10
-228.2970935935
 20
-57.5302161347
 10
-232.7276625363
 20
-55.3243003428
 10
-236.8611698414
 20
-53.0552173454
 10
-240.6895239741
 20
-50.727408979
 10
-244.2052307516
 20
-48.3454320377
 10
-247.4014080126
 20
-45.9139493534
 10
-250.2717990901
 20
-43.4377206676
 10
-252.8107850588
 20
-40.9215933141
 10
-255.0133957344
 20
-38.3704927305
 10
-256.875319403
 20
-35.7894128159
 10
-258.3929112617
 20
-33.1834061555
 10
-259.5632005531
 20
-30.5575741297
 10
-260.383896381
 20
-27.9170569279
 10
-260.8533921947
 20
-25.2670234867
 10
-260.9756277913
 20
-23.1001851893
  0
LWPOLYLINE
  5
4BA
330
4A2
100
AcDbEntity
  8
0
  6
Continuous
 62
     8
370
    25
100
AcDbPolyline
 90
       63
 70
   128
 43
0.0
 10
-260.6247229497
 20
-62.62741972
 10
-260.383896381
 20
-63.7438005091
 10
-259.5632005531
 20
-66.3843177109
 10
-258.3929112617
 20
-69.0101497367
 10
-256.875319403
 20
-71.6161563971
 10
-255.0133957344
 20
-74.1972363117
 10
-252.8107850588
 20
-76.7483368953
 10
-250.2717990901
 20
-79.2644642488
 10
-247.4014080126
 20
-81.7406929346
 10
-244.2052307516
 20
-84.1721756189
 10
-240.6895239741
 20
-86.5541525601
 10
-236.8611698414
 20
-88.8819609265
 10
-232.7276625363
 20
-91.151043924
 10
-228.2970935935
 20
-93.3569597159
 10
-223.5781360598
 20
-95.4953901185
 10
-218.5800275163
 20
-97.5621490539
 10
-213.3125519949
 20
-99.5531907444
 10
-207.7860208266
 20
-101.4646176325
 10
-202.0112524555
 20
-103.2926880101
 10
-195.9995512619
 20
-105.0338233438
 10
-189.7626854332
 20
-106.6846152793
 10
-183.3128639272
 20
-108.2418323139
 10
-176.6627125723
 20
-109.7024261222
 10
-169.8252493521
 20
-111.063537523
 10
-162.8138589219
 20
-112.3225020771
 10
-155.6422664079
 20
-113.4768553021
 10
-148.324510539
 20
-114.5243374973
 10
-140.8749161661
 20
-115.4628981673
 10
-133.3080662199
 20
-116.2907000354
 10
-125.6387731646
 20
-117.0061226405
 10
-117.8820500015
 20
-117.6077655094
 10
-110.0530808805
 20
-118.0944508979
 10
-102.1671913761
 20
-118.4652260964
 10
-94.2398184876
 20
-118.7193652951
 10
-86.2864804195
 20
-118.8563710046
 10
-78.3227462046
 20
-118.8759750298
 10
-70.3642052266
 20
-118.7781389949
 10
-62.4264367032
 20
-118.5630544185
 10
-54.5249791891
 20
-118.2311423387
 10
-46.6753001584
 20
-117.7830524891
 10
-38.8927657265
 20
-117.2196620266
 10
-31.1926105698
 20
-116.5420738144
 10
-23.5899081039
 20
-115.7516142633
 10
-16.0995409756
 20
-114.849830735
 10
-8.7361719306
 20
-113.8384885132
 10
-1.5142151094
 20
-112.7195673476
 10
5.5521921683
 20
-111.495257579
 10
12.4492170785
 20
-110.1679558514
 10
19.163358371
 20
-108.74026042
 10
25.6814727989
 20
-107.2149660659
 10
31.9908008471
 20
-105.5950586243
 10
38.0789917097
 20
-103.8837091401
 10
43.9341274672
 20
-102.0842676603
 10
49.5447464164
 20
-100.2002566761
 10
54.8998655072
 20
-98.2353642274
 10
59.9890018425
 20
-96.1934366836
 10
64.802193199
 20
-94.0784712136
 10
69.3300175284
 20
-91.8946079617
 10
73.5636114022
 20
-89.6461219428
 10
77.4946873615
 20
-87.3374146738
 10
81.1155501404
 20
-84.9730055576
 10
84.4191117301
 20
-82.5575230362
 10
87.3989052536
 20
-80.0956955299
  0
LINE
  5
4BC
330
4A2
100
AcDbEntity
  8
0
  6
Continuous
 62
     7
370
    25
100
AcDbLine
 10
-260.9756771567
 20
-23.055748523
 30
0.0
 11
-260.9756771567
 21
-58.8824921042
 31
0.0
  0
LINE
  5
4BD
330
4A2
100
AcDbEntity
  8
0
  6
Continuous
 62
     7
370
    25
100
AcDbLine
 10
86.8509522157
 20
-81.3599932696
 30
0.0
 11
178.5677269677
 21
-0.4734009187
 31
0.0
  0
LINE
  5
4BE
330
4A2
100
AcDbEntity
  8
0
  6
Continuous
 62
     7
370
    25
100
AcDbLine
 10
-156.0564954392
 20
82.3874426154
 30
0.0
 11
-247.9803769723
 21
1.3181992519
 31
0.0
  0
LINE
  5
4BF
330
4A2
100
AcDbEntity
  8
0
  6
Continuous
 62
     7
370
    25
100
AcDbLine
 10
87.3989052536
 20
-44.2689519487
 30
0.0
 11
87.3989052536
 21
-80.0956955299
 31
0.0
  0
LINE
  5
4C0
330
4A2
100
AcDbEntity
  8
0
  6
Continuous
 62
     7
370
    25
100
AcDbLine
 10
82.72183352
 20
-38.9656510899
 30
0.0
 11
174.6457150532
 21
42.1035922736
 31
0.0
  0
LINE
  5
4C1
330
4A2
100
AcDbEntity
  8
0
  6
Continuous
 62
     7
370
    25
100
AcDbLine
 10
-152.7493063003
 20
83.3514878235
 30
0.0
 11
-244.6731878335
 21
2.28224446
 31
0.0
  0
LINE
  5
4C2
330
4A2
100
AcDbEntity
  8
0
  6
Continuous
 62
     7
370
    25
100
AcDbLine
 10
174.6457150532
 20
42.1035922736
 30
0.0
 11
-152.7493063003
 21
83.3514878235
 31
0.0
  0
LINE
  5
4C3
330
4A2
100
AcDbEntity
  8
0
  6
Continuous
 62
     7
370
    25
100
AcDbLine
 10
179.3227867868
 20
36.8002914148
 30
0.0
 11
87.3989052536
 21
-44.2689519487
 31
0.0
  0
LINE
  5
4C4
330
4A2
100
AcDbEntity
  8
0
  6
Continuous
 62
     7
370
    25
100
AcDbLine
 10
87.3989052536
 20
-80.0956955299
 30
0.0
 11
179.3227867868
 21
0.9735478336
 31
0.0
  0
LINE
  5
4C5
330
4A2
100
AcDbEntity
  8
0
  6
Continuous
 62
     7
370
    25
100
AcDbLine
 10
179.3227867868
 20
36.8002914148
 30
0.0
 11
179.3227867868
 21
0.9735478336
 31
0.0
  0
ARC
  5
4C6
330
4A2
100
AcDbEntity
  8
0
  6
Continuous
 62
     7
370
    25
100
AcDbCircle
 10
81.9392770704
 20
-44.3698462155
 30
0.0
 40
5.460560369788474
100
AcDbArc
 50
1.0587090425
 51
81.7605351794
  0
ARC
  5
4C7
330
4A2
100
AcDbEntity
  8
0
  6
Continuous
 62
     7
370
    25
100
AcDbCircle
 10
173.8631586036
 20
36.699397148
 30
0.0
 40
5.460560369788613
100
AcDbArc
 50
1.0587090425
 51
81.7605351794
  0
ARC
  5
4C8
330
4A2
100
AcDbEntity
  8
0
  6
Continuous
 62
     7
370
    25
100
AcDbCircle
 10
177.3153988643
 20
1.1005806329
 30
0.0
 40
2.011403391496515
100
AcDbArc
 50
308.5072818878
 51
356.3790005496
  0
ARC
  5
4C9
330
4A2
100
AcDbEntity
  8
0
  6
Continuous
 62
     7
370
    25
100
AcDbCircle
 10
-153.3407713588
 20
79.2257946187
 30
0.0
 40
4.167874198619764
100
AcDbArc
 50
81.8415869733
 51
130.6612067915
  0
ARC
  5
4CA
330
4A2
100
AcDbEntity
  8
0
  6
Continuous
 62
     8
370
    25
100
AcDbCircle
 10
-245.2646490049
 20
-1.8435090942
 30
0.0
 40
4.167933385730762
100
AcDbArc
 50
81.8417575983
 51
130.6492643708
  0
ARC
  5
4CB
330
4A2
100
AcDbEntity
  8
0
  6
Continuous
 62
     8
370
    25
100
AcDbCircle
 10
85.7319744886
 20
-80.1241367229
 30
0.0
 40
1.667173379312544
100
AcDbArc
 50
312.1699924621
 51
0.9774864436
  0
VIEWPORT
  5
4DA
330
4A2
100
AcDbEntity
  8
0
100
AcDbViewport
 10
0.0
 20
0.0
 30
0.0
 40
205.6
 41
156.0
 68
     1
 69
     1
 12
0.0
 22
28.1457479785
 13
0.0
 23
0.0
 14
10.0
 24
10.0
 15
10.0
 25
10.0
 16
0.0
 26
0.0
 36
1.0
 17
0.0
 27
0.0
 37
0.0
 42
50.0
 43
0.0
 44
0.0
 45
278.6147859922
 50
0.0
 51
0.0
 72
   100
 90
   557152
  1

281
     0
 71
     1
 74
     0
110
0.0
120
0.0
130
0.0
111
1.0
121
0.0
131
0.0
112
0.0
122
1.0
132
0.0
 79
     0
146
0.0
  0
ENDBLK
  5
4A5
330
4A2
100
AcDbEntity
  8
0
100
AcDbBlockEnd
  0
ENDSEC
  0
SECTION
  2
ENTITIES
  0
LWPOLYLINE
  5
99
330
1F
100
AcDbEntity
  8
0
  6
Continuous
 62
     8
370
    25
100
AcDbPolyline
 90
        9
 70
   128
 43
0.0
 10
-131.3377321279
 20
9.0
 10
-131.4822901802
 20
8.6150414428
 10
-131.834343663
 20
7.8224826988
 10
-132.2222270296
 20
7.1329603286
 10
-132.6407346786
 20
6.55572809
 10
-133.0842500142
 20
6.0985327472
 10
-133.5468208242
 20
5.7675101053
 10
-134.0222391619
 20
5.5671026647
 10
-134.5041246598
 20
5.5
  0
LWPOLYLINE
  5
9A
330
1F
100
AcDbEntity
  8
0
  6
Continuous
 62
     8
370
    25
100
AcDbPolyline
 90
        9
 70
   128
 43
0.0
 10
131.3377321279
 20
9.0
 10
131.4822901802
 20
8.6150414428
 10
131.834343663
 20
7.8224826988
 10
132.2222270296
 20
7.1329603286
 10
132.6407346786
 20
6.55572809
 10
133.0842500142
 20
6.0985327472
 10
133.5468208242
 20
5.7675101053
 10
134.0222391619
 20
5.5671026647
 10
134.5041246598
 20
5.5
  0
LWPOLYLINE
  5
9B
330
1F
100
AcDbEntity
  8
0
  6
Continuous
 62
     8
370
    25
100
AcDbPolyline
 90
        9
 70
   128
 43
0.0
 10
-110.4293672415
 20
9.0
 10
-110.5739252938
 20
8.6150414428
 10
-110.9259787766
 20
7.8224826988
 10
-111.3138621433
 20
7.1329603286
 10
-111.7323697922
 20
6.55572809
 10
-112.1758851278
 20
6.0985327472
 10
-112.6384559378
 20
5.7675101053
 10
-113.1138742756
 20
5.5671026647
 10
-113.5957597735
 20
5.5
  0
LWPOLYLINE
  5
9C
330
1F
100
AcDbEntity
  8
0
  6
Continuous
 62
     8
370
    25
100
AcDbPolyline
 90
        9
 70
   128
 43
0.0
 10
110.4293672415
 20
9.0
 10
110.5739252938
 20
8.6150414428
 10
110.9259787766
 20
7.8224826988
 10
111.3138621433
 20
7.1329603286
 10
111.7323697922
 20
6.55572809
 10
112.1758851278
 20
6.0985327472
 10
112.6384559378
 20
5.7675101053
 10
113.1138742756
 20
5.5671026647
 10
113.5957597735
 20
5.5
  0
LINE
  5
9F
330
1F
100
AcDbEntity
  8
0
  6
Continuous
 62
     7
370
    25
100
AcDbLine
 10
170.0
 20
11.291495957
 30
0.0
 11
170.0
 21
10.0
 31
0.0
  0
LINE
  5
A0
330
1F
100
AcDbEntity
  8
0
  6
Continuous
 62
     7
370
    25
100
AcDbLine
 10
-170.0
 20
10.0
 30
0.0
 11
170.0
 21
10.0
 31
0.0
  0
LINE
  5
A1
330
1F
100
AcDbEntity
  8
0
  6
Continuous
 62
     7
370
    25
100
AcDbLine
 10
-170.0
 20
11.291495957
 30
0.0
 11
-170.0
 21
10.0
 31
0.0
  0
LINE
  5
A2
330
1F
100
AcDbEntity
  8
0
  6
Continuous
 62
     7
370
    25
100
AcDbLine
 10
169.0
 20
9.0
 30
0.0
 11
-169.0
 21
9.0
 31
0.0
  0
LINE
  5
A3
330
1F
100
AcDbEntity
  8
0
  6
Continuous
 62
     7
370
    25
100
AcDbLine
 10
111.0149382145
 20
5.6465654308
 30
0.0
 11
111.0
 21
5.0
 31
0.0
  0
LINE
  5
A4
330
1F
100
AcDbEntity
  8
0
  6
Continuous
 62
     7
370
    25
100
AcDbLine
 10
-111.0
 20
5.0
 30
0.0
 11
111.0
 21
5.0
 31
0.0
  0
LINE
  5
A5
330
1F
100
AcDbEntity
  8
0
  6
Continuous
 62
     7
370
    25
100
AcDbLine
 10
-111.0149382145
 20
5.6465654308
 30
0.0
 11
-111.0
 21
5.0
 31
0.0
  0
LINE
  5
A6
330
1F
100
AcDbEntity
  8
0
  6
Continuous
 62
     7
370
    25
100
AcDbLine
 10
111.0
 20
0.0
 30
0.0
 11
111.0
 21
5.0
 31
0.0
  0
LINE
  5
A7
330
1F
100
AcDbEntity
  8
0
  6
Continuous
 62
     7
370
    25
100
AcDbLine
 10
-111.0
 20
0.0
 30
0.0
 11
111.0
 21
0.0
 31
0.0
  0
LINE
  5
A8
330
1F
100
AcDbEntity
  8
0
  6
Continuous
 62
     7
370
    25
100
AcDbLine
 10
-111.0
 20
0.0
 30
0.0
 11
-111.0
 21
5.0
 31
0.0
  0
LINE
  5
A9
330
1F
100
AcDbEntity
  8
0
  6
Continuous
 62
     7
370
    25
100
AcDbLine
 10
151.0
 20
5.5
 30
0.0
 11
112.7207597735
 21
5.5
 31
0.0
  0
LINE
  5
AA
330
1F
100
AcDbEntity
  8
0
  6
Continuous
 62
     7
370
    25
100
AcDbLine
 10
-112.7207597735
 20
5.5
 30
0.0
 11
-151.0
 21
5.5
 31
0.0
  0
LINE
  5
AB
330
1F
100
AcDbEntity
  8
0
  6
Continuous
 62
     7
370
    25
100
AcDbLine
 10
-180.0
 20
13.291495957
 30
0.0
 11
180.0
 21
13.291495957
 31
0.0
  0
LINE
  5
AC
330
1F
100
AcDbEntity
  8
0
  6
Continuous
 62
     7
370
    25
100
AcDbLine
 10
-180.0
 20
51.291495957
 30
0.0
 11
-180.0
 21
13.291495957
 31
0.0
  0
LINE
  5
AD
330
1F
100
AcDbEntity
  8
0
  6
Continuous
 62
     7
370
    25
100
AcDbLine
 10
180.0
 20
51.291495957
 30
0.0
 11
-180.0
 21
51.291495957
 31
0.0
  0
LINE
  5
AE
330
1F
100
AcDbEntity
  8
0
  6
Continuous
 62
     7
370
    25
100
AcDbLine
 10
180.0
 20
51.291495957
 30
0.0
 11
180.0
 21
13.291495957
 31
0.0
  0
LINE
  5
AF
330
1F
100
AcDbEntity
  8
0
  6
Continuous
 62
     7
370
    25
100
AcDbLine
 10
-175.0
 20
56.291495957
 30
0.0
 11
175.0
 21
56.291495957
 31
0.0
  0
LINE
  5
B0
330
1F
100
AcDbEntity
  8
0
  6
Continuous
 62
     7
370
    25
100
AcDbLine
 10
178.0
 20
11.291495957
 30
0.0
 11
-178.0
 21
11.291495957
 31
0.0
  0
LINE
  5
B1
330
1F
100
AcDbEntity
  8
0
  6
Continuous
 62
     8
370
    25
100
AcDbLine
 10
-149.5
 20
9.0
 30
0.0
 11
-149.5
 21
5.5
 31
0.0
  0
LINE
  5
B2
330
1F
100
AcDbEntity
  8
0
  6
Continuous
 62
     8
370
    25
100
AcDbLine
 10
149.5
 20
9.0
 30
0.0
 11
149.5
 21
5.5
 31
0.0
  0
ARC
  5
B3
330
1F
100
AcDbEntity
  8
0
  6
Continuous
 62
     7
370
    25
100
AcDbCircle
 10
-136.6291246598
 20
15.5
 30
0.0
 40
10.00000000000006
100
AcDbArc
 50
220.5416018735
 51
270.0
  0
ARC
  5
B4
330
1F
100
AcDbEntity
  8
0
  6
Continuous
 62
     7
370
    25
100
AcDbCircle
 10
136.6291246598
 20
15.5
 30
0.0
 40
9.999999999999995
100
AcDbArc
 50
270.0
 51
319.4583981265
  0
ARC
  5
B5
330
1F
100
AcDbEntity
  8
0
  6
Continuous
 62
     7
370
    25
100
AcDbCircle
 10
112.7207597735
 20
15.5
 30
0.0
 40
10.00000000000007
100
AcDbArc
 50
220.5416018735
 51
270.0
  0
ARC
  5
B6
330
1F
100
AcDbEntity
  8
0
  6
Continuous
 62
     7
370
    25
100
AcDbCircle
 10
-112.7207597735
 20
15.5
 30
0.0
 40
10.00000000000012
100
AcDbArc
 50
270.0
 51
319.4583981265
  0
ARC
  5
B7
330
1F
100
AcDbEntity
  8
0
  6
Continuous
 62
     7
370
    25
100
AcDbCircle
 10
-151.0
 20
15.5
 30
0.0
 40
10.00000000000003
100
AcDbArc
 50
220.5416018735
 51
270.0
  0
ARC
  5
B8
330
1F
100
AcDbEntity
  8
0
  6
Continuous
 62
     7
370
    25
100
AcDbCircle
 10
151.0
 20
15.5
 30
0.0
 40
9.999999999999932
100
AcDbArc
 50
270.0
 51
319.4583981265
  0
ARC
  5
B9
330
1F
100
AcDbEntity
  8
0
  6
Continuous
 62
     7
370
    25
100
AcDbCircle
 10
169.0
 20
10.0
 30
0.0
 40
1.0
100
AcDbArc
 50
270.0
 51
0.0
  0
ARC
  5
BA
330
1F
100
AcDbEntity
  8
0
  6
Continuous
 62
     7
370
    25
100
AcDbCircle
 10
-169.0
 20
10.0
 30
0.0
 40
1.0
100
AcDbArc
 50
180.0
 51
270.0
  0
ARC
  5
BB
330
1F
100
AcDbEntity
  8
0
  6
Continuous
 62
     7
370
    25
100
AcDbCircle
 10
-175.0
 20
51.291495957
 30
0.0
 40
4.999999999999972
100
AcDbArc
 50
90.0
 51
180.0
  0
ARC
  5
BC
330
1F
100
AcDbEntity
  8
0
  6
Continuous
 62
     7
370
    25
100
AcDbCircle
 10
175.0
 20
51.291495957
 30
0.0
 40
4.999999999999957
100
AcDbArc
 50
0.0
 51
90.0
  0
ARC
  5
BD
330
1F
100
AcDbEntity
  8
0
  6
Continuous
 62
     7
370
    25
100
AcDbCircle
 10
-178.0
 20
13.291495957
 30
0.0
 40
2.000000000000057
100
AcDbArc
 50
180.0
 51
270.0
  0
ARC
  5
BE
330
1F
100
AcDbEntity
  8
0
  6
Continuous
 62
     7
370
    25
100
AcDbCircle
 10
178.0
 20
13.291495957
 30
0.0
 40
2.000000000000028
100
AcDbArc
 50
270.0
 51
0.0
  0
LWPOLYLINE
  5
C3
330
1B
100
AcDbEntity
 67
     1
  8
0
  6
Continuous
 62
     7
370
    25
100
AcDbPolyline
 90
        3
 70
   128
 43
0.0
 10
111.0149382145
 20
5.6465654308
 10
111.5642345785
 20
5.5671026647
 10
112.7207597735
 20
5.5
  0
LWPOLYLINE
  5
C4
330
1B
100
AcDbEntity
 67
     1
  8
0
  6
Continuous
 62
     7
370
    25
100
AcDbPolyline
 90
        3
 70
   128
 43
0.0
 10
-112.7207597735
 20
5.5
 10
-111.5642345785
 20
5.5671026647
 10
-111.0149382145
 20
5.6465654308
  0
LWPOLYLINE
  5
E6
330
1B
100
AcDbEntity
 67
     1
  8
0
  6
Continuous
 62
     7
370
    25
100
AcDbPolyline
 90
        3
 70
   128
 43
0.0
 10
-111.0
 20
5.0
 10
-111.2126914578
 20
7.4310744873
 10
-111.583592135
 20
9.0
  0
LWPOLYLINE
  5
E7
330
1B
100
AcDbEntity
 67
     1
  8
0
  6
Continuous
 62
     7
370
    25
100
AcDbPolyline
 90
        3
 70
   128
 43
0.0
 10
111.583592135
 20
9.0
 10
111.2126914578
 20
7.4310744873
 10
111.0
 20
5.0
  0
LWPOLYLINE
  5
134
330
1B
100
AcDbEntity
 67
     1
  8
0
  6
Continuous
 62
     8
370
    25
100
AcDbPolyline
 90
        8
 70
   128
 43
0.0
 10
114.8457597735
 20
5.5
 10
115.3276452714
 20
5.5671026647
 10
115.8030636091
 20
5.7675101053
 10
116.2656344191
 20
6.0985327472
 10
116.7091497547
 20
6.55572809
 10
117.1276574037
 20
7.1329603286
 10
117.5155407703
 20
7.8224826988
 10
117.8323010166
 20
8.526902318
  0
LWPOLYLINE
  5
135
330
1B
100
AcDbEntity
 67
     1
  8
0
  6
Continuous
 62
     8
370
    25
100
AcDbPolyline
 90
        8
 70
   128
 43
0.0
 10
-114.8457597735
 20
5.5
 10
-115.3276452714
 20
5.5671026647
 10
-115.8030636091
 20
5.7675101053
 10
-116.2656344191
 20
6.0985327472
 10
-116.7091497547
 20
6.55572809
 10
-117.1276574037
 20
7.1329603286
 10
-117.5155407703
 20
7.8224826988
 10
-117.8323010166
 20
8.526902318
  0
LINE
  5
138
330
1B
100
AcDbEntity
 67
     1
  8
0
  6
Continuous
 62
     7
370
    25
100
AcDbLine
 10
102.5
 20
20.291495957
 30
0.0
 11
122.5
 21
20.291495957
 31
0.0
  0
LINE
  5
139
330
1B
100
AcDbEntity
 67
     1
  8
0
  6
Continuous
 62
     7
370
    25
100
AcDbLine
 10
-122.5
 20
20.291495957
 30
0.0
 11
-102.5
 21
20.291495957
 31
0.0
  0
LINE
  5
13A
330
1B
100
AcDbEntity
 67
     1
  8
0
  6
Continuous
 62
     7
370
    25
100
AcDbLine
 10
135.5
 20
31.291495957
 30
0.0
 11
135.5
 21
36.291495957
 31
0.0
  0
LINE
  5
13B
330
1B
100
AcDbEntity
 67
     1
  8
0
  6
Continuous
 62
     7
370
    25
100
AcDbLine
 10
135.3
 20
30.791495957
 30
0.0
 11
135.3
 21
31.291495957
 31
0.0
  0
LINE
  5
13C
330
1B
100
AcDbEntity
 67
     1
  8
0
  6
Continuous
 62
     7
370
    25
100
AcDbLine
 10
-102.0
 20
21.0
 30
0.0
 11
-87.0
 21
21.0
 31
0.0
  0
LINE
  5
13D
330
1B
100
AcDbEntity
 67
     1
  8
0
  6
Continuous
 62
     7
370
    25
100
AcDbLine
 10
102.0
 20
21.0
 30
0.0
 11
87.0
 21
21.0
 31
0.0
  0
LINE
  5
13E
330
1B
100
AcDbEntity
 67
     1
  8
0
  6
Continuous
 62
     7
370
    25
100
AcDbLine
 10
-87.0
 20
9.0
 30
0.0
 11
-87.0
 21
48.291495957
 31
0.0
  0
LINE
  5
13F
330
1B
100
AcDbEntity
 67
     1
  8
0
  6
Continuous
 62
     7
370
    25
100
AcDbLine
 10
87.0
 20
9.0
 30
0.0
 11
87.0
 21
48.291495957
 31
0.0
  0
LINE
  5
140
330
1B
100
AcDbEntity
 67
     1
  8
0
  6
Continuous
 62
     7
370
    25
100
AcDbLine
 10
-102.0
 20
9.0
 30
0.0
 11
-102.0
 21
48.291495957
 31
0.0
  0
LINE
  5
141
330
1B
100
AcDbEntity
 67
     1
  8
0
  6
Continuous
 62
     7
370
    25
100
AcDbLine
 10
102.0
 20
9.0
 30
0.0
 11
102.0
 21
48.291495957
 31
0.0
  0
LINE
  5
142
330
1B
100
AcDbEntity
 67
     1
  8
0
  6
Continuous
 62
     7
370
    25
100
AcDbLine
 10
-87.0
 20
9.0
 30
0.0
 11
-169.0
 21
9.0
 31
0.0
  0
LINE
  5
143
330
1B
100
AcDbEntity
 67
     1
  8
0
  6
Continuous
 62
     7
370
    25
100
AcDbLine
 10
169.0
 20
9.0
 30
0.0
 11
87.0
 21
9.0
 31
0.0
  0
LINE
  5
144
330
1B
100
AcDbEntity
 67
     1
  8
0
  6
Continuous
 62
     7
370
    25
100
AcDbLine
 10
-87.0
 20
25.0
 30
0.0
 11
87.0
 21
25.0
 31
0.0
  0
LINE
  5
145
330
1B
100
AcDbEntity
 67
     1
  8
0
  6
Continuous
 62
     7
370
    25
100
AcDbLine
 10
87.0
 20
18.0
 30
0.0
 11
-87.0
 21
18.0
 31
0.0
  0
LINE
  5
146
330
1B
100
AcDbEntity
 67
     1
  8
0
  6
Continuous
 62
     7
370
    25
100
AcDbLine
 10
-170.0
 20
18.0
 30
0.0
 11
-170.0
 21
10.0
 31
0.0
  0
LINE
  5
147
330
1B
100
AcDbEntity
 67
     1
  8
0
  6
Continuous
 62
     7
370
    25
100
AcDbLine
 10
-163.0
 20
25.0
 30
0.0
 11
-122.5
 21
25.0
 31
0.0
  0
LINE
  5
148
330
1B
100
AcDbEntity
 67
     1
  8
0
  6
Continuous
 62
     7
370
    25
100
AcDbLine
 10
-102.5
 20
25.0
 30
0.0
 11
-102.0
 21
25.0
 31
0.0
  0
LINE
  5
149
330
1B
100
AcDbEntity
 67
     1
  8
0
  6
Continuous
 62
     7
370
    25
100
AcDbLine
 10
102.0
 20
25.0
 30
0.0
 11
102.5
 21
25.0
 31
0.0
  0
LINE
  5
14A
330
1B
100
AcDbEntity
 67
     1
  8
0
  6
Continuous
 62
     7
370
    25
100
AcDbLine
 10
122.5
 20
25.0
 30
0.0
 11
163.0
 21
25.0
 31
0.0
  0
LINE
  5
14B
330
1B
100
AcDbEntity
 67
     1
  8
0
  6
Continuous
 62
     7
370
    25
100
AcDbLine
 10
170.0
 20
18.0
 30
0.0
 11
170.0
 21
10.0
 31
0.0
  0
LINE
  5
14C
330
1B
100
AcDbEntity
 67
     1
  8
0
  6
Continuous
 62
     7
370
    25
100
AcDbLine
 10
-111.0
 20
5.0
 30
0.0
 11
111.0
 21
5.0
 31
0.0
  0
LINE
  5
14D
330
1B
100
AcDbEntity
 67
     1
  8
0
  6
Continuous
 62
     7
370
    25
100
AcDbLine
 10
35.0
 20
0.0
 30
0.0
 11
35.0
 21
18.0
 31
0.0
  0
LINE
  5
14E
330
1B
100
AcDbEntity
 67
     1
  8
0
  6
Continuous
 62
     7
370
    25
100
AcDbLine
 10
-111.0
 20
0.0
 30
0.0
 11
111.0
 21
0.0
 31
0.0
  0
LINE
  5
14F
330
1B
100
AcDbEntity
 67
     1
  8
0
  6
Continuous
 62
     7
370
    25
100
AcDbLine
 10
-35.0
 20
0.0
 30
0.0
 11
-35.0
 21
18.0
 31
0.0
  0
LINE
  5
150
330
1B
100
AcDbEntity
 67
     1
  8
0
  6
Continuous
 62
     7
370
    25
100
AcDbLine
 10
111.0
 20
0.0
 30
0.0
 11
111.0
 21
5.0
 31
0.0
  0
LINE
  5
151
330
1B
100
AcDbEntity
 67
     1
  8
0
  6
Continuous
 62
     7
370
    25
100
AcDbLine
 10
-111.0
 20
0.0
 30
0.0
 11
-111.0
 21
5.0
 31
0.0
  0
LINE
  5
152
330
1B
100
AcDbEntity
 67
     1
  8
0
  6
Continuous
 62
     7
370
    25
100
AcDbLine
 10
151.0
 20
5.5
 30
0.0
 11
112.7207597735
 21
5.5
 31
0.0
  0
LINE
  5
153
330
1B
100
AcDbEntity
 67
     1
  8
0
  6
Continuous
 62
     7
370
    25
100
AcDbLine
 10
-112.7207597735
 20
5.5
 30
0.0
 11
-151.0
 21
5.5
 31
0.0
  0
LINE
  5
154
330
1B
100
AcDbEntity
 67
     1
  8
0
  6
Continuous
 62
     7
370
    25
100
AcDbLine
 10
122.5
 20
38.291495957
 30
0.0
 11
165.0
 21
38.291495957
 31
0.0
  0
LINE
  5
155
330
1B
100
AcDbEntity
 67
     1
  8
0
  6
Continuous
 62
     7
370
    25
100
AcDbLine
 10
165.0
 20
38.291495957
 30
0.0
 11
165.0
 21
36.291495957
 31
0.0
  0
LINE
  5
156
330
1B
100
AcDbEntity
 67
     1
  8
0
  6
Continuous
 62
     7
370
    25
100
AcDbLine
 10
165.0
 20
36.291495957
 30
0.0
 11
102.5
 21
36.291495957
 31
0.0
  0
LINE
  5
157
330
1B
100
AcDbEntity
 67
     1
  8
0
  6
Continuous
 62
     7
370
    25
100
AcDbLine
 10
-102.5
 20
36.291495957
 30
0.0
 11
-165.0
 21
36.291495957
 31
0.0
  0
LINE
  5
158
330
1B
100
AcDbEntity
 67
     1
  8
0
  6
Continuous
 62
     7
370
    25
100
AcDbLine
 10
-165.0
 20
36.291495957
 30
0.0
 11
-165.0
 21
38.291495957
 31
0.0
  0
LINE
  5
159
330
1B
100
AcDbEntity
 67
     1
  8
0
  6
Continuous
 62
     7
370
    25
100
AcDbLine
 10
-165.0
 20
38.291495957
 30
0.0
 11
-122.5
 21
38.291495957
 31
0.0
  0
LINE
  5
15A
330
1B
100
AcDbEntity
 67
     1
  8
0
  6
Continuous
 62
     7
370
    25
100
AcDbLine
 10
-175.0
 20
26.291495957
 30
0.0
 11
-177.0
 21
26.291495957
 31
0.0
  0
LINE
  5
15B
330
1B
100
AcDbEntity
 67
     1
  8
0
  6
Continuous
 62
     7
370
    25
100
AcDbLine
 10
-175.0
 20
26.291495957
 30
0.0
 11
-175.0
 21
13.291495957
 31
0.0
  0
LINE
  5
15C
330
1B
100
AcDbEntity
 67
     1
  8
0
  6
Continuous
 62
     7
370
    25
100
AcDbLine
 10
-180.0
 20
13.291495957
 30
0.0
 11
-170.0
 21
13.291495957
 31
0.0
  0
LINE
  5
15D
330
1B
100
AcDbEntity
 67
     1
  8
0
  6
Continuous
 62
     7
370
    25
100
AcDbLine
 10
-177.0
 20
11.291495957
 30
0.0
 11
-177.0
 21
26.291495957
 31
0.0
  0
LINE
  5
15E
330
1B
100
AcDbEntity
 67
     1
  8
0
  6
Continuous
 62
     7
370
    25
100
AcDbLine
 10
170.0
 20
13.291495957
 30
0.0
 11
180.0
 21
13.291495957
 31
0.0
  0
LINE
  5
15F
330
1B
100
AcDbEntity
 67
     1
  8
0
  6
Continuous
 62
     7
370
    25
100
AcDbLine
 10
178.0
 20
11.291495957
 30
0.0
 11
170.0
 21
11.291495957
 31
0.0
  0
LINE
  5
160
330
1B
100
AcDbEntity
 67
     1
  8
0
  6
Continuous
 62
     7
370
    25
100
AcDbLine
 10
177.0
 20
26.291495957
 30
0.0
 11
177.0
 21
11.291495957
 31
0.0
  0
LINE
  5
161
330
1B
100
AcDbEntity
 67
     1
  8
0
  6
Continuous
 62
     7
370
    25
100
AcDbLine
 10
177.0
 20
26.291495957
 30
0.0
 11
175.0
 21
26.291495957
 31
0.0
  0
LINE
  5
162
330
1B
100
AcDbEntity
 67
     1
  8
0
  6
Continuous
 62
     7
370
    25
100
AcDbLine
 10
175.0
 20
13.291495957
 30
0.0
 11
175.0
 21
26.291495957
 31
0.0
  0
LINE
  5
163
330
1B
100
AcDbEntity
 67
     1
  8
0
  6
Continuous
 62
     7
370
    25
100
AcDbLine
 10
102.5
 20
48.291495957
 30
0.0
 11
-102.5
 21
48.291495957
 31
0.0
  0
LINE
  5
164
330
1B
100
AcDbEntity
 67
     1
  8
0
  6
Continuous
 62
     7
370
    25
100
AcDbLine
 10
-102.5
 20
50.291495957
 30
0.0
 11
102.5
 21
50.291495957
 31
0.0
  0
LINE
  5
165
330
1B
100
AcDbEntity
 67
     1
  8
0
  6
Continuous
 62
     7
370
    25
100
AcDbLine
 10
-170.0
 20
11.291495957
 30
0.0
 11
-178.0
 21
11.291495957
 31
0.0
  0
LINE
  5
166
330
1B
100
AcDbEntity
 67
     1
  8
0
  6
Continuous
 62
     7
370
    25
100
AcDbLine
 10
122.5
 20
20.291495957
 30
0.0
 11
122.5
 21
38.291495957
 31
0.0
  0
LINE
  5
167
330
1B
100
AcDbEntity
 67
     1
  8
0
  6
Continuous
 62
     7
370
    25
100
AcDbLine
 10
102.5
 20
20.291495957
 30
0.0
 11
102.5
 21
50.291495957
 31
0.0
  0
LINE
  5
168
330
1B
100
AcDbEntity
 67
     1
  8
0
  6
Continuous
 62
     7
370
    25
100
AcDbLine
 10
-180.0
 20
51.291495957
 30
0.0
 11
-180.0
 21
13.291495957
 31
0.0
  0
LINE
  5
169
330
1B
100
AcDbEntity
 67
     1
  8
0
  6
Continuous
 62
     7
370
    25
100
AcDbLine
 10
180.0
 20
51.291495957
 30
0.0
 11
180.0
 21
13.291495957
 31
0.0
  0
LINE
  5
16A
330
1B
100
AcDbEntity
 67
     1
  8
0
  6
Continuous
 62
     7
370
    25
100
AcDbLine
 10
-175.0
 20
56.291495957
 30
0.0
 11
175.0
 21
56.291495957
 31
0.0
  0
LINE
  5
16B
330
1B
100
AcDbEntity
 67
     1
  8
0
  6
Continuous
 62
     7
370
    25
100
AcDbLine
 10
-102.5
 20
20.291495957
 30
0.0
 11
-102.5
 21
50.291495957
 31
0.0
  0
LINE
  5
16C
330
1B
100
AcDbEntity
 67
     1
  8
0
  6
Continuous
 62
     7
370
    25
100
AcDbLine
 10
-122.5
 20
20.291495957
 30
0.0
 11
-122.5
 21
38.291495957
 31
0.0
  0
LINE
  5
16D
330
1B
100
AcDbEntity
 67
     1
  8
0
  6
Continuous
 62
     7
370
    25
100
AcDbLine
 10
135.5
 20
31.291495957
 30
0.0
 11
122.5
 21
31.291495957
 31
0.0
  0
LINE
  5
16E
330
1B
100
AcDbEntity
 67
     1
  8
0
  6
Continuous
 62
     7
370
    25
100
AcDbLine
 10
135.3
 20
30.791495957
 30
0.0
 11
122.5
 21
30.791495957
 31
0.0
  0
LINE
  5
16F
330
1B
100
AcDbEntity
 67
     1
  8
0
  6
Continuous
 62
     8
370
    25
100
AcDbLine
 10
149.5
 20
5.5
 30
0.0
 11
149.5
 21
9.0
 31
0.0
  0
LINE
  5
170
330
1B
100
AcDbEntity
 67
     1
  8
0
  6
Continuous
 62
     8
370
    25
100
AcDbLine
 10
-149.5
 20
5.5
 30
0.0
 11
-149.5
 21
9.0
 31
0.0
  0
LINE
  5
171
330
1B
100
AcDbEntity
 67
     1
  8
0
  6
Continuous
 62
     8
370
    25
100
AcDbLine
 10
-126.5
 20
5.5
 30
0.0
 11
-126.5
 21
9.0
 31
0.0
  0
LINE
  5
172
330
1B
100
AcDbEntity
 67
     1
  8
0
  6
Continuous
 62
     8
370
    25
100
AcDbLine
 10
126.5
 20
5.5
 30
0.0
 11
126.5
 21
9.0
 31
0.0
  0
ARC
  5
173
330
1B
100
AcDbEntity
 67
     1
  8
0
  6
Continuous
 62
     7
370
    25
100
AcDbCircle
 10
151.0
 20
15.5
 30
0.0
 40
9.999999999999932
100
AcDbArc
 50
270.0
 51
319.4583981265
  0
ARC
  5
174
330
1B
100
AcDbEntity
 67
     1
  8
0
  6
Continuous
 62
     7
370
    25
100
AcDbCircle
 10
-151.0
 20
15.5
 30
0.0
 40
10.00000000000003
100
AcDbArc
 50
220.5416018735
 51
270.0
  0
ARC
  5
175
330
1B
100
AcDbEntity
 67
     1
  8
0
  6
Continuous
 62
     7
370
    25
100
AcDbCircle
 10
-125.0
 20
15.5
 30
0.0
 40
9.999999999999964
100
AcDbArc
 50
270.0
 51
319.4583981265
  0
ARC
  5
176
330
1B
100
AcDbEntity
 67
     1
  8
0
  6
Continuous
 62
     7
370
    25
100
AcDbCircle
 10
125.0
 20
15.5
 30
0.0
 40
10.00000000000002
100
AcDbArc
 50
220.5416018735
 51
270.0
  0
ARC
  5
177
330
1B
100
AcDbEntity
 67
     1
  8
0
  6
Continuous
 62
     7
370
    25
100
AcDbCircle
 10
128.0
 20
32.2323292904
 30
0.0
 40
7.440833333333484
100
AcDbArc
 50
222.3397059444
 51
256.4042406744
  0
ARC
  5
178
330
1B
100
AcDbEntity
 67
     1
  8
0
  6
Continuous
 62
     7
370
    25
100
AcDbCircle
 10
128.0
 20
32.2323292904
 30
0.0
 40
7.440833333333486
100
AcDbArc
 50
283.5957593256
 51
348.8347884869
  0
ARC
  5
179
330
1B
100
AcDbEntity
 67
     1
  8
0
  6
Continuous
 62
     7
370
    25
100
AcDbCircle
 10
-169.0
 20
10.0
 30
0.0
 40
1.0
100
AcDbArc
 50
180.0
 51
270.0
  0
ARC
  5
17A
330
1B
100
AcDbEntity
 67
     1
  8
0
  6
Continuous
 62
     7
370
    25
100
AcDbCircle
 10
-163.0
 20
18.0
 30
0.0
 40
7.0
100
AcDbArc
 50
90.0
 51
180.0
  0
ARC
  5
17B
330
1B
100
AcDbEntity
 67
     1
  8
0
  6
Continuous
 62
     7
370
    25
100
AcDbCircle
 10
169.0
 20
10.0
 30
0.0
 40
1.0
100
AcDbArc
 50
270.0
 51
0.0
  0
ARC
  5
17C
330
1B
100
AcDbEntity
 67
     1
  8
0
  6
Continuous
 62
     7
370
    25
100
AcDbCircle
 10
163.0
 20
18.0
 30
0.0
 40
6.99999999999995
100
AcDbArc
 50
0.0
 51
90.0
  0
ARC
  5
17D
330
1B
100
AcDbEntity
 67
     1
  8
0
  6
Continuous
 62
     7
370
    25
100
AcDbCircle
 10
-165.0
 20
26.291495957
 30
0.0
 40
10.00000000000009
100
AcDbArc
 50
90.0
 51
180.0
  0
ARC
  5
17E
330
1B
100
AcDbEntity
 67
     1
  8
0
  6
Continuous
 62
     7
370
    25
100
AcDbCircle
 10
-165.0
 20
26.291495957
 30
0.0
 40
12.00000000000003
100
AcDbArc
 50
90.0
 51
180.0
  0
ARC
  5
17F
330
1B
100
AcDbEntity
 67
     1
  8
0
  6
Continuous
 62
     7
370
    25
100
AcDbCircle
 10
178.0
 20
13.291495957
 30
0.0
 40
2.000000000000028
100
AcDbArc
 50
270.0
 51
0.0
  0
ARC
  5
180
330
1B
100
AcDbEntity
 67
     1
  8
0
  6
Continuous
 62
     7
370
    25
100
AcDbCircle
 10
177.0
 20
13.291495957
 30
0.0
 40
1.99999999999997
100
AcDbArc
 50
180.0
 51
270.0
  0
ARC
  5
181
330
1B
100
AcDbEntity
 67
     1
  8
0
  6
Continuous
 62
     7
370
    25
100
AcDbCircle
 10
165.0
 20
26.291495957
 30
0.0
 40
12.00000000000007
100
AcDbArc
 50
0.0
 51
90.0
  0
ARC
  5
182
330
1B
100
AcDbEntity
 67
     1
  8
0
  6
Continuous
 62
     7
370
    25
100
AcDbCircle
 10
165.0
 20
26.291495957
 30
0.0
 40
10.00000000000009
100
AcDbArc
 50
0.0
 51
90.0
  0
ARC
  5
183
330
1B
100
AcDbEntity
 67
     1
  8
0
  6
Continuous
 62
     7
370
    25
100
AcDbCircle
 10
-178.0
 20
13.291495957
 30
0.0
 40
2.000000000000057
100
AcDbArc
 50
180.0
 51
270.0
  0
ARC
  5
184
330
1B
100
AcDbEntity
 67
     1
  8
0
  6
Continuous
 62
     7
370
    25
100
AcDbCircle
 10
-177.0
 20
13.291495957
 30
0.0
 40
1.999999999999982
100
AcDbArc
 50
270.0
 51
0.0
  0
ARC
  5
185
330
1B
100
AcDbEntity
 67
     1
  8
0
  6
Continuous
 62
     7
370
    25
100
AcDbCircle
 10
175.0
 20
51.291495957
 30
0.0
 40
4.999999999999957
100
AcDbArc
 50
0.0
 51
90.0
  0
ARC
  5
186
330
1B
100
AcDbEntity
 67
     1
  8
0
  6
Continuous
 62
     7
370
    25
100
AcDbCircle
 10
-175.0
 20
51.291495957
 30
0.0
 40
5.000000000000057
100
AcDbArc
 50
90.0
 51
180.0
  0
VIEWPORT
  5
4CC
330
1B
100
AcDbEntity
 67
     1
  8
0
100
AcDbViewport
 10
0.0
 20
0.0
 30
0.0
 40
205.6
 41
156.0
 68
     1
 69
     1
 12
0.0
 22
28.1457479785
 13
0.0
 23
0.0
 14
10.0
 24
10.0
 15
10.0
 25
10.0
 16
0.0
 26
0.0
 36
1.0
 17
0.0
 27
0.0
 37
0.0
 42
50.0
 43
0.0
 44
0.0
 45
278.6147859922
 50
0.0
 51
0.0
 72
   100
 90
   557152
  1

281
     0
 71
     1
 74
     0
110
0.0
120
0.0
130
0.0
111
1.0
121
0.0
131
0.0
112
0.0
122
1.0
132
0.0
 79
     0
146
0.0
  0
ENDSEC
  0
SECTION
  2
OBJECTS
  0
DICTIONARY
  5
C
330
0
100
AcDbDictionary
281
     1
  3
ACAD_GROUP
350
D
  3
ACAD_LAYOUT
350
1A
  3
ACAD_MLINESTYLE
350
17
  3
ACAD_PLOTSETTINGS
350
19
  3
ACAD_PLOTSTYLENAME
350
E
  3
ACAD_SCALELIST
350
47
  0
DICTIONARY
  5
D
102
{ACAD_REACTORS
330
C
102
}
330
C
100
AcDbDictionary
281
     1
  0
DICTIONARY
  5
1A
102
{ACAD_REACTORS
330
C
102
}
330
C
100
AcDbDictionary
281
     1
  3
_Back
350
1E
  3
_Bottom
350
246
  3
_Dimetric
350
4A3
  3
_Isometric
350
44A
  3
_Left
350
26
  3
_Right
350
1D9
  3
_Top
350
22E
  3
_Trimetric
350
477
  3
Model
350
22
  0
DICTIONARY
  5
17
102
{ACAD_REACTORS
330
C
102
}
330
C
100
AcDbDictionary
281
     1
  3
Standard
350
18
  0
DICTIONARY
  5
19
102
{ACAD_REACTORS
330
C
102
}
330
C
100
AcDbDictionary
281
     1
  0
ACDBDICTIONARYWDFLT
  5
E
102
{ACAD_REACTORS
330
C
102
}
330
C
100
AcDbDictionary
281
     1
  3
Normal
350
F
100
AcDbDictionaryWithDefault
340
F
  0
DICTIONARY
  5
47
102
{ACAD_REACTORS
330
C
102
}
330
C
100
AcDbDictionary
281
     1
  3
A0
350
48
  3
A1
350
49
  3
A2
350
4A
  3
A3
350
4B
  3
A4
350
4C
  3
A5
350
4D
  3
A6
350
4E
  3
A7
350
4F
  3
A8
350
50
  3
A9
350
51
  3
B0
350
52
  3
B1
350
53
  3
B2
350
54
  3
B3
350
55
  3
B4
350
56
  3
B5
350
57
  3
B6
350
58
  3
B7
350
59
  3
B8
350
5A
  3
B9
350
5B
  3
C0
350
5C
  3
C1
350
5D
  3
C2
350
5E
  3
C3
350
5F
  3
C4
350
60
  3
C5
350
61
  3
C6
350
62
  3
C7
350
63
  3
C8
350
64
  3
C9
350
65
  3
D0
350
66
  3
D1
350
67
  3
D2
350
68
  0
LAYOUT
  5
1E
102
{ACAD_REACTORS
330
1A
102
}
330
1A
100
AcDbPlotSettings
  1

  2
none_device
  4
ISO_A4_(210.00_x_297.00_MM)
  6

 40
7.5
 41
20.0
 42
7.5
 43
20.0
 44
210.0
 45
297.0
 46
0.0
 47
0.0
 48
0.0
 49
0.0
140
0.0
141
0.0
142
1.0
143
1.4007782101
 70
   688
 72
     1
 73
     1
 74
     1
  7

 75
     0
147
0.7138888889
148
180.0
149
0.0
100
AcDbLayout
  1
_Back
 70
     1
 71
     1
 10
-208.0155642023
 20
-10.5058365759
 11
208.0155642023
 21
283.6575875486
 12
0.0
 22
0.0
 32
0.0
 14
-180.0
 24
0.0
 34
0.0
 15
180.0
 25
56.291495957
 35
0.0
146
0.0
 13
0.0
 23
0.0
 33
0.0
 16
1.0
 26
0.0
 36
0.0
 17
0.0
 27
1.0
 37
0.0
 76
     0
330
1B
331
4CC
  0
LAYOUT
  5
246
102
{ACAD_REACTORS
330
1A
102
}
330
1A
100
AcDbPlotSettings
  1

  2
none_device
  4
ISO_A4_(210.00_x_297.00_MM)
  6

 40
7.5
 41
20.0
 42
7.5
 43
20.0
 44
210.0
 45
297.0
 46
0.0
 47
0.0
 48
0.0
 49
0.0
140
0.0
141
0.0
142
1.0
143
1.4007782101
 70
   688
 72
     1
 73
     1
 74
     1
  7

 75
     0
147
0.7138888889
148
180.0
149
0.0
100
AcDbLayout
  1
_Bottom
 70
     1
 71
     5
 10
0.0
 20
0.0
 11
0.0
 21
0.0
 12
0.0
 22
0.0
 32
0.0
 14
0.0
 24
0.0
 34
0.0
 15
0.0
 25
0.0
 35
0.0
146
0.0
 13
0.0
 23
0.0
 33
0.0
 16
1.0
 26
0.0
 36
0.0
 17
0.0
 27
1.0
 37
0.0
 76
     0
330
245
331
4D4
  0
LAYOUT
  5
4A3
102
{ACAD_REACTORS
330
1A
102
}
330
1A
100
AcDbPlotSettings
  1

  2
none_device
  4
ISO_A4_(210.00_x_297.00_MM)
  6

 40
7.5
 41
20.0
 42
7.5
 43
20.0
 44
210.0
 45
297.0
 46
0.0
 47
0.0
 48
0.0
 49
0.0
140
0.0
141
0.0
142
1.0
143
1.4007782101
 70
   688
 72
     1
 73
     1
 74
     1
  7

 75
     0
147
0.7138888889
148
180.0
149
0.0
100
AcDbLayout
  1
_Dimetric
 70
     1
 71
     8
 10
0.0
 20
0.0
 11
0.0
 21
0.0
 12
0.0
 22
0.0
 32
0.0
 14
0.0
 24
0.0
 34
0.0
 15
0.0
 25
0.0
 35
0.0
146
0.0
 13
0.0
 23
0.0
 33
0.0
 16
1.0
 26
0.0
 36
0.0
 17
0.0
 27
1.0
 37
0.0
 76
     0
330
4A2
331
4DA
  0
LAYOUT
  5
44A
102
{ACAD_REACTORS
330
1A
102
}
330
1A
100
AcDbPlotSettings
  1

  2
none_device
  4
ISO_A4_(210.00_x_297.00_MM)
  6

 40
7.5
 41
20.0
 42
7.5
 43
20.0
 44
210.0
 45
297.0
 46
0.0
 47
0.0
 48
0.0
 49
0.0
140
0.0
141
0.0
142
1.0
143
1.4007782101
 70
   688
 72
     1
 73
     1
 74
     1
  7

 75
     0
147
0.7138888889
148
180.0
149
0.0
100
AcDbLayout
  1
_Isometric
 70
     1
 71
     6
 10
0.0
 20
0.0
 11
0.0
 21
0.0
 12
0.0
 22
0.0
 32
0.0
 14
0.0
 24
0.0
 34
0.0
 15
0.0
 25
0.0
 35
0.0
146
0.0
 13
0.0
 23
0.0
 33
0.0
 16
1.0
 26
0.0
 36
0.0
 17
0.0
 27
1.0
 37
0.0
 76
     0
330
449
331
4D6
  0
LAYOUT
  5
26
102
{ACAD_REACTORS
330
1A
102
}
330
1A
100
AcDbPlotSettings
  1

  2
none_device
  4
ISO_A4_(210.00_x_297.00_MM)
  6

 40
7.5
 41
20.0
 42
7.5
 43
20.0
 44
210.0
 45
297.0
 46
0.0
 47
0.0
 48
0.0
 49
0.0
140
0.0
141
0.0
142
1.0
143
1.4007782101
 70
   688
 72
     1
 73
     1
 74
     1
  7

 75
     0
147
0.7138888889
148
180.0
149
0.0
100
AcDbLayout
  1
_Left
 70
     1
 71
     2
 10
0.0
 20
0.0
 11
0.0
 21
0.0
 12
0.0
 22
0.0
 32
0.0
 14
0.0
 24
0.0
 34
0.0
 15
0.0
 25
0.0
 35
0.0
146
0.0
 13
0.0
 23
0.0
 33
0.0
 16
1.0
 26
0.0
 36
0.0
 17
0.0
 27
1.0
 37
0.0
 76
     0
330
23
331
4CE
  0
LAYOUT
  5
1D9
102
{ACAD_REACTORS
330
1A
102
}
330
1A
100
AcDbPlotSettings
  1

  2
none_device
  4
ISO_A4_(210.00_x_297.00_MM)
  6

 40
7.5
 41
20.0
 42
7.5
 43
20.0
 44
210.0
 45
297.0
 46
0.0
 47
0.0
 48
0.0
 49
0.0
140
0.0
141
0.0
142
1.0
143
1.4007782101
 70
   688
 72
     1
 73
     1
 74
     1
  7

 75
     0
147
0.7138888889
148
180.0
149
0.0
100
AcDbLayout
  1
_Right
 70
     1
 71
     3
 10
0.0
 20
0.0
 11
0.0
 21
0.0
 12
0.0
 22
0.0
 32
0.0
 14
0.0
 24
0.0
 34
0.0
 15
0.0
 25
0.0
 35
0.0
146
0.0
 13
0.0
 23
0.0
 33
0.0
 16
1.0
 26
0.0
 36
0.0
 17
0.0
 27
1.0
 37
0.0
 76
     0
330
1D8
331
4D0
  0
LAYOUT
  5
22E
102
{ACAD_REACTORS
330
1A
102
}
330
1A
100
AcDbPlotSettings
  1

  2
none_device
  4
ISO_A4_(210.00_x_297.00_MM)
  6

 40
7.5
 41
20.0
 42
7.5
 43
20.0
 44
210.0
 45
297.0
 46
0.0
 47
0.0
 48
0.0
 49
0.0
140
0.0
141
0.0
142
1.0
143
1.4007782101
 70
   688
 72
     1
 73
     1
 74
     1
  7

 75
     0
147
0.7138888889
148
180.0
149
0.0
100
AcDbLayout
  1
_Top
 70
     1
 71
     4
 10
0.0
 20
0.0
 11
0.0
 21
0.0
 12
0.0
 22
0.0
 32
0.0
 14
0.0
 24
0.0
 34
0.0
 15
0.0
 25
0.0
 35
0.0
146
0.0
 13
0.0
 23
0.0
 33
0.0
 16
1.0
 26
0.0
 36
0.0
 17
0.0
 27
1.0
 37
0.0
 76
     0
330
22D
331
4D2
  0
LAYOUT
  5
477
102
{ACAD_REACTORS
330
1A
102
}
330
1A
100
AcDbPlotSettings
  1

  2
none_device
  4
ISO_A4_(210.00_x_297.00_MM)
  6

 40
7.5
 41
20.0
 42
7.5
 43
20.0
 44
210.0
 45
297.0
 46
0.0
 47
0.0
 48
0.0
 49
0.0
140
0.0
141
0.0
142
1.0
143
1.4007782101
 70
   688
 72
     1
 73
     1
 74
     1
  7

 75
     0
147
0.7138888889
148
180.0
149
0.0
100
AcDbLayout
  1
_Trimetric
 70
     1
 71
     7
 10
0.0
 20
0.0
 11
0.0
 21
0.0
 12
0.0
 22
0.0
 32
0.0
 14
0.0
 24
0.0
 34
0.0
 15
0.0
 25
0.0
 35
0.0
146
0.0
 13
0.0
 23
0.0
 33
0.0
 16
1.0
 26
0.0
 36
0.0
 17
0.0
 27
1.0
 37
0.0
 76
     0
330
476
331
4D8
  0
LAYOUT
  5
22
102
{ACAD_REACTORS
330
1A
102
}
330
1A
100
AcDbPlotSettings
  1

  2
none_device
  4
ANSI_A_(11.00_x_8.50_Inches)
  6

 40
6.35
 41
19.05
 42
6.35000508
 43
19.05000254
 44
279.4
 45
215.9
 46
133.34999746
 47
67.2742132707
 48
0.0
 49
0.0
140
0.0
141
0.0
142
0.03025
143
1.0
 70
  1696
 72
     0
 73
     0
 74
     0
  7

 75
     0
147
0.0179189148
148
-1300.4909072572
149
0.0
100
AcDbLayout
  1
Model
 70
     1
 71
     0
 10
0.0
 20
0.0
 11
420.0
 21
297.0
 12
0.0
 22
0.0
 32
0.0
 14
-180.0
 24
0.0
 34
0.0
 15
180.0
 25
56.291495957
 35
0.0
146
0.0
 13
0.0
 23
0.0
 33
0.0
 16
1.0
 26
0.0
 36
0.0
 17
0.0
 27
1.0
 37
0.0
 76
     0
330
1F
331
29
  0
MLINESTYLE
  5
18
102
{ACAD_REACTORS
330
17
102
}
330
17
100
AcDbMlineStyle
  2
Standard
 70
     0
  3

 62
   256
 51
90.0
 52
90.0
 71
     2
 49
0.5
 62
   256
  6
BYLAYER
 49
-0.5
 62
   256
  6
BYLAYER
  0
ACDBPLACEHOLDER
  5
F
102
{ACAD_REACTORS
330
E
102
}
330
E
  0
SCALE
  5
48
102
{ACAD_REACTORS
330
47
102
}
330
47
100
AcDbScale
 70
     0
300
1:1
140
1.0
141
1.0
290
     1
  0
SCALE
  5
49
102
{ACAD_REACTORS
330
47
102
}
330
47
100
AcDbScale
 70
     0
300
1:2
140
1.0
141
2.0
290
     0
  0
SCALE
  5
4A
102
{ACAD_REACTORS
330
47
102
}
330
47
100
AcDbScale
 70
     0
300
1:4
140
1.0
141
4.0
290
     0
  0
SCALE
  5
4B
102
{ACAD_REACTORS
330
47
102
}
330
47
100
AcDbScale
 70
     0
300
1:5
140
1.0
141
5.0
290
     0
  0
SCALE
  5
4C
102
{ACAD_REACTORS
330
47
102
}
330
47
100
AcDbScale
 70
     0
300
1:8
140
1.0
141
8.0
290
     0
  0
SCALE
  5
4D
102
{ACAD_REACTORS
330
47
102
}
330
47
100
AcDbScale
 70
     0
300
1:10
140
1.0
141
10.0
290
     0
  0
SCALE
  5
4E
102
{ACAD_REACTORS
330
47
102
}
330
47
100
AcDbScale
 70
     0
300
1:16
140
1.0
141
16.0
290
     0
  0
SCALE
  5
4F
102
{ACAD_REACTORS
330
47
102
}
330
47
100
AcDbScale
 70
     0
300
1:20
140
1.0
141
20.0
290
     0
  0
SCALE
  5
50
102
{ACAD_REACTORS
330
47
102
}
330
47
100
AcDbScale
 70
     0
300
1:30
140
1.0
141
30.0
290
     0
  0
SCALE
  5
51
102
{ACAD_REACTORS
330
47
102
}
330
47
100
AcDbScale
 70
     0
300
1:40
140
1.0
141
40.0
290
     0
  0
SCALE
  5
52
102
{ACAD_REACTORS
330
47
102
}
330
47
100
AcDbScale
 70
     0
300
1:50
140
1.0
141
50.0
290
     0
  0
SCALE
  5
53
102
{ACAD_REACTORS
330
47
102
}
330
47
100
AcDbScale
 70
     0
300
1:100
140
1.0
141
100.0
290
     0
  0
SCALE
  5
54
102
{ACAD_REACTORS
330
47
102
}
330
47
100
AcDbScale
 70
     0
300
2:1
140
2.0
141
1.0
290
     0
  0
SCALE
  5
55
102
{ACAD_REACTORS
330
47
102
}
330
47
100
AcDbScale
 70
     0
300
4:1
140
4.0
141
1.0
290
     0
  0
SCALE
  5
56
102
{ACAD_REACTORS
330
47
102
}
330
47
100
AcDbScale
 70
     0
300
8:1
140
8.0
141
1.0
290
     0
  0
SCALE
  5
57
102
{ACAD_REACTORS
330
47
102
}
330
47
100
AcDbScale
 70
     0
300
10:1
140
10.0
141
1.0
290
     0
  0
SCALE
  5
58
102
{ACAD_REACTORS
330
47
102
}
330
47
100
AcDbScale
 70
     0
300
100:1
140
100.0
141
1.0
290
     0
  0
SCALE
  5
59
102
{ACAD_REACTORS
330
47
102
}
330
47
100
AcDbScale
 70
     0
300
1/128" = 1'-0"
140
0.0078125
141
12.0
290
     0
  0
SCALE
  5
5A
102
{ACAD_REACTORS
330
47
102
}
330
47
100
AcDbScale
 70
     0
300
1/64" = 1'-0"
140
0.015625
141
12.0
290
     0
  0
SCALE
  5
5B
102
{ACAD_REACTORS
330
47
102
}
330
47
100
AcDbScale
 70
     0
300
1/32" = 1'-0"
140
0.03125
141
12.0
290
     0
  0
SCALE
  5
5C
102
{ACAD_REACTORS
330
47
102
}
330
47
100
AcDbScale
 70
     0
300
1/16" = 1'-0"
140
0.0625
141
12.0
290
     0
  0
SCALE
  5
5D
102
{ACAD_REACTORS
330
47
102
}
330
47
100
AcDbScale
 70
     0
300
3/32" = 1'-0"
140
0.09375
141
12.0
290
     0
  0
SCALE
  5
5E
102
{ACAD_REACTORS
330
47
102
}
330
47
100
AcDbScale
 70
     0
300
1/8" = 1'-0"
140
0.125
141
12.0
290
     0
  0
SCALE
  5
5F
102
{ACAD_REACTORS
330
47
102
}
330
47
100
AcDbScale
 70
     0
300
3/16" = 1'-0"
140
0.1875
141
12.0
290
     0
  0
SCALE
  5
60
102
{ACAD_REACTORS
330
47
102
}
330
47
100
AcDbScale
 70
     0
300
1/4" = 1'-0"
140
0.25
141
12.0
290
     0
  0
SCALE
  5
61
102
{ACAD_REACTORS
330
47
102
}
330
47
100
AcDbScale
 70
     0
300
3/8" = 1'-0"
140
0.375
141
12.0
290
     0
  0
SCALE
  5
62
102
{ACAD_REACTORS
330
47
102
}
330
47
100
AcDbScale
 70
     0
300
1/2" = 1'-0"
140
0.5
141
12.0
290
     0
  0
SCALE
  5
63
102
{ACAD_REACTORS
330
47
102
}
330
47
100
AcDbScale
 70
     0
300
3/4" = 1'-0"
140
0.75
141
12.0
290
     0
  0
SCALE
  5
64
102
{ACAD_REACTORS
330
47
102
}
330
47
100
AcDbScale
 70
     0
300
1" = 1'-0"
140
1.0
141
12.0
290
     0
  0
SCALE
  5
65
102
{ACAD_REACTORS
330
47
102
}
330
47
100
AcDbScale
 70
     0
300
1-1/2" = 1'-0"
140
1.5
141
12.0
290
     0
  0
SCALE
  5
66
102
{ACAD_REACTORS
330
47
102
}
330
47
100
AcDbScale
 70
     0
300
3" = 1'-0"
140
3.0
141
12.0
290
     0
  0
SCALE
  5
67
102
{ACAD_REACTORS
330
47
102
}
330
47
100
AcDbScale
 70
     0
300
6" = 1'-0"
140
6.0
141
12.0
290
     0
  0
SCALE
  5
68
102
{ACAD_REACTORS
330
47
102
}
330
47
100
AcDbScale
 70
     0
300
1'-0" = 1'-0"
140
12.0
141
12.0
290
     0
  0
ENDSEC
  0
EOF
