  0
SECTION
  2
HEADER
  9
$ACADVER
  1
AC1015
  9
$ACADMAINTVER
 70
     6
  9
$DWGCODEPAGE
  3
ANSI_1252
  9
$INSBASE
 10
0.0
 20
0.0
 30
0.0
  9
$EXTMIN
 10
-177.500330352
 20
0.0
 30
0.0
  9
$EXTMAX
 10
177.5846877471
 20
380.0
 30
0.0
  9
$LIMMIN
 10
0.0
 20
0.0
  9
$LIMMAX
 10
420.0
 20
297.0
  9
$ORTHOMODE
 70
     0
  9
$REGENMODE
 70
     1
  9
$FILLMODE
 70
     1
  9
$QTEXTMODE
 70
     0
  9
$MIRRTEXT
 70
     1
  9
$LTSCALE
 40
1.0
  9
$ATTMODE
 70
     1
  9
$TEXTSIZE
 40
3.5
  9
$TRACEWID
 40
1.0
  9
$TEXTSTYLE
  7
Standard
  9
$CLAYER
  8
0
  9
$CELTYPE
  6
ByLayer
  9
$CECOLOR
 62
   256
  9
$CELTSCALE
 40
1.0
  9
$DISPSILH
 70
     0
  9
$DIMSCALE
 40
1.0
  9
$DIMASZ
 40
3.302
  9
$DIMEXO
 40
1.0
  9
$DIMDLI
 40
3.75
  9
$DIMRND
 40
0.0
  9
$DIMDLE
 40
0.0
  9
$DIMEXE
 40
1.0
  9
$DIMTP
 40
0.0
  9
$DIMTM
 40
0.0
  9
$DIMTXT
 40
3.5
  9
$DIMCEN
 40
2.5
  9
$DIMTSZ
 40
0.0
  9
$DIMTOL
 70
     0
  9
$DIMLIM
 70
     0
  9
$DIMTIH
 70
     1
  9
$DIMTOH
 70
     1
  9
$DIMSE1
 70
     0
  9
$DIMSE2
 70
     0
  9
$DIMTAD
 70
     1
  9
$DIMZIN
 70
     1
  9
$DIMBLK
  1

  9
$DIMASO
 70
     1
  9
$DIMSHO
 70
     1
  9
$DIMPOST
  1

  9
$DIMAPOST
  1

  9
$DIMALT
 70
     0
  9
$DIMALTD
 70
     3
  9
$DIMALTF
 40
0.0393700787
  9
$DIMLFAC
 40
1.0
  9
$DIMTOFL
 70
     1
  9
$DIMTVP
 40
0.0
  9
$DIMTIX
 70
     0
  9
$DIMSOXD
 70
     0
  9
$DIMSAH
 70
     0
  9
$DIMBLK1
  1

  9
$DIMBLK2
  1

  9
$DIMSTYLE
  2
ISO-25
  9
$DIMCLRD
 70
     0
  9
$DIMCLRE
 70
     0
  9
$DIMCLRT
 70
     0
  9
$DIMTFAC
 40
1.0
  9
$DIMGAP
 40
1.524
  9
$DIMJUST
 70
     0
  9
$DIMSD1
 70
     0
  9
$DIMSD2
 70
     0
  9
$DIMTOLJ
 70
     0
  9
$DIMTZIN
 70
     1
  9
$DIMALTZ
 70
     0
  9
$DIMALTTZ
 70
     0
  9
$DIMUPT
 70
     0
  9
$DIMDEC
 70
     2
  9
$DIMTDEC
 70
     2
  9
$DIMALTU
 70
     2
  9
$DIMALTTD
 70
     3
  9
$DIMTXSTY
  7
Standard
  9
$DIMAUNIT
 70
     0
  9
$DIMADEC
 70
     2
  9
$DIMALTRND
 40
0.0
  9
$DIMAZIN
 70
     0
  9
$DIMDSEP
 70
    44
  9
$DIMATFIT
 70
     3
  9
$DIMFRAC
 70
     0
  9
$DIMLDRBLK
  1

  9
$DIMLUNIT
 70
     2
  9
$DIMLWD
 70
    -2
  9
$DIMLWE
 70
    -2
  9
$DIMTMOVE
 70
     0
  9
$LUNITS
 70
     2
  9
$LUPREC
 70
     2
  9
$SKETCHINC
 40
1.0
  9
$FILLETRAD
 40
10.0
  9
$AUNITS
 70
     0
  9
$AUPREC
 70
     2
  9
$MENU
  1
.
  9
$ELEVATION
 40
0.0
  9
$PELEVATION
 40
0.0
  9
$THICKNESS
 40
0.0
  9
$LIMCHECK
 70
     0
  9
$CHAMFERA
 40
0.0
  9
$CHAMFERB
 40
0.0
  9
$CHAMFERC
 40
0.0
  9
$CHAMFERD
 40
0.0
  9
$SKPOLY
 70
     0
  9
$TDCREATE
 40
2459144.566998773
  9
$TDUCREATE
 40
2459144.525332106
  9
$TDUPDATE
 40
2459144.56705515
  9
$TDUUPDATE
 40
2459144.525388484
  9
$TDINDWG
 40
0.0000000116
  9
$TDUSRTIMER
 40
0.0000000116
  9
$USRTIMER
 70
     1
  9
$ANGBASE
 50
0.0
  9
$ANGDIR
 70
     0
  9
$PDMODE
 70
     0
  9
$PDSIZE
 40
-1.0
  9
$PLINEWID
 40
0.0
  9
$SPLFRAME
 70
     0
  9
$SPLINETYPE
 70
     6
  9
$SPLINESEGS
 70
     8
  9
$HANDSEED
  5
280
  9
$SURFTAB1
 70
     6
  9
$SURFTAB2
 70
     6
  9
$SURFTYPE
 70
     6
  9
$SURFU
 70
     6
  9
$SURFV
 70
     6
  9
$UCSBASE
  2

  9
$UCSNAME
  2

  9
$UCSORG
 10
0.0
 20
0.0
 30
0.0
  9
$UCSXDIR
 10
1.0
 20
0.0
 30
0.0
  9
$UCSYDIR
 10
0.0
 20
1.0
 30
0.0
  9
$UCSORTHOREF
  2

  9
$UCSORTHOVIEW
 70
     0
  9
$UCSORGTOP
 10
0.0
 20
0.0
 30
0.0
  9
$UCSORGBOTTOM
 10
0.0
 20
0.0
 30
0.0
  9
$UCSORGLEFT
 10
0.0
 20
0.0
 30
0.0
  9
$UCSORGRIGHT
 10
0.0
 20
0.0
 30
0.0
  9
$UCSORGFRONT
 10
0.0
 20
0.0
 30
0.0
  9
$UCSORGBACK
 10
0.0
 20
0.0
 30
0.0
  9
$PUCSBASE
  2

  9
$PUCSNAME
  2

  9
$PUCSORG
 10
0.0
 20
0.0
 30
0.0
  9
$PUCSXDIR
 10
1.0
 20
0.0
 30
0.0
  9
$PUCSYDIR
 10
0.0
 20
1.0
 30
0.0
  9
$PUCSORTHOREF
  2

  9
$PUCSORTHOVIEW
 70
     0
  9
$PUCSORGTOP
 10
0.0
 20
0.0
 30
0.0
  9
$PUCSORGBOTTOM
 10
0.0
 20
0.0
 30
0.0
  9
$PUCSORGLEFT
 10
0.0
 20
0.0
 30
0.0
  9
$PUCSORGRIGHT
 10
0.0
 20
0.0
 30
0.0
  9
$PUCSORGFRONT
 10
0.0
 20
0.0
 30
0.0
  9
$PUCSORGBACK
 10
0.0
 20
0.0
 30
0.0
  9
$USERI1
 70
     0
  9
$USERI2
 70
     0
  9
$USERI3
 70
     0
  9
$USERI4
 70
     0
  9
$USERI5
 70
     0
  9
$USERR1
 40
0.0
  9
$USERR2
 40
0.0
  9
$USERR3
 40
0.0
  9
$USERR4
 40
0.0
  9
$USERR5
 40
0.0
  9
$WORLDVIEW
 70
     1
  9
$SHADEDGE
 70
     3
  9
$SHADEDIF
 70
    70
  9
$TILEMODE
 70
     1
  9
$MAXACTVP
 70
    64
  9
$PINSBASE
 10
0.0
 20
0.0
 30
0.0
  9
$PLIMCHECK
 70
     0
  9
$PEXTMIN
 10
-177.8167367023
 20
0.0
 30
0.0
  9
$PEXTMAX
 10
177.5008700919
 20
380.0
 30
0.0
  9
$PLIMMIN
 10
-216.7910956767
 20
-14.6153846154
  9
$PLIMMAX
 10
361.9781350926
 20
394.6153846154
  9
$UNITMODE
 70
     0
  9
$VISRETAIN
 70
     1
  9
$PLINEGEN
 70
     0
  9
$PSLTSCALE
 70
     1
  9
$TREEDEPTH
 70
  3020
  9
$CMLSTYLE
  2
Standard
  9
$CMLJUST
 70
     0
  9
$CMLSCALE
 40
20.0
  9
$PROXYGRAPHICS
 70
     1
  9
$MEASUREMENT
 70
     1
  9
$CELWEIGHT
370
    -1
  9
$ENDCAPS
280
     0
  9
$JOINSTYLE
280
     0
  9
$LWDISPLAY
290
     1
  9
$INSUNITS
 70
     4
  9
$HYPERLINKBASE
  1

  9
$STYLESHEET
  1

  9
$XEDIT
290
     1
  9
$CEPSNTYPE
380
     0
  9
$PSTYLEMODE
290
     1
  9
$FINGERPRINTGUID
  2
{a3b528b4-432e-4de8-a3a2-685630b30c1e}
  9
$VERSIONGUID
  2
{FAEB1C32-E019-11D5-929B-00C0DF256EC4}
  9
$EXTNAMES
290
     1
  9
$PSVPSCALE
 40
0.0
  9
$OLESTARTUP
290
     0
  0
ENDSEC
  0
SECTION
  2
CLASSES
  0
CLASS
  1
ACDBDICTIONARYWDFLT
  2
AcDbDictionaryWithDefault
  3
ObjectDBX Classes
 90
        0
280
     0
281
     0
  0
CLASS
  1
VISUALSTYLE
  2
AcDbVisualStyle
  3
ObjectDBX Classes
 90
     4095
280
     0
281
     0
  0
CLASS
  1
MATERIAL
  2
AcDbMaterial
  3
ObjectDBX Classes
 90
     1153
280
     0
281
     0
  0
CLASS
  1
SCALE
  2
AcDbScale
  3
ObjectDBX Classes
 90
     1153
280
     0
281
     0
  0
CLASS
  1
TABLESTYLE
  2
AcDbTableStyle
  3
ObjectDBX Classes
 90
     4095
280
     0
281
     0
  0
CLASS
  1
MLEADERSTYLE
  2
AcDbMLeaderStyle
  3
ACDB_MLEADERSTYLE_CLASS
 90
     4095
280
     0
281
     0
  0
CLASS
  1
SUN
  2
AcDbSun
  3
SCENEOE
 90
     1153
280
     0
281
     0
  0
CLASS
  1
ACDBPLACEHOLDER
  2
AcDbPlaceHolder
  3
ObjectDBX Classes
 90
        0
280
     0
281
     0
  0
CLASS
  1
LAYOUT
  2
AcDbLayout
  3
ObjectDBX Classes
 90
        0
280
     0
281
     0
  0
ENDSEC
  0
SECTION
  2
TABLES
  0
TABLE
  2
VPORT
  5
8
330
0
100
AcDbSymbolTable
 70
     1
  0
VPORT
  5
29
330
8
100
AcDbSymbolTableRecord
100
AcDbViewportTableRecord
  2
*Active
 70
     0
 10
0.0
 20
0.0
 11
1.0
 21
1.0
 12
0.0421786975
 22
190.0
 13
0.0
 23
0.0
 14
10.0
 24
10.0
 15
10.0
 25
10.0
 16
0.0
 26
0.0
 36
1.0
 17
0.0
 27
0.0
 37
0.0
 40
387.6
 41
0.9344342582
 42
50.0
 43
0.0
 44
0.0
 50
0.0
 51
0.0
 71
     0
 72
   100
 73
     1
 74
     3
 75
     0
 76
     0
 77
     0
 78
     0
281
     0
 65
     1
110
0.0
120
0.0
130
0.0
111
1.0
121
0.0
131
0.0
112
0.0
122
1.0
132
0.0
 79
     0
146
0.0
  0
ENDTAB
  0
TABLE
  2
LTYPE
  5
5
330
0
100
AcDbSymbolTable
 70
     6
  0
LTYPE
  5
14
330
5
100
AcDbSymbolTableRecord
100
AcDbLinetypeTableRecord
  2
ByBlock
 70
     0
  3

 72
    65
 73
     0
 40
0.0
  0
LTYPE
  5
15
330
5
100
AcDbSymbolTableRecord
100
AcDbLinetypeTableRecord
  2
ByLayer
 70
     0
  3

 72
    65
 73
     0
 40
0.0
  0
LTYPE
  5
16
330
5
100
AcDbSymbolTableRecord
100
AcDbLinetypeTableRecord
  2
Continuous
 70
     0
  3
Solid line
 72
    65
 73
     0
 40
0.0
  0
LTYPE
  5
6E
330
5
100
AcDbSymbolTableRecord
100
AcDbLinetypeTableRecord
  2
HIDDEN
 70
     0
  3
Hidden __ __ __ __ __ __ __ __ __ __ __ __ __ __
 72
    65
 73
     2
 40
1.905
 49
1.27
 74
     0
 49
-0.635
 74
     0
  0
LTYPE
  5
6F
330
5
100
AcDbSymbolTableRecord
100
AcDbLinetypeTableRecord
  2
PHANTOM
 70
     0
  3
Phantom ______  __  __  ______  __  __  ______
 72
    65
 73
     6
 40
12.7
 49
6.35
 74
     0
 49
-1.27
 74
     0
 49
1.27
 74
     0
 49
-1.27
 74
     0
 49
1.27
 74
     0
 49
-1.27
 74
     0
  0
LTYPE
  5
70
330
5
100
AcDbSymbolTableRecord
100
AcDbLinetypeTableRecord
  2
CENTER
 70
     0
  3
Center ____ _ ____ _ ____ _ ____ _ ____ _ ____
 72
    65
 73
     4
 40
10.16
 49
6.35
 74
     0
 49
-1.27
 74
     0
 49
1.27
 74
     0
 49
-1.27
 74
     0
  0
LTYPE
  5
71
330
5
100
AcDbSymbolTableRecord
100
AcDbLinetypeTableRecord
  2
CENTERX2
 70
     0
  3
Center (2x) ________  __  ________  __  _____
 72
    65
 73
     4
 40
20.32
 49
12.7
 74
     0
 49
-2.54
 74
     0
 49
2.54
 74
     0
 49
-2.54
 74
     0
  0
LTYPE
  5
72
330
5
100
AcDbSymbolTableRecord
100
AcDbLinetypeTableRecord
  2
DOT2
 70
     0
  3
Dot (.5x) ........................................
 72
    65
 73
     2
 40
0.635
 49
0.0
 74
     0
 49
-0.635
 74
     0
  0
ENDTAB
  0
TABLE
  2
LAYER
  5
2
330
0
100
AcDbSymbolTable
 70
     1
  0
LAYER
  5
10
330
2
100
AcDbSymbolTableRecord
100
AcDbLayerTableRecord
  2
0
 70
     0
 62
     7
  6
Continuous
370
    -3
390
F
  0
ENDTAB
  0
TABLE
  2
STYLE
  5
3
330
0
100
AcDbSymbolTable
 70
     1
  0
STYLE
  5
11
330
3
100
AcDbSymbolTableRecord
100
AcDbTextStyleTableRecord
  2
Standard
 70
     0
 40
0.0
 41
1.0
 50
0.0
 71
     0
 42
3.5
  3
txt
  4

  0
ENDTAB
  0
TABLE
  2
VIEW
  5
6
330
0
100
AcDbSymbolTable
 70
     0
  0
ENDTAB
  0
TABLE
  2
UCS
  5
7
330
0
100
AcDbSymbolTable
 70
     0
  0
ENDTAB
  0
TABLE
  2
APPID
  5
9
330
0
100
AcDbSymbolTable
 70
     1
  0
APPID
  5
12
330
9
100
AcDbSymbolTableRecord
100
AcDbRegAppTableRecord
  2
ACAD
 70
     0
  0
ENDTAB
  0
TABLE
  2
DIMSTYLE
  5
A
330
0
100
AcDbSymbolTable
 70
     1
100
AcDbDimStyleTable
  0
DIMSTYLE
105
27
330
A
100
AcDbSymbolTableRecord
100
AcDbDimStyleTableRecord
  2
ISO-25
 70
     0
 41
2.5
 42
0.625
 43
3.75
 44
1.25
 73
     0
 74
     0
 77
     1
 78
     8
140
2.5
141
2.5
143
0.0393700787
147
0.625
171
     3
172
     1
178
     0
271
     2
272
     2
274
     3
278
    44
283
     0
284
     8
340
11
  0
ENDTAB
  0
TABLE
  2
BLOCK_RECORD
  5
1
330
0
100
AcDbSymbolTable
 70
     5
  0
BLOCK_RECORD
  5
1F
330
1
100
AcDbSymbolTableRecord
100
AcDbBlockTableRecord
  2
*Model_Space
340
22
  0
BLOCK_RECORD
  5
1B
330
1
100
AcDbSymbolTableRecord
100
AcDbBlockTableRecord
  2
*Paper_Space
340
1E
  0
BLOCK_RECORD
  5
23
330
1
100
AcDbSymbolTableRecord
100
AcDbBlockTableRecord
  2
*Paper_Space0
340
26
  0
BLOCK_RECORD
  5
149
330
1
100
AcDbSymbolTableRecord
100
AcDbBlockTableRecord
  2
*Paper_Space1
340
14A
  0
BLOCK_RECORD
  5
1A1
330
1
100
AcDbSymbolTableRecord
100
AcDbBlockTableRecord
  2
*Paper_Space2
340
1A2
  0
BLOCK_RECORD
  5
1DD
330
1
100
AcDbSymbolTableRecord
100
AcDbBlockTableRecord
  2
*Paper_Space3
340
1DE
  0
BLOCK_RECORD
  5
21E
330
1
100
AcDbSymbolTableRecord
100
AcDbBlockTableRecord
  2
*Paper_Space4
340
21F
  0
ENDTAB
  0
ENDSEC
  0
SECTION
  2
BLOCKS
  0
BLOCK
  5
20
330
1F
100
AcDbEntity
  8
0
100
AcDbBlockBegin
  2
*Model_Space
 70
     0
 10
0.0
 20
0.0
 30
0.0
  3
*Model_Space
  1

  0
ENDBLK
  5
21
330
1F
100
AcDbEntity
  8
0
100
AcDbBlockEnd
  0
BLOCK
  5
1C
330
1B
100
AcDbEntity
 67
     1
  8
0
100
AcDbBlockBegin
  2
*Paper_Space
 70
     0
 10
0.0
 20
0.0
 30
0.0
  3
*Paper_Space
  1

  0
ENDBLK
  5
1D
330
1B
100
AcDbEntity
 67
     1
  8
0
100
AcDbBlockEnd
  0
BLOCK
  5
24
330
23
100
AcDbEntity
  8
0
100
AcDbBlockBegin
  2
*Paper_Space0
 70
     0
 10
0.0
 20
0.0
 30
0.0
  3
*Paper_Space0
  1

  0
SPLINE
  5
FC
330
23
100
AcDbEntity
  8
0
  6
Continuous
 62
     7
370
    25
100
AcDbSpline
210
0.0
220
0.0
230
1.0
 70
     8
 71
     3
 72
    11
 73
     7
 74
     0
 42
0.000000001
 43
0.00000001
 40
0.0
 40
0.0
 40
0.0
 40
0.0
 40
0.2500000000000477
 40
0.5000000000000481
 40
0.7500000000000115
 40
1.0
 40
1.0
 40
1.0
 40
1.0
 10
-67.49999999999991
 20
356.0000000000001
 30
0.0
 10
-67.4849684272126
 20
355.8689629561938
 30
0.0
 10
-67.45490528163795
 20
355.6068888685813
 30
0.0
 10
-67.22365606851558
 20
355.2763439314843
 30
0.0
 10
-66.89311113141864
 20
355.045094718362
 30
0.0
 10
-66.63103704380617
 20
355.0150315727873
 30
0.0
 10
-66.49999999999991
 20
355.0
 30
0.0
  0
SPLINE
  5
FD
330
23
100
AcDbEntity
  8
0
  6
Continuous
 62
     7
370
    25
100
AcDbSpline
210
0.0
220
0.0
230
1.0
 70
     8
 71
     3
 72
    11
 73
     7
 74
     0
 42
0.000000001
 43
0.00000001
 40
0.0
 40
0.0
 40
0.0
 40
0.0
 40
0.2499890055466394
 40
0.4999868914691345
 40
0.7499915912684405
 40
1.0
 40
1.0
 40
1.0
 40
1.0
 10
81.18405806383072
 20
355.0
 30
0.0
 10
81.3140189884022
 20
355.0147762353162
 30
0.0
 10
81.57394545415556
 20
355.0443292308458
 30
0.0
 10
81.90275778332911
 20
355.2718966058158
 30
0.0
 10
82.13465342389735
 20
355.5976466683265
 30
0.0
 10
82.16762401740736
 20
355.8571102644224
 30
0.0
 10
82.18410943644486
 20
355.9868430247781
 30
0.0
  0
SPLINE
  5
100
330
23
100
AcDbEntity
  8
0
  6
Continuous
 62
     7
370
    25
100
AcDbSpline
210
0.0
220
0.0
230
1.0
 70
     8
 71
     3
 72
    11
 73
     7
 74
     0
 42
0.000000001
 43
0.00000001
 40
0.0
 40
0.0
 40
0.0
 40
0.0
 40
0.2499798219576168
 40
0.4999683198253668
 40
0.7499733058735825
 40
0.9999999999999999
 40
0.9999999999999999
 40
0.9999999999999999
 40
0.9999999999999999
 10
72.15727380774601
 20
354.0131569752218
 30
0.0
 10
72.17375317202595
 20
354.142890674605
 30
0.0
 10
72.20671247252595
 20
354.4023625759665
 30
0.0
 10
72.43850761491512
 20
354.7281177942209
 30
0.0
 10
72.76716173503027
 20
354.955678618544
 30
0.0
 10
73.02689221105517
 20
354.9852257786003
 30
0.0
 10
73.15676308695988
 20
355.0
 30
0.0
  0
SPLINE
  5
101
330
23
100
AcDbEntity
  8
0
  6
Continuous
 62
     7
370
    25
100
AcDbSpline
210
0.0
220
0.0
230
1.0
 70
     8
 71
     3
 72
    11
 73
     7
 74
     0
 42
0.000000001
 43
0.00000001
 40
0.0
 40
0.0
 40
0.0
 40
0.0
 40
0.2500000000000258
 40
0.5000000000000346
 40
0.7500000000000152
 40
0.9999999999999999
 40
0.9999999999999999
 40
0.9999999999999999
 40
0.9999999999999999
 10
-58.49999999999997
 20
355.0
 30
0.0
 10
-58.36896295619372
 20
354.9849684272126
 30
0.0
 10
-58.10688886858126
 20
354.9549052816379
 30
0.0
 10
-57.77634393148434
 20
354.7236560685157
 30
0.0
 10
-57.54509471836194
 20
354.3931111314187
 30
0.0
 10
-57.51503157278731
 20
354.1310370438064
 30
0.0
 10
-57.49999999999996
 20
354.0000000000002
 30
0.0
  0
LWPOLYLINE
  5
103
330
23
100
AcDbEntity
  8
0
  6
Continuous
 62
     7
370
    25
100
AcDbPolyline
 90
        3
 70
   128
 43
0.0
 10
77.5259570815
 20
1.973167519
 10
79.8428771712
 20
178.0561590331
 10
82.1577762304
 20
353.9855615909
  0
SPLINE
  5
107
330
23
100
AcDbEntity
  8
0
  6
Continuous
 62
     7
370
    25
100
AcDbSpline
210
0.0
220
0.0
230
1.0
 70
    24
 71
     3
 72
    11
 73
     7
 74
     0
 42
0.000000001
 43
0.00000001
 40
0.4974638839762364
 40
0.4974638839762364
 40
0.4974638839762364
 40
0.4974638839762364
 40
0.503606159957925
 40
0.5097484359396137
 40
0.5158907119213023
 40
0.522032987870373
 40
0.522032987870373
 40
0.522032987870373
 40
0.522032987870373
 10
-52.49999998949981
 20
369.9999999966087
 30
0.0
 10
-54.46861661392784
 20
369.9999999966087
 30
0.0
 10
-58.39973660701861
 20
369.9999999966091
 30
0.0
 10
-63.38853693665926
 20
369.9999999966082
 30
0.0
 10
-66.72011220135239
 20
369.9999999966096
 30
0.0
 10
-67.49999999999991
 20
369.9999999966087
 30
0.0
 10
-67.49999999999991
 20
369.9999999966087
 30
0.0
  0
SPLINE
  5
108
330
23
100
AcDbEntity
  8
0
  6
Continuous
 62
     7
370
    25
100
AcDbSpline
210
0.0
220
0.0
230
1.0
 70
     8
 71
     3
 72
    15
 73
    11
 74
     0
 42
0.000000001
 43
0.00000001
 40
0.0
 40
0.0
 40
0.0
 40
0.0
 40
0.015625
 40
0.015625
 40
0.0312499999999999
 40
0.0625000000000001
 40
0.1250000000000001
 40
0.25
 40
0.5
 40
1.0
 40
1.0
 40
1.0
 40
1.0
 10
54.7980717570617
 20
369.9999277664072
 30
0.0
 10
54.23922763868089
 20
370.0006346306836
 30
0.0
 10
53.68038351001788
 20
369.9999999999999
 30
0.0
 10
52.56269526265449
 20
370.0
 30
0.0
 10
50.88616289160942
 20
370.0000000000002
 30
0.0
 10
46.97425402583748
 20
370.0000000000001
 30
0.0
 10
39.15043629429377
 20
370.0000000000001
 30
0.0
 10
23.5028008312063
 20
370.0
 30
0.0
 10
-7.792470094941887
 20
369.999999983455
 30
0.0
 10
-34.61698803174318
 20
370.0000000330903
 30
0.0
 10
-52.49999998950423
 20
370.0
 30
0.0
  0
SPLINE
  5
109
330
23
100
AcDbEntity
  8
0
  6
Continuous
 62
     7
370
    25
100
AcDbSpline
210
0.0
220
0.0
230
1.0
 70
     8
 71
     3
 72
    30
 73
    26
 74
     0
 42
0.000000001
 43
0.00000001
 40
0.0
 40
0.0
 40
0.0
 40
0.0
 40
0.0625000000000008
 40
0.0625000000000008
 40
0.1250000000000015
 40
0.1250000000000015
 40
0.2499999999999999
 40
0.2499999999999999
 40
0.3124999999999974
 40
0.3124999999999974
 40
0.3749999999999949
 40
0.3749999999999949
 40
0.4999999999999912
 40
0.4999999999999912
 40
0.5624999999999913
 40
0.5624999999999913
 40
0.6249999999999915
 40
0.6249999999999915
 40
0.7499999999999937
 40
0.7499999999999937
 40
0.8124999999999952
 40
0.8124999999999952
 40
0.8749999999999969
 40
0.8749999999999969
 40
1.0
 40
1.0
 40
1.0
 40
1.0
 10
69.55844762406171
 20
369.9808324742245
 30
0.0
 10
69.48935066848372
 20
369.9809148285721
 30
0.0
 10
69.40040690207145
 20
369.9810234748545
 30
0.0
 10
69.18548933901084
 20
369.9812999050465
 30
0.0
 10
69.05972061603185
 20
369.9814672966884
 30
0.0
 10
68.62900023299828
 20
369.9820538227681
 30
0.0
 10
68.27113384482206
 20
369.982559000353
 30
0.0
 10
67.62538704343723
 20
369.9834259083675
 30
0.0
 10
67.3906833909432
 20
369.9837358013009
 30
0.0
 10
66.89300814130713
 20
369.9843958143228
 30
0.0
 10
66.62943961545733
 20
369.9847465758962
 30
0.0
 10
65.79561027703484
 20
369.9858626632015
 30
0.0
 10
65.18262968477555
 20
369.9866950435846
 30
0.0
 10
64.17453256106592
 20
369.9880177235706
 30
0.0
 10
63.82326168859846
 20
369.9884692836148
 30
0.0
 10
63.10498923212136
 20
369.9893893454557
 30
0.0
 10
62.73632144519349
 20
369.9898600989401
 30
0.0
 10
61.60227958267619
 20
369.9913137699
 30
0.0
 10
60.80912778210308
 20
369.9923428056816
 30
0.0
 10
59.56124178244703
 20
369.993936590432
 30
0.0
 10
59.13788590434337
 20
369.9944679448205
 30
0.0
 10
58.28781150063337
 20
369.9955312416315
 30
0.0
 10
57.85943969810815
 20
369.996065398625
 30
0.0
 10
56.56447652614486
 20
369.9976879485023
 30
0.0
 10
55.68812690782543
 20
369.9988019637561
 30
0.0
 10
54.79807175706237
 20
369.9999277664072
 30
0.0
  0
SPLINE
  5
10A
330
23
100
AcDbEntity
  8
0
  6
Continuous
 62
     7
370
    25
100
AcDbSpline
210
0.0
220
0.0
230
1.0
 70
     8
 71
     3
 72
    10
 73
     6
 74
     0
 42
0.000000001
 43
0.00000001
 40
0.0
 40
0.0
 40
0.0
 40
0.0
 40
0.2874058895376808
 40
0.8620792348943922
 40
1.0
 40
1.0
 40
1.0
 40
1.0
 10
-67.5549758101369
 20
355.9999999942586
 30
0.0
 10
-67.56899552633337
 20
355.9999999927807
 30
0.0
 10
-67.61104792209863
 20
355.9999999883476
 30
0.0
 10
-67.7946331639778
 20
355.9999999695569
 30
0.0
 10
-67.6235807885516
 20
355.9999999438049
 30
0.0
 10
-67.590474039358
 20
355.9999999388207
 30
0.0
  0
SPLINE
  5
10B
330
23
100
AcDbEntity
  8
0
  6
Continuous
 62
     7
370
    25
100
AcDbSpline
210
0.0
220
0.0
230
1.0
 70
    24
 71
     3
 72
    16
 73
    12
 74
     0
 42
0.000000001
 43
0.00000001
 40
0.0
 40
0.0
 40
0.0
 40
0.0
 40
0.1724242835389167
 40
0.360956325669453
 40
0.5494102461950053
 40
0.7208200871552862
 40
0.8922299392559837
 40
0.9208824224211035
 40
0.9524068654432052
 40
0.9839182238729204
 40
1.0
 40
1.0
 40
1.0
 40
1.0
 10
81.14819750738923
 20
355.0
 30
0.0
 10
81.08546949088341
 20
355.0
 30
0.0
 10
80.95415344948968
 20
354.9999999999999
 30
0.0
 10
79.64892053581438
 20
355.0000000000002
 30
0.0
 10
77.56663664183296
 20
354.9999999999999
 30
0.0
 10
74.69653585412557
 20
355.0000000000001
 30
0.0
 10
72.24799258730145
 20
355.0
 30
0.0
 10
70.4131063560098
 20
355.0
 30
0.0
 10
69.83371709372852
 20
355.0000000000001
 30
0.0
 10
69.45781223714998
 20
355.0
 30
0.0
 10
68.77806000130262
 20
354.9999999999999
 30
0.0
 10
68.54837092155242
 20
355.0
 30
0.0
  0
SPLINE
  5
10C
330
23
100
AcDbEntity
  8
0
  6
Continuous
 62
     7
370
    25
100
AcDbSpline
210
0.0
220
0.0
230
1.0
 70
    24
 71
     3
 72
    17
 73
    13
 74
     0
 42
0.000000001
 43
0.00000001
 40
0.0
 40
0.0
 40
0.0
 40
0.0
 40
0.2986990135711455
 40
0.3749026647893686
 40
0.4511011437556617
 40
0.5272096066423673
 40
0.6033211455497648
 40
0.6794070861942187
 40
0.755499673581805
 40
0.8315908447971697
 40
0.9076880403276458
 40
1.0
 40
1.0
 40
1.0
 40
1.0
 10
-44.13106444881544
 20
355.0
 30
0.0
 10
-47.21927094096743
 20
355.0000000000001
 30
0.0
 10
-51.09533611267864
 20
355.0000000000001
 30
0.0
 10
-55.73549605558117
 20
354.9999999999999
 30
0.0
 10
-57.99072996199754
 20
355.0000000000001
 30
0.0
 10
-60.08629333388238
 20
355.0000000000001
 30
0.0
 10
-61.9702115689873
 20
354.9999999999999
 30
0.0
 10
-63.57892091252484
 20
355.0000000000001
 30
0.0
 10
-64.88019197164952
 20
355.0
 30
0.0
 10
-65.82086743159304
 20
355.0
 30
0.0
 10
-66.4386027040971
 20
355.0000000000001
 30
0.0
 10
-66.51334076934667
 20
355.0000000000001
 30
0.0
 10
-66.55430776580836
 20
355.0
 30
0.0
  0
SPLINE
  5
110
330
23
100
AcDbEntity
  8
0
  6
Continuous
 62
     7
370
    25
100
AcDbSpline
210
0.0
220
0.0
230
1.0
 70
    24
 71
     3
 72
    22
 73
    18
 74
     0
 42
0.000000001
 43
0.00000001
 40
0.0
 40
0.0
 40
0.0
 40
0.0
 40
0.125
 40
0.125
 40
0.25
 40
0.25
 40
0.375
 40
0.375
 40
0.5
 40
0.5
 40
0.625
 40
0.625
 40
0.75
 40
0.75
 40
0.875
 40
0.875
 40
1.0
 40
1.0
 40
1.0
 40
1.0
 10
54.75983070362233
 20
380.0
 30
0.0
 10
55.05655820144188
 20
380.0
 30
0.0
 10
55.3486872011423
 20
379.9999999999998
 30
0.0
 10
55.92431664425917
 20
379.9999999999997
 30
0.0
 10
56.20912984303417
 20
379.9999999999998
 30
0.0
 10
56.76382758318232
 20
379.9999999999999
 30
0.0
 10
57.02811583499079
 20
379.9999999999999
 30
0.0
 10
57.5321349608692
 20
379.9999999999999
 30
0.0
 10
57.7736353969855
 20
379.9999999999999
 30
0.0
 10
58.22163059979962
 20
379.9999999999999
 30
0.0
 10
58.42578169940069
 20
379.9999999999999
 30
0.0
 10
58.79634387227048
 20
379.9999999999999
 30
0.0
 10
58.96408452877757
 20
379.9999999999999
 30
0.0
 10
59.25092954635254
 20
379.9999999999999
 30
0.0
 10
59.36994499755804
 20
379.9999999999999
 30
0.0
 10
59.5612604838154
 20
380.0000000000001
 30
0.0
 10
59.63371777603976
 20
380.0000000000001
 30
0.0
 10
59.67977422989137
 20
380.0
 30
0.0
  0
SPLINE
  5
113
330
23
100
AcDbEntity
  8
0
  6
Continuous
 62
     7
370
    25
100
AcDbSpline
210
0.0
220
0.0
230
1.0
 70
    24
 71
     3
 72
    24
 73
    20
 74
     0
 42
0.000000001
 43
0.00000001
 40
0.0
 40
0.0
 40
0.0
 40
0.0
 40
0.1250000000000091
 40
0.1250000000000091
 40
0.1875000000000085
 40
0.1875000000000085
 40
0.2500000000000078
 40
0.2500000000000078
 40
0.3750000000000065
 40
0.3750000000000065
 40
0.5000000000000052
 40
0.5000000000000052
 40
0.6250000000000039
 40
0.6250000000000039
 40
0.7500000000000026
 40
0.7500000000000026
 40
0.8750000000000013
 40
0.8750000000000013
 40
1.0
 40
1.0
 40
1.0
 40
1.0
 10
-57.49999999999991
 20
380.0
 30
0.0
 10
-57.49999999930314
 20
380.0000000000001
 30
0.0
 10
-57.46678488625054
 20
379.9999999999998
 30
0.0
 10
-57.3716822121178
 20
379.9999999999999
 30
0.0
 10
-57.33231777496353
 20
379.9999999999999
 30
0.0
 10
-57.23767022696456
 20
379.9999999999999
 30
0.0
 10
-57.18212359421895
 20
380.0000000000002
 30
0.0
 10
-56.99402743964902
 20
380.0000000000002
 30
0.0
 10
-56.83967271291225
 20
379.9999999999999
 30
0.0
 10
-56.47687956930925
 20
380.0
 30
0.0
 10
-56.266541702224
 20
379.9999999999999
 30
0.0
 10
-55.80571644727131
 20
379.9999999999998
 30
0.0
 10
-55.55366974591838
 20
379.9999999999999
 30
0.0
 10
-55.00765104466179
 20
379.9999999999999
 30
0.0
 10
-54.71756485825896
 20
380.0000000000001
 30
0.0
 10
-54.11669108468514
 20
379.9999999999999
 30
0.0
 10
-53.80192280684678
 20
379.9999999999999
 30
0.0
 10
-53.15635700519527
 20
379.9999999999998
 30
0.0
 10
-52.83005304038668
 20
380.0
 30
0.0
 10
-52.49999999645313
 20
380.0
 30
0.0
  0
SPLINE
  5
117
330
23
100
AcDbEntity
  8
0
  6
Continuous
 62
     7
370
    25
100
AcDbSpline
210
0.0
220
0.0
230
1.0
 70
    24
 71
     3
 72
    15
 73
    11
 74
     0
 42
0.000000001
 43
0.00000001
 40
0.0
 40
0.0
 40
0.0
 40
0.0
 40
0.0604038790801428
 40
0.181215098916974
 40
0.3020685749368202
 40
0.4632811607650096
 40
0.6245188676512683
 40
0.7857314754692326
 40
0.9478564088539235
 40
1.0
 40
1.0
 40
1.0
 40
1.0
 10
59.67977422989139
 20
380.0
 30
0.0
 10
60.17939926104734
 20
380.0
 30
0.0
 10
61.67830298744871
 20
380.0000000000001
 30
0.0
 10
63.90633112189251
 20
380.0000000000001
 30
0.0
 10
66.490936643719
 20
379.9999999999999
 30
0.0
 10
68.80097571920957
 20
380.0000000000001
 30
0.0
 10
70.68024338019511
 20
379.9999999999999
 30
0.0
 10
71.85761256703192
 20
380.0000000000001
 30
0.0
 10
72.39387496698951
 20
380.0000000000001
 30
0.0
 10
72.31403587298414
 20
380.0
 30
0.0
 10
72.29460652803296
 20
380.0000000000001
 30
0.0
  0
SPLINE
  5
119
330
23
100
AcDbEntity
  8
0
  6
Continuous
 62
     7
370
    25
100
AcDbSpline
210
0.0
220
0.0
230
1.0
 70
     8
 71
     3
 72
    47
 73
    43
 74
     0
 42
0.000000001
 43
0.00000001
 40
0.0
 40
0.0
 40
0.0
 40
0.0
 40
0.0108678733683353
 40
0.0704621076981817
 40
0.1300189069130805
 40
0.189444696457581
 40
0.2488704920675934
 40
0.2539056993497598
 40
0.2589338750236121
 40
0.2628629687026172
 40
0.2667919012912931
 40
0.2707210649312118
 40
0.2746501049745501
 40
0.2785769850332211
 40
0.2825037343521556
 40
0.2864164339513905
 40
0.2903327449996768
 40
0.3202594313873546
 40
0.4399661769380662
 40
0.4562396745367105
 40
0.4602431594052717
 40
0.4642414844761739
 40
0.4682717926211034
 40
0.4723024831216386
 40
0.4762271962885618
 40
0.4801521381232072
 40
0.4840769690711809
 40
0.4880018022466876
 40
0.495699564183011
 40
0.503470174530138
 40
0.5112451492683618
 40
0.5541015042024906
 40
0.725526923939006
 40
0.8185214155979981
 40
0.8650186614274942
 40
0.9115159072569904
 40
0.9580131530864863
 40
0.9673731370724326
 40
0.9767996959895454
 40
0.9861866693545628
 40
0.9954676108803386
 40
1.0
 40
1.0
 40
1.0
 40
1.0
 10
82.05318772278925
 20
353.9869353480034
 30
0.0
 10
82.0849804616241
 20
353.9869069887596
 30
0.0
 10
82.29110941729714
 20
353.9867231209479
 30
0.0
 10
81.36220554915548
 20
353.9875618180363
 30
0.0
 10
79.14971156825764
 20
353.9894754566921
 30
0.0
 10
75.59421214436642
 20
353.9928429495403
 30
0.0
 10
71.87572624916724
 20
353.9956333961921
 30
0.0
 10
69.89121739671998
 20
353.9978644473269
 30
0.0
 10
69.43142568344047
 20
353.9981332618945
 30
0.0
 10
68.57589188507882
 20
353.9982045996783
 30
0.0
 10
67.38652059642301
 20
353.9983755787551
 30
0.0
 10
65.83483627111305
 20
353.9985804726771
 30
0.0
 10
63.97244056828372
 20
353.9988238777449
 30
0.0
 10
61.8420268220647
 20
353.9991069783842
 30
0.0
 10
59.51746251562363
 20
353.9993660283496
 30
0.0
 10
57.05220608989239
 20
353.9998173799072
 30
0.0
 10
48.94395257544248
 20
354.00044033256
 30
0.0
 10
16.02432798933113
 20
353.9991883743063
 30
0.0
 10
-19.58997055919756
 20
354.0000423520189
 30
0.0
 10
-49.60378153600586
 20
353.9999994095652
 30
0.0
 10
-54.8174382577274
 20
354.0000000562977
 30
0.0
 10
-57.34246103617024
 20
354.0000000813734
 30
0.0
 10
-59.72051958928837
 20
353.999999943541
 30
0.0
 10
-61.87582490740019
 20
353.9999999921199
 30
0.0
 10
-63.73431403732705
 20
354.0000000336419
 30
0.0
 10
-65.26233295610508
 20
353.9999998771998
 30
0.0
 10
-66.42733987763017
 20
354.0000000122857
 30
0.0
 10
-67.42656762767652
 20
353.9999998666506
 30
0.0
 10
-67.82120757379171
 20
353.9999997878086
 30
0.0
 10
-67.64422477720704
 20
353.9999999385097
 30
0.0
 10
-67.25386027956237
 20
354.0000001049414
 30
0.0
 10
-67.93678423295475
 20
353.9999998138007
 30
0.0
 10
-67.3984571930432
 20
354.0000000429982
 30
0.0
 10
-67.52223799266572
 20
353.9999999909536
 30
0.0
 10
-67.47403526802086
 20
354.000000010309
 30
0.0
 10
-67.59367161641183
 20
353.9999999629697
 30
0.0
 10
-67.26905784220894
 20
354.0000000912635
 30
0.0
 10
-67.65019121449073
 20
353.9999999406478
 30
0.0
 10
-68.11545439550099
 20
353.9999997454005
 30
0.0
 10
-68.3446708263743
 20
353.9999996153262
 30
0.0
 10
-68.30321470179524
 20
353.999999576453
 30
0.0
 10
-67.69843765313007
 20
353.9999997474655
 30
0.0
 10
-67.49999999999991
 20
353.9999998035776
 30
0.0
  0
SPLINE
  5
11A
330
23
100
AcDbEntity
  8
0
  6
Continuous
 62
     7
370
    25
100
AcDbSpline
210
0.0
220
0.0
230
1.0
 70
    24
 71
     3
 72
    47
 73
    43
 74
     0
 42
0.000000001
 43
0.00000001
 40
0.0
 40
0.0
 40
0.0
 40
0.0
 40
0.0020970753181468
 40
0.0093946293703932
 40
0.1762539767608356
 40
0.2596836504560568
 40
0.343113324151278
 40
0.4265429978464992
 40
0.4405014418625652
 40
0.4545369883061325
 40
0.4685706413931867
 40
0.4825265439079909
 40
0.4963820321642518
 40
0.5102200288852207
 40
0.5139296099826901
 40
0.5176391888241562
 40
0.5213491457114106
 40
0.5250588710083279
 40
0.5288688104579765
 40
0.5326783626651113
 40
0.5364716601453802
 40
0.5402701833711162
 40
0.6279367714813003
 40
0.6717700655363923
 40
0.6806173044233281
 40
0.689550171262428
 40
0.6984311447828262
 40
0.7071753296368145
 40
0.7158630366402133
 40
0.7195747723422865
 40
0.7232866404531278
 40
0.7270005996799408
 40
0.730714684079593
 40
0.7344285685769316
 40
0.7381426162201833
 40
0.7431673892909886
 40
0.7481992837972974
 40
0.8083289810014497
 40
0.8684586718073171
 40
0.9287209197698304
 40
0.9890210469422723
 40
1.0
 40
1.0
 40
1.0
 40
1.0
 10
-66.64796216404615
 20
355.0000000000001
 30
0.0
 10
-66.64676698812825
 20
355.0000000000001
 30
0.0
 10
-66.64141275278735
 20
354.9999999999999
 30
0.0
 10
-65.09829227366384
 20
354.9999999999996
 30
0.0
 10
-66.8266515761838
 20
355.0000000000002
 30
0.0
 10
-66.4064948594663
 20
355.0
 30
0.0
 10
-66.65240816512977
 20
355.0000000000001
 30
0.0
 10
-66.16943393983347
 20
354.9999999999999
 30
0.0
 10
-66.67645099810963
 20
355.0000000000001
 30
0.0
 10
-67.28933544581234
 20
355.0000000000002
 30
0.0
 10
-67.84134489809556
 20
355.0
 30
0.0
 10
-68.09785030982178
 20
355.0
 30
0.0
 10
-67.65328302700863
 20
355.0000000000001
 30
0.0
 10
-66.78573352964072
 20
355.0000000000002
 30
0.0
 10
-65.50653778561184
 20
354.9999999999999
 30
0.0
 10
-64.40949018619716
 20
355.0000000000001
 30
0.0
 10
-62.98611514125196
 20
355.0
 30
0.0
 10
-61.25092018898429
 20
355.0000000000001
 30
0.0
 10
-59.2396062086134
 20
354.9999999999999
 30
0.0
 10
-57.01752915543998
 20
355.0000000000001
 30
0.0
 10
-54.65446376042275
 20
354.9999999999999
 30
0.0
 10
-34.45589427592105
 20
355.000000000001
 30
0.0
 10
-5.823492444347454
 20
354.9999999999998
 30
0.0
 10
23.91047069139201
 20
354.9999999999999
 30
0.0
 10
36.95843526800868
 20
355.0000000000002
 30
0.0
 10
42.5864436541808
 20
355.0
 30
0.0
 10
48.20995903604434
 20
355.0000000000001
 30
0.0
 10
53.78567265292678
 20
354.9999999999999
 30
0.0
 10
58.21245386357457
 20
355.0
 30
0.0
 10
61.36868868554303
 20
355.0
 30
0.0
 10
63.35452737747435
 20
355.0
 30
0.0
 10
65.09343167427842
 20
354.9999999999999
 30
0.0
 10
66.54133642139264
 20
355.0000000000001
 30
0.0
 10
67.65191979062296
 20
354.9999999999999
 30
0.0
 10
68.46613023190417
 20
355.0000000000001
 30
0.0
 10
68.9086097684907
 20
355.0
 30
0.0
 10
70.8842726142282
 20
355.0000000000001
 30
0.0
 10
74.60153689482213
 20
355.0
 30
0.0
 10
78.15222333346136
 20
355.0
 30
0.0
 10
80.36307196426937
 20
354.9999999999998
 30
0.0
 10
81.29103575013337
 20
355.0000000000002
 30
0.0
 10
81.08519759134468
 20
355.0000000000001
 30
0.0
 10
81.05349281238944
 20
355.0
 30
0.0
  0
SPLINE
  5
11B
330
23
100
AcDbEntity
  8
0
  6
Continuous
 62
     7
370
    25
100
AcDbSpline
210
0.0
220
0.0
230
1.0
 70
    24
 71
     3
 72
    17
 73
    13
 74
     0
 42
0.000000001
 43
0.00000001
 40
0.0
 40
0.0
 40
0.0
 40
0.0
 40
0.0368691179381272
 40
0.1442615721893916
 40
0.2516540264406513
 40
0.3590464806919214
 40
0.4664389349431926
 40
0.5738313891944453
 40
0.6812238434457141
 40
0.7886162976969803
 40
0.8960087519482475
 40
1.0
 40
1.0
 40
1.0
 40
1.0
 10
-67.49999999999991
 20
321.5447679924008
 30
0.0
 10
-67.49999999999991
 20
321.5325944369934
 30
0.0
 10
-67.49999999999991
 20
321.4849617204977
 30
0.0
 10
-67.49999999999991
 20
321.810332615962
 30
0.0
 10
-67.49999999999991
 20
322.4868309141726
 30
0.0
 10
-67.49999999999994
 20
323.4733359808395
 30
0.0
 10
-67.49999999999991
 20
324.6249618568149
 30
0.0
 10
-67.49999999999993
 20
325.8202003319427
 30
0.0
 10
-67.49999999999991
 20
326.9246468456018
 30
0.0
 10
-67.49999999999993
 20
327.8040565174086
 30
0.0
 10
-67.4999999999999
 20
328.3915721807387
 30
0.0
 10
-67.49999999999991
 20
328.46018800782
 30
0.0
 10
-67.49999999999991
 20
328.4939439001454
 30
0.0
  0
SPLINE
  5
11C
330
23
100
AcDbEntity
  8
0
  6
Continuous
 62
     7
370
    25
100
AcDbSpline
210
0.0
220
0.0
230
1.0
 70
    24
 71
     3
 72
    11
 73
     7
 74
     0
 42
0.000000001
 43
0.00000001
 40
0.4974638839436185
 40
0.4974638839436185
 40
0.4974638839436185
 40
0.4974638839436185
 40
0.5036061599253071
 40
0.5097484359069957
 40
0.5158907118886844
 40
0.5220329878594572
 40
0.5220329878594572
 40
0.5220329878594572
 40
0.5220329878594572
 10
-67.49999999999991
 20
2.000000075708802
 30
0.0
 10
-67.49999999999991
 20
2.000000075708802
 30
0.0
 10
-66.71956836074729
 20
2.000000075708802
 30
0.0
 10
-63.37712780079099
 20
2.000000075708774
 30
0.0
 10
-58.37948725799608
 20
2.000000075708802
 30
0.0
 10
-54.45815910563574
 20
2.000000075708802
 30
0.0
 10
-52.49999998955998
 20
2.000000075708802
 30
0.0
  0
SPLINE
  5
11D
330
23
100
AcDbEntity
  8
0
  6
Continuous
 62
     7
370
    25
100
AcDbSpline
210
0.0
220
0.0
230
1.0
 70
     8
 71
     3
 72
    30
 73
    26
 74
     0
 42
0.000000001
 43
0.00000001
 40
0.0
 40
0.0
 40
0.0
 40
0.0
 40
0.0625000000000001
 40
0.0625000000000001
 40
0.1250000000000002
 40
0.1250000000000002
 40
0.2500000000000012
 40
0.2500000000000012
 40
0.3125000000000013
 40
0.3125000000000013
 40
0.3750000000000013
 40
0.3750000000000013
 40
0.5000000000000014
 40
0.5000000000000014
 40
0.5625000000000014
 40
0.5625000000000014
 40
0.6250000000000014
 40
0.6250000000000014
 40
0.7500000000000028
 40
0.7500000000000028
 40
0.8125000000000021
 40
0.8125000000000021
 40
0.8750000000000014
 40
0.8750000000000014
 40
1.0
 40
1.0
 40
1.0
 40
1.0
 10
54.04233352053478
 20
2.000000000000002
 30
0.0
 10
54.50471295819987
 20
2.000000000000002
 30
0.0
 10
54.96583555577163
 20
1.999765533939796
 30
0.0
 10
55.88557857162806
 20
1.999533507792611
 30
0.0
 10
56.34349345576122
 20
1.999418995666885
 30
0.0
 10
57.69488983510533
 20
1.999082793143869
 30
0.0
 10
58.57249405484628
 20
1.99886676824268
 30
0.0
 10
59.85321936144653
 20
1.998542060430292
 30
0.0
 10
60.27470440084652
 20
1.998435582717395
 30
0.0
 10
61.1031441493351
 20
1.998228502085614
 30
0.0
 10
61.50480696577658
 20
1.99812920883724
 30
0.0
 10
62.67354494522075
 20
1.997843307047303
 30
0.0
 10
63.40480802542191
 20
1.997669032283322
 30
0.0
 10
64.42723582787876
 20
1.997421144121297
 30
0.0
 10
64.75709241738546
 20
1.99734076021732
 30
0.0
 10
65.38093019891228
 20
1.997189724627924
 30
0.0
 10
65.67541697552345
 20
1.997118947189458
 30
0.0
 10
66.50819576895674
 20
1.996921510975552
 30
0.0
 10
66.99645986150533
 20
1.996810293124318
 30
0.0
 10
67.62325497308763
 20
1.996668681294389
 30
0.0
 10
67.81402672014103
 20
1.996624297130656
 30
0.0
 10
68.15260127716526
 20
1.996544257769739
 30
0.0
 10
68.30158120129138
 20
1.996508437442923
 30
0.0
 10
68.6890362061808
 20
1.996415519209177
 30
0.0
 10
68.8686005714955
 20
1.996605098941479
 30
0.0
 10
68.96490770799417
 20
1.99635074037538
 30
0.0
  0
SPLINE
  5
120
330
23
100
AcDbEntity
  8
0
  6
Continuous
 62
     7
370
    25
100
AcDbSpline
210
0.0
220
0.0
230
1.0
 70
    24
 71
     3
 72
    28
 73
    24
 74
     0
 42
0.000000001
 43
0.00000001
 40
0.0
 40
0.0
 40
0.0
 40
0.0
 40
0.1249999999999934
 40
0.1249999999999934
 40
0.1874999999999925
 40
0.1874999999999925
 40
0.2499999999999917
 40
0.2499999999999917
 40
0.37499999999999
 40
0.37499999999999
 40
0.4374999999999908
 40
0.4374999999999908
 40
0.4999999999999917
 40
0.4999999999999917
 40
0.6249999999999937
 40
0.6249999999999937
 40
0.7499999999999958
 40
0.7499999999999958
 40
0.8749999999999978
 40
0.8749999999999978
 40
0.9374999999999989
 40
0.9374999999999989
 40
1.0
 40
1.0
 40
1.0
 40
1.0
 10
66.97577443092185
 20
0.0
 30
0.0
 10
66.8923006021343
 20
0.0
 30
0.0
 10
66.73661315743617
 20
0.0
 30
0.0
 10
66.40084860488878
 20
0.0
 30
0.0
 10
66.27176206827775
 20
0.0
 30
0.0
 10
65.9783909456986
 20
0.0
 30
0.0
 10
65.8130840708599
 20
0.0
 30
0.0
 10
65.26980773774717
 20
0.0
 30
0.0
 10
64.84649665837568
 20
0.0
 30
0.0
 10
64.12470081400684
 20
0.0
 30
0.0
 10
63.86948127475774
 20
0.0
 30
0.0
 10
63.32883875928513
 20
0.0
 30
0.0
 10
63.04296870402585
 20
0.0
 30
0.0
 10
62.15679840110013
 20
0.0
 30
0.0
 10
61.52290997530434
 20
0.0
 30
0.0
 10
60.17228386392534
 20
0.0
 30
0.0
 10
59.44855788005881
 20
0.0
 30
0.0
 10
57.96856539766343
 20
0.0
 30
0.0
 10
57.20791431623124
 20
0.0
 30
0.0
 10
56.03667344143018
 20
0.0
 30
0.0
 10
55.63981340242699
 20
0.0
 30
0.0
 10
54.84270302091231
 20
0.0
 30
0.0
 10
54.44306315521069
 20
0.0
 30
0.0
 10
54.04233352053478
 20
0.0
 30
0.0
  0
SPLINE
  5
123
330
23
100
AcDbEntity
  8
0
  6
Continuous
 62
     7
370
    25
100
AcDbSpline
210
0.0
220
0.0
230
1.0
 70
    24
 71
     3
 72
    30
 73
    26
 74
     0
 42
0.000000001
 43
0.00000001
 40
0.0
 40
0.0
 40
0.0
 40
0.0
 40
0.1249999999999986
 40
0.1249999999999986
 40
0.1874999999999974
 40
0.1874999999999974
 40
0.2499999999999962
 40
0.2499999999999962
 40
0.3749999999999944
 40
0.3749999999999944
 40
0.4374999999999936
 40
0.4374999999999936
 40
0.4999999999999927
 40
0.4999999999999927
 40
0.6249999999999937
 40
0.6249999999999937
 40
0.6874999999999948
 40
0.6874999999999948
 40
0.7499999999999959
 40
0.7499999999999959
 40
0.812499999999997
 40
0.812499999999997
 40
0.874999999999998
 40
0.874999999999998
 40
1.0
 40
1.0
 40
1.0
 40
1.0
 10
-52.49999999859102
 20
0.0
 30
0.0
 10
-53.35859085192045
 20
0.0
 30
0.0
 10
-54.20271711067911
 20
0.0
 30
0.0
 10
-55.44854593745779
 20
0.0
 30
0.0
 10
-55.86039272262569
 20
0.0
 30
0.0
 10
-56.67702530645293
 20
0.0
 30
0.0
 10
-57.08291764792236
 20
0.0
 30
0.0
 10
-58.26314767697765
 20
0.0
 30
0.0
 10
-59.00905476667573
 20
0.0
 30
0.0
 10
-60.06854347254673
 20
0.0
 30
0.0
 10
-60.41287047933324
 20
0.0
 30
0.0
 10
-61.07542761891191
 20
0.0
 30
0.0
 10
-61.39080035378095
 20
0.0
 30
0.0
 10
-62.28989456745887
 20
0.0
 30
0.0
 10
-62.82722268301165
 20
0.0
 30
0.0
 10
-63.5400445802404
 20
0.0
 30
0.0
 10
-63.76152179248741
 20
0.0
 30
0.0
 10
-64.16314111941125
 20
0.0
 30
0.0
 10
-64.34465952208478
 20
0.0
 30
0.0
 10
-64.66901897076407
 20
0.0
 30
0.0
 10
-64.81185386856679
 20
0.0
 30
0.0
 10
-65.0589911594129
 20
0.0
 30
0.0
 10
-65.16362887106023
 20
0.0
 30
0.0
 10
-65.41497496903204
 20
0.0
 30
0.0
 10
-65.49999999931006
 20
0.0
 30
0.0
 10
-65.4999999999999
 20
0.0
 30
0.0
  0
SPLINE
  5
126
330
23
100
AcDbEntity
  8
0
  6
Continuous
 62
     7
370
    25
100
AcDbSpline
210
0.0
220
0.0
230
1.0
 70
    24
 71
     3
 72
    12
 73
     8
 74
     0
 42
0.000000001
 43
0.00000001
 40
0.0
 40
0.0
 40
0.0
 40
0.0
 40
0.1856055876271352
 40
0.3885803542910151
 40
0.5923792318542006
 40
0.7962011259638516
 40
1.0
 40
1.0
 40
1.0
 40
1.0
 10
75.49836667892293
 20
0.0
 30
0.0
 10
75.45265031700109
 20
0.0
 30
0.0
 10
75.3569394047403
 20
0.0
 30
0.0
 10
74.3421450007254
 20
0.0
 30
0.0
 10
72.63623922535088
 20
0.0
 30
0.0
 10
70.25287405243706
 20
0.0
 30
0.0
 10
68.0680998436052
 20
0.0
 30
0.0
 10
66.97577443092186
 20
0.0
 30
0.0
  0
SPLINE
  5
127
330
23
100
AcDbEntity
  8
0
  6
Continuous
 62
     8
370
    25
100
AcDbSpline
210
0.0
220
0.0
230
1.0
 70
     8
 71
     3
 72
    15
 73
    11
 74
     0
 42
0.000000001
 43
0.00000001
 40
0.0
 40
0.0
 40
0.0
 40
0.0
 40
0.0522086147860334
 40
0.213092105342207
 40
0.3748858975016728
 40
0.536705161942459
 40
0.6984989264846323
 40
0.8190633872313463
 40
0.9396700179461713
 40
1.0
 40
1.0
 40
1.0
 40
1.0
 10
82.29360769621181
 20
369.8690735142891
 30
0.0
 10
82.31389768697692
 20
369.8688956834506
 30
0.0
 10
82.39671231186654
 20
369.868169857877
 30
0.0
 10
81.86380173234794
 20
369.8728401052167
 30
0.0
 10
80.68241298836548
 20
369.8831919347775
 30
0.0
 10
78.78051760099405
 20
369.8998643539693
 30
0.0
 10
76.4411486171895
 20
369.9203901731204
 30
0.0
 10
73.82641637808038
 20
369.9433423426114
 30
0.0
 10
71.57709749351692
 20
369.9631101793858
 30
0.0
 10
70.06322165001755
 20
369.9764009211106
 30
0.0
 10
69.55844762406171
 20
369.9808324742245
 30
0.0
  0
SPLINE
  5
128
330
23
100
AcDbEntity
  8
0
  6
Continuous
 62
     8
370
    25
100
AcDbSpline
210
0.0
220
0.0
230
1.0
 70
     8
 71
     3
 72
    37
 73
    33
 74
     0
 42
0.000000001
 43
0.00000001
 40
0.0
 40
0.0
 40
0.0
 40
0.0
 40
0.0107844376171577
 40
0.0186081958036184
 40
0.0266591297986612
 40
0.0344821346966899
 40
0.0425308895507287
 40
0.0503555253212644
 40
0.0584057135114733
 40
0.0662391034565924
 40
0.0742998521318846
 40
0.0889398523895497
 40
0.1035855697575635
 40
0.1328770044935916
 40
0.3659377196631945
 40
0.4046766004273615
 40
0.4145839670560334
 40
0.4245632362830207
 40
0.4323832506954632
 40
0.4404306316275325
 40
0.4482503534564733
 40
0.4562971748196469
 40
0.4641184052855183
 40
0.4721669748457881
 40
0.4844054080646343
 40
0.4967640968171624
 40
0.5215068070641324
 40
0.617641165188483
 40
0.7138528415387402
 40
0.8136273873777202
 40
0.9134884560195915
 40
1.0
 40
1.0
 40
1.0
 40
1.0
 10
-67.590474039358
 20
355.9999999388207
 30
0.0
 10
-67.54163163564792
 20
355.9999998957774
 30
0.0
 10
-67.45735565909526
 20
355.9999998215074
 30
0.0
 10
-66.78073532084524
 20
356.0000000714817
 30
0.0
 10
-65.774093118609
 20
356.0000000009247
 30
0.0
 10
-64.379628491648
 20
355.9999998657797
 30
0.0
 10
-62.66330632281833
 20
356.0000002250168
 30
0.0
 10
-60.63946845227909
 20
355.9999997207653
 30
0.0
 10
-58.40468944632784
 20
356.0000001202777
 30
0.0
 10
-55.97901432848612
 20
355.9999999370716
 30
0.0
 10
-52.75381929601613
 20
355.9999999859573
 30
0.0
 10
-48.78201635921941
 20
355.9999999406725
 30
0.0
 10
-42.56641958635068
 20
356.0000003444403
 30
0.0
 10
-13.15706612247591
 20
355.9999884383044
 30
0.0
 10
18.79933399055045
 20
356.0002335704219
 30
0.0
 10
48.70871104324456
 20
355.9999106567899
 30
0.0
 10
54.93008897830542
 20
356.0000760480077
 30
0.0
 10
57.87575050277237
 20
355.9995800274642
 30
0.0
 10
60.50034689405734
 20
355.9992770310632
 30
0.0
 10
62.74407231363961
 20
355.9989799950341
 30
0.0
 10
64.77943589521075
 20
355.9987229662154
 30
0.0
 10
66.51278178878388
 20
355.9984879696016
 30
0.0
 10
67.92079165675379
 20
355.9983021253441
 30
0.0
 10
69.15969695558464
 20
355.9981423681763
 30
0.0
 10
69.73719414794823
 20
355.9979953905003
 30
0.0
 10
70.50399174728982
 20
355.997176822498
 30
0.0
 10
72.5596824884782
 20
355.9954675684544
 30
0.0
 10
75.46396240504826
 20
355.9927846949649
 30
0.0
 10
78.52655780678249
 20
355.9900978951325
 30
0.0
 10
80.69294517364065
 20
355.988164589702
 30
0.0
 10
81.9854088281821
 20
355.9870201121748
 30
0.0
 10
82.08333796219551
 20
355.9869327238102
 30
0.0
 10
82.12879528805988
 20
355.9868921593612
 30
0.0
  0
SPLINE
  5
12C
330
23
100
AcDbEntity
  8
0
  6
Continuous
 62
     8
370
    25
100
AcDbSpline
210
0.0
220
0.0
230
1.0
 70
     8
 71
     3
 72
    11
 73
     7
 74
     0
 42
0.000000001
 43
0.00000001
 40
0.0
 40
0.0
 40
0.0
 40
0.0
 40
0.2366516776965276
 40
0.5916293169215868
 40
0.9466272015374149
 40
1.0
 40
1.0
 40
1.0
 40
1.0
 10
59.65105794577487
 20
354.0019130362393
 30
0.0
 10
59.57010735146662
 20
354.001881759093
 30
0.0
 10
59.36773082373121
 20
354.0018035662112
 30
0.0
 10
58.54055230663182
 20
354.0014679787296
 30
0.0
 10
57.64309703478053
 20
354.0011148858837
 30
0.0
 10
57.03293196432563
 20
354.0008826658564
 30
0.0
 10
56.9531852570233
 20
354.0008523154094
 30
0.0
  0
SPLINE
  5
12D
330
23
100
AcDbEntity
  8
0
  6
Continuous
 62
     8
370
    25
100
AcDbSpline
210
0.0
220
0.0
230
1.0
 70
     8
 71
     3
 72
    13
 73
     9
 74
     0
 42
0.000000001
 43
0.00000001
 40
0.0
 40
0.0
 40
0.0
 40
0.0
 40
0.0233648599101757
 40
0.2433465409473361
 40
0.4635221400144851
 40
0.6842833253060469
 40
0.9052406394446596
 40
1.0
 40
1.0
 40
1.0
 40
1.0
 10
72.112237468967
 20
354.0131165201772
 30
0.0
 10
72.1269858177944
 20
354.0131297672339
 30
0.0
 10
72.28059083343045
 20
354.0132677361936
 30
0.0
 10
71.67512759741409
 20
354.0127237124236
 30
0.0
 10
70.24868331601269
 20
354.0114439014782
 30
0.0
 10
67.71586570068638
 20
354.0091685031353
 30
0.0
 10
65.09517156897789
 20
354.0068129418049
 30
0.0
 10
62.94960685747149
 20
354.0048817565617
 30
0.0
 10
62.30563599248779
 20
354.0043021296576
 30
0.0
  0
SPLINE
  5
12E
330
23
100
AcDbEntity
  8
0
  6
Continuous
 62
     8
370
    25
100
AcDbSpline
210
0.0
220
0.0
230
1.0
 70
     8
 71
     3
 72
    14
 73
    10
 74
     0
 42
0.000000001
 43
0.00000001
 40
0.0
 40
0.0
 40
0.0
 40
0.0
 40
0.1521570059690895
 40
0.3043140115072764
 40
0.4566245142787019
 40
0.608935017982239
 40
0.7617092490040414
 40
0.9144834802071904
 40
1.0
 40
1.0
 40
1.0
 40
1.0
 10
68.96490770799417
 20
1.99635074037538
 30
0.0
 10
69.79457315296727
 20
1.994158710959537
 30
0.0
 10
71.45390404056388
 20
1.989774652134041
 30
0.0
 10
73.44293534672761
 20
1.984510349484048
 30
0.0
 10
75.06332013209268
 20
1.980216828887105
 30
0.0
 10
76.28607680830866
 20
1.976975301445222
 30
0.0
 10
77.09443095506772
 20
1.974832189000131
 30
0.0
 10
77.50363366435717
 20
1.973745488000139
 30
0.0
 10
77.4837114458562
 20
1.973798459302289
 30
0.0
 10
77.47656186583421
 20
1.97381746936201
 30
0.0
  0
LINE
  5
12F
330
23
100
AcDbEntity
  8
0
  6
Continuous
 62
     7
370
    25
100
AcDbLine
 10
82.1829617912
 20
355.8996323852
 30
0.0
 11
82.3667606228
 21
369.8681109636
 31
0.0
  0
LINE
  5
130
330
23
100
AcDbEntity
  8
0
  6
Continuous
 62
     7
370
    25
100
AcDbLine
 10
-67.5
 20
370.0
 30
0.0
 11
-67.5
 21
355.8996323852
 31
0.0
  0
LINE
  5
131
330
23
100
AcDbEntity
  8
0
  6
Continuous
 62
     7
370
    25
100
AcDbLine
 10
-44.116782518
 20
355.0
 30
0.0
 11
23.7586025381
 21
355.0
 31
0.0
  0
LINE
  5
132
330
23
100
AcDbEntity
  8
0
  6
Continuous
 62
     7
370
    25
100
AcDbLine
 10
-67.5
 20
354.0
 30
0.0
 11
-67.5
 21
328.6748267286
 31
0.0
  0
LINE
  5
133
330
23
100
AcDbEntity
  8
0
  6
Continuous
 62
     7
370
    25
100
AcDbLine
 10
-67.5
 20
321.3485114088
 30
0.0
 11
-67.5
 21
2.0
 31
0.0
  0
LINE
  5
134
330
23
100
AcDbEntity
  8
0
  6
Continuous
 62
     7
370
    25
100
AcDbLine
 10
-52.4999999965
 20
380.0
 30
0.0
 11
54.7598307036
 21
380.0
 31
0.0
  0
LINE
  5
135
330
23
100
AcDbEntity
  8
0
  6
Continuous
 62
     7
370
    25
100
AcDbLine
 10
-52.4999999965
 20
370.0
 30
0.0
 11
-52.4999999965
 21
380.0
 31
0.0
  0
LINE
  5
136
330
23
100
AcDbEntity
  8
0
  6
Continuous
 62
     7
370
    25
100
AcDbLine
 10
-57.5
 20
354.0
 30
0.0
 11
-57.5
 21
355.0
 31
0.0
  0
LINE
  5
137
330
23
100
AcDbEntity
  8
0
  6
Continuous
 62
     7
370
    25
100
AcDbLine
 10
35.6797742303
 20
354.0
 30
0.0
 11
35.6797742303
 21
355.0
 31
0.0
  0
LINE
  5
138
330
23
100
AcDbEntity
  8
0
  6
Continuous
 62
     7
370
    25
100
AcDbLine
 10
-33.5
 20
354.0
 30
0.0
 11
-33.5
 21
355.0
 31
0.0
  0
LINE
  5
139
330
23
100
AcDbEntity
  8
0
  6
Continuous
 62
     7
370
    25
100
AcDbLine
 10
62.5806747391
 20
354.0
 30
0.0
 11
62.5806747391
 21
355.0
 31
0.0
  0
LINE
  5
13A
330
23
100
AcDbEntity
  8
0
  6
Continuous
 62
     7
370
    25
100
AcDbLine
 10
-52.5
 20
2.0
 30
0.0
 11
54.0423335205
 21
2.0
 31
0.0
  0
LINE
  5
13B
330
23
100
AcDbEntity
  8
0
  6
Continuous
 62
     7
370
    25
100
AcDbLine
 10
54.0423335205
 20
2.0
 30
0.0
 11
54.0423335205
 21
0.0
 31
0.0
  0
LINE
  5
13C
330
23
100
AcDbEntity
  8
0
  6
Continuous
 62
     7
370
    25
100
AcDbLine
 10
-52.5
 20
2.0
 30
0.0
 11
-52.4999999986
 21
0.0
 31
0.0
  0
LINE
  5
13D
330
23
100
AcDbEntity
  8
0
  6
Continuous
 62
     7
370
    25
100
AcDbLine
 10
54.0423335205
 20
0.0
 30
0.0
 11
-52.4999999986
 21
0.0
 31
0.0
  0
LINE
  5
13E
330
23
100
AcDbEntity
  8
0
  6
Continuous
 62
     8
370
    25
100
AcDbLine
 10
59.6797742299
 20
354.2456131707
 30
0.0
 11
59.6797742299
 21
355.0
 31
0.0
  0
LINE
  5
13F
330
23
100
AcDbEntity
  8
0
  6
Continuous
 62
     8
370
    25
100
AcDbLine
 10
54.7598307036
 20
354.0
 30
0.0
 11
54.7598307036
 21
355.0
 31
0.0
  0
LINE
  5
140
330
23
100
AcDbEntity
  8
0
  6
Continuous
 62
     8
370
    25
100
AcDbLine
 10
-52.4999999965
 20
354.0
 30
0.0
 11
-52.4999999965
 21
355.0
 31
0.0
  0
ARC
  5
141
330
23
100
AcDbEntity
  8
0
  6
Continuous
 62
     7
370
    25
100
AcDbCircle
 10
72.3676305129
 20
370.0
 30
0.0
 40
9.999999999999218
100
AcDbArc
 50
359.2253780032
 51
90.000000302
  0
ARC
  5
142
330
23
100
AcDbEntity
  8
0
  6
Continuous
 62
     7
370
    25
100
AcDbCircle
 10
81.1578797199
 20
354.0
 30
0.0
 40
0.9999999999805566
100
AcDbArc
 50
358.2602802241
 51
90.0416696813
  0
ARC
  5
143
330
23
100
AcDbEntity
  8
0
  6
Continuous
 62
     7
370
    25
100
AcDbCircle
 10
75.5261370215
 20
2.0
 30
0.0
 40
1.999999999999996
100
AcDbArc
 50
269.9999999701
 51
359.4763233706
  0
ARC
  5
144
330
23
100
AcDbEntity
  8
0
  6
Continuous
 62
     7
370
    25
100
AcDbCircle
 10
-598.9846291693
 20
372.4999211404
 30
0.0
 40
653.7874807591503
100
AcDbArc
 50
359.7809082883
 51
0.6572966035
  0
ARC
  5
145
330
23
100
AcDbEntity
  8
0
  6
Continuous
 62
     7
370
    25
100
AcDbCircle
 10
59.6185905412
 20
370.0600158256
 30
0.0
 40
9.940172474924953
100
AcDbArc
 50
359.5435773538
 51
89.6473311421
  0
ARC
  5
146
330
23
100
AcDbEntity
  8
0
  6
Continuous
 62
     7
370
    25
100
AcDbCircle
 10
-57.5
 20
370.0
 30
0.0
 40
10.00000000000006
100
AcDbArc
 50
90.0
 51
180.0
  0
ARC
  5
147
330
23
100
AcDbEntity
  8
0
  6
Continuous
 62
     7
370
    25
100
AcDbCircle
 10
66.9703412324
 20
1.9945598795
 30
0.0
 40
1.994567279555029
100
AcDbArc
 50
270.1560738169
 51
0.0514441318
  0
ARC
  5
148
330
23
100
AcDbEntity
  8
0
  6
Continuous
 62
     7
370
    25
100
AcDbCircle
 10
-65.5
 20
2.0
 30
0.0
 40
1.999999999999987
100
AcDbArc
 50
180.0
 51
270.0
  0
VIEWPORT
  5
276
330
23
100
AcDbEntity
  8
0
100
AcDbViewport
 10
0.0
 20
0.0
 30
0.0
 40
205.6
 41
156.0
 68
     1
 69
     1
 12
0.0421786975
 22
190.0
 13
0.0
 23
0.0
 14
10.0
 24
10.0
 15
10.0
 25
10.0
 16
0.0
 26
0.0
 36
1.0
 17
0.0
 27
0.0
 37
0.0
 42
50.0
 43
0.0
 44
0.0
 45
387.6
 50
0.0
 51
0.0
 72
   100
 90
   557152
  1

281
     0
 71
     1
 74
     0
110
0.0
120
0.0
130
0.0
111
1.0
121
0.0
131
0.0
112
0.0
122
1.0
132
0.0
 79
     0
146
0.0
  0
ENDBLK
  5
25
330
23
100
AcDbEntity
  8
0
100
AcDbBlockEnd
  0
BLOCK
  5
14B
330
149
100
AcDbEntity
  8
0
100
AcDbBlockBegin
  2
*Paper_Space1
 70
     0
 10
0.0
 20
0.0
 30
0.0
  3
*Paper_Space1
  1

  0
SPLINE
  5
14F
330
149
100
AcDbEntity
  8
0
  6
Continuous
 62
     7
370
    25
100
AcDbSpline
210
0.0
220
0.0
230
1.0
 70
     8
 71
     3
 72
    11
 73
     7
 74
     0
 42
0.000000001
 43
0.00000001
 40
0.0
 40
0.0
 40
0.0
 40
0.0
 40
0.2500084087315497
 40
0.5000131085308459
 40
0.7500109944533772
 40
1.0
 40
1.0
 40
1.0
 40
1.0
 10
-82.18410943644486
 20
355.9868430247781
 30
0.0
 10
-82.16762401740738
 20
355.8571102644225
 30
0.0
 10
-82.13465342389739
 20
355.5976466683267
 30
0.0
 10
-81.90275778332908
 20
355.2718966058158
 30
0.0
 10
-81.5739454541556
 20
355.0443292308458
 30
0.0
 10
-81.31401898840218
 20
355.0147762353162
 30
0.0
 10
-81.18405806383072
 20
355.0000000000001
 30
0.0
  0
SPLINE
  5
150
330
149
100
AcDbEntity
  8
0
  6
Continuous
 62
     7
370
    25
100
AcDbSpline
210
0.0
220
0.0
230
1.0
 70
     8
 71
     3
 72
    11
 73
     7
 74
     0
 42
0.000000001
 43
0.00000001
 40
0.0
 40
0.0
 40
0.0
 40
0.0
 40
0.2500000000000264
 40
0.5000000000000799
 40
0.7500000000001061
 40
1.0
 40
1.0
 40
1.0
 40
1.0
 10
66.49999999999996
 20
355.0
 30
0.0
 10
66.63103704380619
 20
355.0150315727872
 30
0.0
 10
66.89311113141868
 20
355.045094718362
 30
0.0
 10
67.2236560685156
 20
355.2763439314844
 30
0.0
 10
67.45490528163795
 20
355.6068888685812
 30
0.0
 10
67.48496842721264
 20
355.8689629561936
 30
0.0
 10
67.49999999999996
 20
355.9999999999998
 30
0.0
  0
SPLINE
  5
152
330
149
100
AcDbEntity
  8
0
  6
Continuous
 62
     7
370
    25
100
AcDbSpline
210
0.0
220
0.0
230
1.0
 70
     8
 71
     3
 72
    11
 73
     7
 74
     0
 42
0.000000001
 43
0.00000001
 40
0.0
 40
0.0
 40
0.0
 40
0.0
 40
0.2499999999999987
 40
0.5000000000000092
 40
0.7499999999999919
 40
1.0
 40
1.0
 40
1.0
 40
1.0
 10
57.49999999999989
 20
354.0
 30
0.0
 10
57.51503157278723
 20
354.1310370438062
 30
0.0
 10
57.54509471836192
 20
354.3931111314187
 30
0.0
 10
57.77634393148428
 20
354.7236560685158
 30
0.0
 10
58.10688886858119
 20
354.9549052816378
 30
0.0
 10
58.36896295619371
 20
354.9849684272127
 30
0.0
 10
58.49999999999994
 20
355.0
 30
0.0
  0
SPLINE
  5
153
330
149
100
AcDbEntity
  8
0
  6
Continuous
 62
     7
370
    25
100
AcDbSpline
210
0.0
220
0.0
230
1.0
 70
     8
 71
     3
 72
    11
 73
     7
 74
     0
 42
0.000000001
 43
0.00000001
 40
0.0
 40
0.0
 40
0.0
 40
0.0
 40
0.2500266941264175
 40
0.5000316801746332
 40
0.7500201780423832
 40
0.9999999999999999
 40
0.9999999999999999
 40
0.9999999999999999
 40
0.9999999999999999
 10
-73.15676308695988
 20
355.0
 30
0.0
 10
-73.02689221105517
 20
354.9852257786002
 30
0.0
 10
-72.76716173503024
 20
354.9556786185437
 30
0.0
 10
-72.43850761491514
 20
354.7281177942211
 30
0.0
 10
-72.20671247252594
 20
354.4023625759664
 30
0.0
 10
-72.17375317202594
 20
354.1428906746049
 30
0.0
 10
-72.15727380774601
 20
354.0131569752218
 30
0.0
  0
LWPOLYLINE
  5
157
330
149
100
AcDbEntity
  8
0
  6
Continuous
 62
     7
370
    25
100
AcDbPolyline
 90
        3
 70
   128
 43
0.0
 10
-82.1577762304
 20
353.9855615909
 10
-79.8428771712
 20
178.0561590331
 10
-77.5259570832
 20
1.9731676472
  0
SPLINE
  5
159
330
149
100
AcDbEntity
  8
0
  6
Continuous
 62
     7
370
    25
100
AcDbSpline
210
0.0
220
0.0
230
1.0
 70
     8
 71
     3
 72
    30
 73
    26
 74
     0
 42
0.000000001
 43
0.00000001
 40
0.0
 40
0.0
 40
0.0
 40
0.0
 40
0.062500000000001
 40
0.062500000000001
 40
0.125000000000002
 40
0.125000000000002
 40
0.2500000000000031
 40
0.2500000000000031
 40
0.3125000000000038
 40
0.3125000000000038
 40
0.3750000000000046
 40
0.3750000000000046
 40
0.500000000000005
 40
0.500000000000005
 40
0.5625000000000052
 40
0.5625000000000052
 40
0.6250000000000054
 40
0.6250000000000054
 40
0.7500000000000028
 40
0.7500000000000028
 40
0.812500000000002
 40
0.812500000000002
 40
0.8750000000000011
 40
0.8750000000000011
 40
1.0
 40
1.0
 40
1.0
 40
1.0
 10
-54.79807175805219
 20
369.999927766406
 30
0.0
 10
-55.2430269910919
 20
369.999364956584
 30
0.0
 10
-55.68859004663816
 20
369.9987985700739
 30
0.0
 10
-56.57095070607362
 20
369.9976823888082
 30
0.0
 10
-57.00753806329605
 20
369.9971327650309
 30
0.0
 10
-58.30389959541492
 20
369.9955085868572
 30
0.0
 10
-59.15039873319555
 20
369.9944613409471
 30
0.0
 10
-60.39280068737901
 20
369.9928745201278
 30
0.0
 10
-60.80396073601695
 20
369.9923440723908
 30
0.0
 10
-61.60202003243675
 20
369.9913158904729
 30
0.0
 10
-61.99040744936212
 20
369.990816222757
 30
0.0
 10
-63.12440997491697
 20
369.9893626801933
 30
0.0
 10
-63.83915689167295
 20
369.9884577760922
 30
0.0
 10
-64.84721332772327
 20
369.9871351182355
 30
0.0
 10
-65.17248526545994
 20
369.9867002267964
 30
0.0
 10
-65.78868017635284
 20
369.9858738897011
 30
0.0
 10
-66.08135934955094
 20
369.985480156593
 30
0.0
 10
-66.91403283642724
 20
369.984365705088
 30
0.0
 10
-67.40908273819004
 20
369.98371632734
 30
0.0
 10
-68.05754280292274
 20
369.9828457275412
 30
0.0
 10
-68.25650433683255
 20
369.9825716810602
 30
0.0
 10
-68.61580896377828
 20
369.9820754679527
 30
0.0
 10
-68.77702532510872
 20
369.9818521885014
 30
0.0
 10
-69.2062181177481
 20
369.9812679361769
 30
0.0
 10
-69.4202299640356
 20
369.980997211225
 30
0.0
 10
-69.55844762539327
 20
369.9808324742229
 30
0.0
  0
LWPOLYLINE
  5
15A
330
149
100
AcDbEntity
  8
0
  6
Continuous
 62
     7
370
    25
100
AcDbPolyline
 90
        4
 70
   128
 43
0.0
 10
52.5000000109
 20
370.0
 10
32.5000000109
 20
370.0
 10
-11.1490358736
 20
370.0
 10
-54.7980717581
 20
369.9999277664
  0
SPLINE
  5
15B
330
149
100
AcDbEntity
  8
0
  6
Continuous
 62
     7
370
    25
100
AcDbSpline
210
0.0
220
0.0
230
1.0
 70
    24
 71
     3
 72
    11
 73
     7
 74
     0
 42
0.000000001
 43
0.00000001
 40
0.1340026041413494
 40
0.1340026041413494
 40
0.1340026041413494
 40
0.1340026041413494
 40
0.1401448801230381
 40
0.1462871561047266
 40
0.1524294320864153
 40
0.1585717080458906
 40
0.1585717080458906
 40
0.1585717080458906
 40
0.1585717080458906
 10
67.49999999999996
 20
369.9999998809681
 30
0.0
 10
67.49999999999996
 20
369.9999998809681
 30
0.0
 10
66.72011220135231
 20
369.9999998809681
 30
0.0
 10
63.38853693665565
 20
369.9999998809679
 30
0.0
 10
58.3997366070142
 20
369.9999998809686
 30
0.0
 10
54.46861661392902
 20
369.9999998809681
 30
0.0
 10
52.49999998950427
 20
369.9999998809681
 30
0.0
  0
SPLINE
  5
15C
330
149
100
AcDbEntity
  8
0
  6
Continuous
 62
     7
370
    25
100
AcDbSpline
210
0.0
220
0.0
230
1.0
 70
    24
 71
     3
 72
     9
 73
     5
 74
     0
 42
0.000000001
 43
0.00000001
 40
0.0
 40
0.0
 40
0.0
 40
0.0
 40
0.0257835928244911
 40
1.0
 40
1.0
 40
1.0
 40
1.0
 10
67.46907903054849
 20
355.9999999748447
 30
0.0
 10
67.47951889598001
 20
355.9999999833379
 30
0.0
 10
67.88442233603071
 20
356.0000003127404
 30
0.0
 10
67.68970085836823
 20
356.0000001543281
 30
0.0
 10
67.49999999999997
 20
356.0000000000001
 30
0.0
  0
SPLINE
  5
15D
330
149
100
AcDbEntity
  8
0
  6
Continuous
 62
     7
370
    25
100
AcDbSpline
210
0.0
220
0.0
230
1.0
 70
    24
 71
     3
 72
    14
 73
    10
 74
     0
 42
0.000000001
 43
0.00000001
 40
0.0
 40
0.0
 40
0.0
 40
0.0
 40
0.0574139088967826
 40
0.2422124692807446
 40
0.4270856178117292
 40
0.611958750686439
 40
0.7967572897123184
 40
0.9839960872346837
 40
1.0
 40
1.0
 40
1.0
 40
1.0
 10
-68.54967577438146
 20
355.0
 30
0.0
 10
-69.02526098027496
 20
355.0000000000001
 30
0.0
 10
-71.03161569965059
 20
355.0000000000002
 30
0.0
 10
-74.07775634032922
 20
354.9999999999999
 30
0.0
 10
-77.191906084655
 20
355.0000000000001
 30
0.0
 10
-79.45708177233415
 20
354.9999999999999
 30
0.0
 10
-80.76774320454506
 20
354.9999999999998
 30
0.0
 10
-81.31152034612329
 20
355.0000000000001
 30
0.0
 10
-81.16011926211131
 20
355.0
 30
0.0
 10
-81.14819750738923
 20
355.0
 30
0.0
  0
SPLINE
  5
15E
330
149
100
AcDbEntity
  8
0
  6
Continuous
 62
     7
370
    25
100
AcDbSpline
210
0.0
220
0.0
230
1.0
 70
    24
 71
     3
 72
    16
 73
    12
 74
     0
 42
0.000000001
 43
0.00000001
 40
0.0
 40
0.0
 40
0.0
 40
0.0
 40
0.1738909402418751
 40
0.2759917989926588
 40
0.3781001484408921
 40
0.4802414114901495
 40
0.5823834085972928
 40
0.6845379682424406
 40
0.7866862010983594
 40
0.986285134172254
 40
0.9999999999999999
 40
0.9999999999999999
 40
0.9999999999999999
 40
0.9999999999999999
 10
66.7004310633428
 20
355.0
 30
0.0
 10
66.50686579629553
 20
355.0
 30
0.0
 10
66.19964779977103
 20
355.0000000000001
 30
0.0
 10
65.14318848819954
 20
355.0000000000001
 30
0.0
 10
63.93279930203317
 20
354.9999999999999
 30
0.0
 10
62.39331644698498
 20
355.0
 30
0.0
 10
60.57735759889677
 20
355.0000000000001
 30
0.0
 10
58.53018070592436
 20
355.0000000000001
 30
0.0
 10
55.60149596198871
 20
355.0000000000001
 30
0.0
 10
53.18492517341521
 20
354.9999999999995
 30
0.0
 10
51.54411218626801
 20
355.0
 30
0.0
 10
51.43861722962188
 20
354.9999999999999
 30
0.0
  0
SPLINE
  5
15F
330
149
100
AcDbEntity
  8
0
  6
Continuous
 62
     7
370
    25
100
AcDbSpline
210
0.0
220
0.0
230
1.0
 70
    24
 71
     3
 72
    19
 73
    15
 74
     0
 42
0.000000001
 43
0.00000001
 40
0.0
 40
0.0
 40
0.0
 40
0.0
 40
0.0066790395396749
 40
0.6627448551633738
 40
0.8267859864592119
 40
0.84764930267103
 40
0.8685123710910624
 40
0.889377688304633
 40
0.9102433008571585
 40
0.9311119996758949
 40
0.9519810717749035
 40
0.972848986737357
 40
0.9937176466237606
 40
1.0
 40
1.0
 40
1.0
 40
1.0
 10
38.50707923491989
 20
355.0
 30
0.0
 10
38.2555345841578
 20
355.0
 30
0.0
 10
13.29537045484754
 20
355.000000000002
 30
0.0
 10
-17.87471422312784
 20
355.0000000000002
 30
0.0
 10
-49.56256024838388
 20
354.9999999999998
 30
0.0
 10
-57.316431968895
 20
355.0000000000001
 30
0.0
 10
-59.60093505187909
 20
355.0000000000001
 30
0.0
 10
-61.74425137520906
 20
355.0000000000001
 30
0.0
 10
-63.69224228207921
 20
354.9999999999999
 30
0.0
 10
-65.37983261100709
 20
354.9999999999999
 30
0.0
 10
-66.7718525413312
 20
355.0000000000002
 30
0.0
 10
-67.81059531112544
 20
355.0
 30
0.0
 10
-68.33797477137837
 20
354.9999999999999
 30
0.0
 10
-68.50989573890567
 20
355.0
 30
0.0
 10
-68.54967577438146
 20
355.0
 30
0.0
  0
SPLINE
  5
160
330
149
100
AcDbEntity
  8
0
  6
Continuous
 62
     7
370
    25
100
AcDbSpline
210
0.0
220
0.0
230
1.0
 70
    24
 71
     3
 72
    22
 73
    18
 74
     0
 42
0.000000001
 43
0.00000001
 40
0.0
 40
0.0
 40
0.0
 40
0.0
 40
0.125
 40
0.125
 40
0.25
 40
0.25
 40
0.375
 40
0.375
 40
0.5
 40
0.5
 40
0.625
 40
0.625
 40
0.75
 40
0.75
 40
0.875
 40
0.875
 40
1.0
 40
1.0
 40
1.0
 40
1.0
 10
-59.6797742303316
 20
380.0
 30
0.0
 10
-59.63369435578815
 20
379.9999999999999
 30
0.0
 10
-59.56218681724893
 20
380.0000000000002
 30
0.0
 10
-59.37146493146732
 20
379.9999999999999
 30
0.0
 10
-59.25161100826023
 20
380.0000000000002
 30
0.0
 10
-58.96343802650792
 20
380.0000000000002
 30
0.0
 10
-58.79822142837936
 20
380.0
 30
0.0
 10
-58.42808176705478
 20
379.9999999999999
 30
0.0
 10
-58.2213674659544
 20
380.0
 30
0.0
 10
-57.77333098936364
 20
379.9999999999999
 30
0.0
 10
-57.53496374478378
 20
379.9999999999999
 30
0.0
 10
-57.03097660910217
 20
380.0000000000001
 30
0.0
 10
-56.76259649124934
 20
380.0000000000001
 30
0.0
 10
-56.21043879331633
 20
380.0000000000001
 30
0.0
 10
-55.92823846758697
 20
380.0000000000001
 30
0.0
 10
-55.35213892501408
 20
380.0000000000001
 30
0.0
 10
-55.05641141692186
 20
380.0000000000001
 30
0.0
 10
-54.75983070394978
 20
380.0
 30
0.0
  0
SPLINE
  5
163
330
149
100
AcDbEntity
  8
0
  6
Continuous
 62
     7
370
    25
100
AcDbSpline
210
0.0
220
0.0
230
1.0
 70
    24
 71
     3
 72
    15
 73
    11
 74
     0
 42
0.000000001
 43
0.00000001
 40
0.0
 40
0.0
 40
0.0
 40
0.0
 40
0.015625
 40
0.015625
 40
0.0312500000000001
 40
0.0625000000000002
 40
0.1250000000000001
 40
0.25
 40
0.5
 40
1.0
 40
1.0
 40
1.0
 40
1.0
 10
-54.75983070394977
 20
380.0
 30
0.0
 10
-54.20118576019279
 20
380.0000000000001
 30
0.0
 10
-53.64254080095112
 20
380.0000000000002
 30
0.0
 10
-52.52525089782047
 20
380.0
 30
0.0
 10
-50.84931604312452
 20
379.9999999999997
 30
0.0
 10
-46.93880138216721
 20
379.9999999999999
 30
0.0
 10
-39.11777206025251
 20
380.0000000000003
 30
0.0
 10
-23.47571341642364
 20
380.0000000000001
 30
0.0
 10
7.808403871234733
 20
380.0000000000001
 30
0.0
 10
34.6233615463703
 20
379.9999999999999
 30
0.0
 10
52.49999999646069
 20
380.0
 30
0.0
  0
SPLINE
  5
165
330
149
100
AcDbEntity
  8
0
  6
Continuous
 62
     7
370
    25
100
AcDbSpline
210
0.0
220
0.0
230
1.0
 70
    24
 71
     3
 72
    24
 73
    20
 74
     0
 42
0.000000001
 43
0.00000001
 40
0.0
 40
0.0
 40
0.0
 40
0.0
 40
0.1249999999999964
 40
0.1249999999999964
 40
0.1874999999999949
 40
0.1874999999999949
 40
0.2499999999999934
 40
0.2499999999999934
 40
0.3749999999999945
 40
0.3749999999999945
 40
0.4999999999999956
 40
0.4999999999999956
 40
0.6249999999999967
 40
0.6249999999999967
 40
0.7499999999999978
 40
0.7499999999999978
 40
0.8749999999999989
 40
0.8749999999999989
 40
1.0
 40
1.0
 40
1.0
 40
1.0
 10
52.49999999646069
 20
380.0
 30
0.0
 10
52.83036194463985
 20
380.0
 30
0.0
 10
53.15508733291382
 20
379.9999999999998
 30
0.0
 10
53.6344932264753
 20
379.9999999999999
 30
0.0
 10
53.79299509233145
 20
380.0000000000002
 30
0.0
 10
54.10729895939671
 20
380.0
 30
0.0
 10
54.26351305008215
 20
379.9999999999999
 30
0.0
 10
54.71746154278156
 20
379.9999999999998
 30
0.0
 10
55.00407510667002
 20
379.9999999999999
 30
0.0
 10
55.54740287291129
 20
380.0000000000001
 30
0.0
 10
55.80510850822468
 20
380.0000000000001
 30
0.0
 10
56.26601020467211
 20
379.9999999999999
 30
0.0
 10
56.47222918800429
 20
379.9999999999999
 30
0.0
 10
56.8377369133384
 20
379.9999999999999
 30
0.0
 10
56.99379536744436
 20
380.0
 30
0.0
 10
57.24313785287638
 20
379.9999999999999
 30
0.0
 10
57.33816621908107
 20
380.0
 30
0.0
 10
57.46682895378844
 20
379.9999999999999
 30
0.0
 10
57.49999999999996
 20
379.9999999999999
 30
0.0
 10
57.49999999999996
 20
380.0
 30
0.0
  0
SPLINE
  5
16A
330
149
100
AcDbEntity
  8
0
  6
Continuous
 62
     7
370
    25
100
AcDbSpline
210
0.0
220
0.0
230
1.0
 70
    24
 71
     3
 72
    13
 73
     9
 74
     0
 42
0.000000001
 43
0.00000001
 40
0.0
 40
0.0
 40
0.0
 40
0.0
 40
0.1076911780772653
 40
0.2694779190157244
 40
0.4518148537092622
 40
0.6341517686121295
 40
0.817076963450515
 40
1.0
 40
1.0
 40
1.0
 40
1.0
 10
-72.29318577223005
 20
380.0000000000001
 30
0.0
 10
-72.29402148536784
 20
380.0000000000001
 30
0.0
 10
-72.29611270807784
 20
380.0
 30
0.0
 10
-71.50334805339212
 20
379.9999999999998
 30
0.0
 10
-69.92249936359653
 20
380.0000000000002
 30
0.0
 10
-67.38276753274035
 20
380.0
 30
0.0
 10
-64.07952625684531
 20
380.0
 30
0.0
 10
-61.14635247117076
 20
380.0
 30
0.0
 10
-59.6797742303316
 20
380.0
 30
0.0
  0
SPLINE
  5
16D
330
149
100
AcDbEntity
  8
0
  6
Continuous
 62
     7
370
    25
100
AcDbSpline
210
0.0
220
0.0
230
1.0
 70
     8
 71
     3
 72
    24
 73
    20
 74
     0
 42
0.000000001
 43
0.00000001
 40
0.0
 40
0.0
 40
0.0
 40
0.0
 40
0.0000962251636255
 40
0.0147644206347579
 40
0.0295714297946312
 40
0.0443867553641635
 40
0.1260501526677024
 40
0.4527037418818581
 40
0.6299060758428642
 40
0.7185072428233673
 40
0.8071084098038706
 40
0.8957095767843735
 40
0.9135451601459066
 40
0.9315076029910017
 40
0.9493946150003848
 40
0.9670795818235146
 40
0.9846810619776429
 40
0.9923402942382288
 40
1.0
 40
1.0
 40
1.0
 40
1.0
 10
67.11600888459694
 20
353.9999999098215
 30
0.0
 10
67.11930271353826
 20
353.999999909554
 30
0.0
 10
67.62469521334127
 20
353.9999998685212
 30
0.0
 10
67.76578627205956
 20
353.9999997796214
 30
0.0
 10
67.65843042133844
 20
353.9999999406084
 30
0.0
 10
67.22961726279084
 20
354.0000001013597
 30
0.0
 10
67.97974356389274
 20
353.9999998201462
 30
0.0
 10
67.38922889629526
 20
354.0000000416505
 30
0.0
 10
67.52328707954422
 20
353.9999999910853
 30
0.0
 10
67.47347406326625
 20
354.0000000102668
 30
0.0
 10
67.59526992146007
 20
353.9999999630507
 30
0.0
 10
67.26520402105263
 20
354.0000000910783
 30
0.0
 10
67.65269660438783
 20
353.9999999407681
 30
0.0
 10
68.10560724355557
 20
353.9999997449274
 30
0.0
 10
68.38118176189467
 20
353.9999996170801
 30
0.0
 10
68.16048087079906
 20
353.9999995621177
 30
0.0
 10
67.36554913153144
 20
353.9999999737311
 30
0.0
 10
66.12637284471973
 20
353.9999999875401
 30
0.0
 10
65.19400522748563
 20
353.9999999414119
 30
0.0
 10
64.72780700934582
 20
353.9999999183472
 30
0.0
  0
SPLINE
  5
16E
330
149
100
AcDbEntity
  8
0
  6
Continuous
 62
     7
370
    25
100
AcDbSpline
210
0.0
220
0.0
230
1.0
 70
    24
 71
     3
 72
    32
 73
    28
 74
     0
 42
0.000000001
 43
0.00000001
 40
0.0
 40
0.0
 40
0.0
 40
0.0
 40
0.0149425194381313
 40
0.0298851511678241
 40
0.045285751851063
 40
0.0606868616401079
 40
0.0760958914215224
 40
0.091505412165587
 40
0.106914238353095
 40
0.1223237310156707
 40
0.1445525875102672
 40
0.1668100411136845
 40
0.5104198190137306
 40
0.6822247079637536
 40
0.7168062557677152
 40
0.7516281813103309
 40
0.7863063123072591
 40
0.8206015534651799
 40
0.8547388052118322
 40
0.8701300968309102
 40
0.8855222769906843
 40
0.9012862951483332
 40
0.9170502020129851
 40
0.932816031604862
 40
0.948580816898838
 40
0.9784478746237243
 40
1.0
 40
1.0
 40
1.0
 40
1.0
 10
-68.54587309003932
 20
355.0
 30
0.0
 10
-68.39305294456693
 20
354.9999999999999
 30
0.0
 10
-68.08741150519384
 20
355.0
 30
0.0
 10
-67.16897266533103
 20
354.9999999999999
 30
0.0
 10
-65.91621861606903
 20
355.0000000000001
 30
0.0
 10
-64.33157252824576
 20
355.0
 30
0.0
 10
-62.46979491884849
 20
354.9999999999999
 30
0.0
 10
-60.39097927578589
 20
355.0
 30
0.0
 10
-58.14839192466295
 20
355.0000000000001
 30
0.0
 10
-55.46108226285614
 20
355.0
 30
0.0
 10
-52.39781656360828
 20
355.0000000000001
 30
0.0
 10
-32.59803278228064
 20
354.9999999999993
 30
0.0
 10
-5.143339546141536
 20
355.0000000000004
 30
0.0
 10
22.93027374668799
 20
354.9999999999998
 30
0.0
 10
35.24118654043472
 20
355.0000000000001
 30
0.0
 10
40.53986519622848
 20
355.0000000000001
 30
0.0
 10
45.83630263716678
 20
354.9999999999999
 30
0.0
 10
51.10073107782546
 20
355.0
 30
0.0
 10
55.35026761874094
 20
355.0
 30
0.0
 10
58.48189781144924
 20
355.0
 30
0.0
 10
60.54893984691435
 20
355.0
 30
0.0
 10
62.39726886647679
 20
355.0000000000001
 30
0.0
 10
63.96986084470608
 20
355.0
 30
0.0
 10
65.1987595810108
 20
354.9999999999999
 30
0.0
 10
66.29587758501837
 20
354.9999999999999
 30
0.0
 10
66.75263100335441
 20
354.9999999999999
 30
0.0
 10
66.67887617661943
 20
355.0000000000001
 30
0.0
 10
66.64796216404615
 20
355.0000000000001
 30
0.0
  0
SPLINE
  5
16F
330
149
100
AcDbEntity
  8
0
  6
Continuous
 62
     7
370
    25
100
AcDbSpline
210
0.0
220
0.0
230
1.0
 70
    24
 71
     3
 72
    12
 73
     8
 74
     0
 42
0.000000001
 43
0.00000001
 40
0.0
 40
0.0
 40
0.0
 40
0.0
 40
0.1896189400601125
 40
0.4213016619211636
 40
0.6524746330678893
 40
0.8836476659841663
 40
1.0
 40
1.0
 40
1.0
 40
1.0
 10
-81.05349281238945
 20
355.0000000000001
 30
0.0
 10
-81.00691608253038
 20
355.0000000000001
 30
0.0
 10
-80.90343035641958
 20
355.0000000000001
 30
0.0
 10
-79.12216582692325
 20
354.9999999999999
 30
0.0
 10
-76.00205479699368
 20
355.0000000000002
 30
0.0
 10
-72.30166888336217
 20
354.9999999999999
 30
0.0
 10
-69.48792226754226
 20
354.9999999999999
 30
0.0
 10
-68.54587309003932
 20
355.0
 30
0.0
  0
SPLINE
  5
170
330
149
100
AcDbEntity
  8
0
  6
Continuous
 62
     7
370
    25
100
AcDbSpline
210
0.0
220
0.0
230
1.0
 70
    24
 71
     3
 72
    14
 73
    10
 74
     0
 42
0.000000001
 43
0.00000001
 40
0.0
 40
0.0
 40
0.0
 40
0.0
 40
0.1451256077834281
 40
0.290251215566878
 40
0.4353768233503008
 40
0.5805024311337402
 40
0.7256280389171705
 40
0.8707536467005994
 40
1.0
 40
1.0
 40
1.0
 40
1.0
 10
67.49999999999994
 20
324.9999999999997
 30
0.0
 10
67.49999999999996
 20
324.6064388379079
 30
0.0
 10
67.49999999999997
 20
323.8193165137245
 30
0.0
 10
67.49999999999993
 20
322.7716165348915
 30
0.0
 10
67.49999999999996
 20
321.9756682847856
 30
0.0
 10
67.49999999999993
 20
321.5187465049029
 30
0.0
 10
67.49999999999997
 20
321.4615672068811
 30
0.0
 10
67.49999999999997
 20
321.7647564872052
 30
0.0
 10
67.49999999999996
 20
322.2397931694907
 30
0.0
 10
67.49999999999994
 20
322.4635651563459
 30
0.0
  0
SPLINE
  5
171
330
149
100
AcDbEntity
  8
0
  6
Continuous
 62
     7
370
    25
100
AcDbSpline
210
0.0
220
0.0
230
1.0
 70
    24
 71
     3
 72
    13
 73
     9
 74
     0
 42
0.000000001
 43
0.00000001
 40
0.0
 40
0.0
 40
0.0
 40
0.0
 40
0.0067998795515288
 40
0.2215048138643407
 40
0.43620974817717
 40
0.650914682490002
 40
0.8656196168028113
 40
1.0
 40
1.0
 40
1.0
 40
1.0
 10
67.49999999999996
 20
328.4939439001453
 30
0.0
 10
67.49999999999994
 20
328.4959532418093
 30
0.0
 10
67.49999999999989
 20
328.5614071734429
 30
0.0
 10
67.49999999999997
 20
328.3242041016709
 30
0.0
 10
67.49999999999993
 20
327.7688603702391
 30
0.0
 10
67.49999999999997
 20
326.8563011300075
 30
0.0
 10
67.49999999999993
 20
325.8835456583301
 30
0.0
 10
67.49999999999994
 20
325.2455835108155
 30
0.0
 10
67.49999999999994
 20
324.9999999999997
 30
0.0
  0
SPLINE
  5
172
330
149
100
AcDbEntity
  8
0
  6
Continuous
 62
     7
370
    25
100
AcDbSpline
210
0.0
220
0.0
230
1.0
 70
    24
 71
     3
 72
    11
 73
     7
 74
     0
 42
0.000000001
 43
0.00000001
 40
0.1340026041191361
 40
0.1340026041191361
 40
0.1340026041191361
 40
0.1340026041191361
 40
0.1401448801008247
 40
0.1462871560825134
 40
0.152429432064202
 40
0.1585717080334694
 40
0.1585717080334694
 40
0.1585717080334694
 40
0.1585717080334694
 10
52.49999998956002
 20
2.000000025457776
 30
0.0
 10
54.45815910563437
 20
2.000000025457776
 30
0.0
 10
58.37948725799334
 20
2.000000025457776
 30
0.0
 10
63.37712780078944
 20
2.000000025457776
 30
0.0
 10
66.71956836074722
 20
2.000000025457776
 30
0.0
 10
67.49999999999993
 20
2.000000025457776
 30
0.0
 10
67.49999999999993
 20
2.000000025457776
 30
0.0
  0
SPLINE
  5
174
330
149
100
AcDbEntity
  8
0
  6
Continuous
 62
     7
370
    25
100
AcDbSpline
210
0.0
220
0.0
230
1.0
 70
     8
 71
     3
 72
    30
 73
    26
 74
     0
 42
0.000000001
 43
0.00000001
 40
0.0
 40
0.0
 40
0.0
 40
0.0
 40
0.0625000000000016
 40
0.0625000000000016
 40
0.1250000000000033
 40
0.1250000000000033
 40
0.250000000000006
 40
0.250000000000006
 40
0.3125000000000057
 40
0.3125000000000057
 40
0.3750000000000054
 40
0.3750000000000054
 40
0.5000000000000036
 40
0.5000000000000036
 40
0.562500000000004
 40
0.562500000000004
 40
0.6250000000000043
 40
0.6250000000000043
 40
0.7500000000000023
 40
0.7500000000000023
 40
0.812500000000002
 40
0.812500000000002
 40
0.8750000000000016
 40
0.8750000000000016
 40
1.0
 40
1.0
 40
1.0
 40
1.0
 10
-68.96490770872765
 20
1.996350740373437
 30
0.0
 10
-68.91678069876063
 20
1.996477849512901
 30
0.0
 10
-68.84752017752317
 20
1.996378511394503
 30
0.0
 10
-68.66693210671362
 20
1.996420922848047
 30
0.0
 10
-68.55568226851284
 20
1.996447498308102
 30
0.0
 10
-68.16484096370436
 20
1.996541232986732
 30
0.0
 10
-67.82769551557925
 20
1.996622492254546
 30
0.0
 10
-67.20484474926067
 20
1.996763212614772
 30
0.0
 10
-66.97723843154715
 20
1.996814681238024
 30
0.0
 10
-66.48343934626575
 20
1.996928299702827
 30
0.0
 10
-66.22047586876283
 20
1.996989700366242
 30
0.0
 10
-65.38520165731873
 20
1.997187800403782
 30
0.0
 10
-64.7670660280474
 20
1.997338755828942
 30
0.0
 10
-63.74455657120226
 20
1.997586658204487
 30
0.0
 10
-63.3857014900354
 20
1.997672769454728
 30
0.0
 10
-62.64766672135232
 20
1.997850620204716
 30
0.0
 10
-62.26834865166148
 20
1.997942402602065
 30
0.0
 10
-61.10044141023013
 20
1.998228178697548
 30
0.0
 10
-60.28228494063229
 20
1.998433273895123
 30
0.0
 10
-58.9926162681643
 20
1.998760254701609
 30
0.0
 10
-58.55229578580087
 20
1.998870256390756
 30
0.0
 10
-57.66915233185237
 20
1.999089738470017
 30
0.0
 10
-57.22404968852538
 20
1.99919991540487
 30
0.0
 10
-55.87839841437181
 20
1.999534731817076
 30
0.0
 10
-54.96760546933619
 20
2.000000000000002
 30
0.0
 10
-54.04233352077715
 20
2.000000000000002
 30
0.0
  0
SPLINE
  5
175
330
149
100
AcDbEntity
  8
0
  6
Continuous
 62
     7
370
    25
100
AcDbSpline
210
0.0
220
0.0
230
1.0
 70
    24
 71
     3
 72
    28
 73
    24
 74
     0
 42
0.000000001
 43
0.00000001
 40
0.0
 40
0.0
 40
0.0
 40
0.0
 40
0.1249999999999968
 40
0.1249999999999968
 40
0.1874999999999947
 40
0.1874999999999947
 40
0.2499999999999926
 40
0.2499999999999926
 40
0.3749999999999899
 40
0.3749999999999899
 40
0.437499999999989
 40
0.437499999999989
 40
0.4999999999999881
 40
0.4999999999999881
 40
0.6249999999999909
 40
0.6249999999999909
 40
0.7499999999999937
 40
0.7499999999999937
 40
0.8749999999999966
 40
0.8749999999999966
 40
0.9374999999999982
 40
0.9374999999999982
 40
1.0
 40
1.0
 40
1.0
 40
1.0
 10
-54.04233352077714
 20
0.0
 30
0.0
 10
-54.84430600237158
 20
0.0
 30
0.0
 10
-55.63372056872243
 20
0.0
 30
0.0
 10
-56.80006587778519
 20
0.0
 30
0.0
 10
-57.18586315427854
 20
0.0
 30
0.0
 10
-57.9513381478569
 20
0.0
 30
0.0
 10
-58.33299678027621
 20
0.0
 30
0.0
 10
-59.45080553547106
 20
0.0
 30
0.0
 10
-60.15986265077802
 20
0.0
 30
0.0
 10
-61.17212133881975
 20
0.0
 30
0.0
 10
-61.50089822545596
 20
0.0
 30
0.0
 10
-62.1406018002255
 20
0.0
 30
0.0
 10
-62.45165806347278
 20
0.0
 30
0.0
 10
-63.33786722688628
 20
0.0
 30
0.0
 10
-63.87348627247209
 20
0.0
 30
0.0
 10
-64.83868679604846
 20
0.0
 30
0.0
 10
-65.27067931754601
 20
0.0
 30
0.0
 10
-65.99040259772582
 20
0.0
 30
0.0
 10
-66.28243662070341
 20
0.0
 30
0.0
 10
-66.62109194424274
 20
0.0
 30
0.0
 10
-66.71750478386437
 20
0.0
 30
0.0
 10
-66.87403215045441
 20
0.0
 30
0.0
 10
-66.93406406974063
 20
0.0
 30
0.0
 10
-66.97577443165443
 20
0.0
 30
0.0
  0
SPLINE
  5
179
330
149
100
AcDbEntity
  8
0
  6
Continuous
 62
     7
370
    25
100
AcDbSpline
210
0.0
220
0.0
230
1.0
 70
    24
 71
     3
 72
    30
 73
    26
 74
     0
 42
0.000000001
 43
0.00000001
 40
0.0
 40
0.0
 40
0.0
 40
0.0
 40
0.1249999999999964
 40
0.1249999999999964
 40
0.1874999999999923
 40
0.1874999999999923
 40
0.2499999999999883
 40
0.2499999999999883
 40
0.3749999999999848
 40
0.3749999999999848
 40
0.4374999999999836
 40
0.4374999999999836
 40
0.4999999999999831
 40
0.4999999999999831
 40
0.6249999999999862
 40
0.6249999999999862
 40
0.6874999999999886
 40
0.6874999999999886
 40
0.7499999999999908
 40
0.7499999999999908
 40
0.8124999999999931
 40
0.8124999999999931
 40
0.8749999999999954
 40
0.8749999999999954
 40
1.0
 40
1.0
 40
1.0
 40
1.0
 10
65.49999999999994
 20
0.0
 30
0.0
 10
65.49999999930985
 20
0.0
 30
0.0
 10
65.41493463951124
 20
0.0
 30
0.0
 10
65.16761197483888
 20
0.0
 30
0.0
 10
65.06500551794328
 20
0.0
 30
0.0
 10
64.81827777783913
 20
0.0
 30
0.0
 10
64.67345647942209
 20
0.0
 30
0.0
 10
64.18452442227084
 20
0.0
 30
0.0
 10
63.78465503105294
 20
0.0
 30
0.0
 10
63.07761701462866
 20
0.0
 30
0.0
 10
62.82292369975342
 20
0.0
 30
0.0
 10
62.28011053143276
 20
0.0
 30
0.0
 10
61.99452912451039
 20
0.0
 30
0.0
 10
61.09588046135136
 20
0.0
 30
0.0
 10
60.44144011161928
 20
0.0
 30
0.0
 10
59.37672714916425
 20
0.0
 30
0.0
 10
59.0079789625069
 20
0.0
 30
0.0
 10
58.25847934915607
 20
0.0
 30
0.0
 10
57.87578228584542
 20
0.0
 30
0.0
 10
57.09445549210784
 20
0.0
 30
0.0
 10
56.69582010854918
 20
0.0
 30
0.0
 10
55.8826690152608
 20
0.0
 30
0.0
 10
55.46630913514508
 20
0.0
 30
0.0
 10
54.20702275771302
 20
0.0
 30
0.0
 10
53.35826608059367
 20
0.0
 30
0.0
 10
52.49999999835355
 20
0.0
 30
0.0
  0
SPLINE
  5
17C
330
149
100
AcDbEntity
  8
0
  6
Continuous
 62
     7
370
    25
100
AcDbSpline
210
0.0
220
0.0
230
1.0
 70
    24
 71
     3
 72
    14
 73
    10
 74
     0
 42
0.000000001
 43
0.00000001
 40
0.0
 40
0.0
 40
0.0
 40
0.0
 40
0.1558444637556326
 40
0.3117095159431497
 40
0.4675745690202125
 40
0.6236046116865045
 40
0.7796346531994163
 40
0.9826081862533651
 40
1.0
 40
1.0
 40
1.0
 40
1.0
 10
-66.9757744316544
 20
0.0
 30
0.0
 10
-67.82349541619158
 20
0.0
 30
0.0
 10
-69.51904937670488
 20
0.0
 30
0.0
 10
-71.53830142004452
 20
0.0
 30
0.0
 10
-73.1695880595023
 20
0.0
 30
0.0
 10
-74.39128922149828
 20
0.0
 30
0.0
 10
-75.22458789714888
 20
0.0
 30
0.0
 10
-75.62232421787692
 20
0.0
 30
0.0
 10
-75.50743410900586
 20
0.0
 30
0.0
 10
-75.49836667892293
 20
0.0
 30
0.0
  0
SPLINE
  5
17D
330
149
100
AcDbEntity
  8
0
  6
Continuous
 62
     8
370
    25
100
AcDbSpline
210
0.0
220
0.0
230
1.0
 70
     8
 71
     3
 72
    14
 73
    10
 74
     0
 42
0.000000001
 43
0.00000001
 40
0.0
 40
0.0
 40
0.0
 40
0.0
 40
0.182243784598994
 40
0.3646375700540099
 40
0.5474777497133964
 40
0.7304653093518297
 40
0.8510282802417595
 40
0.9715912449130751
 40
1.0
 40
1.0
 40
1.0
 40
1.0
 10
-69.55844762539328
 20
369.9808324742229
 30
0.0
 10
-71.03054603212568
 20
369.9679019010185
 30
0.0
 10
-73.97595449745366
 20
369.9420301117389
 30
0.0
 10
-77.32581045689588
 20
369.9126243720775
 30
0.0
 10
-79.88431221368296
 20
369.8901829100665
 30
0.0
 10
-81.39294537048875
 20
369.8769666329076
 30
0.0
 10
-82.12557580231963
 20
369.8705455904082
 30
0.0
 10
-82.39719946044859
 20
369.8681633864344
 30
0.0
 10
-82.34334928803156
 20
369.8686356576092
 30
0.0
 10
-82.33308011504985
 20
369.8687257192407
 30
0.0
  0
SPLINE
  5
17E
330
149
100
AcDbEntity
  8
0
  6
Continuous
 62
     8
370
    25
100
AcDbSpline
210
0.0
220
0.0
230
1.0
 70
     8
 71
     3
 72
    31
 73
    27
 74
     0
 42
0.000000001
 43
0.00000001
 40
0.0
 40
0.0
 40
0.0
 40
0.0
 40
0.0050064345701582
 40
0.0213995757467306
 40
0.038266864494329
 40
0.0546605090557333
 40
0.0715287845717241
 40
0.0879198672911214
 40
0.1047854960437593
 40
0.1211743960245449
 40
0.1380377849876316
 40
0.2601615437122765
 40
0.5660275118351806
 40
0.7189604958966327
 40
0.7954269879273587
 40
0.8336602339427217
 40
0.8529635561509432
 40
0.8721606954791807
 40
0.8885437473097944
 40
0.9054049362912325
 40
0.9217865490243542
 40
0.938644871072067
 40
0.9550217094741213
 40
0.9718733956158576
 40
0.9880759230849402
 40
1.0
 40
1.0
 40
1.0
 40
1.0
 10
-69.53796479698873
 20
355.9980862053134
 30
0.0
 10
-69.4953179029776
 20
355.9980913933544
 30
0.0
 10
-69.31302740742343
 20
355.9981135691916
 30
0.0
 10
-68.75277322447475
 20
355.9981882094062
 30
0.0
 10
-67.64444037315677
 20
355.9983406370372
 30
0.0
 10
-66.15155482154373
 20
355.9985359286426
 30
0.0
 10
-64.35122854936002
 20
355.9987790891884
 30
0.0
 10
-62.25828364570737
 20
355.9990424384742
 30
0.0
 10
-59.97203846648183
 20
355.9993417862173
 30
0.0
 10
-57.51488876052618
 20
355.999639903958
 30
0.0
 10
-49.64133334555761
 20
356.000719817931
 30
0.0
 10
-27.10581096839018
 20
355.9991925795896
 30
0.0
 10
2.327690826077682
 20
356.0001423859597
 30
0.0
 10
29.44546720034627
 20
355.9999874120448
 30
0.0
 10
43.00555196394313
 20
356.0000010836879
 30
0.0
 10
49.79355900220909
 20
355.999999946378
 30
0.0
 10
53.68295605647992
 20
355.9999999423228
 30
0.0
 10
56.45166572618744
 20
356.0000000361757
 30
0.0
 10
58.94912135906616
 20
355.999999987075
 30
0.0
 10
61.13380689441298
 20
355.9999997961173
 30
0.0
 10
63.09411742288626
 20
356.0000002458805
 30
0.0
 10
64.73357310458512
 20
355.9999997891993
 30
0.0
 10
66.04588269878242
 20
356.0000001189455
 30
0.0
 10
66.94576338116015
 20
355.9999999627703
 30
0.0
 10
67.43921271084389
 20
355.9999998795205
 30
0.0
 10
67.46018708959332
 20
355.9999999464644
 30
0.0
 10
67.46907903054849
 20
355.9999999748447
 30
0.0
  0
SPLINE
  5
17F
330
149
100
AcDbEntity
  8
0
  6
Continuous
 62
     8
370
    25
100
AcDbSpline
210
0.0
220
0.0
230
1.0
 70
     8
 71
     3
 72
    13
 73
     9
 74
     0
 42
0.000000001
 43
0.00000001
 40
0.0
 40
0.0
 40
0.0
 40
0.0
 40
0.0261999139465663
 40
0.2190992771829319
 40
0.4138880765320585
 40
0.6088506108323424
 40
0.8043375622757264
 40
1.0
 40
1.0
 40
1.0
 40
1.0
 10
-82.12879528805988
 20
355.9868921593612
 30
0.0
 10
-82.14663656011776
 20
355.9868763128827
 30
0.0
 10
-82.29583589794285
 20
355.986743795195
 30
0.0
 10
-81.67247883378761
 20
355.9872976093444
 30
0.0
 10
-80.19302724391308
 20
355.9886102098257
 30
0.0
 10
-77.63292409245165
 20
355.990884381181
 30
0.0
 10
-74.20002320882064
 20
355.9939362018544
 30
0.0
 10
-71.09244899766246
 20
355.9967024571404
 30
0.0
 10
-69.53796479698873
 20
355.9980862053134
 30
0.0
  0
SPLINE
  5
183
330
149
100
AcDbEntity
  8
0
  6
Continuous
 62
     8
370
    25
100
AcDbSpline
210
0.0
220
0.0
230
1.0
 70
     8
 71
     3
 72
    11
 73
     7
 74
     0
 42
0.000000001
 43
0.00000001
 40
0.0
 40
0.0
 40
0.0
 40
0.0
 40
0.310686317598111
 40
0.5470569767247409
 40
0.7834381480738362
 40
0.9999999999999999
 40
0.9999999999999999
 40
0.9999999999999999
 40
0.9999999999999999
 10
-54.4749151646995
 20
354.0
 30
0.0
 10
-55.22092745103228
 20
354.0002429895088
 30
0.0
 10
-56.53450710628004
 20
354.0006708458338
 30
0.0
 10
-58.11830265382685
 20
354.0013015799571
 30
0.0
 10
-59.18450845183095
 20
354.0017258006951
 30
0.0
 10
-59.46460747574726
 20
354.001838406061
 30
0.0
 10
-59.59852887474221
 20
354.001892245121
 30
0.0
  0
SPLINE
  5
184
330
149
100
AcDbEntity
  8
0
  6
Continuous
 62
     8
370
    25
100
AcDbSpline
210
0.0
220
0.0
230
1.0
 70
     8
 71
     3
 72
    12
 73
     8
 74
     0
 42
0.000000001
 43
0.00000001
 40
0.0
 40
0.0
 40
0.0
 40
0.0
 40
0.1372091935323132
 40
0.3582875081675729
 40
0.5795608130518919
 40
0.8014226026542783
 40
0.9999999999999999
 40
0.9999999999999999
 40
0.9999999999999999
 40
0.9999999999999999
 10
-62.39809258930899
 20
354.0043854619696
 30
0.0
 10
-63.28734149483658
 20
354.0051856616508
 30
0.0
 10
-65.609392709482
 20
354.0072751830775
 30
0.0
 10
-68.31547914092076
 20
354.0097075115833
 30
0.0
 10
-70.59888214443217
 20
354.0117580788724
 30
0.0
 10
-71.93738056167372
 20
354.0129592846254
 30
0.0
 10
-72.0561442552483
 20
354.0130660798054
 30
0.0
 10
-72.112237468967
 20
354.0131165201772
 30
0.0
  0
SPLINE
  5
185
330
149
100
AcDbEntity
  8
0
  6
Continuous
 62
     8
370
    25
100
AcDbSpline
210
0.0
220
0.0
230
1.0
 70
     8
 71
     3
 72
    12
 73
     8
 74
     0
 42
0.000000001
 43
0.00000001
 40
0.0
 40
0.0
 40
0.0
 40
0.0
 40
0.0037295852970172
 40
0.1435782026028973
 40
0.428842510521605
 40
0.7141067433603526
 40
1.0
 40
1.0
 40
1.0
 40
1.0
 10
-69.5341857771014
 20
353.9980869697605
 30
0.0
 10
-69.55954592696997
 20
353.9980644123939
 30
0.0
 10
-70.53583804684291
 20
353.9971960192979
 30
0.0
 10
-73.2831597375411
 20
353.9947410246194
 30
0.0
 10
-76.98505791998755
 20
353.99144578465
 30
0.0
 10
-80.20227592773047
 20
353.9885818526169
 30
0.0
 10
-81.2012156942677
 20
353.9876934144423
 30
0.0
 10
-81.70123565076517
 20
353.9872487061303
 30
0.0
  0
LWPOLYLINE
  5
186
330
149
100
AcDbEntity
  8
0
  6
Continuous
 62
     8
370
    25
100
AcDbPolyline
 90
       21
 70
   128
 43
0.0
 10
64.7278070093
 20
353.9999999183
 10
63.0523946139
 20
353.9999999695
 10
61.0652744692
 20
353.9999999
 10
58.8772575556
 20
353.9999999515
 10
56.5095639806
 20
354.0000000101
 10
52.1890945917
 20
353.9999998454
 10
47.7702686443
 20
353.9999998601
 10
43.3114661254
 20
353.9999999472
 10
38.8710670219
 20
354.0
 10
-28.6412889381
 20
354.0
 10
-48.9926407092
 20
354.0
 10
-52.4398168834
 20
354.0000345219
 10
-55.8817150954
 20
353.9998515994
 10
-58.3764530197
 20
353.9995380831
 10
-60.7676678993
 20
353.9992353665
 10
-62.9855674703
 20
353.9989516936
 10
-64.9698949772
 20
353.9986944652
 10
-66.6598670427
 20
353.9984706576
 10
-68.0129781194
 20
353.9982900183
 10
-68.9625414115
 20
353.998161487
 10
-69.5341857771
 20
353.9980869698
  0
SPLINE
  5
187
330
149
100
AcDbEntity
  8
0
  6
Continuous
 62
     8
370
    25
100
AcDbSpline
210
0.0
220
0.0
230
1.0
 70
     8
 71
     3
 72
    14
 73
    10
 74
     0
 42
0.000000001
 43
0.00000001
 40
0.0
 40
0.0
 40
0.0
 40
0.0
 40
0.0673962972037033
 40
0.2203514002821496
 40
0.3761986549051707
 40
0.5320870825710973
 40
0.6880992570443295
 40
0.8441527398475485
 40
1.0
 40
1.0
 40
1.0
 40
1.0
 10
-77.47658224565679
 20
1.973817329450345
 30
0.0
 10
-77.48788652121364
 20
1.973787294312968
 30
0.0
 10
-77.52484571706675
 20
1.973689094784986
 30
0.0
 10
-77.1596126376154
 20
1.974659408770424
 30
0.0
 10
-76.38625425083931
 20
1.976709881281985
 30
0.0
 10
-75.16979848964264
 20
1.979934106903031
 30
0.0
 10
-73.53505148699097
 20
1.984266496367154
 30
0.0
 10
-71.51246758550411
 20
1.989620004463816
 30
0.0
 10
-69.81371994145066
 20
1.994108150895013
 30
0.0
 10
-68.96490770872765
 20
1.996350740373437
 30
0.0
  0
LINE
  5
188
330
149
100
AcDbEntity
  8
0
  6
Continuous
 62
     7
370
    25
100
AcDbLine
 10
67.5
 20
355.8996323852
 30
0.0
 11
67.5
 21
370.0
 31
0.0
  0
LINE
  5
189
330
149
100
AcDbEntity
  8
0
  6
Continuous
 62
     7
370
    25
100
AcDbLine
 10
-82.3667628801
 20
369.8682825156
 30
0.0
 11
-82.1829617912
 21
355.8996323852
 31
0.0
  0
LINE
  5
18A
330
149
100
AcDbEntity
  8
0
  6
Continuous
 62
     7
370
    25
100
AcDbLine
 10
67.5
 20
2.0
 30
0.0
 11
67.5
 21
321.3485114088
 31
0.0
  0
LINE
  5
18B
330
149
100
AcDbEntity
  8
0
  6
Continuous
 62
     7
370
    25
100
AcDbLine
 10
67.5
 20
328.6748267286
 30
0.0
 11
67.5
 21
354.0
 31
0.0
  0
LINE
  5
18C
330
149
100
AcDbEntity
  8
0
  6
Continuous
 62
     7
370
    25
100
AcDbLine
 10
52.5000000109
 20
370.0
 30
0.0
 11
52.4999999965
 21
380.0
 31
0.0
  0
LINE
  5
18D
330
149
100
AcDbEntity
  8
0
  6
Continuous
 62
     7
370
    25
100
AcDbLine
 10
57.5
 20
354.0
 30
0.0
 11
57.5
 21
355.0
 31
0.0
  0
LINE
  5
18E
330
149
100
AcDbEntity
  8
0
  6
Continuous
 62
     7
370
    25
100
AcDbLine
 10
-35.6797742303
 20
354.0
 30
0.0
 11
-35.6797742303
 21
355.0
 31
0.0
  0
LINE
  5
18F
330
149
100
AcDbEntity
  8
0
  6
Continuous
 62
     7
370
    25
100
AcDbLine
 10
33.5
 20
354.0
 30
0.0
 11
33.5
 21
355.0
 31
0.0
  0
LINE
  5
190
330
149
100
AcDbEntity
  8
0
  6
Continuous
 62
     7
370
    25
100
AcDbLine
 10
-62.5806747391
 20
354.0
 30
0.0
 11
-62.5806747391
 21
355.0
 31
0.0
  0
LINE
  5
191
330
149
100
AcDbEntity
  8
0
  6
Continuous
 62
     7
370
    25
100
AcDbLine
 10
-81.7012356508
 20
353.9872487061
 30
0.0
 11
-82.0531874985
 21
353.9869353482
 31
0.0
  0
LINE
  5
192
330
149
100
AcDbEntity
  8
0
  6
Continuous
 62
     7
370
    25
100
AcDbLine
 10
-54.0423335208
 20
2.0
 30
0.0
 11
52.4999999997
 21
2.0
 31
0.0
  0
LINE
  5
193
330
149
100
AcDbEntity
  8
0
  6
Continuous
 62
     7
370
    25
100
AcDbLine
 10
-54.0423335208
 20
0.0
 30
0.0
 11
-54.0423335208
 21
2.0
 31
0.0
  0
LINE
  5
194
330
149
100
AcDbEntity
  8
0
  6
Continuous
 62
     7
370
    25
100
AcDbLine
 10
52.4999999984
 20
0.0
 30
0.0
 11
52.4999999997
 21
2.0
 31
0.0
  0
LINE
  5
195
330
149
100
AcDbEntity
  8
0
  6
Continuous
 62
     7
370
    25
100
AcDbLine
 10
52.4999999984
 20
0.0
 30
0.0
 11
-54.0423335208
 21
0.0
 31
0.0
  0
LINE
  5
196
330
149
100
AcDbEntity
  8
0
  6
Continuous
 62
     8
370
    25
100
AcDbLine
 10
-54.7598307039
 20
354.0
 30
0.0
 11
-54.7598307039
 21
355.0
 31
0.0
  0
LINE
  5
197
330
149
100
AcDbEntity
  8
0
  6
Continuous
 62
     8
370
    25
100
AcDbLine
 10
-59.6797742303
 20
354.2456131707
 30
0.0
 11
-59.6797742303
 21
355.0
 31
0.0
  0
LINE
  5
198
330
149
100
AcDbEntity
  8
0
  6
Continuous
 62
     8
370
    25
100
AcDbLine
 10
52.4999999965
 20
354.0
 30
0.0
 11
52.4999999965
 21
355.0
 31
0.0
  0
ARC
  5
199
330
149
100
AcDbEntity
  8
0
  6
Continuous
 62
     7
370
    25
100
AcDbCircle
 10
-72.3676305129
 20
370.0
 30
0.0
 40
9.999999999999261
100
AcDbArc
 50
89.999999698
 51
180.7527434255
  0
ARC
  5
19A
330
149
100
AcDbEntity
  8
0
  6
Continuous
 62
     7
370
    25
100
AcDbCircle
 10
-81.1578797199
 20
354.0
 30
0.0
 40
0.999999999978911
100
AcDbArc
 50
89.9583303187
 51
179.745940793
  0
ARC
  5
19B
330
149
100
AcDbEntity
  8
0
  6
Continuous
 62
     7
370
    25
100
AcDbCircle
 10
-75.5261370215
 20
2.0
 30
0.0
 40
2.000000000000006
100
AcDbArc
 50
180.9650818961
 51
270.0000000299
  0
ARC
  5
19C
330
149
100
AcDbEntity
  8
0
  6
Continuous
 62
     7
370
    25
100
AcDbCircle
 10
598.9846178339
 20
372.4999211404
 30
0.0
 40
653.7874694248958
100
AcDbArc
 50
179.3427033851
 51
180.2190917155
  0
ARC
  5
19D
330
149
100
AcDbEntity
  8
0
  6
Continuous
 62
     7
370
    25
100
AcDbCircle
 10
-59.6185905421
 20
370.0600158252
 30
0.0
 40
9.94017247536048
100
AcDbArc
 50
90.3526688553
 51
180.4564226437
  0
ARC
  5
19E
330
149
100
AcDbEntity
  8
0
  6
Continuous
 62
     7
370
    25
100
AcDbCircle
 10
57.5
 20
370.0
 30
0.0
 40
10.00000000000006
100
AcDbArc
 50
0.0
 51
90.0
  0
ARC
  5
19F
330
149
100
AcDbEntity
  8
0
  6
Continuous
 62
     7
370
    25
100
AcDbCircle
 10
-66.9703412332
 20
1.9945598795
 30
0.0
 40
1.994567279555467
100
AcDbArc
 50
179.9485558683
 51
269.8439261831
  0
ARC
  5
1A0
330
149
100
AcDbEntity
  8
0
  6
Continuous
 62
     7
370
    25
100
AcDbCircle
 10
65.5
 20
2.0
 30
0.0
 40
2.0
100
AcDbArc
 50
270.0
 51
0.0
  0
VIEWPORT
  5
278
330
149
100
AcDbEntity
  8
0
100
AcDbViewport
 10
0.0
 20
0.0
 30
0.0
 40
205.6
 41
156.0
 68
     1
 69
     1
 12
0.0421786975
 22
190.0
 13
0.0
 23
0.0
 14
10.0
 24
10.0
 15
10.0
 25
10.0
 16
0.0
 26
0.0
 36
1.0
 17
0.0
 27
0.0
 37
0.0
 42
50.0
 43
0.0
 44
0.0
 45
387.6
 50
0.0
 51
0.0
 72
   100
 90
   557152
  1

281
     0
 71
     1
 74
     0
110
0.0
120
0.0
130
0.0
111
1.0
121
0.0
131
0.0
112
0.0
122
1.0
132
0.0
 79
     0
146
0.0
  0
ENDBLK
  5
14C
330
149
100
AcDbEntity
  8
0
100
AcDbBlockEnd
  0
BLOCK
  5
1A3
330
1A1
100
AcDbEntity
  8
0
100
AcDbBlockBegin
  2
*Paper_Space2
 70
     0
 10
0.0
 20
0.0
 30
0.0
  3
*Paper_Space2
  1

  0
SPLINE
  5
1A5
330
1A1
100
AcDbEntity
  8
0
  6
Continuous
 62
     7
370
    25
100
AcDbSpline
210
0.0
220
0.0
230
1.0
 70
     8
 71
     3
 72
     9
 73
     5
 74
     0
 42
0.000000001
 43
0.00000001
 40
0.0
 40
0.0
 40
0.0
 40
0.0
 40
0.8079584115315092
 40
1.0
 40
1.0
 40
1.0
 40
1.0
 10
-166.9257122786891
 20
66.8056559934079
 30
0.0
 10
-167.0440392523379
 20
66.7850009105789
 30
0.0
 10
-167.1904910646587
 20
66.75943637342671
 30
0.0
 10
-167.3250148495478
 20
66.69845817734013
 30
0.0
 10
-167.3508490108847
 20
66.68674782770172
 30
0.0
  0
SPLINE
  5
1A7
330
1A1
100
AcDbEntity
  8
0
  6
Continuous
 62
     7
370
    25
100
AcDbSpline
210
0.0
220
0.0
230
1.0
 70
     8
 71
     3
 72
    11
 73
     7
 74
     0
 42
0.000000001
 43
0.00000001
 40
0.4974638839762364
 40
0.4974638839762364
 40
0.4974638839762364
 40
0.4974638839762364
 40
0.503606159957925
 40
0.5097484359396137
 40
0.5158907119213023
 40
0.522032987870373
 40
0.522032987870373
 40
0.522032987870373
 40
0.522032987870373
 10
-177.5000000000001
 20
52.49999998949981
 30
0.0
 10
-177.500000000001
 20
54.46861661392784
 30
0.0
 10
-176.7160209245024
 20
58.39973660701861
 30
0.0
 10
-173.3764537469146
 20
63.38853693665926
 30
0.0
 10
-168.3871652332101
 20
66.72011220135239
 30
0.0
 10
-164.463495395718
 20
67.49999999999991
 30
0.0
 10
-162.4999999880879
 20
67.49999999999991
 30
0.0
  0
SPLINE
  5
1A8
330
1A1
100
AcDbEntity
  8
0
  6
Continuous
 62
     7
370
    25
100
AcDbSpline
210
0.0
220
0.0
230
1.0
 70
     8
 71
     3
 72
    15
 73
    11
 74
     0
 42
0.000000001
 43
0.00000001
 40
0.0
 40
0.0
 40
0.0
 40
0.0
 40
0.015625
 40
0.015625
 40
0.0312499999999999
 40
0.0625000000000001
 40
0.1250000000000001
 40
0.25
 40
0.5
 40
1.0
 40
1.0
 40
1.0
 40
1.0
 10
-177.4998907734023
 20
-54.7980717570617
 30
0.0
 10
-177.5020278729141
 20
-54.23922763868089
 30
0.0
 10
-177.5
 20
-53.68038351001788
 30
0.0
 10
-177.4999999999999
 20
-52.56269526265449
 30
0.0
 10
-177.5
 20
-50.88616289160942
 30
0.0
 10
-177.5000000000001
 20
-46.97425402583748
 30
0.0
 10
-177.5
 20
-39.15043629429377
 30
0.0
 10
-177.5000000000001
 20
-23.5028008312063
 30
0.0
 10
-177.5000000000001
 20
7.792470094941887
 30
0.0
 10
-177.5000000000001
 20
34.61698803174318
 30
0.0
 10
-177.5000000000001
 20
52.49999998950423
 30
0.0
  0
SPLINE
  5
1A9
330
1A1
100
AcDbEntity
  8
0
  6
Continuous
 62
     7
370
    25
100
AcDbSpline
210
0.0
220
0.0
230
1.0
 70
     8
 71
     3
 72
    30
 73
    26
 74
     0
 42
0.000000001
 43
0.00000001
 40
0.0
 40
0.0
 40
0.0
 40
0.0
 40
0.0625000000000008
 40
0.0625000000000008
 40
0.1250000000000015
 40
0.1250000000000015
 40
0.2499999999999999
 40
0.2499999999999999
 40
0.3124999999999974
 40
0.3124999999999974
 40
0.3749999999999949
 40
0.3749999999999949
 40
0.4999999999999912
 40
0.4999999999999912
 40
0.5624999999999913
 40
0.5624999999999913
 40
0.6249999999999915
 40
0.6249999999999915
 40
0.7499999999999937
 40
0.7499999999999937
 40
0.8124999999999952
 40
0.8124999999999952
 40
0.8749999999999969
 40
0.8749999999999969
 40
1.0
 40
1.0
 40
1.0
 40
1.0
 10
-164.8291114394349
 20
-69.55844762406171
 30
0.0
 10
-165.2686731975445
 20
-69.48935066848372
 30
0.0
 10
-165.7058048086029
 20
-69.40040690207145
 30
0.0
 10
-166.5655547796772
 20
-69.18548933901084
 30
0.0
 10
-166.9879738749881
 20
-69.05972061603185
 30
0.0
 10
-168.2334806539489
 20
-68.62900023299828
 30
0.0
 10
-169.0350212221864
 20
-68.27113384482206
 30
0.0
 10
-170.1929683140506
 20
-67.62538704343723
 30
0.0
 10
-170.5729635230975
 20
-67.3906833909432
 30
0.0
 10
-171.3040897647557
 20
-66.89300814130713
 30
0.0
 10
-171.6566261794981
 20
-66.62943961545733
 30
0.0
 10
-172.6761005798507
 20
-65.79561027703484
 30
0.0
 10
-173.3052609623252
 20
-65.18262968477555
 30
0.0
 10
-174.1706283912383
 20
-64.17453256106592
 30
0.0
 10
-174.4458757553446
 20
-63.82326168859846
 30
0.0
 10
-174.9592028083444
 20
-63.10498923212136
 30
0.0
 10
-175.1988042482245
 20
-62.73632144519349
 30
0.0
 10
-175.8674178721977
 20
-61.60227958267619
 30
0.0
 10
-176.2467061558369
 20
-60.80912778210308
 30
0.0
 10
-176.7115316213223
 20
-59.56124178244703
 30
0.0
 10
-176.8479357982754
 20
-59.13788590434337
 30
0.0
 10
-177.0811499874094
 20
-58.28781150063337
 30
0.0
 10
-177.1785897203607
 20
-57.85943969810815
 30
0.0
 10
-177.4143036505514
 20
-56.56447652614486
 30
0.0
 10
-177.496487075724
 20
-55.68812690782543
 30
0.0
 10
-177.4998907734023
 20
-54.79807175706237
 30
0.0
  0
SPLINE
  5
1AA
330
1A1
100
AcDbEntity
  8
0
  6
Continuous
 62
     7
370
    25
100
AcDbSpline
210
0.0
220
0.0
230
1.0
 70
     8
 71
     3
 72
    38
 73
    34
 74
     0
 42
0.000000001
 43
0.00000001
 40
0.0
 40
0.0
 40
0.0
 40
0.0
 40
0.0078125000000001
 40
0.0078125000000001
 40
0.0156250000000002
 40
0.0312500000000004
 40
0.0625000000000005
 40
0.0625000000000005
 40
0.1250000000000005
 40
0.1250000000000005
 40
0.2500000000000003
 40
0.2500000000000003
 40
0.3125000000000003
 40
0.3125000000000003
 40
0.3750000000000003
 40
0.3750000000000003
 40
0.5000000000000002
 40
0.5000000000000002
 40
0.7500000000000001
 40
0.7500000000000001
 40
0.8125000000000001
 40
0.8125000000000001
 40
0.875
 40
0.875
 40
0.9375
 40
0.9375
 40
0.96875
 40
0.96875
 40
0.984375
 40
0.984375
 40
0.9921875
 40
0.9921875
 40
1.0
 40
1.0
 40
1.0
 40
1.0
 10
164.8291114309627
 20
-69.55844762539328
 30
0.0
 10
163.976469695997
 20
-69.6924787297319
 30
0.0
 10
163.1235900304046
 20
-69.82408324431476
 30
0.0
 10
161.4177586207229
 20
-70.08658017081805
 30
0.0
 10
158.85870202594
 20
-70.47719234814284
 30
0.0
 10
152.8854047752617
 20
-71.3667000749043
 30
0.0
 10
147.7617277501214
 20
-72.09159553604943
 30
0.0
 10
137.5094379362946
 20
-73.4914162273686
 30
0.0
 10
130.6679977687594
 20
-74.35801040068107
 30
0.0
 10
110.1239752987357
 20
-76.75832792232038
 30
0.0
 10
96.40170253889677
 20
-78.0927027928744
 30
0.0
 10
75.77885409029534
 20
-79.6949769555309
 30
0.0
 10
68.8979952139741
 20
-80.16249154819965
 30
0.0
 10
55.12311522703267
 20
-80.96426471307696
 30
0.0
 10
48.22697306379455
 20
-81.29860132608503
 30
0.0
 10
27.53344129142986
 20
-82.10067538771106
 30
0.0
 10
13.74668218352677
 20
-82.36716755150938
 30
0.0
 10
-27.58694160085905
 20
-82.36595836514448
 30
0.0
 10
-55.10721522956695
 20
-81.29944846881322
 30
0.0
 10
-89.46314631396787
 20
-78.63218397693169
 30
0.0
 10
-96.33210705999238
 20
-78.03187683672995
 30
0.0
 10
-110.0655676055268
 20
-76.69725351517886
 30
0.0
 10
-116.9320441963737
 20
-75.96268601710939
 30
0.0
 10
-130.6463403719042
 20
-74.36074229559739
 30
0.0
 10
-137.495000752968
 20
-73.49332723954397
 30
0.0
 10
-147.7552558492979
 20
-72.09250923359765
 30
0.0
 10
-151.1732180678357
 20
-71.6089521601561
 30
0.0
 10
-156.2969745703791
 20
-70.85866955489503
 30
0.0
 10
-158.004291743408
 20
-70.60442766550453
 30
0.0
 10
-160.5643063190214
 20
-70.21685039375626
 30
0.0
 10
-161.4174874345117
 20
-70.08662176650934
 30
0.0
 10
-163.1235354628316
 20
-69.82409177627578
 30
0.0
 10
-163.9765045493918
 20
-69.69247325145064
 30
0.0
 10
-164.8291114394349
 20
-69.5584476240617
 30
0.0
  0
SPLINE
  5
1AB
330
1A1
100
AcDbEntity
  8
0
  6
Continuous
 62
     7
370
    25
100
AcDbSpline
210
0.0
220
0.0
230
1.0
 70
     8
 71
     3
 72
    30
 73
    26
 74
     0
 42
0.000000001
 43
0.00000001
 40
0.0
 40
0.0
 40
0.0
 40
0.0
 40
0.062500000000001
 40
0.062500000000001
 40
0.125000000000002
 40
0.125000000000002
 40
0.2500000000000031
 40
0.2500000000000031
 40
0.3125000000000038
 40
0.3125000000000038
 40
0.3750000000000046
 40
0.3750000000000046
 40
0.500000000000005
 40
0.500000000000005
 40
0.5625000000000052
 40
0.5625000000000052
 40
0.6250000000000054
 40
0.6250000000000054
 40
0.7500000000000028
 40
0.7500000000000028
 40
0.812500000000002
 40
0.812500000000002
 40
0.8750000000000011
 40
0.8750000000000011
 40
1.0
 40
1.0
 40
1.0
 40
1.0
 10
177.4998907733984
 20
-54.79807175805219
 30
0.0
 10
177.4981892011773
 20
-55.2430269910919
 30
0.0
 10
177.476499998508
 20
-55.68859004663816
 30
0.0
 10
177.3943244059421
 20
-56.57095070607362
 30
0.0
 10
177.3340093049909
 20
-57.00753806329605
 30
0.0
 10
177.0969660706472
 20
-58.30389959541492
 30
0.0
 10
176.8646653745738
 20
-59.15039873319555
 30
0.0
 10
176.4017344956022
 20
-60.39280068737901
 30
0.0
 10
176.2272903899112
 20
-60.80396073601695
 30
0.0
 10
175.846101867422
 20
-61.60202003243675
 30
0.0
 10
175.6389757352107
 20
-61.99040744936212
 30
0.0
 10
174.9691931447775
 20
-63.12440997491697
 30
0.0
 10
174.4585853591095
 20
-63.83915689167295
 30
0.0
 10
173.5931554841447
 20
-64.84721332772327
 30
0.0
 10
173.2876237019385
 20
-65.17248526545994
 30
0.0
 10
172.6553868884145
 20
-65.78868017635284
 30
0.0
 10
172.3272650446754
 20
-66.08135934955094
 30
0.0
 10
171.3075827088819
 20
-66.91403283642724
 30
0.0
 10
170.5810320900021
 20
-67.40908273819004
 30
0.0
 10
169.417935957909
 20
-68.05754280292274
 30
0.0
 10
169.0201207123902
 20
-68.25650433683255
 30
0.0
 10
168.21517348336
 20
-68.61580896377828
 30
0.0
 10
167.8065018747768
 20
-68.77702532510872
 30
0.0
 10
166.5621793494849
 20
-69.2062181177481
 30
0.0
 10
165.7083860378869
 20
-69.4202299640356
 30
0.0
 10
164.8291114309627
 20
-69.55844762539327
 30
0.0
  0
LWPOLYLINE
  5
1AC
330
1A1
100
AcDbEntity
  8
0
  6
Continuous
 62
     7
370
    25
100
AcDbPolyline
 90
        4
 70
   128
 43
0.0
 10
177.5
 20
52.5000000109
 10
177.5
 20
32.5000000109
 10
177.5
 20
-11.1490358736
 10
177.4998907734
 20
-54.7980717581
  0
SPLINE
  5
1AD
330
1A1
100
AcDbEntity
  8
0
  6
Continuous
 62
     7
370
    25
100
AcDbSpline
210
0.0
220
0.0
230
1.0
 70
     8
 71
     3
 72
    11
 73
     7
 74
     0
 42
0.000000001
 43
0.00000001
 40
0.1340026041413494
 40
0.1340026041413494
 40
0.1340026041413494
 40
0.1340026041413494
 40
0.1401448801230381
 40
0.1462871561047266
 40
0.1524294320864153
 40
0.1585717080458906
 40
0.1585717080458906
 40
0.1585717080458906
 40
0.1585717080458906
 10
162.4999999880879
 20
67.49999999999996
 30
0.0
 10
164.463495395718
 20
67.49999999999996
 30
0.0
 10
168.3871652332113
 20
66.72011220135231
 30
0.0
 10
173.3764537469195
 20
63.38853693665565
 30
0.0
 10
176.7160209245031
 20
58.3997366070142
 30
0.0
 10
177.5000000000001
 20
54.46861661392902
 30
0.0
 10
177.5000000000001
 20
52.49999998950427
 30
0.0
  0
SPLINE
  5
1AE
330
1A1
100
AcDbEntity
  8
0
  6
Continuous
 62
     7
370
    25
100
AcDbSpline
210
0.0
220
0.0
230
1.0
 70
     8
 71
     3
 72
    35
 73
    31
 74
     0
 42
0.000000001
 43
0.00000001
 40
0.0
 40
0.0
 40
0.0
 40
0.0
 40
0.0156250000000002
 40
0.0156250000000002
 40
0.0312500000000004
 40
0.0312500000000004
 40
0.0625000000000005
 40
0.0625000000000005
 40
0.1250000000000004
 40
0.1250000000000004
 40
0.1875000000000003
 40
0.1875000000000003
 40
0.2500000000000003
 40
0.2500000000000003
 40
0.5
 40
0.5
 40
0.6249999999999999
 40
0.6249999999999999
 40
0.6874999999999998
 40
0.6874999999999998
 40
0.7499999999999999
 40
0.7499999999999999
 40
0.8749999999999999
 40
0.8749999999999999
 40
0.9374999999999999
 40
0.9374999999999999
 40
0.9687500000000001
 40
0.984375
 40
0.984375
 40
1.0
 40
1.0
 40
1.0
 40
1.0
 10
-163.2762287724998
 20
-59.67977422989139
 30
0.0
 10
-161.5870817795326
 20
-59.94530047846968
 30
0.0
 10
-159.8968969690283
 20
-60.20397987329192
 30
0.0
 10
-156.5156981022706
 20
-60.71586783192215
 30
0.0
 10
-154.8244638781158
 20
-60.96770874630248
 30
0.0
 10
-149.7489752109861
 20
-61.71090774460804
 30
0.0
 10
-146.3632120247657
 20
-62.18990221086257
 30
0.0
 10
-136.1996152125921
 20
-63.57750992587716
 30
0.0
 10
-129.4154752596992
 20
-64.43675474446515
 30
0.0
 10
-115.8303820754462
 20
-66.02362336485797
 30
0.0
 10
-109.0285986574235
 20
-66.75128534417986
 30
0.0
 10
-95.42453040692436
 20
-68.07337139042075
 30
0.0
 10
-88.62028691107649
 20
-68.66804443649879
 30
0.0
 10
-54.58804679792801
 20
-71.310287328219
 30
0.0
 10
-27.32706019183359
 20
-72.36683067944514
 30
0.0
 10
13.6171362419689
 20
-72.36802975057769
 30
0.0
 10
27.27400325672809
 20
-72.10402934553008
 30
0.0
 10
47.77257141824609
 20
-71.3094659428816
 30
0.0
 10
54.60374478895805
 20
-70.97826091026752
 30
0.0
 10
68.24884947756775
 20
-70.18400175401726
 30
0.0
 10
75.06488289770581
 20
-69.72087028516775
 30
0.0
 10
95.4934418557755
 20
-68.1336268365147
 30
0.0
 10
109.0864373149446
 20
-66.81177944955824
 30
0.0
 10
129.436920915049
 20
-64.43404954748873
 30
0.0
 10
136.2139110054437
 20
-63.57561763989934
 30
0.0
 10
146.3696207673769
 20
-62.18899744389385
 30
0.0
 10
151.4450315357361
 20
-61.47094153675262
 30
0.0
 10
156.5167701772057
 20
-60.71570659339039
 30
0.0
 10
159.8971124105088
 20
-60.20394619116104
 30
0.0
 10
161.5870114725305
 20
-59.94531152941798
 30
0.0
 10
163.2762287696982
 20
-59.67977423033161
 30
0.0
  0
SPLINE
  5
1B1
330
1A1
100
AcDbEntity
  8
0
  6
Continuous
 62
     7
370
    25
100
AcDbSpline
210
0.0
220
0.0
230
1.0
 70
     8
 71
     3
 72
    15
 73
    11
 74
     0
 42
0.000000001
 43
0.00000001
 40
0.0
 40
0.0
 40
0.0
 40
0.0
 40
0.015625
 40
0.015625
 40
0.0312500000000001
 40
0.0625000000000002
 40
0.1250000000000001
 40
0.25
 40
0.5
 40
1.0
 40
1.0
 40
1.0
 40
1.0
 10
167.4999638928375
 20
-54.75983070394977
 30
0.0
 10
167.5021002256101
 20
-54.20118576019279
 30
0.0
 10
167.4999999999999
 20
-53.64254080095112
 30
0.0
 10
167.4999999999999
 20
-52.52525089782047
 30
0.0
 10
167.5
 20
-50.84931604312452
 30
0.0
 10
167.4999999999999
 20
-46.93880138216721
 30
0.0
 10
167.5
 20
-39.11777206025251
 30
0.0
 10
167.4999999999999
 20
-23.47571341642364
 30
0.0
 10
167.4999999871266
 20
7.808403871234733
 30
0.0
 10
167.5000000257473
 20
34.6233615463703
 30
0.0
 10
167.5
 20
52.49999999646069
 30
0.0
  0
SPLINE
  5
1B5
330
1A1
100
AcDbEntity
  8
0
  6
Continuous
 62
     7
370
    25
100
AcDbSpline
210
0.0
220
0.0
230
1.0
 70
     8
 71
     3
 72
    24
 73
    20
 74
     0
 42
0.000000001
 43
0.00000001
 40
0.0
 40
0.0
 40
0.0
 40
0.0
 40
0.1250000000000091
 40
0.1250000000000091
 40
0.1875000000000085
 40
0.1875000000000085
 40
0.2500000000000078
 40
0.2500000000000078
 40
0.3750000000000065
 40
0.3750000000000065
 40
0.5000000000000052
 40
0.5000000000000052
 40
0.6250000000000039
 40
0.6250000000000039
 40
0.7500000000000026
 40
0.7500000000000026
 40
0.8750000000000013
 40
0.8750000000000013
 40
1.0
 40
1.0
 40
1.0
 40
1.0
 10
-162.4999999982761
 20
57.49999999999991
 30
0.0
 10
-162.8303619371908
 20
57.49999999930314
 30
0.0
 10
-163.1550883818658
 20
57.46678488625054
 30
0.0
 10
-163.6344955457432
 20
57.3716822121178
 30
0.0
 10
-163.7929976861641
 20
57.33231777496353
 30
0.0
 10
-164.1073011002158
 20
57.23767022696456
 30
0.0
 10
-164.2635148079797
 20
57.18212359421895
 30
0.0
 10
-164.717456486671
 20
56.99402743964902
 30
0.0
 10
-165.0040764072934
 20
56.83967271291225
 30
0.0
 10
-165.5474182708977
 20
56.47687956930925
 30
0.0
 10
-165.8051313121957
 20
56.266541702224
 30
0.0
 10
-166.2660106041521
 20
55.80571644727131
 30
0.0
 10
-166.4722346286041
 20
55.55366974591838
 30
0.0
 10
-166.8377545229738
 20
55.00765104466179
 30
0.0
 10
-166.9938204950163
 20
54.71756485825896
 30
0.0
 10
-167.2431293051774
 20
54.11669108468514
 30
0.0
 10
-167.3381528329724
 20
53.80192280684678
 30
0.0
 10
-167.4668234613927
 20
53.15635700519527
 30
0.0
 10
-167.5
 20
52.83005304038668
 30
0.0
 10
-167.5
 20
52.49999999645313
 30
0.0
  0
SPLINE
  5
1B9
330
1A1
100
AcDbEntity
  8
0
  6
Continuous
 62
     7
370
    25
100
AcDbSpline
210
0.0
220
0.0
230
1.0
 70
     8
 71
     3
 72
    24
 73
    20
 74
     0
 42
0.000000001
 43
0.00000001
 40
0.0
 40
0.0
 40
0.0
 40
0.0
 40
0.1249999999999964
 40
0.1249999999999964
 40
0.1874999999999949
 40
0.1874999999999949
 40
0.2499999999999934
 40
0.2499999999999934
 40
0.3749999999999945
 40
0.3749999999999945
 40
0.4999999999999956
 40
0.4999999999999956
 40
0.6249999999999967
 40
0.6249999999999967
 40
0.7499999999999978
 40
0.7499999999999978
 40
0.8749999999999989
 40
0.8749999999999989
 40
1.0
 40
1.0
 40
1.0
 40
1.0
 10
167.5
 20
52.49999999646069
 30
0.0
 10
167.4999999995242
 20
52.83036194463985
 30
0.0
 10
167.4667789469369
 20
53.15508733291382
 30
0.0
 10
167.3716696808856
 20
53.6344932264753
 30
0.0
 10
167.3323040025712
 20
53.79299509233145
 30
0.0
 10
167.2376600422202
 20
54.10729895939671
 30
0.0
 10
167.1821186755761
 20
54.26351305008215
 30
0.0
 10
166.9940465883345
 20
54.71746154278156
 30
0.0
 10
166.8396875992613
 20
55.00407510667002
 30
0.0
 10
166.4768823247907
 20
55.54740287291129
 30
0.0
 10
166.2665414708334
 20
55.80510850822468
 30
0.0
 10
165.8057398252284
 20
56.26601020467211
 30
0.0
 10
165.5536889511585
 20
56.47222918800429
 30
0.0
 10
165.0076572015384
 20
56.8377369133384
 30
0.0
 10
164.7175720154311
 20
56.99379536744436
 30
0.0
 10
164.116707240271
 20
57.24313785287638
 30
0.0
 10
163.8019310372966
 20
57.33816621908107
 30
0.0
 10
163.1563621794946
 20
57.46682895378844
 30
0.0
 10
162.8300557320745
 20
57.49999999999996
 30
0.0
 10
162.499999995983
 20
57.49999999999996
 30
0.0
  0
LWPOLYLINE
  5
1BA
330
1A1
100
AcDbEntity
  8
0
  6
Continuous
 62
     7
370
    25
100
AcDbPolyline
 90
        3
 70
   128
 43
0.0
 10
-167.5
 20
52.4999999965
 10
-167.5
 20
32.4999999965
 10
-167.4999638928
 20
-54.7598307036
  0
SPLINE
  5
1BC
330
1A1
100
AcDbEntity
  8
0
  6
Continuous
 62
     7
370
    25
100
AcDbSpline
210
0.0
220
0.0
230
1.0
 70
     8
 71
     3
 72
    22
 73
    18
 74
     0
 42
0.000000001
 43
0.00000001
 40
0.0
 40
0.0
 40
0.0
 40
0.0
 40
0.125
 40
0.125
 40
0.25
 40
0.25
 40
0.375
 40
0.375
 40
0.5
 40
0.5
 40
0.625
 40
0.625
 40
0.75
 40
0.75
 40
0.875
 40
0.875
 40
1.0
 40
1.0
 40
1.0
 40
1.0
 10
163.2762287696981
 20
-59.6797742303316
 30
0.0
 10
163.5693661985941
 20
-59.63369435578815
 30
0.0
 10
163.8539538107537
 20
-59.56218681724893
 30
0.0
 10
164.4070880620759
 20
-59.37146493146732
 30
0.0
 10
164.6768573020766
 20
-59.25161100826023
 30
0.0
 10
165.1939149936399
 20
-58.96343802650792
 30
0.0
 10
165.4359836573465
 20
-58.79822142837936
 30
0.0
 10
165.8891899706972
 20
-58.42808176705478
 30
0.0
 10
166.1018374816162
 20
-58.2213674659544
 30
0.0
 10
166.4864914525701
 20
-57.77333098936364
 30
0.0
 10
166.6565152473838
 20
-57.53496374478378
 30
0.0
 10
166.9542030415408
 20
-57.03097660910217
 30
0.0
 10
167.0827899333939
 20
-56.76259649124934
 30
0.0
 10
167.2884509389646
 20
-56.21043879331633
 30
0.0
 10
167.3656079258927
 20
-55.92823846758697
 30
0.0
 10
167.4708566695522
 20
-55.35213892501408
 30
0.0
 10
167.4988297286356
 20
-55.05641141692186
 30
0.0
 10
167.4999638928376
 20
-54.75983070394978
 30
0.0
  0
SPLINE
  5
1BD
330
1A1
100
AcDbEntity
  8
0
  6
Continuous
 62
     7
370
    25
100
AcDbSpline
210
0.0
220
0.0
230
1.0
 70
     8
 71
     3
 72
    22
 73
    18
 74
     0
 42
0.000000001
 43
0.00000001
 40
0.0
 40
0.0
 40
0.0
 40
0.0
 40
0.125
 40
0.125
 40
0.25
 40
0.25
 40
0.375
 40
0.375
 40
0.5
 40
0.5
 40
0.625
 40
0.625
 40
0.75
 40
0.75
 40
0.875
 40
0.875
 40
1.0
 40
1.0
 40
1.0
 40
1.0
 10
-167.4999638928389
 20
-54.75983070362233
 30
0.0
 10
-167.4988291673317
 20
-55.05655820144188
 30
0.0
 10
-167.4712648322161
 20
-55.3486872011423
 30
0.0
 10
-167.3665440194759
 20
-55.92431664425917
 30
0.0
 10
-167.2889358070899
 20
-56.20912984303417
 30
0.0
 10
-167.082334064627
 20
-56.76382758318232
 30
0.0
 10
-166.9556688848784
 20
-57.02811583499079
 30
0.0
 10
-166.65840751551
 20
-57.5321349608692
 30
0.0
 10
-166.4862596675767
 20
-57.7736353969855
 30
0.0
 10
-166.1015819762266
 20
-58.22163059979962
 30
0.0
 10
-165.8917015714296
 20
-58.42578169940069
 30
0.0
 10
-165.4385838050436
 20
-58.79634387227048
 30
0.0
 10
-165.1927505774139
 20
-58.96408452877757
 30
0.0
 10
-164.6780844444972
 20
-59.25092954635254
 30
0.0
 10
-164.41082434525
 20
-59.36994499755804
 30
0.0
 10
-163.8573036807482
 20
-59.5612604838154
 30
0.0
 10
-163.5692172094123
 20
-59.63371777603976
 30
0.0
 10
-163.2762287724998
 20
-59.67977422989137
 30
0.0
  0
CIRCLE
  5
1BE
330
1A1
100
AcDbEntity
  8
0
  6
Continuous
 62
     7
370
    25
100
AcDbCircle
 10
0.0
 20
-12.5
 30
0.0
 40
21.0
  0
CIRCLE
  5
1BF
330
1A1
100
AcDbEntity
  8
0
  6
Continuous
 62
     7
370
    25
100
AcDbCircle
 10
0.0
 20
-12.5
 30
0.0
 40
22.0
  0
SPLINE
  5
1C0
330
1A1
100
AcDbEntity
  8
0
  6
Continuous
 62
     7
370
    25
100
AcDbSpline
210
0.0
220
0.0
230
1.0
 70
     8
 71
     3
 72
     9
 73
     5
 74
     0
 42
0.000000001
 43
0.00000001
 40
0.0
 40
0.0
 40
0.0
 40
0.0
 40
0.054784524222451
 40
1.0
 40
1.0
 40
1.0
 40
1.0
 10
164.7860046838475
 20
-69.5341857771014
 30
0.0
 10
164.6212827627244
 20
-69.55957340429666
 30
0.0
 10
161.6145591768042
 20
-70.02298214162846
 30
0.0
 10
158.6018384523102
 20
-70.44622872821992
 30
0.0
 10
155.7541681993227
 20
-70.84628795193619
 30
0.0
  0
SPLINE
  5
1C1
330
1A1
100
AcDbEntity
  8
0
  6
Continuous
 62
     7
370
    25
100
AcDbSpline
210
0.0
220
0.0
230
1.0
 70
     8
 71
     3
 72
    12
 73
     8
 74
     0
 42
0.000000001
 43
0.00000001
 40
0.0
 40
0.0
 40
0.0
 40
0.0
 40
0.2167379353318781
 40
0.4127770920992031
 40
0.6088082113864219
 40
0.8048508588006072
 40
1.0
 40
1.0
 40
1.0
 40
1.0
 10
-163.2268035284676
 20
-69.8013199969822
 30
0.0
 10
-164.1491254783863
 20
-69.66084992247147
 30
0.0
 10
-165.9056863309372
 20
-69.39332486371922
 30
0.0
 10
-168.4075522256621
 20
-68.57481579108779
 30
0.0
 10
-170.6485916643433
 20
-67.38378493221467
 30
0.0
 10
-172.6762839842539
 20
-65.84917470367154
 30
0.0
 10
-173.7772120701575
 20
-64.57257704999412
 30
0.0
 10
-174.3264188192251
 20
-63.93573613711293
 30
0.0
  0
SPLINE
  5
1C3
330
1A1
100
AcDbEntity
  8
0
  6
Continuous
 62
     7
370
    25
100
AcDbSpline
210
0.0
220
0.0
230
1.0
 70
     8
 71
     3
 72
     9
 73
     5
 74
     0
 42
0.000000001
 43
0.00000001
 40
0.0
 40
0.0
 40
0.0
 40
0.0
 40
0.8423134027975241
 40
1.0
 40
1.0
 40
1.0
 40
1.0
 10
-171.1209257585549
 20
64.71769332532902
 30
0.0
 10
-170.9168892490291
 20
64.89528142781204
 30
0.0
 10
-170.6746557658053
 20
65.10611518861081
 30
0.0
 10
-170.3893814827595
 20
65.24842545151542
 30
0.0
 10
-170.3443975517967
 20
65.27086587261985
 30
0.0
  0
SPLINE
  5
1C5
330
1A1
100
AcDbEntity
  8
0
  6
Continuous
 62
     7
370
    25
100
AcDbSpline
210
0.0
220
0.0
230
1.0
 70
     8
 71
     3
 72
    10
 73
     6
 74
     0
 42
0.000000001
 43
0.00000001
 40
0.0
 40
0.0
 40
0.0
 40
0.0
 40
0.1855648238724956
 40
0.5926680864344386
 40
1.0
 40
1.0
 40
1.0
 40
1.0
 10
-163.1709523398842
 20
67.44262965712919
 30
0.0
 10
-162.4174034805578
 20
67.54917591778198
 30
0.0
 10
-160.0106738473665
 20
67.88946976820067
 30
0.0
 10
-155.9025154316133
 20
67.608821906456
 30
0.0
 10
-152.5716885975111
 20
67.5362807574115
 30
0.0
 10
-150.9058076190624
 20
67.49999999999991
 30
0.0
  0
SPLINE
  5
1C6
330
1A1
100
AcDbEntity
  8
0
  6
Continuous
 62
     7
370
    25
100
AcDbSpline
210
0.0
220
0.0
230
1.0
 70
     8
 71
     3
 72
    12
 73
     8
 74
     0
 42
0.000000001
 43
0.00000001
 40
0.0
 40
0.0
 40
0.0
 40
0.0
 40
0.2101235850282646
 40
0.4217417199650214
 40
0.6324711933256375
 40
0.8408203431491605
 40
1.0
 40
1.0
 40
1.0
 40
1.0
 10
136.6115127881385
 20
67.49999999999996
 30
0.0
 10
138.6190423256105
 20
67.54894297371524
 30
0.0
 10
142.6483803930157
 20
67.64717703873997
 30
0.0
 10
148.6772425589198
 20
68.11324338854001
 30
0.0
 10
154.6941439165549
 20
68.35640551303554
 30
0.0
 10
160.2467796129256
 20
68.25883892562521
 30
0.0
 10
163.6867940341757
 20
67.51946018931517
 30
0.0
 10
165.1766917107453
 20
67.19922936280223
 30
0.0
  0
SPLINE
  5
1C7
330
1A1
100
AcDbEntity
  8
0
  6
Continuous
 62
     7
370
    25
100
AcDbSpline
210
0.0
220
0.0
230
1.0
 70
     8
 71
     3
 72
    11
 73
     7
 74
     0
 42
0.000000001
 43
0.00000001
 40
0.0
 40
0.0
 40
0.0
 40
0.0
 40
0.1311262201952363
 40
0.4193532834219142
 40
0.7103279139976268
 40
0.9999999999999999
 40
0.9999999999999999
 40
0.9999999999999999
 40
0.9999999999999999
 10
177.3584855207281
 20
54.17063805904898
 30
0.0
 10
177.487325496246
 20
53.51179031431112
 30
0.0
 10
177.899367166394
 20
51.40473678512703
 30
0.0
 10
177.8396967850667
 20
47.74904586792664
 30
0.0
 10
177.6183822546544
 20
43.32030563073836
 30
0.0
 10
177.5394016934367
 20
40.35192693799038
 30
0.0
 10
177.5000000000001
 20
38.87106702192872
 30
0.0
  0
SPLINE
  5
1C9
330
1A1
100
AcDbEntity
  8
0
  6
Continuous
 62
     7
370
    25
100
AcDbSpline
210
0.0
220
0.0
230
1.0
 70
     8
 71
     3
 72
    13
 73
     9
 74
     0
 42
0.000000001
 43
0.00000001
 40
0.0
 40
0.0
 40
0.0
 40
0.0
 40
0.166602917167297
 40
0.3353664944031445
 40
0.5040426086060088
 40
0.6727135188027663
 40
0.8363573332804258
 40
1.0
 40
1.0
 40
1.0
 40
1.0
 10
176.2072485405598
 20
-60.79612851265336
 30
0.0
 10
175.8327909875829
 20
-61.5411638953907
 30
0.0
 10
175.0790195712125
 20
-63.04089696587486
 30
0.0
 10
173.4909877813467
 20
-65.0168205713942
 30
0.0
 10
171.6077183719364
 20
-66.71741461819302
 30
0.0
 10
169.4837650785598
 20
-68.05885889128564
 30
0.0
 10
167.1932142578065
 20
-69.04305396665282
 30
0.0
 10
165.5884059992045
 20
-69.37047555636249
 30
0.0
 10
164.7860046838475
 20
-69.5341857771014
 30
0.0
  0
SPLINE
  5
1CB
330
1A1
100
AcDbEntity
  8
0
  6
Continuous
 62
     7
370
    25
100
AcDbSpline
210
0.0
220
0.0
230
1.0
 70
     8
 71
     3
 72
     9
 73
     5
 74
     0
 42
0.000000001
 43
0.00000001
 40
0.0
 40
0.0
 40
0.0
 40
0.0
 40
0.5746221005353237
 40
1.0
 40
1.0
 40
1.0
 40
1.0
 10
-170.0412620848322
 20
65.42816456754514
 30
0.0
 10
-170.1851834449361
 20
65.36276536128274
 30
0.0
 10
-170.4356460706684
 20
65.24895281178026
 30
0.0
 10
-170.6496084612117
 20
65.0767065453738
 30
0.0
 10
-170.7406233334654
 20
65.00343679037918
 30
0.0
  0
LINE
  5
1CE
330
1A1
100
AcDbEntity
  8
0
  6
Continuous
 62
     7
370
    25
100
AcDbLine
 10
-162.5000000194
 20
67.5
 30
0.0
 11
162.499999996
 21
67.5
 31
0.0
  0
LINE
  5
1CF
330
1A1
100
AcDbEntity
  8
0
  6
Continuous
 62
     7
370
    25
100
AcDbLine
 10
163.2762287697
 20
-59.6797742303
 30
0.0
 11
164.829111431
 21
-69.5584476254
 31
0.0
  0
LINE
  5
1D0
330
1A1
100
AcDbEntity
  8
0
  6
Continuous
 62
     7
370
    25
100
AcDbLine
 10
-163.2762287725
 20
-59.6797742299
 30
0.0
 11
-164.8291114394
 21
-69.5584476241
 31
0.0
  0
LINE
  5
1D1
330
1A1
100
AcDbEntity
  8
0
  6
Continuous
 62
     7
370
    25
100
AcDbLine
 10
177.5
 20
52.5000000109
 30
0.0
 11
167.5
 21
52.4999999965
 31
0.0
  0
LINE
  5
1D2
330
1A1
100
AcDbEntity
  8
0
  6
Continuous
 62
     7
370
    25
100
AcDbLine
 10
167.4999638928
 20
-54.7598307039
 30
0.0
 11
177.4998907734
 21
-54.7980717581
 31
0.0
  0
LINE
  5
1D3
330
1A1
100
AcDbEntity
  8
0
  6
Continuous
 62
     7
370
    25
100
AcDbLine
 10
-162.5000000194
 20
67.5
 30
0.0
 11
-162.4999999983
 21
57.5
 31
0.0
  0
LINE
  5
1D4
330
1A1
100
AcDbEntity
  8
0
  6
Continuous
 62
     7
370
    25
100
AcDbLine
 10
-177.5
 20
52.4999999965
 30
0.0
 11
-167.5
 21
52.4999999965
 31
0.0
  0
LINE
  5
1D5
330
1A1
100
AcDbEntity
  8
0
  6
Continuous
 62
     7
370
    25
100
AcDbLine
 10
162.499999996
 20
67.5
 30
0.0
 11
162.499999996
 21
57.5
 31
0.0
  0
LINE
  5
1D6
330
1A1
100
AcDbEntity
  8
0
  6
Continuous
 62
     7
370
    25
100
AcDbLine
 10
162.499999996
 20
57.5
 30
0.0
 11
-162.4999999983
 21
57.5
 31
0.0
  0
LINE
  5
1D7
330
1A1
100
AcDbEntity
  8
0
  6
Continuous
 62
     7
370
    25
100
AcDbLine
 10
-167.4999638928
 20
-54.7598307036
 30
0.0
 11
-177.4998907734
 21
-54.7980717571
 31
0.0
  0
LINE
  5
1D8
330
1A1
100
AcDbEntity
  8
0
  6
Continuous
 62
     7
370
    25
100
AcDbLine
 10
-177.359977897
 20
-56.3724864665
 30
0.0
 11
-177.4998913161
 21
-54.5314261763
 31
0.0
  0
LINE
  5
1D9
330
1A1
100
AcDbEntity
  8
0
  6
Continuous
 62
     7
370
    25
100
AcDbLine
 10
-166.9151969959
 20
66.7791271244
 30
0.0
 11
-166.5866658453
 21
66.8837702914
 31
0.0
  0
LINE
  5
1DA
330
1A1
100
AcDbEntity
  8
0
  6
Continuous
 62
     7
370
    25
100
AcDbLine
 10
177.4998924294
 20
-54.1363030921
 30
0.0
 11
177.4562012808
 21
-55.8012622851
 31
0.0
  0
LINE
  5
1DB
330
1A1
100
AcDbEntity
  8
0
  6
Continuous
 62
     7
370
    25
100
AcDbLine
 10
-166.8755870599
 20
66.7939668286
 30
0.0
 11
-167.7057400757
 21
66.5327342248
 31
0.0
  0
ARC
  5
1DC
330
1A1
100
AcDbEntity
  8
0
  6
Continuous
 62
     7
370
    25
100
AcDbCircle
 10
0.0
 20
2.5
 30
0.0
 40
29.99999999999979
100
AcDbArc
 50
229.4641978887
 51
310.5358021113
  0
VIEWPORT
  5
27A
330
1A1
100
AcDbEntity
  8
0
100
AcDbViewport
 10
0.0
 20
0.0
 30
0.0
 40
205.6
 41
156.0
 68
     1
 69
     1
 12
0.0421786975
 22
190.0
 13
0.0
 23
0.0
 14
10.0
 24
10.0
 15
10.0
 25
10.0
 16
0.0
 26
0.0
 36
1.0
 17
0.0
 27
0.0
 37
0.0
 42
50.0
 43
0.0
 44
0.0
 45
387.6
 50
0.0
 51
0.0
 72
   100
 90
   557152
  1

281
     0
 71
     1
 74
     0
110
0.0
120
0.0
130
0.0
111
1.0
121
0.0
131
0.0
112
0.0
122
1.0
132
0.0
 79
     0
146
0.0
  0
ENDBLK
  5
1A4
330
1A1
100
AcDbEntity
  8
0
100
AcDbBlockEnd
  0
BLOCK
  5
1DF
330
1DD
100
AcDbEntity
  8
0
100
AcDbBlockBegin
  2
*Paper_Space3
 70
     0
 10
0.0
 20
0.0
 30
0.0
  3
*Paper_Space3
  1

  0
LWPOLYLINE
  5
1E1
330
1DD
100
AcDbEntity
  8
0
  6
Continuous
 62
     7
370
    25
100
AcDbPolyline
 90
        2
 70
   128
 43
0.0
 10
160.9804130149
 20
-67.5
 10
160.9804130149
 20
-67.5
  0
LWPOLYLINE
  5
1E2
330
1DD
100
AcDbEntity
  8
0
  6
Continuous
 62
     7
370
    25
100
AcDbPolyline
 90
        3
 70
   128
 43
0.0
 10
166.6923081994
 20
-66.902053017
 10
166.6916224224
 20
-66.9022519751
 10
166.6909365958
 20
-66.9024509116
  0
LWPOLYLINE
  5
1E3
330
1DD
100
AcDbEntity
  8
0
  6
Continuous
 62
     7
370
    25
100
AcDbPolyline
 90
        3
 70
   128
 43
0.0
 10
-170.3345009425
 20
-65.2910746341
 10
-170.3410896516
 20
-65.2870336367
 10
-170.3476767338
 20
-65.282988987
  0
LWPOLYLINE
  5
1E4
330
1DD
100
AcDbEntity
  8
0
  6
Continuous
 62
     7
370
    25
100
AcDbPolyline
 90
        2
 70
   128
 43
0.0
 10
160.9804130151
 20
-67.5
 10
160.9804130151
 20
-67.5
  0
LWPOLYLINE
  5
1E5
330
1DD
100
AcDbEntity
  8
0
  6
Continuous
 62
     7
370
    25
100
AcDbPolyline
 90
        2
 70
   128
 43
0.0
 10
-159.3129710951
 20
-67.5
 10
-159.3129710951
 20
-67.5
  0
SPLINE
  5
1E6
330
1DD
100
AcDbEntity
  8
0
  6
Continuous
 62
     7
370
    25
100
AcDbSpline
210
0.0
220
0.0
230
1.0
 70
     8
 71
     3
 72
     9
 73
     5
 74
     0
 42
0.000000001
 43
0.00000001
 40
0.0
 40
0.0
 40
0.0
 40
0.0
 40
0.0303351634562603
 40
0.9999999999999999
 40
0.9999999999999999
 40
0.9999999999999999
 40
0.9999999999999999
 10
176.9432441706532
 20
-56.53816249594402
 30
0.0
 10
176.941714596228
 20
-56.54690991041533
 30
0.0
 10
176.8912921079025
 20
-56.83526881390115
 30
0.0
 10
176.7641667991896
 20
-57.10268587517253
 30
0.0
 10
176.640897857496
 20
-57.36199079617924
 30
0.0
  0
SPLINE
  5
1E8
330
1DD
100
AcDbEntity
  8
0
  6
Continuous
 62
     7
370
    25
100
AcDbSpline
210
0.0
220
0.0
230
1.0
 70
     8
 71
     3
 72
    12
 73
     8
 74
     0
 42
0.000000001
 43
0.00000001
 40
0.0
 40
0.0
 40
0.0
 40
0.0
 40
0.0049806808700281
 40
0.0585752401191187
 40
0.1658742163186006
 40
0.582769459457955
 40
1.0
 40
1.0
 40
1.0
 40
1.0
 10
-163.9476066060519
 20
69.64397679298723
 30
0.0
 10
-163.82855353297
 20
69.67033269025092
 30
0.0
 10
-162.4284312355039
 20
69.98029091705978
 30
0.0
 10
-158.3865905019406
 20
70.44220479089314
 30
0.0
 10
-144.4214451186503
 20
72.64718283236215
 30
0.0
 10
-121.5365554749665
 20
75.47289506792309
 30
0.0
 10
-101.2082997540261
 20
77.38396868809008
 30
0.0
 10
-91.04008617202689
 20
78.33988959972858
 30
0.0
  0
SPLINE
  5
1EB
330
1DD
100
AcDbEntity
  8
0
  6
Continuous
 62
     7
370
    25
100
AcDbSpline
210
0.0
220
0.0
230
1.0
 70
     8
 71
     3
 72
    19
 73
    15
 74
     0
 42
0.000000001
 43
0.00000001
 40
0.0
 40
0.0
 40
0.0
 40
0.0
 40
0.1250000000000001
 40
0.1250000000000001
 40
0.2500000000000002
 40
0.3750000000000002
 40
0.3750000000000002
 40
0.4375000000000002
 40
0.4375000000000002
 40
0.5000000000000002
 40
0.5000000000000002
 40
0.7500000000000001
 40
0.7500000000000001
 40
1.0
 40
1.0
 40
1.0
 40
1.0
 10
163.8494033042317
 20
66.9757744316544
 30
0.0
 10
150.232070509556
 20
68.4008897847757
 30
0.0
 10
136.5952184454675
 20
69.64839002029964
 30
0.0
 10
109.3028796749223
 20
71.7865404823568
 30
0.0
 10
81.99073010227232
 20
73.56811183797028
 30
0.0
 10
54.63899599787653
 20
74.63719225633938
 30
0.0
 10
34.11032985636854
 20
75.17143393667294
 30
0.0
 10
27.26595522704083
 20
75.30486902815431
 30
0.0
 10
13.58344166275095
 20
75.48240403535593
 30
0.0
 10
6.744000018320593
 20
75.52654088671362
 30
0.0
 10
-27.44415023760148
 20
75.52450763972259
 30
0.0
 10
-54.76570064369135
 20
74.81057089696029
 30
0.0
 10
-109.3509937083178
 20
71.96131904591756
 30
0.0
 10
-136.6147364211806
 20
69.82600527341178
 30
0.0
 10
-163.8494033112327
 20
66.97577443092185
 30
0.0
  0
SPLINE
  5
1ED
330
1DD
100
AcDbEntity
  8
0
  6
Continuous
 62
     7
370
    25
100
AcDbSpline
210
0.0
220
0.0
230
1.0
 70
     8
 71
     3
 72
    19
 73
    15
 74
     0
 42
0.000000001
 43
0.00000001
 40
0.0
 40
0.0
 40
0.0
 40
0.0
 40
0.2500000000000001
 40
0.2500000000000001
 40
0.5000000000000002
 40
0.5000000000000002
 40
0.5625000000000002
 40
0.5625000000000002
 40
0.6250000000000002
 40
0.6250000000000002
 40
0.7500000000000002
 40
0.8750000000000001
 40
0.8750000000000001
 40
1.0
 40
1.0
 40
1.0
 40
1.0
 10
-164.0575750887331
 20
68.96490770799417
 30
0.0
 10
-136.7883054360263
 20
71.8187460578511
 30
0.0
 10
-109.4899218867552
 20
73.95672249461501
 30
0.0
 10
-54.83527532277097
 20
76.80951644897354
 30
0.0
 10
-27.47901225245946
 20
77.5243325990655
 30
0.0
 10
6.752573006783862
 20
77.52636825108364
 30
0.0
 10
13.6007038681132
 20
77.48217685197368
 30
0.0
 10
27.30060031194047
 20
77.30442236128675
 30
0.0
 10
34.15367020196523
 20
77.17082229002754
 30
0.0
 10
54.70841666390091
 20
76.63591946894064
 30
0.0
 10
82.09490027241013
 20
75.56551506627127
 30
0.0
 10
109.4417502290415
 20
73.78172389665845
 30
0.0
 10
136.7687642476282
 20
71.64089531241802
 30
0.0
 10
150.4229421848179
 20
70.39182668166995
 30
0.0
 10
164.0575750817232
 20
68.96490770872765
 30
0.0
  0
SPLINE
  5
1EF
330
1DD
100
AcDbEntity
  8
0
  6
Continuous
 62
     7
370
    25
100
AcDbSpline
210
0.0
220
0.0
230
1.0
 70
     8
 71
     3
 72
    58
 73
    54
 74
     0
 42
0.000000001
 43
0.00000001
 40
0.0
 40
0.0
 40
0.0
 40
0.0
 40
0.0625000000000002
 40
0.0625000000000002
 40
0.1250000000000005
 40
0.1250000000000005
 40
0.2500000000000008
 40
0.2500000000000008
 40
0.3125000000000009
 40
0.3125000000000009
 40
0.3750000000000011
 40
0.3750000000000011
 40
0.5000000000000014
 40
0.5000000000000014
 40
0.6250000000000017
 40
0.6250000000000017
 40
0.6875000000000019
 40
0.6875000000000019
 40
0.750000000000002
 40
0.750000000000002
 40
0.8750000000000021
 40
0.8750000000000021
 40
0.9375000000000023
 40
0.9375000000000023
 40
0.9394531250000023
 40
0.9394531250000023
 40
0.9414062500000023
 40
0.9414062500000023
 40
0.9453125000000021
 40
0.9453125000000021
 40
0.9531250000000016
 40
0.9531250000000016
 40
0.9570312500000014
 40
0.9570312500000014
 40
0.9609375000000014
 40
0.9609375000000014
 40
0.9687500000000013
 40
0.9687500000000013
 40
0.9726562500000012
 40
0.9726562500000012
 40
0.9765625000000011
 40
0.9765625000000011
 40
0.9843750000000008
 40
0.9843750000000008
 40
0.9882812500000007
 40
0.9882812500000007
 40
0.9921875000000004
 40
0.9921875000000004
 40
0.9960937500000002
 40
0.9960937500000002
 40
0.9980468750000001
 40
0.9980468750000001
 40
1.0
 40
1.0
 40
1.0
 40
1.0
 10
164.7860046838474
 20
69.5341857771014
 30
0.0
 10
157.5162632371913
 20
70.65540354681075
 30
0.0
 10
150.2347720597554
 20
71.70074151310023
 30
0.0
 10
135.6536413628181
 20
73.64426936455608
 30
0.0
 10
128.3556044337903
 20
74.54139433785605
 30
0.0
 10
106.4391137272137
 20
77.0092002636743
 30
0.0
 10
91.79829214072879
 20
78.35643320303932
 30
0.0
 10
69.79220979473986
 20
79.92924427811585
 30
0.0
 10
62.44926672621708
 20
80.37877808158409
 30
0.0
 10
47.76965683609235
 20
81.12746636430018
 30
0.0
 10
40.43033658650332
 20
81.42682919080556
 30
0.0
 10
18.41382558720077
 20
82.1006446430067
 30
0.0
 10
3.738084112992106
 20
82.25089756190205
 30
0.0
 10
-25.60953760144522
 20
81.95407906632757
 30
0.0
 10
-40.28141919926853
 20
81.50721766832952
 30
0.0
 10
-62.28634062525507
 20
80.38815182969718
 30
0.0
 10
-69.6208307078598
 20
79.94029853513277
 30
0.0
 10
-84.28883943662153
 20
78.89431288217716
 30
0.0
 10
-91.6218274159353
 20
78.29612136994712
 30
0.0
 10
-113.5876024028912
 20
76.27856379017547
 30
0.0
 10
-128.1977457985702
 20
74.63570534564077
 30
0.0
 10
-150.0624223224891
 20
71.72487600317297
 30
0.0
 10
-157.3432467502521
 20
70.67997858135985
 30
0.0
 10
-164.8402074817246
 20
69.52585594182112
 30
0.0
 10
-165.0672240682073
 20
69.48985658936377
 30
0.0
 10
-165.5190669738463
 20
69.40415998974568
 30
0.0
 10
-165.7441521682652
 20
69.35608174046384
 30
0.0
 10
-166.4168874484845
 20
69.1960850493895
 30
0.0
 10
-166.8570875481868
 20
69.06961437970212
 30
0.0
 10
-168.1531342615567
 20
68.63305559252426
 30
0.0
 10
-168.9849301197698
 20
68.26632439581634
 30
0.0
 10
-170.1834562274213
 20
67.60077646047411
 30
0.0
 10
-170.5766458746954
 20
67.35813150653502
 30
0.0
 10
-171.3349660453827
 20
66.84043509021325
 30
0.0
 10
-171.6998107558857
 20
66.56591585809619
 30
0.0
 10
-172.7526216604594
 20
65.696683794458
 30
0.0
 10
-173.3992786716917
 20
65.05674984928972
 30
0.0
 10
-174.2837013533202
 20
64.00318339591679
 30
0.0
 10
-174.5644657429874
 20
63.63544800489149
 30
0.0
 10
-175.0858704873417
 20
62.88357255931147
 30
0.0
 10
-175.3280919004406
 20
62.49770418643933
 30
0.0
 10
-176.0003998589621
 20
61.31089099480685
 30
0.0
 10
-176.3766401187438
 20
60.48101214643514
 30
0.0
 10
-176.8276973898015
 20
59.17531101443343
 30
0.0
 10
-176.9574383829963
 20
58.73436454009146
 30
0.0
 10
-177.175078696112
 20
57.84815962457196
 30
0.0
 10
-177.2633509444017
 20
57.40181868168824
 30
0.0
 10
-177.3992701995214
 20
56.50273399147309
 30
0.0
 10
-177.4469162517752
 20
56.04999009369522
 30
0.0
 10
-177.4873710323514
 20
55.36598619028857
 30
0.0
 10
-177.4956777076711
 20
55.13716876274793
 30
0.0
 10
-177.5017292800383
 20
54.67786930211907
 30
0.0
 10
-177.5
 20
54.44747013813291
 30
0.0
 10
-177.4999999999999
 20
54.2173435205347
 30
0.0
  0
SPLINE
  5
1F0
330
1DD
100
AcDbEntity
  8
0
  6
Continuous
 62
     7
370
    25
100
AcDbSpline
210
0.0
220
0.0
230
1.0
 70
     8
 71
     3
 72
     9
 73
     5
 74
     0
 42
0.000000001
 43
0.00000001
 40
0.0
 40
0.0
 40
0.0
 40
0.0
 40
0.915985068566391
 40
1.0
 40
1.0
 40
1.0
 40
1.0
 10
-176.9070651304261
 20
-56.49324685854079
 30
0.0
 10
-176.8616733924565
 20
-56.77276221950173
 30
0.0
 10
-176.8121182855804
 20
-57.07791496767744
 30
0.0
 10
-176.687489620368
 20
-57.35773752372314
 30
0.0
 10
-176.6770189516055
 20
-57.38124679658288
 30
0.0
  0
SPLINE
  5
1F2
330
1DD
100
AcDbEntity
  8
0
  6
Continuous
 62
     7
370
    25
100
AcDbSpline
210
0.0
220
0.0
230
1.0
 70
     8
 71
     3
 72
    10
 73
     6
 74
     0
 42
0.000000001
 43
0.00000001
 40
0.0
 40
0.0
 40
0.0
 40
0.0
 40
0.3268928221712494
 40
0.9719835182847494
 40
1.0
 40
1.0
 40
1.0
 40
1.0
 10
160.9859360548145
 20
-67.66257218751944
 30
0.0
 10
161.613196222526
 20
-67.64846179969291
 30
0.0
 10
163.4782923743551
 20
-67.60650595522716
 30
0.0
 10
165.4244350891928
 20
-67.36595688814121
 30
0.0
 10
166.6358029768379
 20
-66.90938043274454
 30
0.0
 10
166.6862232774862
 20
-66.89037652618173
 30
0.0
  0
SPLINE
  5
1F3
330
1DD
100
AcDbEntity
  8
0
  6
Continuous
 62
     7
370
    25
100
AcDbSpline
210
0.0
220
0.0
230
1.0
 70
     8
 71
     3
 72
    12
 73
     8
 74
     0
 42
0.000000001
 43
0.00000001
 40
0.0
 40
0.0
 40
0.0
 40
0.0
 40
0.0857692680852425
 40
0.3836822984457978
 40
0.6843560014096836
 40
0.9852940324993592
 40
1.0
 40
1.0
 40
1.0
 40
1.0
 10
176.6620241379129
 20
-57.29486406205186
 30
0.0
 10
176.7644458951036
 20
-57.03465974082312
 30
0.0
 10
177.2226218372228
 20
-55.8706554970729
 30
0.0
 10
177.4895636215812
 20
-53.62717594238933
 30
0.0
 10
177.5567353839648
 20
-50.70602233349342
 30
0.0
 10
177.4995161800038
 20
-48.69784717428566
 30
0.0
 10
177.4999784621103
 20
-47.67014240324976
 30
0.0
 10
177.5000000000001
 20
-47.62226126807658
 30
0.0
  0
SPLINE
  5
1F4
330
1DD
100
AcDbEntity
  8
0
  6
Continuous
 62
     7
370
    25
100
AcDbSpline
210
0.0
220
0.0
230
1.0
 70
     8
 71
     3
 72
    16
 73
    12
 74
     0
 42
0.000000001
 43
0.00000001
 40
0.0
 40
0.0
 40
0.0
 40
0.0
 40
0.0922318933651541
 40
0.2049537041226332
 40
0.320941864372212
 40
0.43366362175543
 40
0.5496511309730713
 40
0.6623131519246337
 40
0.7782346351810598
 40
0.887631327944349
 40
1.0
 40
1.0
 40
1.0
 40
1.0
 10
177.4812668781926
 20
53.84268948189143
 30
0.0
 10
177.4908434320708
 20
54.52329170231287
 30
0.0
 10
177.512124033807
 20
56.03569637080647
 30
0.0
 10
177.1131511072956
 20
58.38250224736117
 30
0.0
 10
176.2990373428306
 20
60.77448375941395
 30
0.0
 10
175.0761616476525
 20
63.01530602862348
 30
0.0
 10
173.5114918929857
 20
65.00063078769121
 30
0.0
 10
171.6177447870354
 20
66.71130219273445
 30
0.0
 10
169.5039386590055
 20
68.04744165540016
 30
0.0
 10
167.2044377516592
 20
69.04123048489319
 30
0.0
 10
165.5993193489065
 20
69.36840580423072
 30
0.0
 10
164.7860046838475
 20
69.5341857771014
 30
0.0
  0
SPLINE
  5
1F5
330
1DD
100
AcDbEntity
  8
0
  6
Continuous
 62
     7
370
    25
100
AcDbSpline
210
0.0
220
0.0
230
1.0
 70
     8
 71
     3
 72
    11
 73
     7
 74
     0
 42
0.000000001
 43
0.00000001
 40
0.4974638839436185
 40
0.4974638839436185
 40
0.4974638839436185
 40
0.4974638839436185
 40
0.5036061599253071
 40
0.5097484359069957
 40
0.5158907118886844
 40
0.5220329878594572
 40
0.5220329878594572
 40
0.5220329878594572
 40
0.5220329878594572
 10
-162.499999988088
 20
-67.49999999999991
 30
0.0
 10
-164.463495395718
 20
-67.49999999999991
 30
0.0
 10
-168.3926627089346
 20
-66.71956836074729
 30
0.0
 10
-173.3898202197243
 20
-63.37712780079099
 30
0.0
 10
-176.723835130551
 20
-58.37948725799608
 30
0.0
 10
-177.5000000000001
 20
-54.45815910563574
 30
0.0
 10
-177.5000000000001
 20
-52.49999998955998
 30
0.0
  0
SPLINE
  5
1F7
330
1DD
100
AcDbEntity
  8
0
  6
Continuous
 62
     7
370
    25
100
AcDbSpline
210
0.0
220
0.0
230
1.0
 70
     8
 71
     3
 72
    11
 73
     7
 74
     0
 42
0.000000001
 43
0.00000001
 40
0.1340026041191361
 40
0.1340026041191361
 40
0.1340026041191361
 40
0.1340026041191361
 40
0.1401448801008247
 40
0.1462871560825134
 40
0.152429432064202
 40
0.1585717080334694
 40
0.1585717080334694
 40
0.1585717080334694
 40
0.1585717080334694
 10
177.5000000000001
 20
-52.49999998956002
 30
0.0
 10
177.5000000000001
 20
-54.45815910563437
 30
0.0
 10
176.7238351305522
 20
-58.37948725799334
 30
0.0
 10
173.3898202197258
 20
-63.37712780078944
 30
0.0
 10
168.3926627089355
 20
-66.71956836074722
 30
0.0
 10
164.463495395718
 20
-67.49999999999993
 30
0.0
 10
162.4999999880879
 20
-67.49999999999993
 30
0.0
  0
SPLINE
  5
1F9
330
1DD
100
AcDbEntity
  8
0
  6
Continuous
 62
     7
370
    25
100
AcDbSpline
210
0.0
220
0.0
230
1.0
 70
     8
 71
     3
 72
    30
 73
    26
 74
     0
 42
0.000000001
 43
0.00000001
 40
0.0
 40
0.0
 40
0.0
 40
0.0
 40
0.0625000000000016
 40
0.0625000000000016
 40
0.1250000000000033
 40
0.1250000000000033
 40
0.250000000000006
 40
0.250000000000006
 40
0.3125000000000057
 40
0.3125000000000057
 40
0.3750000000000054
 40
0.3750000000000054
 40
0.5000000000000036
 40
0.5000000000000036
 40
0.562500000000004
 40
0.562500000000004
 40
0.6250000000000043
 40
0.6250000000000043
 40
0.7500000000000023
 40
0.7500000000000023
 40
0.812500000000002
 40
0.812500000000002
 40
0.8750000000000016
 40
0.8750000000000016
 40
1.0
 40
1.0
 40
1.0
 40
1.0
 10
164.0575750817232
 20
68.96490770872765
 30
0.0
 10
164.5174428988655
 20
68.91678069876063
 30
0.0
 10
164.9738347364636
 20
68.84752017752317
 30
0.0
 10
165.8796993202073
 20
68.66693210671362
 30
0.0
 10
166.3284778383907
 20
68.55568226851284
 30
0.0
 10
167.6463595498807
 20
68.16484096370436
 30
0.0
 10
168.4934709591032
 20
67.82769551557925
 30
0.0
 10
169.7159963685018
 20
67.20484474926067
 30
0.0
 10
170.1159554958447
 20
66.97723843154715
 30
0.0
 10
170.8972498923625
 20
66.48343934626575
 30
0.0
 10
171.2735920117737
 20
66.22047586876283
 30
0.0
 10
172.3613131964732
 20
65.38520165731873
 30
0.0
 10
173.0318847790072
 20
64.7670660280474
 30
0.0
 10
173.9528712901169
 20
63.74455657120226
 30
0.0
 10
174.2469714334641
 20
63.3857014900354
 30
0.0
 10
174.796986509774
 20
62.64766672135232
 30
0.0
 10
175.053392053499
 20
62.26834865166148
 30
0.0
 10
175.7685165410962
 20
61.10044141023013
 30
0.0
 10
176.173839938483
 20
60.28228494063229
 30
0.0
 10
176.669075610984
 20
58.9926162681643
 30
0.0
 10
176.8148043996931
 20
58.55229578580087
 30
0.0
 10
177.0628019699412
 20
57.66915233185237
 30
0.0
 10
177.1660153020278
 20
57.22404968852538
 30
0.0
 10
177.4147671070268
 20
55.87839841437181
 30
0.0
 10
177.5
 20
54.96760546933619
 30
0.0
 10
177.5
 20
54.04233352077715
 30
0.0
  0
SPLINE
  5
1FA
330
1DD
100
AcDbEntity
  8
0
  6
Continuous
 62
     7
370
    25
100
AcDbSpline
210
0.0
220
0.0
230
1.0
 70
     8
 71
     3
 72
    30
 73
    26
 74
     0
 42
0.000000001
 43
0.00000001
 40
0.0
 40
0.0
 40
0.0
 40
0.0
 40
0.0625000000000001
 40
0.0625000000000001
 40
0.1250000000000002
 40
0.1250000000000002
 40
0.2500000000000012
 40
0.2500000000000012
 40
0.3125000000000013
 40
0.3125000000000013
 40
0.3750000000000013
 40
0.3750000000000013
 40
0.5000000000000014
 40
0.5000000000000014
 40
0.5625000000000014
 40
0.5625000000000014
 40
0.6250000000000014
 40
0.6250000000000014
 40
0.7500000000000028
 40
0.7500000000000028
 40
0.8125000000000021
 40
0.8125000000000021
 40
0.8750000000000014
 40
0.8750000000000014
 40
1.0
 40
1.0
 40
1.0
 40
1.0
 10
-177.5
 20
54.04233352053478
 30
0.0
 10
-177.5
 20
54.50471295819987
 30
0.0
 10
-177.4786205865424
 20
54.96583555577163
 30
0.0
 10
-177.3932955394973
 20
55.88557857162806
 30
0.0
 10
-177.329358376234
 20
56.34349345576122
 30
0.0
 10
-177.0778082508559
 20
57.69488983510533
 30
0.0
 10
-176.8306734492822
 20
58.57249405484628
 30
0.0
 10
-176.3384662006794
 20
59.85321936144653
 30
0.0
 10
-176.1537203980608
 20
60.27470440084652
 30
0.0
 10
-175.743914972147
 20
61.1031441493351
 30
0.0
 10
-175.52154328162
 20
61.50480696577658
 30
0.0
 10
-174.8039977147754
 20
62.67354494522075
 30
0.0
 10
-174.2590032131195
 20
63.40480802542191
 30
0.0
 10
-173.337915607098
 20
64.42723582787876
 30
0.0
 10
-173.0116181590948
 20
64.75709241738546
 30
0.0
 10
-172.3348349673777
 20
65.38093019891228
 30
0.0
 10
-171.9842598029047
 20
65.67541697552345
 30
0.0
 10
-170.8971122158702
 20
66.50819576895674
 30
0.0
 10
-170.12557451899
 20
66.99645986150533
 30
0.0
 10
-168.8944618168318
 20
67.62325497308763
 30
0.0
 10
-168.4717051068096
 20
67.81402672014103
 30
0.0
 10
-167.619177082587
 20
68.15260127716526
 30
0.0
 10
-167.1872370454519
 20
68.30158120129138
 30
0.0
 10
-165.8747905914224
 20
68.6890362061808
 30
0.0
 10
-164.977818267466
 20
68.8686005714955
 30
0.0
 10
-164.0575750887331
 20
68.96490770799417
 30
0.0
  0
SPLINE
  5
1FD
330
1DD
100
AcDbEntity
  8
0
  6
Continuous
 62
     7
370
    25
100
AcDbSpline
210
0.0
220
0.0
230
1.0
 70
     8
 71
     3
 72
    30
 73
    26
 74
     0
 42
0.000000001
 43
0.00000001
 40
0.0
 40
0.0
 40
0.0
 40
0.0
 40
0.1249999999999986
 40
0.1249999999999986
 40
0.1874999999999974
 40
0.1874999999999974
 40
0.2499999999999962
 40
0.2499999999999962
 40
0.3749999999999944
 40
0.3749999999999944
 40
0.4374999999999936
 40
0.4374999999999936
 40
0.4999999999999927
 40
0.4999999999999927
 40
0.6249999999999937
 40
0.6249999999999937
 40
0.6874999999999948
 40
0.6874999999999948
 40
0.7499999999999959
 40
0.7499999999999959
 40
0.812499999999997
 40
0.812499999999997
 40
0.874999999999998
 40
0.874999999999998
 40
1.0
 40
1.0
 40
1.0
 40
1.0
 10
-175.5000000000001
 20
-52.49999999859102
 30
0.0
 10
-175.4999999993953
 20
-53.35859085192045
 30
0.0
 10
-175.4149420746872
 20
-54.20271711067911
 30
0.0
 10
-175.1676264890908
 20
-55.44854593745779
 30
0.0
 10
-175.0650211086741
 20
-55.86039272262569
 30
0.0
 10
-174.8182887654967
 20
-56.67702530645293
 30
0.0
 10
-174.6734612717969
 20
-57.08291764792236
 30
0.0
 10
-174.1845034031248
 20
-58.26314767697765
 30
0.0
 10
-173.7846392018834
 20
-59.00905476667573
 30
0.0
 10
-173.0776120628488
 20
-60.06854347254673
 30
0.0
 10
-172.8229224646713
 20
-60.41287047933324
 30
0.0
 10
-172.2801085357632
 20
-61.07542761891191
 30
0.0
 10
-171.9945239695471
 20
-61.39080035378095
 30
0.0
 10
-171.095855626368
 20
-62.28989456745887
 30
0.0
 10
-170.4414193123053
 20
-62.82722268301165
 30
0.0
 10
-169.3767178916341
 20
-63.5400445802404
 30
0.0
 10
-169.0079704339043
 20
-63.76152179248741
 30
0.0
 10
-168.2584709978364
 20
-64.16314111941125
 30
0.0
 10
-167.8757730231843
 20
-64.34465952208478
 30
0.0
 10
-167.0944414873217
 20
-64.66901897076407
 30
0.0
 10
-166.6958053929695
 20
-64.81185386856679
 30
0.0
 10
-165.8826572986243
 20
-65.0589911594129
 30
0.0
 10
-165.4663023036725
 20
-65.16362887106023
 30
0.0
 10
-164.2070175933536
 20
-65.41497496903204
 30
0.0
 10
-163.3582633587898
 20
-65.49999999931006
 30
0.0
 10
-162.4999999983924
 20
-65.4999999999999
 30
0.0
  0
SPLINE
  5
203
330
1DD
100
AcDbEntity
  8
0
  6
Continuous
 62
     7
370
    25
100
AcDbSpline
210
0.0
220
0.0
230
1.0
 70
     8
 71
     3
 72
    28
 73
    24
 74
     0
 42
0.000000001
 43
0.00000001
 40
0.0
 40
0.0
 40
0.0
 40
0.0
 40
0.1249999999999934
 40
0.1249999999999934
 40
0.1874999999999925
 40
0.1874999999999925
 40
0.2499999999999917
 40
0.2499999999999917
 40
0.37499999999999
 40
0.37499999999999
 40
0.4374999999999908
 40
0.4374999999999908
 40
0.4999999999999917
 40
0.4999999999999917
 40
0.6249999999999937
 40
0.6249999999999937
 40
0.7499999999999958
 40
0.7499999999999958
 40
0.8749999999999978
 40
0.8749999999999978
 40
0.9374999999999989
 40
0.9374999999999989
 40
1.0
 40
1.0
 40
1.0
 40
1.0
 10
-163.8494033112327
 20
66.97577443092185
 30
0.0
 10
-164.6470165737009
 20
66.8923006021343
 30
0.0
 10
-165.4244464634001
 20
66.73661315743617
 30
0.0
 10
-166.5620175379595
 20
66.40084860488878
 30
0.0
 10
-166.9364103524332
 20
66.27176206827775
 30
0.0
 10
-167.6753582888352
 20
65.9783909456986
 30
0.0
 10
-168.0417979497047
 20
65.8130840708599
 30
0.0
 10
-169.1088517531502
 20
65.26980773774717
 30
0.0
 10
-169.7774915467192
 20
64.84649665837568
 30
0.0
 10
-170.7197551433757
 20
64.12470081400684
 30
0.0
 10
-171.0236225676221
 20
63.86948127475774
 30
0.0
 10
-171.6102443561514
 20
63.32883875928513
 30
0.0
 10
-171.8930850399913
 20
63.04296870402585
 30
0.0
 10
-172.6913871556873
 20
62.15679840110013
 30
0.0
 10
-173.1636049366278
 20
61.52290997530434
 30
0.0
 10
-173.99275856708
 20
60.17228386392534
 30
0.0
 10
-174.351389118397
 20
59.44855788005881
 30
0.0
 10
-174.9201393029782
 20
57.96856539766343
 30
0.0
 10
-175.1341560143196
 20
57.20791431623124
 30
0.0
 10
-175.352089322058
 20
56.03667344143018
 30
0.0
 10
-175.407498171916
 20
55.63981340242699
 30
0.0
 10
-175.4814649782466
 20
54.84270302091231
 30
0.0
 10
-175.5
 20
54.44306315521069
 30
0.0
 10
-175.5
 20
54.04233352053478
 30
0.0
  0
SPLINE
  5
204
330
1DD
100
AcDbEntity
  8
0
  6
Continuous
 62
     7
370
    25
100
AcDbSpline
210
0.0
220
0.0
230
1.0
 70
     8
 71
     3
 72
    28
 73
    24
 74
     0
 42
0.000000001
 43
0.00000001
 40
0.0
 40
0.0
 40
0.0
 40
0.0
 40
0.1249999999999968
 40
0.1249999999999968
 40
0.1874999999999947
 40
0.1874999999999947
 40
0.2499999999999926
 40
0.2499999999999926
 40
0.3749999999999899
 40
0.3749999999999899
 40
0.437499999999989
 40
0.437499999999989
 40
0.4999999999999881
 40
0.4999999999999881
 40
0.6249999999999909
 40
0.6249999999999909
 40
0.7499999999999937
 40
0.7499999999999937
 40
0.8749999999999966
 40
0.8749999999999966
 40
0.9374999999999982
 40
0.9374999999999982
 40
1.0
 40
1.0
 40
1.0
 40
1.0
 10
175.5
 20
54.04233352077714
 30
0.0
 10
175.5
 20
54.84430600237158
 30
0.0
 10
175.426071288807
 20
55.63372056872243
 30
0.0
 10
175.2105273543806
 20
56.80006587778519
 30
0.0
 10
175.1211096020251
 20
57.18586315427854
 30
0.0
 10
174.9062481223537
 20
57.9513381478569
 30
0.0
 10
174.7799842768005
 20
58.33299678027621
 30
0.0
 10
174.3507375659731
 20
59.45080553547106
 30
0.0
 10
173.9993041639057
 20
60.15986265077802
 30
0.0
 10
173.3794797654365
 20
61.17212133881975
 30
0.0
 10
173.1572667044499
 20
61.50089822545596
 30
0.0
 10
172.6806108582675
 20
62.1406018002255
 30
0.0
 10
172.4257350403575
 20
62.45165806347278
 30
0.0
 10
171.6274855998161
 20
63.33786722688628
 30
0.0
 10
171.0461847553596
 20
63.87348627247209
 30
0.0
 10
169.7891749220225
 20
64.83868679604846
 30
0.0
 10
169.1067014050808
 20
65.27067931754601
 30
0.0
 10
167.6939617839667
 20
65.99040259772582
 30
0.0
 10
166.9597213110008
 20
66.28243662070341
 30
0.0
 10
165.8175184723118
 20
66.62109194424274
 30
0.0
 10
165.4285760732529
 20
66.71750478386437
 30
0.0
 10
164.6434954488592
 20
66.87403215045441
 30
0.0
 10
164.2479562199117
 20
66.93406406974063
 30
0.0
 10
163.8494033042317
 20
66.97577443165443
 30
0.0
  0
CIRCLE
  5
206
330
1DD
100
AcDbEntity
  8
0
  6
Continuous
 62
     7
370
    25
100
AcDbCircle
 10
135.5
 20
-29.5
 30
0.0
 40
7.500000000000011
  0
CIRCLE
  5
207
330
1DD
100
AcDbEntity
  8
0
  6
Continuous
 62
     7
370
    25
100
AcDbCircle
 10
70.0
 20
-9.5
 30
0.0
 40
4.999999999999975
  0
CIRCLE
  5
208
330
1DD
100
AcDbEntity
  8
0
  6
Continuous
 62
     7
370
    25
100
AcDbCircle
 10
-70.0
 20
-9.5
 30
0.0
 40
4.99999999999998
  0
SPLINE
  5
20A
330
1DD
100
AcDbEntity
  8
0
  6
Continuous
 62
     7
370
    25
100
AcDbSpline
210
0.0
220
0.0
230
1.0
 70
     8
 71
     3
 72
    30
 73
    26
 74
     0
 42
0.000000001
 43
0.00000001
 40
0.0
 40
0.0
 40
0.0
 40
0.0
 40
0.1249999999999964
 40
0.1249999999999964
 40
0.1874999999999923
 40
0.1874999999999923
 40
0.2499999999999883
 40
0.2499999999999883
 40
0.3749999999999848
 40
0.3749999999999848
 40
0.4374999999999836
 40
0.4374999999999836
 40
0.4999999999999831
 40
0.4999999999999831
 40
0.6249999999999862
 40
0.6249999999999862
 40
0.6874999999999886
 40
0.6874999999999886
 40
0.7499999999999908
 40
0.7499999999999908
 40
0.8124999999999931
 40
0.8124999999999931
 40
0.8749999999999954
 40
0.8749999999999954
 40
1.0
 40
1.0
 40
1.0
 40
1.0
 10
162.4999999983925
 20
-65.49999999999994
 30
0.0
 10
163.3585911029805
 20
-65.49999999930985
 30
0.0
 10
164.2027163623139
 20
-65.41493463951124
 30
0.0
 10
165.4485444019441
 20
-65.16761197483888
 30
0.0
 10
165.8603911461905
 20
-65.06500551794328
 30
0.0
 10
166.6770248037544
 20
-64.81827777783913
 30
0.0
 10
167.0829177970971
 20
-64.67345647942209
 30
0.0
 10
168.2631548306694
 20
-64.18452442227084
 30
0.0
 10
169.0090546865631
 20
-63.78465503105294
 30
0.0
 10
170.0685315515963
 20
-63.07761701462866
 30
0.0
 10
170.4128548937958
 20
-62.82292369975342
 30
0.0
 10
171.0754080778178
 20
-62.28011053143276
 30
0.0
 10
171.3907825008695
 20
-61.99452912451039
 30
0.0
 10
172.2898948454966
 20
-61.09588046135136
 30
0.0
 10
172.8272179417033
 20
-60.44144011161928
 30
0.0
 10
173.5400293646295
 20
-59.37672714916425
 30
0.0
 10
173.7615011018523
 20
-59.0079789625069
 30
0.0
 10
174.1631187342242
 20
-58.25847934915607
 30
0.0
 10
174.3446406476194
 20
-57.87578228584542
 30
0.0
 10
174.6690180746733
 20
-57.09445549210784
 30
0.0
 10
174.8118598689556
 20
-56.69582010854918
 30
0.0
 10
175.0590040820853
 20
-55.8826690152608
 30
0.0
 10
175.1636422345368
 20
-55.46630913514508
 30
0.0
 10
175.4149819403506
 20
-54.20702275771302
 30
0.0
 10
175.4999999994114
 20
-53.35826608059367
 30
0.0
 10
175.5000000000001
 20
-52.49999999835355
 30
0.0
  0
CIRCLE
  5
20B
330
1DD
100
AcDbEntity
  8
0
  6
Continuous
 62
     7
370
    25
100
AcDbCircle
 10
0.0
 20
-2.5
 30
0.0
 40
30.0
  0
LINE
  5
20D
330
1DD
100
AcDbEntity
  8
0
  6
Continuous
 62
     7
370
    25
100
AcDbLine
 10
170.5056010982
 20
-65.1297092903
 30
0.0
 11
170.0710531424
 21
-65.3896843461
 31
0.0
  0
LINE
  5
20E
330
1DD
100
AcDbEntity
  8
0
  6
Continuous
 62
     7
370
    25
100
AcDbLine
 10
-163.8494033112
 20
66.9757744309
 30
0.0
 11
-164.0575750887
 21
68.964907708
 31
0.0
  0
LINE
  5
20F
330
1DD
100
AcDbEntity
  8
0
  6
Continuous
 62
     7
370
    25
100
AcDbLine
 10
163.8494033042
 20
66.9757744317
 30
0.0
 11
164.0575750817
 21
68.9649077087
 31
0.0
  0
LINE
  5
210
330
1DD
100
AcDbEntity
  8
0
  6
Continuous
 62
     7
370
    25
100
AcDbLine
 10
-176.1739766017
 20
-58.532995592
 30
0.0
 11
-175.7197847539
 21
-59.5728979257
 31
0.0
  0
LINE
  5
211
330
1DD
100
AcDbEntity
  8
0
  6
Continuous
 62
     7
370
    25
100
AcDbLine
 10
162.5
 20
-67.5
 30
0.0
 11
-162.5
 21
-67.5
 31
0.0
  0
LINE
  5
212
330
1DD
100
AcDbEntity
  8
0
  6
Continuous
 62
     7
370
    25
100
AcDbLine
 10
177.5
 20
54.0423335208
 30
0.0
 11
177.5
 21
-52.4999999997
 31
0.0
  0
LINE
  5
213
330
1DD
100
AcDbEntity
  8
0
  6
Continuous
 62
     7
370
    25
100
AcDbLine
 10
-177.5
 20
-52.5
 30
0.0
 11
-177.5
 21
54.0423335205
 31
0.0
  0
LINE
  5
214
330
1DD
100
AcDbEntity
  8
0
  6
Continuous
 62
     7
370
    25
100
AcDbLine
 10
-177.5
 20
-52.5
 30
0.0
 11
-175.5
 21
-52.4999999986
 31
0.0
  0
LINE
  5
215
330
1DD
100
AcDbEntity
  8
0
  6
Continuous
 62
     7
370
    25
100
AcDbLine
 10
-162.5
 20
-67.5
 30
0.0
 11
-162.4999999984
 21
-65.5
 31
0.0
  0
LINE
  5
216
330
1DD
100
AcDbEntity
  8
0
  6
Continuous
 62
     7
370
    25
100
AcDbLine
 10
-162.4999999984
 20
-65.5
 30
0.0
 11
162.4999999984
 21
-65.5
 31
0.0
  0
LINE
  5
217
330
1DD
100
AcDbEntity
  8
0
  6
Continuous
 62
     7
370
    25
100
AcDbLine
 10
162.5
 20
-67.5
 30
0.0
 11
162.4999999984
 21
-65.5
 31
0.0
  0
LINE
  5
218
330
1DD
100
AcDbEntity
  8
0
  6
Continuous
 62
     7
370
    25
100
AcDbLine
 10
-177.5
 20
54.0423335205
 30
0.0
 11
-175.5
 21
54.0423335205
 31
0.0
  0
LINE
  5
219
330
1DD
100
AcDbEntity
  8
0
  6
Continuous
 62
     7
370
    25
100
AcDbLine
 10
-175.5
 20
54.0423335205
 30
0.0
 11
-175.5
 21
-52.4999999986
 31
0.0
  0
LINE
  5
21A
330
1DD
100
AcDbEntity
  8
0
  6
Continuous
 62
     7
370
    25
100
AcDbLine
 10
175.5
 20
54.0423335208
 30
0.0
 11
177.5
 21
54.0423335208
 31
0.0
  0
LINE
  5
21B
330
1DD
100
AcDbEntity
  8
0
  6
Continuous
 62
     7
370
    25
100
AcDbLine
 10
175.5
 20
-52.4999999984
 30
0.0
 11
175.5
 21
54.0423335208
 31
0.0
  0
LINE
  5
21C
330
1DD
100
AcDbEntity
  8
0
  6
Continuous
 62
     7
370
    25
100
AcDbLine
 10
175.5
 20
-52.4999999984
 30
0.0
 11
177.5
 21
-52.4999999997
 31
0.0
  0
ARC
  5
21D
330
1DD
100
AcDbEntity
  8
0
  6
Continuous
 62
     7
370
    25
100
AcDbCircle
 10
0.0
 20
12.5
 30
0.0
 40
21.0
100
AcDbArc
 50
158.1962520106
 51
21.8037479894
  0
VIEWPORT
  5
27C
330
1DD
100
AcDbEntity
  8
0
100
AcDbViewport
 10
0.0
 20
0.0
 30
0.0
 40
205.6
 41
156.0
 68
     1
 69
     1
 12
0.0421786975
 22
190.0
 13
0.0
 23
0.0
 14
10.0
 24
10.0
 15
10.0
 25
10.0
 16
0.0
 26
0.0
 36
1.0
 17
0.0
 27
0.0
 37
0.0
 42
50.0
 43
0.0
 44
0.0
 45
387.6
 50
0.0
 51
0.0
 72
   100
 90
   557152
  1

281
     0
 71
     1
 74
     0
110
0.0
120
0.0
130
0.0
111
1.0
121
0.0
131
0.0
112
0.0
122
1.0
132
0.0
 79
     0
146
0.0
  0
ENDBLK
  5
1E0
330
1DD
100
AcDbEntity
  8
0
100
AcDbBlockEnd
  0
BLOCK
  5
220
330
21E
100
AcDbEntity
  8
0
100
AcDbBlockBegin
  2
*Paper_Space4
 70
     0
 10
0.0
 20
0.0
 30
0.0
  3
*Paper_Space4
  1

  0
LWPOLYLINE
  5
223
330
21E
100
AcDbEntity
  8
0
  6
Continuous
 62
     7
370
    25
100
AcDbPolyline
 90
        3
 70
   128
 43
0.0
 10
-168.6124902348
 20
346.1982308064
 10
-168.6028809852
 20
340.4036836377
 10
-168.5932776395
 20
334.6091477275
  0
SPLINE
  5
224
330
21E
100
AcDbEntity
  8
0
  6
Continuous
 62
     7
370
    25
100
AcDbSpline
210
0.0
220
0.0
230
1.0
 70
     8
 71
     3
 72
    56
 73
    52
 74
     0
 42
0.000000001
 43
0.00000001
 40
0.0
 40
0.0
 40
0.0
 40
0.0
 40
0.003827536781549
 40
0.0081935788037181
 40
0.0125682637688449
 40
0.0169512895828324
 40
0.0212657986592211
 40
0.0273537479431157
 40
0.0363220704609109
 40
0.0506291801884902
 40
0.0891584571824123
 40
0.1277934336992448
 40
0.1644344150367785
 40
0.174651553825945
 40
0.1950432415527625
 40
0.2337136797673071
 40
0.2722996432504149
 40
0.3108192435780756
 40
0.3492894168024852
 40
0.3877270904873136
 40
0.4261491861409831
 40
0.4645726217083596
 40
0.5030101109590313
 40
0.5414771252863364
 40
0.5799905708535689
 40
0.6185673517633713
 40
0.6572243726770711
 40
0.6881196484276626
 40
0.6989405732722794
 40
0.7067566747668167
 40
0.7120082327789191
 40
0.7166730186201332
 40
0.7208981912622578
 40
0.7249931392354959
 40
0.7293194875023014
 40
0.733844903529323
 40
0.7384084064609343
 40
0.7424372998867654
 40
0.7466544522539391
 40
0.7510353302676991
 40
0.755970746510415
 40
0.7616962291950526
 40
0.9333644079503942
 40
0.9709135267202282
 40
0.9771558271999395
 40
0.9817235137885352
 40
0.9857577407883233
 40
0.9901935422477738
 40
0.9944410459694968
 40
0.9988576517839305
 40
1.0
 40
1.0
 40
1.0
 40
1.0
 10
-168.5337846135596
 20
334.6958062515702
 30
0.0
 10
-168.5183828377201
 20
334.2984192164161
 30
0.0
 10
-168.4854123736173
 20
333.4477358202939
 30
0.0
 10
-168.0500070826905
 20
332.1767570687843
 30
0.0
 10
-167.332079496443
 20
330.9209594054173
 30
0.0
 10
-166.3021131263654
 20
329.7744920900504
 30
0.0
 10
-164.9699005569705
 20
328.6165597537708
 30
0.0
 10
-163.0632827435031
 20
327.1873585773561
 30
0.0
 10
-160.2654963390853
 20
325.0363788174456
 30
0.0
 10
-154.3456598965796
 20
320.4539728367017
 30
0.0
 10
-145.4427494025539
 20
313.7680711240184
 30
0.0
 10
-134.1215358355193
 20
305.5434077789661
 30
0.0
 10
-125.4405414244164
 20
299.4513281139597
 30
0.0
 10
-118.5270173321116
 20
294.6993645437141
 30
0.0
 10
-111.3465937195199
 20
289.8328483703997
 30
0.0
 10
-101.0728397967843
 20
283.0493313478038
 30
0.0
 10
-88.65565797617286
 20
275.128202007928
 30
0.0
 10
-76.02774237169166
 20
267.3444475662891
 30
0.0
 10
-63.18740840833499
 20
259.696731894561
 30
0.0
 10
-50.13307345400372
 20
252.1837527233819
 30
0.0
 10
-36.86300298367745
 20
244.8043122357503
 30
0.0
 10
-23.37579805619404
 20
237.5575549194986
 30
0.0
 10
-9.6702637738241
 20
230.4427314221207
 30
0.0
 10
4.255351859592027
 20
223.4592895925823
 30
0.0
 10
18.40162365161973
 20
216.6059229434665
 30
0.0
 10
32.7760915350199
 20
209.8834123241928
 30
0.0
 10
46.37321032049982
 20
203.7318672037376
 30
0.0
 10
56.63565617984251
 20
199.2605607212865
 30
0.0
 10
62.94873714235938
 20
196.521768260898
 30
0.0
 10
65.96175009674506
 20
195.1580335349149
 30
0.0
 10
68.34450784953246
 20
194.2522756252403
 30
0.0
 10
70.36100551657617
 20
193.6428697037049
 30
0.0
 10
72.31842877411793
 20
193.2222908826086
 30
0.0
 10
74.3058483179301
 20
192.9830155401489
 30
0.0
 10
76.37743857342774
 20
192.9114138700472
 30
0.0
 10
78.52112077843748
 20
193.0146361380833
 30
0.0
 10
80.57091707850132
 20
193.292917146909
 30
0.0
 10
82.49067836537225
 20
193.7291988626016
 30
0.0
 10
84.24809967588764
 20
194.3311371904341
 30
0.0
 10
85.98255329830495
 20
195.104004541579
 30
0.0
 10
87.7389852064355
 20
196.0792185127754
 30
0.0
 10
108.1820800315037
 20
207.9865489984585
 30
0.0
 10
132.7021855807579
 20
221.9646384068556
 30
0.0
 10
156.9098406585852
 20
236.0541099378764
 30
0.0
 10
162.4303658803517
 20
239.1899658633911
 30
0.0
 10
164.0058660973787
 20
240.2544297939878
 30
0.0
 10
165.1970234214513
 20
241.3241264722975
 30
0.0
 10
166.0824153090923
 20
242.4799318863105
 30
0.0
 10
166.6973115578251
 20
243.7576445112539
 30
0.0
 10
167.0014585911963
 20
244.7630245307913
 30
0.0
 10
166.9894974656618
 20
245.3424997800571
 30
0.0
 10
166.9870394905928
 20
245.4615801886416
 30
0.0
  0
SPLINE
  5
225
330
21E
100
AcDbEntity
  8
0
  6
Continuous
 62
     7
370
    25
100
AcDbSpline
210
0.0
220
0.0
230
1.0
 70
     8
 71
     3
 72
    16
 73
    12
 74
     0
 42
0.000000001
 43
0.00000001
 40
0.0
 40
0.0
 40
0.0
 40
0.0
 40
0.0913046129358093
 40
0.2338833597381008
 40
0.3763713359741139
 40
0.5148248758270743
 40
0.6515751926085321
 40
0.7919053745206939
 40
0.9325114172987855
 40
0.9946824649710183
 40
1.0
 40
1.0
 40
1.0
 40
1.0
 10
166.9915638755407
 20
257.2165454503834
 30
0.0
 10
166.9937542425697
 20
257.616979214476
 30
0.0
 10
166.999365025895
 20
258.6427192191393
 30
0.0
 10
166.6657465377374
 20
260.2677036887886
 30
0.0
 10
166.0524984166768
 20
262.0204103995671
 30
0.0
 10
165.1773767428163
 20
263.6303238723655
 30
0.0
 10
164.0943157148995
 20
265.0812768050423
 30
0.0
 10
162.7922679885583
 20
266.3800018491675
 30
0.0
 10
161.6426946696651
 20
267.259124931227
 30
0.0
 10
160.8140767993517
 20
267.774269332858
 30
0.0
 10
160.5936597133315
 20
267.9013310870541
 30
0.0
 10
160.5762926931781
 20
267.911342489009
 30
0.0
  0
SPLINE
  5
226
330
21E
100
AcDbEntity
  8
0
  6
Continuous
 62
     7
370
    25
100
AcDbSpline
210
0.0
220
0.0
230
1.0
 70
     8
 71
     3
 72
    18
 73
    14
 74
     0
 42
0.000000001
 43
0.00000001
 40
0.0
 40
0.0
 40
0.0
 40
0.0
 40
0.0012976675339251
 40
0.0027641883041936
 40
0.5039911146466157
 40
0.7546045778078742
 40
0.8799113094144428
 40
0.9425646752242121
 40
0.9738913581307178
 40
0.9895546995843763
 40
0.9973863703113066
 40
0.9996511043798345
 40
1.0
 40
1.0
 40
1.0
 40
1.0
 10
160.5910195805614
 20
267.9019080521278
 30
0.0
 10
160.4815038355142
 20
267.9655949026509
 30
0.0
 10
160.2482220944904
 20
268.1012555728491
 30
0.0
 10
122.4852548526801
 20
289.8624897367732
 30
0.0
 10
63.73793421340152
 20
323.8236763763094
 30
0.0
 10
-3.228095962105173
 20
362.473621973753
 30
0.0
 10
-36.86382482401264
 20
381.8904911249336
 30
0.0
 10
-53.63250380230446
 20
391.5728692608962
 30
0.0
 10
-62.07153229000312
 20
396.4416559281815
 30
0.0
 10
-66.2151612314929
 20
398.8379099120598
 30
0.0
 10
-68.26272643027183
 20
400.0143884487121
 30
0.0
 10
-68.99408388238476
 20
400.4417410395291
 30
0.0
 10
-69.23028335535386
 20
400.5754033546931
 30
0.0
 10
-69.26181382118871
 20
400.5932460492965
 30
0.0
  0
SPLINE
  5
227
330
21E
100
AcDbEntity
  8
0
  6
Continuous
 62
     7
370
    25
100
AcDbSpline
210
0.0
220
0.0
230
1.0
 70
     8
 71
     3
 72
    28
 73
    24
 74
     0
 42
0.000000001
 43
0.00000001
 40
0.0
 40
0.0
 40
0.0
 40
0.0
 40
0.0101034077580521
 40
0.0644438649876017
 40
0.1184338342708565
 40
0.171436610745477
 40
0.223594770748031
 40
0.2752714378454853
 40
0.3267493384497859
 40
0.3781848851639072
 40
0.4296395017268564
 40
0.4811521078657162
 40
0.532729446806577
 40
0.5843625918966334
 40
0.6360355872341377
 40
0.6877295752107365
 40
0.7394245579383282
 40
0.7910934749822434
 40
0.8427154779523756
 40
0.8942704659134151
 40
0.9457407371380696
 40
0.9944241810716741
 40
1.0
 40
1.0
 40
1.0
 40
1.0
 10
12.13574413803942
 20
304.2076486510806
 30
0.0
 10
12.1408913112762
 20
304.1200983852705
 30
0.0
 10
12.17372218825179
 20
303.5616652660095
 30
0.0
 10
11.9313873796226
 20
302.5353801888655
 30
0.0
 10
11.38772871859535
 20
301.1446063415818
 30
0.0
 10
10.51164994396447
 20
299.7973500803686
 30
0.0
 10
9.356696104286009
 20
298.5185113130884
 30
0.0
 10
7.932381408338387
 20
297.3257028518027
 30
0.0
 10
6.260033461975558
 20
296.2350082053478
 30
0.0
 10
4.361398298530663
 20
295.2628059189329
 30
0.0
 10
2.263283810877479
 20
294.4248444111188
 30
0.0
 10
-0.0037900836872464
 20
293.7352417671385
 30
0.0
 10
-2.406199227482577
 20
293.205807891475
 30
0.0
 10
-4.907647858332063
 20
292.8457510119828
 30
0.0
 10
-7.469959811198976
 20
292.6613927579281
 30
0.0
 10
-10.05383319858444
 20
292.6560252022514
 30
0.0
 10
-12.61940740462549
 20
292.8298429251224
 30
0.0
 10
-15.12707381946065
 20
293.179877700391
 30
0.0
 10
-17.53798157202345
 20
293.7000578759179
 30
0.0
 10
-19.81539115130938
 20
294.3810686296874
 30
0.0
 10
-21.88629124505011
 20
295.1967062953256
 30
0.0
 10
-23.20074542837269
 20
295.8544308507088
 30
0.0
 10
-23.83050853662634
 20
296.2149307570245
 30
0.0
 10
-23.89522458461795
 20
296.2519766381381
 30
0.0
  0
SPLINE
  5
228
330
21E
100
AcDbEntity
  8
0
  6
Continuous
 62
     7
370
    25
100
AcDbSpline
210
0.0
220
0.0
230
1.0
 70
     8
 71
     3
 72
    15
 73
    11
 74
     0
 42
0.000000001
 43
0.00000001
 40
0.0
 40
0.0
 40
0.0
 40
0.0
 40
0.0762108978784147
 40
0.2215631923605877
 40
0.3668819378098835
 40
0.5124475692690997
 40
0.6589133163123699
 40
0.8072635214770655
 40
0.9584486241048104
 40
1.0
 40
1.0
 40
1.0
 40
1.0
 10
-23.89522458461795
 20
296.2519766381381
 30
0.0
 10
-24.19943290719812
 20
296.434395424972
 30
0.0
 10
-25.08383879887325
 20
296.9647301918179
 30
0.0
 10
-26.36788900680691
 20
297.9252487878252
 30
0.0
 10
-27.64280370077747
 20
299.1448945868464
 30
0.0
 10
-28.63561279995846
 20
300.4287864545165
 30
0.0
 10
-29.34974683215028
 20
301.7564636830288
 30
0.0
 10
-29.75057805634879
 20
303.1159719577569
 30
0.0
 10
-29.89673616432405
 20
304.1584504243013
 30
0.0
 10
-29.80681118600055
 20
304.7469072720142
 30
0.0
 10
-29.78742457789542
 20
304.8737706030494
 30
0.0
  0
SPLINE
  5
229
330
21E
100
AcDbEntity
  8
0
  6
Continuous
 62
     7
370
    25
100
AcDbSpline
210
0.0
220
0.0
230
1.0
 70
     8
 71
     3
 72
    16
 73
    12
 74
     0
 42
0.000000001
 43
0.00000001
 40
0.0
 40
0.0
 40
0.0
 40
0.0
 40
0.0280277045522979
 40
0.0818134315956413
 40
0.2311486255054579
 40
0.3747590084709053
 40
0.5170850416818156
 40
0.6576283636764942
 40
0.7965360322373737
 40
0.9353486581118772
 40
1.0
 40
1.0
 40
1.0
 40
1.0
 10
-162.2065044164844
 20
356.7736792954614
 30
0.0
 10
-162.308271673204
 20
356.7138848267791
 30
0.0
 10
-162.6053323361909
 20
356.539343573705
 30
0.0
 10
-163.4537582044418
 20
355.9839373026375
 30
0.0
 10
-164.6291849431867
 20
355.0529652263941
 30
0.0
 10
-165.9328408272247
 20
353.6735318266955
 30
0.0
 10
-166.9955774367135
 20
352.1465748766884
 30
0.0
 10
-167.8128003664625
 20
350.4936170631403
 30
0.0
 10
-168.3483577755354
 20
348.7471097259766
 30
0.0
 10
-168.6124759117822
 20
347.261004345325
 30
0.0
 10
-168.5829250407881
 20
346.3722696857475
 30
0.0
 10
-168.5735351547815
 20
346.0898713379908
 30
0.0
  0
SPLINE
  5
22A
330
21E
100
AcDbEntity
  8
0
  6
Continuous
 62
     7
370
    25
100
AcDbSpline
210
0.0
220
0.0
230
1.0
 70
     8
 71
     3
 72
    18
 73
    14
 74
     0
 42
0.000000001
 43
0.00000001
 40
0.0
 40
0.0
 40
0.0
 40
0.0
 40
0.0041247021737429
 40
0.008274008987453
 40
0.0124233158011629
 40
0.0165726226148727
 40
0.5239965694567739
 40
0.7776965400321552
 40
0.9046922730975038
 40
0.9682266779619229
 40
0.9841141157906373
 40
0.9960307064538982
 40
1.0
 40
1.0
 40
1.0
 40
1.0
 10
-86.30645668341045
 20
400.5913649640162
 30
0.0
 10
-86.41514278544732
 20
400.5286766567282
 30
0.0
 10
-86.63316332297583
 20
400.4029260943698
 30
0.0
 10
-86.94378275390976
 20
400.2235650074904
 30
0.0
 10
-87.25950254587852
 20
400.041315289841
 30
0.0
 10
-100.2934151880708
 20
392.5169413005456
 30
0.0
 10
-119.6470566264732
 20
381.3266743032992
 30
0.0
 10
-142.1215166099947
 20
368.3947732228901
 30
0.0
 10
-153.3805985486443
 20
361.8959671258187
 30
0.0
 10
-158.5713955686775
 20
358.8880434678686
 30
0.0
 10
-160.8981023429815
 20
357.5356329257587
 30
0.0
 10
-161.6709713999271
 20
357.0873711150974
 30
0.0
 10
-162.1040900810651
 20
356.8342483321886
 30
0.0
 10
-162.2123103830061
 20
356.7710023324488
 30
0.0
  0
SPLINE
  5
22B
330
21E
100
AcDbEntity
  8
0
  6
Continuous
 62
     7
370
    25
100
AcDbSpline
210
0.0
220
0.0
230
1.0
 70
     8
 71
     3
 72
    19
 73
    15
 74
     0
 42
0.000000001
 43
0.00000001
 40
0.0
 40
0.0
 40
0.0
 40
0.0
 40
0.0173744761263911
 40
0.0426179774660934
 40
0.158642429893984
 40
0.2773416675993116
 40
0.3953442750245013
 40
0.5183371136808852
 40
0.6409603488851844
 40
0.7687269797592041
 40
0.8991805987166974
 40
0.9654423544933428
 40
0.9982298867837165
 40
1.0
 40
1.0
 40
1.0
 40
1.0
 10
-69.25579241703699
 20
400.5901108672227
 30
0.0
 10
-69.3423479400592
 20
400.639571095577
 30
0.0
 10
-69.55466060507955
 20
400.7608924454778
 30
0.0
 10
-70.38164222377634
 20
401.1975224034684
 30
0.0
 10
-71.78376921090572
 20
401.8008538199991
 30
0.0
 10
-73.79981843572398
 20
402.379860313866
 30
0.0
 10
-75.92569985430958
 20
402.7198360025986
 30
0.0
 10
-78.11184794707471
 20
402.8111192269856
 30
0.0
 10
-80.35172691371616
 20
402.6378144399913
 30
0.0
 10
-82.57486307650048
 20
402.1887320337772
 30
0.0
 10
-84.41122466833117
 20
401.5462474802688
 30
0.0
 10
-85.59013834680779
 20
400.9893716297882
 30
0.0
 10
-86.15454235590491
 20
400.6792292227925
 30
0.0
 10
-86.3032276099519
 20
400.5933212902831
 30
0.0
 10
-86.31084357248048
 20
400.5889209104399
 30
0.0
  0
SPLINE
  5
22C
330
21E
100
AcDbEntity
  8
0
  6
Continuous
 62
     7
370
    25
100
AcDbSpline
210
0.0
220
0.0
230
1.0
 70
     8
 71
     3
 72
     9
 73
     5
 74
     0
 42
0.000000001
 43
0.00000001
 40
0.0
 40
0.0
 40
0.0
 40
0.0
 40
0.3497009080756978
 40
1.0
 40
1.0
 40
1.0
 40
1.0
 10
166.9475328595824
 20
243.9397227623137
 30
0.0
 10
166.9597428869935
 20
244.0345180981317
 30
0.0
 10
166.9946585166906
 20
244.3055935618464
 30
0.0
 10
166.937115992402
 20
244.5741023093377
 30
0.0
 10
166.89969614111
 20
244.748713304005
 30
0.0
  0
SPLINE
  5
22D
330
21E
100
AcDbEntity
  8
0
  6
Continuous
 62
     7
370
    25
100
AcDbSpline
210
0.0
220
0.0
230
1.0
 70
     8
 71
     3
 72
     9
 73
     5
 74
     0
 42
0.000000001
 43
0.00000001
 40
0.0
 40
0.0
 40
0.0
 40
0.0
 40
0.0171196612681689
 40
0.9999999999999999
 40
0.9999999999999999
 40
0.9999999999999999
 40
0.9999999999999999
 10
-168.4767686317985
 20
334.0252196058407
 30
0.0
 10
-168.4782093034116
 20
334.0201010448152
 30
0.0
 10
-168.562362347714
 20
333.7211137608251
 30
0.0
 10
-168.5400405226524
 20
333.4130097125541
 30
0.0
 10
-168.5181008396747
 20
333.110180301225
 30
0.0
  0
LWPOLYLINE
  5
22E
330
21E
100
AcDbEntity
  8
0
  6
Continuous
 62
     7
370
    25
100
AcDbPolyline
 90
        3
 70
   128
 43
0.0
 10
167.0284317722
 20
-43.2813772719
 10
167.0284110037
 20
100.4761372663
 10
167.0283939772
 20
244.1419443325
  0
SPLINE
  5
22F
330
21E
100
AcDbEntity
  8
0
  6
Continuous
 62
     7
370
    25
100
AcDbSpline
210
0.0
220
0.0
230
1.0
 70
     8
 71
     3
 72
     9
 73
     5
 74
     0
 42
0.000000001
 43
0.00000001
 40
0.0
 40
0.0
 40
0.0
 40
0.0
 40
0.4699206016371518
 40
1.0
 40
1.0
 40
1.0
 40
1.0
 10
-168.5906772006667
 20
333.055833569652
 30
0.0
 10
-168.5145296627323
 20
287.9834683735427
 30
0.0
 10
-168.352486250145
 20
192.0686158663699
 30
0.0
 10
-168.2015234775597
 20
96.53052193508093
 30
0.0
 10
-168.1215012218925
 20
45.88774658325001
 30
0.0
  0
SPLINE
  5
230
330
21E
100
AcDbEntity
  8
0
  6
Continuous
 62
     7
370
    25
100
AcDbSpline
210
0.0
220
0.0
230
1.0
 70
     8
 71
     3
 72
    26
 73
    22
 74
     0
 42
0.000000001
 43
0.00000001
 40
0.0
 40
0.0
 40
0.0
 40
0.0
 40
0.0039504925252615
 40
0.0138038723595573
 40
0.0351274574246781
 40
0.1030093799377244
 40
0.1708824631283057
 40
0.2387663916231589
 40
0.306682345006164
 40
0.3745917656491036
 40
0.4425060564493258
 40
0.5104395121762615
 40
0.5783894389097713
 40
0.6463077081155457
 40
0.7142558838045845
 40
0.7821914854174646
 40
0.8500812659169472
 40
0.9179840737451631
 40
0.9859100435451377
 40
0.9954300084477173
 40
1.0
 40
1.0
 40
1.0
 40
1.0
 10
-164.3740057667619
 20
39.58347253922745
 30
0.0
 10
-164.1038167065295
 20
39.3766641063302
 30
0.0
 10
-163.1597178944073
 20
38.65403086697117
 30
0.0
 10
-160.7175551044079
 20
36.96962111003338
 30
0.0
 10
-153.8507691684813
 20
32.08197389645701
 30
0.0
 10
-142.8098564073168
 20
24.48126666367659
 30
0.0
 10
-128.2707008375536
 20
14.69774441317864
 30
0.0
 10
-113.4872487890953
 20
5.045537542656326
 30
0.0
 10
-98.46737163239506
 20
-4.489835993743002
 30
0.0
 10
-83.21279564975329
 20
-13.90164232468505
 30
0.0
 10
-67.72782925761801
 20
-23.1885320158729
 30
0.0
 10
-52.01389268911508
 20
-32.3494739725893
 30
0.0
 10
-36.07649936359715
 20
-41.38084712080909
 30
0.0
 10
-19.9185100052648
 20
-50.28151276933735
 30
0.0
 10
-3.54465160569712
 20
-59.04819489438257
 30
0.0
 10
13.03711483690423
 20
-67.67984745399295
 30
0.0
 10
29.83584413512119
 20
-76.16884773622151
 30
0.0
 10
46.80011911449089
 20
-84.53409594903056
 30
0.0
 10
59.15487977658283
 20
-90.36304923330695
 30
0.0
 10
66.04447436764211
 20
-93.66720598766098
 30
0.0
 10
67.28994456268519
 20
-94.21300247072445
 30
0.0
 10
67.69390523411812
 20
-94.39002823548509
 30
0.0
  0
SPLINE
  5
231
330
21E
100
AcDbEntity
  8
0
  6
Continuous
 62
     7
370
    25
100
AcDbSpline
210
0.0
220
0.0
230
1.0
 70
     8
 71
     3
 72
    18
 73
    14
 74
     0
 42
0.000000001
 43
0.00000001
 40
0.0
 40
0.0
 40
0.0
 40
0.0
 40
0.0777464324722247
 40
0.1669921240663277
 40
0.2717624159639959
 40
0.3757586251919562
 40
0.479532314808087
 40
0.5839313446402191
 40
0.6877784672083075
 40
0.7928979036922988
 40
0.8975034470679537
 40
0.9744506731207844
 40
1.0
 40
1.0
 40
1.0
 40
1.0
 10
67.66592251257545
 20
-94.39883297472967
 30
0.0
 10
68.1048133254562
 20
-94.59449956710458
 30
0.0
 10
69.04751007366188
 20
-95.01477325466173
 30
0.0
 10
70.74586782187289
 20
-95.54034829033215
 30
0.0
 10
72.70139914949935
 20
-95.9711382050496
 30
0.0
 10
74.84277179709441
 20
-96.22789138455917
 30
0.0
 10
77.01798581647816
 20
-96.29678161670213
 30
0.0
 10
79.18650953747613
 20
-96.17081746837198
 30
0.0
 10
81.30943930315937
 20
-95.85331915555778
 30
0.0
 10
83.34318599024371
 20
-95.34943037253846
 30
0.0
 10
85.0572418337309
 20
-94.72321517754595
 30
0.0
 10
86.23193391530305
 20
-94.17196195960709
 30
0.0
 10
86.73836779049208
 20
-93.87712898009754
 30
0.0
 10
86.86460661755282
 20
-93.80363593128
 30
0.0
  0
SPLINE
  5
232
330
21E
100
AcDbEntity
  8
0
  6
Continuous
 62
     7
370
    25
100
AcDbSpline
210
0.0
220
0.0
230
1.0
 70
     8
 71
     3
 72
    14
 73
    10
 74
     0
 42
0.000000001
 43
0.00000001
 40
0.0
 40
0.0
 40
0.0
 40
0.0
 40
0.0061646115709175
 40
0.0246097803764766
 40
0.5330622647206249
 40
0.7872885068909777
 40
0.9144016279783284
 40
0.9779581885277454
 40
1.0
 40
1.0
 40
1.0
 40
1.0
 10
86.85185731072747
 20
-93.79705067131138
 30
0.0
 10
87.01805674439964
 20
-93.7087341126907
 30
0.0
 10
87.68154243434373
 20
-93.35616508441419
 30
0.0
 10
100.7308642852996
 20
-85.59709006454746
 30
0.0
 10
120.7319971288327
 20
-74.30166944793714
 30
0.0
 10
142.9920266327149
 20
-61.41012481097491
 30
0.0
 10
154.1825492223186
 20
-54.94015224093396
 30
0.0
 10
159.5087051899859
 20
-51.88442812393932
 30
0.0
 10
161.6730403154703
 20
-50.61601788868375
 30
0.0
 10
162.2303624428891
 20
-50.28939883490197
 30
0.0
  0
SPLINE
  5
233
330
21E
100
AcDbEntity
  8
0
  6
Continuous
 62
     7
370
    25
100
AcDbSpline
210
0.0
220
0.0
230
1.0
 70
     8
 71
     3
 72
    13
 73
     9
 74
     0
 42
0.000000001
 43
0.00000001
 40
0.0
 40
0.0
 40
0.0
 40
0.0
 40
0.1614918111715361
 40
0.3547092874425454
 40
0.5617231725414447
 40
0.7442837009589476
 40
0.9397115545440056
 40
1.0
 40
1.0
 40
1.0
 40
1.0
 10
162.2184420429601
 20
-50.29231619006872
 30
0.0
 10
162.6318325094727
 20
-50.04329041083383
 30
0.0
 10
163.539825532453
 20
-49.4963168146717
 30
0.0
 10
164.7500727148892
 20
-48.44517825943928
 30
0.0
 10
165.7792175563007
 20
-47.2331616471317
 30
0.0
 10
166.5165506695334
 20
-45.88483916249758
 30
0.0
 10
166.9082894809136
 20
-44.80147722190411
 30
0.0
 10
166.9413754290642
 20
-44.14932376703612
 30
0.0
 10
166.9491758719296
 20
-43.99557010275979
 30
0.0
  0
SPLINE
  5
235
330
21E
100
AcDbEntity
  8
0
  6
Continuous
 62
     7
370
    25
100
AcDbSpline
210
0.0
220
0.0
230
1.0
 70
     8
 71
     3
 72
    13
 73
     9
 74
     0
 42
0.000000001
 43
0.00000001
 40
0.0
 40
0.0
 40
0.0
 40
0.0
 40
0.1197892178162165
 40
0.3215416519396454
 40
0.5282102358631837
 40
0.737609755377467
 40
0.9568378936048998
 40
1.0
 40
1.0
 40
1.0
 40
1.0
 10
-168.0715947380544
 20
45.52735777754047
 30
0.0
 10
-168.0589312690065
 20
45.24972798188587
 30
0.0
 10
-168.0249396224192
 20
44.50450612678203
 30
0.0
 10
-167.6290863187061
 20
43.32933016673313
 30
0.0
 10
-166.9294319905043
 20
42.02777972606214
 30
0.0
 10
-165.9423763154032
 20
40.83252236889023
 30
0.0
 10
-165.0170077379552
 20
40.00443347868593
 30
0.0
 10
-164.4778678077126
 20
39.62353572717378
 30
0.0
 10
-164.389181526466
 20
39.56087962766799
 30
0.0
  0
SPLINE
  5
236
330
21E
100
AcDbEntity
  8
0
  6
Continuous
 62
     7
370
    25
100
AcDbSpline
210
0.0
220
0.0
230
1.0
 70
     8
 71
     3
 72
    38
 73
    34
 74
     0
 42
0.000000001
 43
0.00000001
 40
0.0
 40
0.0
 40
0.0
 40
0.0
 40
0.0078125000000001
 40
0.0078125000000001
 40
0.0156250000000002
 40
0.0312500000000004
 40
0.0625000000000005
 40
0.0625000000000005
 40
0.1250000000000005
 40
0.1250000000000005
 40
0.2500000000000003
 40
0.2500000000000003
 40
0.3125000000000003
 40
0.3125000000000003
 40
0.3750000000000003
 40
0.3750000000000003
 40
0.5000000000000002
 40
0.5000000000000002
 40
0.7500000000000001
 40
0.7500000000000001
 40
0.8125000000000001
 40
0.8125000000000001
 40
0.875
 40
0.875
 40
0.9375
 40
0.9375
 40
0.96875
 40
0.96875
 40
0.984375
 40
0.984375
 40
0.9921875
 40
0.9921875
 40
1.0
 40
1.0
 40
1.0
 40
1.0
 10
67.36653242506159
 20
206.4264970687009
 30
0.0
 10
66.66884936957698
 20
206.7197064026479
 30
0.0
 10
65.97271392980416
 20
207.0123690797568
 30
0.0
 10
64.58089561568613
 20
207.5996598733031
 30
0.0
 10
62.49516482467458
 20
208.4820240507244
 30
0.0
 10
57.64242888716614
 20
210.5508642357877
 30
0.0
 10
53.50686362185264
 20
212.3412643912506
 30
0.0
 10
45.26757726852894
 20
215.9448377233424
 30
0.0
 10
39.81717391649677
 20
218.3775805710947
 30
0.0
 10
23.59307551854218
 20
225.7667077835683
 30
0.0
 10
12.94641787715498
 20
230.813936905068
 30
0.0
 10
-2.769117033967955
 20
238.5667396446772
 30
0.0
 10
-7.965201744582089
 20
241.1813469866097
 30
0.0
 10
-18.27245203523734
 20
246.4712846334384
 30
0.0
 10
-23.38517260914644
 20
249.1474483450108
 30
0.0
 10
-38.58486126007437
 20
257.2614831290084
 30
0.0
 10
-48.52201053201289
 20
262.7786021489401
 30
0.0
 10
-77.74844117708727
 20
279.6516572840149
 30
0.0
 10
-96.45407690015753
 20
291.3285237038821
 30
0.0
 10
-118.8613479344875
 20
306.460640770629
 30
0.0
 10
-123.2939554080743
 20
309.513926428952
 30
0.0
 10
-132.0612572879811
 20
315.6743422301308
 30
0.0
 10
-136.3971717891035
 20
318.782383696561
 30
0.0
 10
-144.9618983454615
 20
325.0460185095121
 30
0.0
 10
-149.1912774747166
 20
328.2019712020177
 30
0.0
 10
-155.4558455188224
 20
332.97211615747
 30
0.0
 10
-157.5307832956687
 20
334.5682011410925
 30
0.0
 10
-160.6232963457794
 20
336.971391366383
 30
0.0
 10
-161.6507757324147
 20
337.7739322319181
 30
0.0
 10
-163.1869208816803
 20
338.9799328611921
 30
0.0
 10
-163.6981254885929
 20
339.3822994260949
 30
0.0
 10
-164.7188468820888
 20
340.1877653914859
 30
0.0
 10
-165.2289187559044
 20
340.5914428793959
 30
0.0
 10
-165.7370324395608
 20
340.9943207094715
 30
0.0
  0
SPLINE
  5
237
330
21E
100
AcDbEntity
  8
0
  6
Continuous
 62
     7
370
    25
100
AcDbSpline
210
0.0
220
0.0
230
1.0
 70
     8
 71
     3
 72
    30
 73
    26
 74
     0
 42
0.000000001
 43
0.00000001
 40
0.0
 40
0.0
 40
0.0
 40
0.0
 40
0.062500000000001
 40
0.062500000000001
 40
0.125000000000002
 40
0.125000000000002
 40
0.2500000000000031
 40
0.2500000000000031
 40
0.3125000000000038
 40
0.3125000000000038
 40
0.3750000000000046
 40
0.3750000000000046
 40
0.500000000000005
 40
0.500000000000005
 40
0.5625000000000052
 40
0.5625000000000052
 40
0.6250000000000054
 40
0.6250000000000054
 40
0.7500000000000028
 40
0.7500000000000028
 40
0.812500000000002
 40
0.812500000000002
 40
0.8750000000000011
 40
0.8750000000000011
 40
1.0
 40
1.0
 40
1.0
 40
1.0
 10
86.76328828967547
 20
207.2950709307679
 30
0.0
 10
86.44745423381242
 20
207.1136734314352
 30
0.0
 10
86.1170569935035
 20
206.9401839277952
 30
0.0
 10
85.4350268690131
 20
206.6126337304625
 30
0.0
 10
85.08366377125026
 20
206.4585890790803
 30
0.0
 10
83.9993828625808
 20
206.0248448456628
 30
0.0
 10
83.23655618451969
 20
205.7732714315978
 30
0.0
 10
82.03070377401568
 20
205.4537924732706
 30
0.0
 10
81.61661910539866
 20
205.356730933035
 30
0.0
 10
80.78276497594868
 20
205.1857230398276
 30
0.0
 10
80.36167330706563
 20
205.1113234491451
 30
0.0
 10
79.08620461974716
 20
204.9206401119685
 30
0.0
 10
78.21974800030435
 20
204.8365707995588
 30
0.0
 10
76.89499312532536
 20
204.7772700547229
 30
0.0
 10
76.44894753735608
 20
204.7688569365622
 30
0.0
 10
75.56617299917245
 20
204.774730568318
 30
0.0
 10
75.12720039032862
 20
204.7888769110335
 30
0.0
 10
73.81738702694842
 20
204.8643046865161
 30
0.0
 10
72.95358501490101
 20
204.9582739747561
 30
0.0
 10
71.67262134362498
 20
205.1676396245044
 30
0.0
 10
71.25063643603637
 20
205.2485887459801
 30
0.0
 10
70.42738605366678
 20
205.4300966853842
 30
0.0
 10
70.02441440562421
 20
205.5309266041849
 30
0.0
 10
68.84106037589544
 20
205.8631888012802
 30
0.0
 10
68.0860081077686
 20
206.1241291323448
 30
0.0
 10
67.36653242506164
 20
206.4264970687009
 30
0.0
  0
LWPOLYLINE
  5
238
330
21E
100
AcDbEntity
  8
0
  6
Continuous
 62
     7
370
    25
100
AcDbPolyline
 90
        4
 70
   128
 43
0.0
 10
162.6345596806
 20
251.0945934132
 10
148.4924240569
 20
242.930512295
 10
117.6278947907
 20
225.1127988104
 10
86.7632882897
 20
207.2950709308
  0
SPLINE
  5
239
330
21E
100
AcDbEntity
  8
0
  6
Continuous
 62
     7
370
    25
100
AcDbSpline
210
0.0
220
0.0
230
1.0
 70
     8
 71
     3
 72
    27
 73
    23
 74
     0
 42
0.000000001
 43
0.00000001
 40
0.0
 40
0.0
 40
0.0
 40
0.0
 40
0.0054202247520229
 40
0.0231682864361397
 40
0.0414296847802233
 40
0.0591782914547694
 40
0.0774407581253017
 40
0.0951865912173188
 40
0.1134461923650849
 40
0.1311896623114971
 40
0.1494468385473633
 40
0.281664329972298
 40
0.612810631394712
 40
0.7783837821059191
 40
0.8611703574615225
 40
0.9025636451393243
 40
0.9232627880225351
 40
0.9442835929755284
 40
0.9620207314123861
 40
0.9802755258344449
 40
0.9980111062299983
 40
0.9999999999999999
 40
0.9999999999999999
 40
0.9999999999999999
 40
0.9999999999999999
 10
67.35096105519628
 20
195.0347255856392
 30
0.0
 10
67.5579364727826
 20
194.9500627268253
 30
0.0
 10
68.44263516688943
 20
194.5881785885761
 30
0.0
 10
70.15940952885532
 20
194.05456285137
 30
0.0
 10
72.54881139851942
 20
193.580166906765
 30
0.0
 10
75.06787197585
 20
193.3449075267073
 30
0.0
 10
77.59546198957798
 20
193.3557603962501
 30
0.0
 10
80.10788058884167
 20
193.6142842340337
 30
0.0
 10
82.48308221030543
 20
194.1098631001765
 30
0.0
 10
84.71814728141571
 20
194.8258677420506
 30
0.0
 10
90.69051256103774
 20
197.8070125424641
 30
0.0
 10
106.0287416075839
 20
207.3492938877746
 30
0.0
 10
127.220814989538
 20
219.1465807262837
 30
0.0
 10
146.3168663426523
 20
230.2602860290483
 30
0.0
 10
155.9365569386203
 20
235.7795108236598
 30
0.0
 10
160.6927923895229
 20
238.5651606764239
 30
0.0
 10
163.5034497555903
 20
240.1238799383345
 30
0.0
 10
165.1057935718022
 20
241.4510938948047
 30
0.0
 10
166.2284359284911
 20
242.8582644371939
 30
0.0
 10
166.8390459583271
 20
244.2674759340631
 30
0.0
 10
167.0934020562108
 20
245.296583444327
 30
0.0
 10
167.0141341847578
 20
245.8276916757951
 30
0.0
 10
167.006141303712
 20
245.8812453393249
 30
0.0
  0
SPLINE
  5
23A
330
21E
100
AcDbEntity
  8
0
  6
Continuous
 62
     7
370
    25
100
AcDbSpline
210
0.0
220
0.0
230
1.0
 70
     8
 71
     3
 72
    35
 73
    31
 74
     0
 42
0.000000001
 43
0.00000001
 40
0.0
 40
0.0
 40
0.0
 40
0.0
 40
0.0156250000000002
 40
0.0156250000000002
 40
0.0312500000000004
 40
0.0312500000000004
 40
0.0625000000000005
 40
0.0625000000000005
 40
0.1250000000000004
 40
0.1250000000000004
 40
0.1875000000000003
 40
0.1875000000000003
 40
0.2500000000000003
 40
0.2500000000000003
 40
0.5
 40
0.5
 40
0.6249999999999999
 40
0.6249999999999999
 40
0.6874999999999998
 40
0.6874999999999998
 40
0.7499999999999999
 40
0.7499999999999999
 40
0.8749999999999999
 40
0.8749999999999999
 40
0.9374999999999999
 40
0.9374999999999999
 40
0.9687500000000001
 40
0.984375
 40
0.984375
 40
1.0
 40
1.0
 40
1.0
 40
1.0
 10
-157.6537016292389
 20
352.5740014389141
 30
0.0
 10
-156.6470497470437
 20
351.7760958937339
 30
0.0
 10
-155.6348225603096
 20
350.9805616206991
 30
0.0
 10
-153.6059133598402
 20
349.3913877885606
 30
0.0
 10
-152.5881085897041
 20
348.5982166360701
 30
0.0
 10
-149.5247171868141
 20
346.2230047309581
 30
0.0
 10
-147.4693213135854
 20
344.6453949821034
 30
0.0
 10
-141.263759911365
 20
339.9301464434435
 30
0.0
 10
-137.0742263840789
 20
336.8100857788341
 30
0.0
 10
-128.5902004327743
 20
330.6168294340455
 30
0.0
 10
-124.2951479737184
 20
327.5432792840863
 30
0.0
 10
-115.6104750706749
 20
321.4503625609983
 30
0.0
 10
-111.2196456973871
 20
318.4300948192347
 30
0.0
 10
-89.02356580068832
 20
303.459422108195
 30
0.0
 10
-70.4942262779529
 20
291.9000915262253
 30
0.0
 10
-41.5431552007061
 20
275.1860150102164
 30
0.0
 10
-31.69961544816184
 20
269.7189925398524
 30
0.0
 10
-16.64309772644244
 20
261.6757378795851
 30
0.0
 10
-11.57853138802652
 20
259.0224244406784
 30
0.0
 10
-1.3683592973062
 20
253.7766571724789
 30
0.0
 10
3.778787557071922
 20
251.1833768291557
 30
0.0
 10
19.34631073212867
 20
243.4922754195062
 30
0.0
 10
29.89269724895569
 20
238.4831430057401
 30
0.0
 10
45.96397114059847
 20
231.1465920503066
 30
0.0
 10
51.36302981259396
 20
228.7306125949382
 30
0.0
 10
59.52468959654508
 20
225.1510346674765
 30
0.0
 10
63.62128916936971
 20
223.3723447400824
 30
0.0
 10
67.74158170499916
 20
221.6103304231585
 30
0.0
 10
70.4937138716582
 20
220.4393636850006
 30
0.0
 10
71.87153528110294
 20
219.8551157517253
 30
0.0
 10
73.25375551166971
 20
219.2739638021887
 30
0.0
  0
SPLINE
  5
23D
330
21E
100
AcDbEntity
  8
0
  6
Continuous
 62
     7
370
    25
100
AcDbSpline
210
0.0
220
0.0
230
1.0
 70
     8
 71
     3
 72
    22
 73
    18
 74
     0
 42
0.000000001
 43
0.00000001
 40
0.0
 40
0.0
 40
0.0
 40
0.0
 40
0.125
 40
0.125
 40
0.25
 40
0.25
 40
0.375
 40
0.375
 40
0.5
 40
0.5
 40
0.625
 40
0.625
 40
0.75
 40
0.75
 40
0.875
 40
0.875
 40
1.0
 40
1.0
 40
1.0
 40
1.0
 10
-157.1614079442868
 20
356.3064881484096
 30
0.0
 10
-157.3704235980586
 20
356.1848995807449
 30
0.0
 10
-157.5574990664488
 20
356.054399464825
 30
0.0
 10
-157.8904817523075
 20
355.7766777309437
 30
0.0
 10
-158.0369978032788
 20
355.6287358409588
 30
0.0
 10
-158.2831388437459
 20
355.3179703043938
 30
0.0
 10
-158.3804530512471
 20
355.1583815279597
 30
0.0
 10
-158.5266528629383
 20
354.8312955798773
 30
0.0
 10
-158.5756925483354
 20
354.6624426726076
 30
0.0
 10
-158.6204647900594
 20
354.3225422199623
 30
0.0
 10
-158.6164135595039
 20
354.1535328805919
 30
0.0
 10
-158.5580379395037
 20
353.8173033886148
 30
0.0
 10
-158.5028181529026
 20
353.6484808516911
 30
0.0
 10
-158.341724297347
 20
353.3213007492023
 30
0.0
 10
-158.2368995014421
 20
353.1636215028082
 30
0.0
 10
-157.9807817637245
 20
352.8595763650789
 30
0.0
 10
-157.8283089089531
 20
352.7124009384601
 30
0.0
 10
-157.6537016292389
 20
352.5740014389141
 30
0.0
  0
LWPOLYLINE
  5
23E
330
21E
100
AcDbEntity
  8
0
  6
Continuous
 62
     7
370
    25
100
AcDbPolyline
 90
        3
 70
   128
 43
0.0
 10
-81.317279839
 20
400.0904008156
 10
-95.4594154627
 20
391.9263196974
 10
-157.1614079443
 20
356.3064881484
  0
SPLINE
  5
23F
330
21E
100
AcDbEntity
  8
0
  6
Continuous
 62
     7
370
    25
100
AcDbSpline
210
0.0
220
0.0
230
1.0
 70
     8
 71
     3
 72
    24
 73
    20
 74
     0
 42
0.000000001
 43
0.00000001
 40
0.0
 40
0.0
 40
0.0
 40
0.0
 40
0.1250000000000091
 40
0.1250000000000091
 40
0.1875000000000085
 40
0.1875000000000085
 40
0.2500000000000078
 40
0.2500000000000078
 40
0.3750000000000065
 40
0.3750000000000065
 40
0.5000000000000052
 40
0.5000000000000052
 40
0.6250000000000039
 40
0.6250000000000039
 40
0.7500000000000026
 40
0.7500000000000026
 40
0.8750000000000013
 40
0.8750000000000013
 40
1.0
 40
1.0
 40
1.0
 40
1.0
 10
-74.24621202336832
 20
400.0904008163793
 30
0.0
 10
-74.47981319111352
 20
400.2252558994787
 30
0.0
 10
-74.7329160938512
 20
400.3442520073908
 30
0.0
 10
-75.13915589616651
 20
400.5011266588096
 30
0.0
 10
-75.27906869494014
 20
400.5497591524951
 30
0.0
 10
-75.56824069337887
 20
400.6394235679225
 30
0.0
 10
-75.71797786613953
 20
400.6805162762419
 30
0.0
 10
-76.17196717181689
 20
400.789035497434
 30
0.0
 10
-76.4837833352959
 20
400.8430266860339
 30
0.0
 10
-77.12451754356267
 20
400.9167274058281
 30
0.0
 10
-77.45547951482105
 20
400.9360661440912
 30
0.0
 10
-78.10722305019094
 20
400.9360882022152
 30
0.0
 10
-78.43126938802685
 20
400.9173831996516
 30
0.0
 10
-79.07582451030748
 20
400.8437028545932
 30
0.0
 10
-79.39130172698519
 20
400.7889952595173
 30
0.0
 10
-79.99247159719086
 20
400.6454850155358
 30
0.0
 10
-80.28223816182887
 20
400.5557843173029
 30
0.0
 10
-80.82970599177429
 20
400.3447856111088
 30
0.0
 10
-81.08389709344408
 20
400.2251298068348
 30
0.0
 10
-81.31727983896073
 20
400.0904008156352
 30
0.0
  0
SPLINE
  5
241
330
21E
100
AcDbEntity
  8
0
  6
Continuous
 62
     7
370
    25
100
AcDbSpline
210
0.0
220
0.0
230
1.0
 70
     8
 71
     3
 72
    24
 73
    20
 74
     0
 42
0.000000001
 43
0.00000001
 40
0.0
 40
0.0
 40
0.0
 40
0.0
 40
0.1249999999999964
 40
0.1249999999999964
 40
0.1874999999999949
 40
0.1874999999999949
 40
0.2499999999999934
 40
0.2499999999999934
 40
0.3749999999999945
 40
0.3749999999999945
 40
0.4999999999999956
 40
0.4999999999999956
 40
0.6249999999999967
 40
0.6249999999999967
 40
0.7499999999999978
 40
0.7499999999999978
 40
0.8749999999999989
 40
0.8749999999999989
 40
1.0
 40
1.0
 40
1.0
 40
1.0
 10
155.5634918585376
 20
263.3420420853343
 30
0.0
 10
155.7970930320047
 20
263.476897172694
 30
0.0
 10
156.003217724514
 20
263.6230123616525
 30
0.0
 10
156.2749564758136
 20
263.8575317799891
 30
0.0
 10
156.3591984819091
 20
263.9383021140528
 30
0.0
 10
156.5145214915015
 20
264.1052362758602
 30
0.0
 10
156.5857078573517
 20
264.1916757124034
 30
0.0
 10
156.7737108666084
 20
264.4537511171138
 30
0.0
 10
156.8672289733032
 20
264.6337579017784
 30
0.0
 10
156.994877651391
 20
265.0036450841924
 30
0.0
 10
157.0283696094772
 20
265.1947035594678
 30
0.0
 10
157.0284403561064
 20
265.5709466020406
 30
0.0
 10
156.9960323153712
 20
265.758014216534
 30
0.0
 10
156.8683825536315
 20
266.1301083273336
 30
0.0
 10
156.773611342573
 20
266.3122259707878
 30
0.0
 10
156.5250475477681
 20
266.6592840229267
 30
0.0
 10
156.3696623622371
 20
266.8265679101967
 30
0.0
 10
156.0041545373601
 20
267.1426123864736
 30
0.0
 10
155.7968765073597
 20
267.2893525573829
 30
0.0
 10
155.5634918581999
 20
267.4240826475324
 30
0.0
  0
SPLINE
  5
242
330
21E
100
AcDbEntity
  8
0
  6
Continuous
 62
     7
370
    25
100
AcDbSpline
210
0.0
220
0.0
230
1.0
 70
     8
 71
     3
 72
    15
 73
    11
 74
     0
 42
0.000000001
 43
0.00000001
 40
0.0
 40
0.0
 40
0.0
 40
0.0
 40
0.015625
 40
0.015625
 40
0.0312500000000001
 40
0.0625000000000002
 40
0.1250000000000001
 40
0.25
 40
0.5
 40
1.0
 40
1.0
 40
1.0
 40
1.0
 10
79.71931268973677
 20
219.5581588961518
 30
0.0
 10
80.11584493313332
 20
219.7853279683053
 30
0.0
 10
80.50938148831777
 20
220.0142264270946
 30
0.0
 10
81.29942475537274
 20
220.4703086971813
 30
0.0
 10
82.48448965595519
 20
221.1544321023111
 30
0.0
 10
85.24964109064747
 20
222.7507200476149
 30
0.0
 10
90.77994396003224
 20
225.9432959382223
 30
0.0
 10
101.8405496988013
 20
232.3284477194363
 30
0.0
 10
123.961761167237
 20
245.0987512871199
 30
0.0
 10
142.9227996038646
 20
256.0447257534363
 30
0.0
 10
155.5634918585377
 20
263.3420420853343
 30
0.0
  0
SPLINE
  5
243
330
21E
100
AcDbEntity
  8
0
  6
Continuous
 62
     7
370
    25
100
AcDbSpline
210
0.0
220
0.0
230
1.0
 70
     8
 71
     3
 72
    22
 73
    18
 74
     0
 42
0.000000001
 43
0.00000001
 40
0.0
 40
0.0
 40
0.0
 40
0.0
 40
0.125
 40
0.125
 40
0.25
 40
0.25
 40
0.375
 40
0.375
 40
0.5
 40
0.5
 40
0.625
 40
0.625
 40
0.75
 40
0.75
 40
0.875
 40
0.875
 40
1.0
 40
1.0
 40
1.0
 40
1.0
 10
73.25375551166968
 20
219.2739638021887
 30
0.0
 10
73.49361836722754
 20
219.1731139064584
 30
0.0
 10
73.74541566303431
 20
219.0861337561728
 30
0.0
 10
74.27140138180768
 20
218.9381955586465
 30
0.0
 10
74.54690656261921
 20
218.8769995182883
 30
0.0
 10
75.11629063214009
 20
218.7835678514074
 30
0.0
 10
75.4042848026611
 20
218.7521965265331
 30
0.0
 10
75.98647832461663
 20
218.718288382265
 30
0.0
 10
76.28301190566621
 20
218.7158664219525
 30
0.0
 10
76.87181296775428
 20
218.7417394178273
 30
0.0
 10
77.16058904108527
 20
218.7696374912169
 30
0.0
 10
77.72745882028146
 20
218.8538497191591
 30
0.0
 10
78.00815688475183
 20
218.9109138810011
 30
0.0
 10
78.5440156289093
 20
219.0523552361833
 30
0.0
 10
78.79811962155839
 20
219.1360547587195
 30
0.0
 10
79.27990561510315
 20
219.3282579645651
 30
0.0
 10
79.50879648122695
 20
219.4375564166388
 30
0.0
 10
79.71931268973685
 20
219.5581588961518
 30
0.0
  0
LWPOLYLINE
  5
244
330
21E
100
AcDbEntity
  8
0
  6
Continuous
 62
     7
370
    25
100
AcDbPolyline
 90
       50
 70
   128
 43
0.0
 10
-24.3951839509
 20
296.2024685876
 10
-26.2567683192
 20
297.4245977534
 10
-27.8323507001
 20
298.7741189768
 10
-29.0960600745
 20
300.2288731569
 10
-30.0271463693
 20
301.7649732701
 10
-30.6103211733
 20
303.3571965951
 10
-30.8360087724
 20
304.979398869
 10
-30.7005033825
 20
306.6049435751
 10
-30.2060299982
 20
308.2071393144
 10
-29.360707859
 20
309.7596780771
 10
-28.1784171309
 20
311.2370672197
 10
-26.678570995
 20
312.6150480533
 10
-24.8857968834
 20
313.8709941707
 10
-22.8295320975
 20
314.9842829714
 10
-20.5435404482
 20
315.936634284
 10
-18.0653578551
 20
316.7124105263
 10
-15.435676008
 20
317.2988734739
 10
-12.69767421
 20
317.6863934214
 10
-9.8963103751
 20
317.868607302
 10
-7.0775828198
 20
317.8425231688
 10
-4.2877749729
 20
317.6085693224
 10
-1.5726954018
 20
317.1705872787
 10
1.0230743618
 20
316.5357686907
 10
3.4569118501
 20
315.714537262
 10
5.688853519
 20
314.72037759
 10
7.6822509479
 20
313.569613749
 10
9.4043726062
 20
312.2811412494
 10
10.8269413037
 20
310.8761167742
 10
11.926598502
 20
309.3776107863
 10
12.68528786
 20
307.8102287126
 10
13.0905517197
 20
306.1997069234
 10
13.1357356595
 20
304.5724901421
 10
12.8200977605
 20
302.9552972231
 10
12.1488207882
 20
301.3746824294
 10
11.132927092
 20
299.8565994124
 10
9.7890976182
 20
298.4259750531
 10
8.1393980097
 20
297.106300164
 10
6.2109162884
 20
295.9192437703
 10
4.0353180709
 20
294.8842973052
 10
1.6483266198
 20
294.0184545609
 10
-0.9108637313
 20
293.3359326515
 10
-3.6002311477
 20
292.8479385677
 10
-6.3756162906
 20
292.562485159
 10
-9.1914474127
 20
292.4842595625
 10
-12.0014886449
 20
292.6145462402
 10
-14.7595991878
 20
292.9512058886
 10
-17.4204909426
 20
293.4887105655
 10
-19.9404721402
 20
294.2182344589
 10
-22.2781647591
 20
295.1277988068
 10
-24.3951839509
 20
296.2024685876
  0
LWPOLYLINE
  5
24A
330
21E
100
AcDbEntity
  8
0
  6
Continuous
 62
     7
370
    25
100
AcDbPolyline
 90
       17
 70
   128
 43
0.0
 10
-28.8588259449
 20
300.6777519758
 10
-28.2403049476
 20
301.6568370044
 10
-27.0253682443
 20
303.0790706757
 10
-25.4992549109
 20
304.3975900426
 10
-23.6880771697
 20
305.589834873
 10
-21.622824774
 20
306.6354055274
 10
-19.3388347648
 20
307.516412002
 10
-16.8751868445
 20
308.2177800317
 10
-14.274034712
 20
308.7275090152
 10
-11.5798848015
 20
309.0368773481
 10
-8.8388347648
 20
309.1405916526
 10
-6.0977847282
 20
309.0368773481
 10
-3.4036348177
 20
308.7275090152
 10
-0.8024826852
 20
308.2177800317
 10
1.6611652352
 20
307.516412002
 10
3.9451552444
 20
306.6354055274
 10
6.0104076401
 20
305.589834873
  0
SPLINE
  5
24B
330
21E
100
AcDbEntity
  8
0
  6
Continuous
 62
     7
370
    25
100
AcDbSpline
210
0.0
220
0.0
230
1.0
 70
     8
 71
     3
 72
     9
 73
     5
 74
     0
 42
0.000000001
 43
0.00000001
 40
0.0
 40
0.0
 40
0.0
 40
0.0
 40
0.0494692145811779
 40
1.0
 40
1.0
 40
1.0
 40
1.0
 10
167.0270117518779
 20
244.141877965026
 30
0.0
 10
167.0274856595939
 20
244.1387501944353
 30
0.0
 10
167.0370655108197
 20
244.0755235873994
 30
0.0
 10
167.0181122971446
 20
244.0123573910363
 30
0.0
 10
167.0000966840637
 20
243.9523159767954
 30
0.0
  0
SPLINE
  5
24D
330
21E
100
AcDbEntity
  8
0
  6
Continuous
 62
     7
370
    25
100
AcDbSpline
210
0.0
220
0.0
230
1.0
 70
     8
 71
     3
 72
    30
 73
    26
 74
     0
 42
0.000000001
 43
0.00000001
 40
0.0
 40
0.0
 40
0.0
 40
0.0
 40
0.0625000000000016
 40
0.0625000000000016
 40
0.1250000000000033
 40
0.1250000000000033
 40
0.250000000000006
 40
0.250000000000006
 40
0.3125000000000057
 40
0.3125000000000057
 40
0.3750000000000054
 40
0.3750000000000054
 40
0.5000000000000036
 40
0.5000000000000036
 40
0.562500000000004
 40
0.562500000000004
 40
0.6250000000000043
 40
0.6250000000000043
 40
0.7500000000000023
 40
0.7500000000000023
 40
0.812500000000002
 40
0.812500000000002
 40
0.8750000000000016
 40
0.8750000000000016
 40
1.0
 40
1.0
 40
1.0
 40
1.0
 10
67.24066994056166
 20
-93.49062073924263
 30
0.0
 10
67.59987652761833
 20
-93.65859121691588
 30
0.0
 10
67.97156887509763
 20
-93.81670090405242
 30
0.0
 10
68.73980691457041
 20
-94.1127270876067
 30
0.0
 10
69.13580676302641
 20
-94.2504859638143
 30
0.0
 10
70.34405639502057
 20
-94.62883107962477
 30
0.0
 10
71.18145244951774
 20
-94.836934901813
 30
0.0
 10
72.48633045720743
 20
-95.08160961942819
 30
0.0
 10
72.93008623904518
 20
-95.15192270913525
 30
0.0
 10
73.8317134866722
 20
-95.26918668712398
 30
0.0
 10
74.28377080950067
 20
-95.31541817245709
 30
0.0
 10
75.64353389430433
 20
-95.418306294077
 30
0.0
 10
76.55478750273586
 20
-95.43958760160898
 30
0.0
 10
77.92904668088543
 20
-95.3979431009847
 30
0.0
 10
78.39075574795054
 20
-95.37143955937627
 30
0.0
 10
79.30154452785135
 20
-95.29454393596254
 30
0.0
 10
79.75106900585813
 20
-95.24429560026776
 30
0.0
 10
81.08257351064364
 20
-95.0592344958609
 30
0.0
 10
81.9477044212337
 20
-94.89054689277087
 30
0.0
 10
83.20982238733058
 20
-94.56598912686131
 30
0.0
 10
83.62422180101537
 20
-94.4456457818052
 30
0.0
 10
84.42405928970312
 20
-94.18619743990814
 30
0.0
 10
84.811777234151
 20
-94.04654687242325
 30
0.0
 10
85.93919046336444
 20
-93.59851466892228
 30
0.0
 10
86.64348708765752
 20
-93.26113779681216
 30
0.0
 10
87.29775315692534
 20
-92.88343803458937
 30
0.0
  0
SPLINE
  5
24E
330
21E
100
AcDbEntity
  8
0
  6
Continuous
 62
     7
370
    25
100
AcDbSpline
210
0.0
220
0.0
230
1.0
 70
     8
 71
     3
 72
    19
 73
    15
 74
     0
 42
0.000000001
 43
0.00000001
 40
0.0
 40
0.0
 40
0.0
 40
0.0
 40
0.2500000000000001
 40
0.2500000000000001
 40
0.5000000000000002
 40
0.5000000000000002
 40
0.5625000000000002
 40
0.5625000000000002
 40
0.6250000000000002
 40
0.6250000000000002
 40
0.7500000000000002
 40
0.8750000000000001
 40
0.8750000000000001
 40
1.0
 40
1.0
 40
1.0
 40
1.0
 10
-164.7717777544914
 20
40.44731436660201
 30
0.0
 10
-147.507460714652
 20
28.14478496946094
 30
0.0
 10
-129.7163662279839
 20
16.12411846271064
 30
0.0
 10
-93.0869249696916
 20
-7.356826220180496
 30
0.0
 10
-74.24857719178291
 20
-18.81710399155104
 30
0.0
 10
-50.04463054755271
 20
-32.79141131849556
 30
0.0
 10
-45.17102273907309
 20
-35.56871100875681
 30
0.0
 10
-35.35804165633829
 20
-41.08811871992857
 30
0.0
 10
-30.41771994880205
 20
-43.83074398918965
 30
0.0
 10
-15.5050859279308
 20
-52.0017668083593
 30
0.0
 10
4.616972556239711
 20
-62.74178059055621
 30
0.0
 10
25.21544643691864
 20
-73.17286410137494
 30
0.0
 10
46.05235776831557
 20
-83.44934039867297
 30
0.0
 10
56.59054447819949
 20
-88.51045966855919
 30
0.0
 10
67.24066994056166
 20
-93.49062073924263
 30
0.0
  0
SPLINE
  5
250
330
21E
100
AcDbEntity
  8
0
  6
Continuous
 62
     8
370
    25
100
AcDbSpline
210
0.0
220
0.0
230
1.0
 70
     8
 71
     3
 72
    12
 73
     8
 74
     0
 42
0.000000001
 43
0.00000001
 40
0.0
 40
0.0
 40
0.0
 40
0.0
 40
0.098803266272132
 40
0.3627961478896214
 40
0.6344280790356389
 40
0.8983137271671474
 40
1.0
 40
1.0
 40
1.0
 40
1.0
 10
-165.7370324395607
 20
340.9943207094715
 30
0.0
 10
-165.9151078480483
 20
341.1414436683136
 30
0.0
 10
-166.5689837235202
 20
341.6816651078255
 30
0.0
 10
-167.4993427652081
 20
342.7107891812967
 30
0.0
 10
-168.2646362594631
 20
344.0974846626886
 30
0.0
 10
-168.6229167875838
 20
345.2494953227269
 30
0.0
 10
-168.5744232333862
 20
345.914498524133
 30
0.0
 10
-168.560934427217
 20
346.0994736086377
 30
0.0
  0
SPLINE
  5
251
330
21E
100
AcDbEntity
  8
0
  6
Continuous
 62
     8
370
    25
100
AcDbSpline
210
0.0
220
0.0
230
1.0
 70
     8
 71
     3
 72
    12
 73
     8
 74
     0
 42
0.000000001
 43
0.00000001
 40
0.0
 40
0.0
 40
0.0
 40
0.0
 40
0.1427264021844859
 40
0.3544779804713837
 40
0.5723311777317204
 40
0.7831667244504932
 40
1.0
 40
1.0
 40
1.0
 40
1.0
 10
166.9784411178297
 20
257.2074420127353
 30
0.0
 10
166.9791426441776
 20
256.8841960639585
 30
0.0
 10
166.9808849682274
 20
256.0813763377956
 30
0.0
 10
166.4988839765288
 20
254.8062465960769
 30
0.0
 10
165.6098805557214
 20
253.4492120616039
 30
0.0
 10
164.3319615821037
 20
252.1772473073311
 30
0.0
 10
163.2056256483719
 20
251.4588364326777
 30
0.0
 10
162.6345596805868
 20
251.0945934132421
 30
0.0
  0
SPLINE
  5
252
330
21E
100
AcDbEntity
  8
0
  6
Continuous
 62
     8
370
    25
100
AcDbSpline
210
0.0
220
0.0
230
1.0
 70
     8
 71
     3
 72
    23
 73
    19
 74
     0
 42
0.000000001
 43
0.00000001
 40
0.0
 40
0.0
 40
0.0
 40
0.0
 40
0.0051001230537477
 40
0.0124189535753958
 40
0.0199505199715467
 40
0.0314028124171016
 40
0.04296763573285
 40
0.0661209878472019
 40
0.1560801160802487
 40
0.2461115959712749
 40
0.339477082969303
 40
0.4329235349425203
 40
0.5266143296788813
 40
0.620386958864245
 40
0.7150780845599071
 40
0.8098536666419358
 40
0.9048841794478061
 40
1.0
 40
1.0
 40
1.0
 40
1.0
 10
-168.5455315092243
 20
334.6907517824033
 30
0.0
 10
-168.545425241742
 20
334.3559979040023
 30
0.0
 10
-168.545166477215
 20
333.5408621060552
 30
0.0
 10
-168.0510746288376
 20
332.2558482531183
 30
0.0
 10
-167.005525216311
 20
330.6321384060475
 30
0.0
 10
-164.9745665284896
 20
328.9914660382075
 30
0.0
 10
-161.861393882107
 20
326.5663332735403
 30
0.0
 10
-153.4124578245702
 20
320.0103540153879
 30
0.0
 10
-139.3048214062704
 20
309.4910601256914
 30
0.0
 10
-119.6410353882686
 20
295.6413479828365
 30
0.0
 10
-99.03025230388846
 20
281.9568130141507
 30
0.0
 10
-77.44982615315963
 20
268.4520554544827
 30
0.0
 10
-55.15706708196453
 20
255.3020119966404
 30
0.0
 10
-32.09839878912115
 20
242.4827456360784
 30
0.0
 10
-8.30259589281935
 20
230.0147237070984
 30
0.0
 10
16.24697495653127
 20
217.9183473845092
 30
0.0
 10
41.40917384103435
 20
206.2019240688411
 30
0.0
 10
58.70111268364653
 20
198.758238264903
 30
0.0
 10
67.35096105519628
 20
195.0347255856392
 30
0.0
  0
LWPOLYLINE
  5
255
330
21E
100
AcDbEntity
  8
0
  6
Continuous
 62
     8
370
    25
100
AcDbPolyline
 90
       25
 70
   128
 43
0.0
 10
12.1611652352
 20
304.3664170058
 10
11.981507324
 20
305.9487915102
 10
11.4456075872
 20
307.504091148
 10
10.5626354179
 20
309.0057043114
 10
9.3476987146
 20
310.4279379827
 10
7.8215853813
 20
311.7464573495
 10
6.0104076401
 20
312.9387021799
 10
3.9451552444
 20
313.9842728343
 10
1.6611652352
 20
314.8652793089
 10
-0.8024826852
 20
315.5666473387
 10
-3.4036348177
 20
316.0763763222
 10
-6.0977847282
 20
316.3857446551
 10
-8.8388347648
 20
316.4894589596
 10
-11.5798848015
 20
316.3857446551
 10
-14.274034712
 20
316.0763763222
 10
-16.8751868445
 20
315.5666473387
 10
-19.3388347648
 20
314.8652793089
 10
-21.622824774
 20
313.9842728343
 10
-23.6880771697
 20
312.9387021799
 10
-25.4992549109
 20
311.7464573495
 10
-27.0253682443
 20
310.4279379827
 10
-28.2403049476
 20
309.0057043114
 10
-29.1232771169
 20
307.504091148
 10
-29.6591768537
 20
305.9487915102
 10
-29.8164092102
 20
304.9265260427
  0
SPLINE
  5
258
330
21E
100
AcDbEntity
  8
0
  6
Continuous
 62
     8
370
    25
100
AcDbSpline
210
0.0
220
0.0
230
1.0
 70
     8
 71
     3
 72
    23
 73
    19
 74
     0
 42
0.000000001
 43
0.00000001
 40
0.0
 40
0.0
 40
0.0
 40
0.0
 40
0.0014688060620311
 40
0.0565447677325776
 40
0.1688189501396328
 40
0.2812335137855
 40
0.3935779094972057
 40
0.5059222862393083
 40
0.6188331596632675
 40
0.73174402208468
 40
0.844018216856099
 40
0.9564327937808965
 40
0.9659424881542039
 40
0.9754539855087646
 40
0.9827760656471647
 40
0.9903102468287168
 40
0.9976324467574779
 40
1.0
 40
1.0
 40
1.0
 40
1.0
 10
67.35320706931286
 20
193.4034332122101
 30
0.0
 10
67.21879579131927
 20
193.4603043992345
 30
0.0
 10
62.0443519411374
 20
195.6496799363453
 30
0.0
 10
46.6977960703815
 20
202.2669068922694
 30
0.0
 10
21.76876909491828
 20
213.6171068160503
 30
0.0
 10
-7.40619420423682
 20
227.8959244469796
 30
0.0
 10
-35.69371683380781
 20
242.765748328068
 30
0.0
 10
-63.09483940006567
 20
258.2264264558207
 30
0.0
 10
-89.57055336603219
 20
274.2672563409812
 30
0.0
 10
-115.048249425359
 20
290.8344485376994
 30
0.0
 10
-139.4194931901098
 20
307.9014887529663
 30
0.0
 10
-155.6875294808212
 20
320.0457171484676
 30
0.0
 10
-164.4787116528808
 20
326.9982726238378
 30
0.0
 10
-166.309315771243
 20
328.3673326665415
 30
0.0
 10
-167.5722614171595
 20
329.799339982357
 30
0.0
 10
-168.2938870421097
 20
331.1937954636056
 30
0.0
 10
-168.619744921785
 20
332.3187268712815
 30
0.0
 10
-168.5581007022383
 20
332.9532208267779
 30
0.0
 10
-168.5430388147691
 20
333.1082503920456
 30
0.0
  0
SPLINE
  5
259
330
21E
100
AcDbEntity
  8
0
  6
Continuous
 62
     8
370
    25
100
AcDbSpline
210
0.0
220
0.0
230
1.0
 70
     8
 71
     3
 72
    26
 73
    22
 74
     0
 42
0.000000001
 43
0.00000001
 40
0.0
 40
0.0
 40
0.0
 40
0.0
 40
0.0165315630067655
 40
0.034330987798905
 40
0.0526475323813124
 40
0.073452501154939
 40
0.094450263467126
 40
0.1154664853223427
 40
0.1790608333468241
 40
0.6617456917053511
 40
0.8072492696411186
 40
0.8318762571535065
 40
0.8565054320145011
 40
0.8743238235386859
 40
0.8926585401086977
 40
0.9104769231957976
 40
0.9288115368545636
 40
0.9466204771628407
 40
0.9649446538314645
 40
0.9822374305355321
 40
1.0
 40
1.0
 40
1.0
 40
1.0
 10
167.0000966840637
 20
243.9523159767954
 30
0.0
 10
166.9573452197938
 20
243.5069572548461
 30
0.0
 10
166.8685635360754
 20
242.5820837360437
 30
0.0
 10
166.2013182597938
 20
241.2079915462502
 30
0.0
 10
165.1081461444936
 20
239.8046761661138
 30
0.0
 10
163.4462953975906
 20
238.4877234670605
 30
0.0
 10
161.3967069867123
 20
237.2782142749559
 30
0.0
 10
157.8551222279333
 20
235.3038886388393
 30
0.0
 10
139.2727411682623
 20
224.4361251803765
 30
0.0
 10
116.3267417730518
 20
211.3563957964339
 30
0.0
 10
94.8780655448569
 20
198.8840990730753
 30
0.0
 10
88.41938233794977
 20
195.2030916522077
 30
0.0
 10
86.26756668508179
 20
193.8864790905966
 30
0.0
 10
83.95854822494877
 20
192.922695089997
 30
0.0
 10
81.68732878101305
 20
192.2809998231782
 30
0.0
 10
79.23922789695828
 20
191.8645343736828
 30
0.0
 10
76.72870355508672
 20
191.6928035153486
 30
0.0
 10
74.18007395692473
 20
191.7672963299241
 30
0.0
 10
71.74057272791923
 20
192.0846147822612
 30
0.0
 10
69.41187060335135
 20
192.61749437969
 30
0.0
 10
68.04553189109124
 20
193.1391234048246
 30
0.0
 10
67.35320706931286
 20
193.40343321221
 30
0.0
  0
SPLINE
  5
25A
330
21E
100
AcDbEntity
  8
0
  6
Continuous
 62
     8
370
    25
100
AcDbSpline
210
0.0
220
0.0
230
1.0
 70
     8
 71
     3
 72
    13
 73
     9
 74
     0
 42
0.000000001
 43
0.00000001
 40
0.0
 40
0.0
 40
0.0
 40
0.0
 40
0.0000051086195888
 40
0.2833743850288118
 40
0.4953927339881411
 40
0.713594765962108
 40
0.9256678202576325
 40
1.0
 40
1.0
 40
1.0
 40
1.0
 10
162.6345596727117
 20
-49.39242536526012
 30
0.0
 10
162.6345738124321
 20
-49.39241720255139
 30
0.0
 10
163.4189020419641
 20
-48.93963293672557
 30
0.0
 10
164.6387793092601
 20
-48.05568075763176
 30
0.0
 10
165.9428200506705
 20
-46.62037173203976
 30
0.0
 10
166.691203089813
 20
-45.23148755713224
 30
0.0
 10
167.0427840845159
 20
-44.09738412209057
 30
0.0
 10
166.991992363419
 20
-43.45011178768865
 30
0.0
 10
166.9788101345582
 20
-43.2821219684221
 30
0.0
  0
SPLINE
  5
25B
330
21E
100
AcDbEntity
  8
0
  6
Continuous
 62
     8
370
    25
100
AcDbSpline
210
0.0
220
0.0
230
1.0
 70
     8
 71
     3
 72
    12
 73
     8
 74
     0
 42
0.000000001
 43
0.00000001
 40
0.0
 40
0.0
 40
0.0
 40
0.0
 40
0.0074568730739376
 40
0.2521096205210565
 40
0.5038017485235353
 40
0.7483772539263022
 40
1.0
 40
1.0
 40
1.0
 40
1.0
 10
-168.115157246857
 20
45.88746196604362
 30
0.0
 10
-168.1172138282288
 20
45.8728929140699
 30
0.0
 10
-168.186744842646
 20
45.3803274475493
 30
0.0
 10
-167.9309289892858
 20
44.38904386127043
 30
0.0
 10
-167.322707340307
 20
42.98148880625152
 30
0.0
 10
-166.2717281857142
 20
41.63294110914553
 30
0.0
 10
-165.276472925816
 20
40.84624761099409
 30
0.0
 10
-164.7717777544914
 20
40.44731436660201
 30
0.0
  0
LINE
  5
260
330
21E
100
AcDbEntity
  8
0
  6
Continuous
 62
     7
370
    25
100
AcDbLine
 10
167.0283937912
 20
245.6930768175
 30
0.0
 11
167.0283925778
 21
257.2938372188
 31
0.0
  0
LINE
  5
261
330
21E
100
AcDbEntity
  8
0
  6
Continuous
 62
     7
370
    25
100
AcDbLine
 10
166.9876641306
 20
-43.4787364913
 30
0.0
 11
167.000819429
 21
-43.3020826065
 31
0.0
  0
LINE
  5
262
330
21E
100
AcDbEntity
  8
0
  6
Continuous
 62
     7
370
    25
100
AcDbLine
 10
155.5634918582
 20
267.4240826475
 30
0.0
 11
-74.2462120234
 21
400.0904008164
 31
0.0
  0
LINE
  5
263
330
21E
100
AcDbEntity
  8
0
  6
Continuous
 62
     7
370
    25
100
AcDbLine
 10
12.1589726855
 20
304.1912386911
 30
0.0
 11
12.1611652352
 21
304.3664170058
 31
0.0
  0
LINE
  5
264
330
21E
100
AcDbEntity
  8
0
  6
Continuous
 62
     7
370
    25
100
AcDbLine
 10
-29.8164092102
 20
304.9265260427
 30
0.0
 11
-29.8388347648
 21
304.3664170058
 31
0.0
  0
LINE
  5
265
330
21E
100
AcDbEntity
  8
0
  6
Continuous
 62
     7
370
    25
100
AcDbLine
 10
87.2977531569
 20
-92.8834380346
 30
0.0
 11
162.6345596727
 21
-49.3924253653
 31
0.0
  0
LINE
  5
266
330
21E
100
AcDbEntity
  8
0
  6
Continuous
 62
     7
370
    25
100
AcDbLine
 10
67.6835169425
 20
-94.4155661459
 30
0.0
 11
67.6620584936
 21
-94.4066051342
 31
0.0
  0
ARC
  5
267
330
21E
100
AcDbEntity
  8
0
  6
Continuous
 62
     7
370
    25
100
AcDbCircle
 10
85.3494140312
 20
205.958635403
 30
0.0
 40
17.98896676854422
100
AcDbArc
 50
132.252041154
 51
178.5096686084
  0
ARC
  5
268
330
21E
100
AcDbEntity
  8
0
  6
Continuous
 62
     7
370
    25
100
AcDbCircle
 10
-152.1474291797
 20
340.1191120077
 30
0.0
 40
13.61775704850927
100
AcDbArc
 50
113.8500901721
 51
176.315079577
  0
ARC
  5
269
330
21E
100
AcDbEntity
  8
0
  6
Continuous
 62
     7
370
    25
100
AcDbCircle
 10
71.3595321366
 20
206.6016710984
 30
0.0
 40
15.41935494598009
100
AcDbArc
 50
2.5774285984
 51
57.1690971485
  0
ARC
  5
26A
330
21E
100
AcDbEntity
  8
0
  6
Continuous
 62
     7
370
    25
100
AcDbCircle
 10
147.2823986863
 20
250.3959848887
 30
0.0
 40
15.36804805648678
100
AcDbArc
 50
2.6054784961
 51
57.3945217448
  0
ARC
  5
26B
330
21E
100
AcDbEntity
  8
0
  6
Continuous
 62
     7
370
    25
100
AcDbCircle
 10
-0.1937393896
 20
293.8743859629
 30
0.0
 40
13.25681649304584
100
AcDbArc
 50
31.1970506818
 51
62.0956603954
  0
ARC
  5
26C
330
21E
100
AcDbEntity
  8
0
  6
Continuous
 62
     8
370
    25
100
AcDbCircle
 10
158.4791728967
 20
263.457383829
 30
0.0
 40
4.922996591063964
100
AcDbArc
 50
64.772234497
 51
126.3173625544
  0
ARC
  5
26D
330
21E
100
AcDbEntity
  8
0
  6
Continuous
 62
     8
370
    25
100
AcDbCircle
 10
-71.3146328548
 20
395.9949639825
 30
0.0
 40
5.036542393561171
100
AcDbArc
 50
65.943706844
 51
125.5956930319
  0
ARC
  5
26E
330
21E
100
AcDbEntity
  8
0
  6
Continuous
 62
     8
370
    25
100
AcDbCircle
 10
-160.06273185
 20
352.4622238722
 30
0.0
 40
4.81622759335626
100
AcDbArc
 50
52.957597616
 51
116.4404710608
  0
ARC
  5
26F
330
21E
100
AcDbEntity
  8
0
  6
Continuous
 62
     8
370
    25
100
AcDbCircle
 10
-84.2479265482
 20
395.9975606742
 30
0.0
 40
5.033888214706151
100
AcDbArc
 50
54.3957339065
 51
114.1544552751
  0
ARC
  5
270
330
21E
100
AcDbEntity
  8
0
  6
Continuous
 62
     8
370
    25
100
AcDbCircle
 10
-163.7127048919
 20
40.373857584
 30
0.0
 40
1.061617269648352
100
AcDbArc
 50
176.0323466969
 51
230.0649917555
  0
ARC
  5
271
330
21E
100
AcDbEntity
  8
0
  6
Continuous
 62
     8
370
    25
100
AcDbCircle
 10
68.1593040087
 20
-93.6229330168
 30
0.0
 40
0.9281137268450078
100
AcDbArc
 50
171.8039663984
 51
237.6045833938
  0
ARC
  5
272
330
21E
100
AcDbEntity
  8
0
  6
Continuous
 62
     8
370
    25
100
AcDbCircle
 10
86.3246616011
 20
-92.9929918826
 30
0.0
 40
0.9792391033762632
100
AcDbArc
 50
303.6363026433
 51
6.4234991595
  0
ARC
  5
273
330
21E
100
AcDbEntity
  8
0
  6
Continuous
 62
     8
370
    25
100
AcDbCircle
 10
161.6263829402
 20
-49.4897252048
 30
0.0
 40
1.012861087589734
100
AcDbArc
 50
306.9254240255
 51
5.5125826332
  0
VIEWPORT
  5
27E
330
21E
100
AcDbEntity
  8
0
100
AcDbViewport
 10
0.0
 20
0.0
 30
0.0
 40
205.6
 41
156.0
 68
     1
 69
     1
 12
0.0421786975
 22
190.0
 13
0.0
 23
0.0
 14
10.0
 24
10.0
 15
10.0
 25
10.0
 16
0.0
 26
0.0
 36
1.0
 17
0.0
 27
0.0
 37
0.0
 42
50.0
 43
0.0
 44
0.0
 45
387.6
 50
0.0
 51
0.0
 72
   100
 90
   557152
  1

281
     0
 71
     1
 74
     0
110
0.0
120
0.0
130
0.0
111
1.0
121
0.0
131
0.0
112
0.0
122
1.0
132
0.0
 79
     0
146
0.0
  0
ENDBLK
  5
221
330
21E
100
AcDbEntity
  8
0
100
AcDbBlockEnd
  0
ENDSEC
  0
SECTION
  2
ENTITIES
  0
SPLINE
  5
75
330
1F
100
AcDbEntity
  8
0
  6
Continuous
 62
     7
370
    25
100
AcDbSpline
210
0.0
220
0.0
230
1.0
 70
     8
 71
     3
 72
    11
 73
     7
 74
     0
 42
0.000000001
 43
0.00000001
 40
0.0
 40
0.0
 40
0.0
 40
0.0
 40
0.2499999999999324
 40
0.5000000000000426
 40
0.7500000000000077
 40
0.9999999999999999
 40
0.9999999999999999
 40
0.9999999999999999
 40
0.9999999999999999
 10
-177.4999999999999
 20
356.0
 30
0.0
 10
-177.4849684272126
 20
355.8689629561937
 30
0.0
 10
-177.4549052816379
 20
355.6068888685813
 30
0.0
 10
-177.2236560685157
 20
355.2763439314843
 30
0.0
 10
-176.8931111314185
 20
355.045094718362
 30
0.0
 10
-176.6310370438062
 20
355.0150315727873
 30
0.0
 10
-176.5
 20
355.0
 30
0.0
  0
SPLINE
  5
76
330
1F
100
AcDbEntity
  8
0
  6
Continuous
 62
     7
370
    25
100
AcDbSpline
210
0.0
220
0.0
230
1.0
 70
     8
 71
     3
 72
    11
 73
     7
 74
     0
 42
0.000000001
 43
0.00000001
 40
0.0
 40
0.0
 40
0.0
 40
0.0
 40
0.2499999999999967
 40
0.4999999999999844
 40
0.7500000000000068
 40
1.0
 40
1.0
 40
1.0
 40
1.0
 10
176.4999999999999
 20
355.0
 30
0.0
 10
176.6310370438062
 20
355.0150315727873
 30
0.0
 10
176.8931111314186
 20
355.045094718362
 30
0.0
 10
177.2236560685156
 20
355.2763439314843
 30
0.0
 10
177.4549052816379
 20
355.6068888685812
 30
0.0
 10
177.4849684272126
 20
355.8689629561937
 30
0.0
 10
177.4999999999999
 20
356.0
 30
0.0
  0
SPLINE
  5
77
330
1F
100
AcDbEntity
  8
0
  6
Continuous
 62
     7
370
    25
100
AcDbSpline
210
0.0
220
0.0
230
1.0
 70
     8
 71
     3
 72
    15
 73
    11
 74
     0
 42
0.000000001
 43
0.00000001
 40
0.0
 40
0.0
 40
0.0
 40
0.0
 40
0.1250000000000001
 40
0.2500000000000011
 40
0.3750000000000008
 40
0.4999999999999983
 40
0.6249999999999996
 40
0.7500000000000008
 40
0.8750000000000001
 40
1.0
 40
1.0
 40
1.0
 40
1.0
 10
-167.4999999999999
 20
380.0
 30
0.0
 10
-168.1544950179805
 20
379.9627828826846
 30
0.0
 10
-169.4634850539417
 20
379.888348648054
 30
0.0
 10
-171.3514791052005
 20
379.293722231978
 30
0.0
 10
-173.0916044671613
 20
378.3695343747112
 30
0.0
 10
-174.61631700733
 20
377.1163170073301
 30
0.0
 10
-175.8695343747111
 20
375.5916044671613
 30
0.0
 10
-176.7937222319779
 20
373.8514791052005
 30
0.0
 10
-177.3883486480539
 20
371.9634850539418
 30
0.0
 10
-177.4627828826846
 20
370.6544950179805
 30
0.0
 10
-177.4999999999999
 20
370.0
 30
0.0
  0
SPLINE
  5
78
330
1F
100
AcDbEntity
  8
0
  6
Continuous
 62
     7
370
    25
100
AcDbSpline
210
0.0
220
0.0
230
1.0
 70
     8
 71
     3
 72
    11
 73
     7
 74
     0
 42
0.000000001
 43
0.00000001
 40
0.0
 40
0.0
 40
0.0
 40
0.0
 40
0.2499999999999562
 40
0.4999999999999777
 40
0.7499999999999845
 40
1.0
 40
1.0
 40
1.0
 40
1.0
 10
177.4999999999999
 20
354.0000000000001
 30
0.0
 10
177.4849684272126
 20
354.1310370438063
 30
0.0
 10
177.4549052816378
 20
354.3931111314188
 30
0.0
 10
177.2236560685155
 20
354.7236560685155
 30
0.0
 10
176.8931111314186
 20
354.954905281638
 30
0.0
 10
176.6310370438061
 20
354.9849684272127
 30
0.0
 10
176.4999999999999
 20
355.0
 30
0.0
  0
SPLINE
  5
79
330
1F
100
AcDbEntity
  8
0
  6
Continuous
 62
     7
370
    25
100
AcDbSpline
210
0.0
220
0.0
230
1.0
 70
     8
 71
     3
 72
    11
 73
     7
 74
     0
 42
0.000000001
 43
0.00000001
 40
0.0
 40
0.0
 40
0.0
 40
0.0
 40
0.2499999999999967
 40
0.4999999999999844
 40
0.7500000000000068
 40
1.0
 40
1.0
 40
1.0
 40
1.0
 10
-176.5000000000001
 20
355.0
 30
0.0
 10
-176.6310370438063
 20
354.9849684272127
 30
0.0
 10
-176.8931111314187
 20
354.9549052816379
 30
0.0
 10
-177.2236560685158
 20
354.7236560685157
 30
0.0
 10
-177.454905281638
 20
354.3931111314187
 30
0.0
 10
-177.4849684272127
 20
354.1310370438062
 30
0.0
 10
-177.5000000000001
 20
354.0
 30
0.0
  0
SPLINE
  5
7A
330
1F
100
AcDbEntity
  8
0
  6
Continuous
 62
     7
370
    25
100
AcDbSpline
210
0.0
220
0.0
230
1.0
 70
    24
 71
     3
 72
    11
 73
     7
 74
     0
 42
0.000000001
 43
0.00000001
 40
0.0
 40
0.0
 40
0.0
 40
0.0
 40
0.1842119519330985
 40
0.5226905612778463
 40
0.9357071941337696
 40
0.9999999999999999
 40
0.9999999999999999
 40
0.9999999999999999
 40
0.9999999999999999
 10
-176.4775133690713
 20
355.0
 30
0.0
 10
-176.4864489098469
 20
355.0
 30
0.0
 10
-176.5118029803853
 20
355.0
 30
0.0
 10
-176.4949279188608
 20
354.9999999999999
 30
0.0
 10
-176.5001633998741
 20
355.0000000000001
 30
0.0
 10
-176.5000193969588
 20
355.0
 30
0.0
 10
-176.5000000000001
 20
355.0
 30
0.0
  0
SPLINE
  5
7C
330
1F
100
AcDbEntity
  8
0
  6
Continuous
 62
     7
370
    25
100
AcDbSpline
210
0.0
220
0.0
230
1.0
 70
    24
 71
     3
 72
     9
 73
     5
 74
     0
 42
0.000000001
 43
0.00000001
 40
0.0
 40
0.0
 40
0.0
 40
0.0
 40
0.4998488531310931
 40
1.0
 40
1.0
 40
1.0
 40
1.0
 10
-177.5
 20
354.0000000000001
 30
0.0
 10
-177.5000000000001
 20
295.3525452691877
 30
0.0
 10
-177.5000000000001
 20
178.0221675691289
 30
0.0
 10
-177.5000000000001
 20
60.68587919810725
 30
0.0
 10
-177.5000000000001
 20
2.000000000000002
 30
0.0
  0
SPLINE
  5
7D
330
1F
100
AcDbEntity
  8
0
  6
Continuous
 62
     7
370
    25
100
AcDbSpline
210
0.0
220
0.0
230
1.0
 70
     8
 71
     3
 72
    30
 73
    26
 74
     0
 42
0.000000001
 43
0.00000001
 40
0.0
 40
0.0
 40
0.0
 40
0.0
 40
0.0625000000000008
 40
0.0625000000000008
 40
0.1250000000000015
 40
0.1250000000000015
 40
0.2499999999999999
 40
0.2499999999999999
 40
0.3124999999999974
 40
0.3124999999999974
 40
0.3749999999999949
 40
0.3749999999999949
 40
0.4999999999999912
 40
0.4999999999999912
 40
0.5624999999999913
 40
0.5624999999999913
 40
0.6249999999999915
 40
0.6249999999999915
 40
0.7499999999999937
 40
0.7499999999999937
 40
0.8124999999999952
 40
0.8124999999999952
 40
0.8749999999999969
 40
0.8749999999999969
 40
1.0
 40
1.0
 40
1.0
 40
1.0
 10
-164.8291114394349
 20
369.9808324742245
 30
0.0
 10
-165.2686731975445
 20
369.9809148285721
 30
0.0
 10
-165.7058048086029
 20
369.9810234748545
 30
0.0
 10
-166.5655547796772
 20
369.9812999050465
 30
0.0
 10
-166.9879738749881
 20
369.9814672966884
 30
0.0
 10
-168.2334806539489
 20
369.9820538227681
 30
0.0
 10
-169.0350212221864
 20
369.982559000353
 30
0.0
 10
-170.1929683140506
 20
369.9834259083675
 30
0.0
 10
-170.5729635230975
 20
369.9837358013009
 30
0.0
 10
-171.3040897647557
 20
369.9843958143228
 30
0.0
 10
-171.6566261794981
 20
369.9847465758962
 30
0.0
 10
-172.6761005798507
 20
369.9858626632015
 30
0.0
 10
-173.3052609623252
 20
369.9866950435846
 30
0.0
 10
-174.1706283912383
 20
369.9880177235706
 30
0.0
 10
-174.4458757553446
 20
369.9884692836148
 30
0.0
 10
-174.9592028083444
 20
369.9893893454557
 30
0.0
 10
-175.1988042482245
 20
369.9898600989401
 30
0.0
 10
-175.8674178721977
 20
369.9913137699
 30
0.0
 10
-176.2467061558369
 20
369.9923428056816
 30
0.0
 10
-176.7115316213223
 20
369.993936590432
 30
0.0
 10
-176.8479357982754
 20
369.9944679448205
 30
0.0
 10
-177.0811499874094
 20
369.9955312416315
 30
0.0
 10
-177.1785897203607
 20
369.996065398625
 30
0.0
 10
-177.4143036505514
 20
369.9976879485023
 30
0.0
 10
-177.496487075724
 20
369.9988019637561
 30
0.0
 10
-177.4998907734023
 20
369.9999277664072
 30
0.0
  0
SPLINE
  5
7E
330
1F
100
AcDbEntity
  8
0
  6
Continuous
 62
     7
370
    25
100
AcDbSpline
210
0.0
220
0.0
230
1.0
 70
     8
 71
     3
 72
    38
 73
    34
 74
     0
 42
0.000000001
 43
0.00000001
 40
0.0
 40
0.0
 40
0.0
 40
0.0
 40
0.0078125000000001
 40
0.0078125000000001
 40
0.0156250000000002
 40
0.0312500000000004
 40
0.0625000000000005
 40
0.0625000000000005
 40
0.1250000000000005
 40
0.1250000000000005
 40
0.2500000000000003
 40
0.2500000000000003
 40
0.3125000000000003
 40
0.3125000000000003
 40
0.3750000000000003
 40
0.3750000000000003
 40
0.5000000000000002
 40
0.5000000000000002
 40
0.7500000000000001
 40
0.7500000000000001
 40
0.8125000000000001
 40
0.8125000000000001
 40
0.875
 40
0.875
 40
0.9375
 40
0.9375
 40
0.96875
 40
0.96875
 40
0.984375
 40
0.984375
 40
0.9921875
 40
0.9921875
 40
1.0
 40
1.0
 40
1.0
 40
1.0
 10
164.8291114309627
 20
369.9808324742229
 30
0.0
 10
163.976469695997
 20
369.980672727038
 30
0.0
 10
163.1235900304046
 20
369.9785114572821
 30
0.0
 10
161.4177586207229
 20
369.9762039222558
 30
0.0
 10
158.85870202594
 20
369.9727703782581
 30
0.0
 10
152.8854047752617
 20
369.9649528657636
 30
0.0
 10
147.7617277501214
 20
369.9585841454837
 30
0.0
 10
137.5094379362946
 20
369.9462877992391
 30
0.0
 10
130.6679977687594
 20
369.938678234053
 30
0.0
 10
110.1239752987357
 20
369.9176055130508
 30
0.0
 10
96.40170253889677
 20
369.905896311278
 30
0.0
 10
75.77885409029534
 20
369.8918457831111
 30
0.0
 10
68.8979952139741
 20
369.8877482455947
 30
0.0
 10
55.12311522703267
 20
369.8807220496892
 30
0.0
 10
48.22697306379455
 20
369.8777927066628
 30
0.0
 10
27.53344129142986
 20
369.8707643604594
 30
0.0
 10
13.74668218352677
 20
369.8684267141
 30
0.0
 10
-27.58694160085905
 20
369.8684373271593
 30
0.0
 10
-55.10721522956695
 20
369.877776039169
 30
0.0
 10
-89.46314631396787
 20
369.9011655249495
 30
0.0
 10
-96.33210705999238
 20
369.9064319028385
 30
0.0
 10
-110.0655676055268
 20
369.9181433221367
 30
0.0
 10
-116.9320441963737
 20
369.924590568982
 30
0.0
 10
-130.6463403719042
 20
369.9386542452855
 30
0.0
 10
-137.495000752968
 20
369.9462710150365
 30
0.0
 10
-147.7552558492979
 20
369.9585761180738
 30
0.0
 10
-151.1732180678357
 20
369.9628245088089
 30
0.0
 10
-156.2969745703791
 20
369.9694177333292
 30
0.0
 10
-158.004291743408
 20
369.9716521597282
 30
0.0
 10
-160.5643063190214
 20
369.9750588259588
 30
0.0
 10
-161.4174874345117
 20
369.9762035566091
 30
0.0
 10
-163.1235354628316
 20
369.9785113822709
 30
0.0
 10
-163.9765045493918
 20
369.9806727335674
 30
0.0
 10
-164.8291114394349
 20
369.9808324742245
 30
0.0
  0
SPLINE
  5
7F
330
1F
100
AcDbEntity
  8
0
  6
Continuous
 62
     7
370
    25
100
AcDbSpline
210
0.0
220
0.0
230
1.0
 70
     8
 71
     3
 72
    30
 73
    26
 74
     0
 42
0.000000001
 43
0.00000001
 40
0.0
 40
0.0
 40
0.0
 40
0.0
 40
0.062500000000001
 40
0.062500000000001
 40
0.125000000000002
 40
0.125000000000002
 40
0.2500000000000031
 40
0.2500000000000031
 40
0.3125000000000038
 40
0.3125000000000038
 40
0.3750000000000046
 40
0.3750000000000046
 40
0.500000000000005
 40
0.500000000000005
 40
0.5625000000000052
 40
0.5625000000000052
 40
0.6250000000000054
 40
0.6250000000000054
 40
0.7500000000000028
 40
0.7500000000000028
 40
0.812500000000002
 40
0.812500000000002
 40
0.8750000000000011
 40
0.8750000000000011
 40
1.0
 40
1.0
 40
1.0
 40
1.0
 10
177.4998907733984
 20
369.999927766406
 30
0.0
 10
177.4981892011773
 20
369.999364956584
 30
0.0
 10
177.476499998508
 20
369.9987985700739
 30
0.0
 10
177.3943244059421
 20
369.9976823888082
 30
0.0
 10
177.3340093049909
 20
369.9971327650309
 30
0.0
 10
177.0969660706472
 20
369.9955085868572
 30
0.0
 10
176.8646653745738
 20
369.9944613409471
 30
0.0
 10
176.4017344956022
 20
369.9928745201278
 30
0.0
 10
176.2272903899112
 20
369.9923440723908
 30
0.0
 10
175.846101867422
 20
369.9913158904729
 30
0.0
 10
175.6389757352107
 20
369.990816222757
 30
0.0
 10
174.9691931447775
 20
369.9893626801933
 30
0.0
 10
174.4585853591095
 20
369.9884577760922
 30
0.0
 10
173.5931554841447
 20
369.9871351182355
 30
0.0
 10
173.2876237019385
 20
369.9867002267964
 30
0.0
 10
172.6553868884145
 20
369.9858738897011
 30
0.0
 10
172.3272650446754
 20
369.985480156593
 30
0.0
 10
171.3075827088819
 20
369.984365705088
 30
0.0
 10
170.5810320900021
 20
369.98371632734
 30
0.0
 10
169.417935957909
 20
369.9828457275412
 30
0.0
 10
169.0201207123902
 20
369.9825716810602
 30
0.0
 10
168.21517348336
 20
369.9820754679527
 30
0.0
 10
167.8065018747768
 20
369.9818521885014
 30
0.0
 10
166.5621793494849
 20
369.9812679361769
 30
0.0
 10
165.7083860378869
 20
369.980997211225
 30
0.0
 10
164.8291114309627
 20
369.9808324742229
 30
0.0
  0
SPLINE
  5
80
330
1F
100
AcDbEntity
  8
0
  6
Continuous
 62
     7
370
    25
100
AcDbSpline
210
0.0
220
0.0
230
1.0
 70
    24
 71
     3
 72
     9
 73
     5
 74
     0
 42
0.000000001
 43
0.00000001
 40
0.0
 40
0.0
 40
0.0
 40
0.0
 40
0.7115368437755515
 40
1.0
 40
1.0
 40
1.0
 40
1.0
 10
-177.5
 20
356.0
 30
0.0
 10
-177.5002861458393
 20
356.0000051783935
 30
0.0
 10
-177.5006882976629
 20
356.0000124561524
 30
0.0
 10
-177.4993948865914
 20
355.9999890492368
 30
0.0
 10
-177.4990217851514
 20
355.9999822972041
 30
0.0
  0
SPLINE
  5
81
330
1F
100
AcDbEntity
  8
0
  6
Continuous
 62
     7
370
    25
100
AcDbSpline
210
0.0
220
0.0
230
1.0
 70
    24
 71
     3
 72
    17
 73
    13
 74
     0
 42
0.000000001
 43
0.00000001
 40
0.0
 40
0.0
 40
0.0
 40
0.0
 40
0.2109270228727248
 40
0.3059694429372565
 40
0.4010107341912607
 40
0.4960622697792873
 40
0.5911151507780211
 40
0.6861820912008014
 40
0.7812507320944022
 40
0.8763141016755502
 40
0.9713808647428666
 40
1.0
 40
1.0
 40
1.0
 40
1.0
 10
176.4984746250313
 20
355.0000000000001
 30
0.0
 10
176.5404179394696
 20
355.0000000000001
 30
0.0
 10
176.6012606535934
 20
355.0000000000002
 30
0.0
 10
176.3323289267199
 20
354.9999999999999
 30
0.0
 10
175.6892812308671
 20
355.0000000000001
 30
0.0
 10
174.6816455253216
 20
354.9999999999999
 30
0.0
 10
173.3304942753134
 20
355.0000000000001
 30
0.0
 10
171.6665787815053
 20
355.0
 30
0.0
 10
169.747445623339
 20
355.0
 30
0.0
 10
167.6180852281626
 20
355.0
 30
0.0
 10
165.8761042981914
 20
355.0000000000002
 30
0.0
 10
164.8674206298165
 20
355.0
 30
0.0
 10
164.6340257583886
 20
355.0
 30
0.0
  0
SPLINE
  5
82
330
1F
100
AcDbEntity
  8
0
  6
Continuous
 62
     7
370
    25
100
AcDbSpline
210
0.0
220
0.0
230
1.0
 70
    24
 71
     3
 72
    35
 73
    31
 74
     0
 42
0.000000001
 43
0.00000001
 40
0.0
 40
0.0
 40
0.0
 40
0.0
 40
0.0156250000000002
 40
0.0156250000000002
 40
0.0312500000000004
 40
0.0312500000000004
 40
0.0625000000000005
 40
0.0625000000000005
 40
0.1250000000000004
 40
0.1250000000000004
 40
0.1875000000000003
 40
0.1875000000000003
 40
0.2500000000000003
 40
0.2500000000000003
 40
0.5
 40
0.5
 40
0.6249999999999999
 40
0.6249999999999999
 40
0.6874999999999998
 40
0.6874999999999998
 40
0.7499999999999999
 40
0.7499999999999999
 40
0.8749999999999999
 40
0.8749999999999999
 40
0.9374999999999999
 40
0.9374999999999999
 40
0.9687500000000001
 40
0.984375
 40
0.984375
 40
1.0
 40
1.0
 40
1.0
 40
1.0
 10
-163.2762287724998
 20
380.0
 30
0.0
 10
-161.5870817795326
 20
380.0
 30
0.0
 10
-159.8968969690283
 20
380.0
 30
0.0
 10
-156.5156981022706
 20
379.9999999999999
 30
0.0
 10
-154.8244638781158
 20
379.9999999999999
 30
0.0
 10
-149.7489752109861
 20
380.0000000000001
 30
0.0
 10
-146.3632120247657
 20
380.0
 30
0.0
 10
-136.1996152125921
 20
379.9999999999999
 30
0.0
 10
-129.4154752596992
 20
380.0000000000001
 30
0.0
 10
-115.8303820754462
 20
380.0000000000001
 30
0.0
 10
-109.0285986574235
 20
380.0000000000001
 30
0.0
 10
-95.42453040692436
 20
380.0000000000001
 30
0.0
 10
-88.62028691107649
 20
380.0000000000002
 30
0.0
 10
-54.58804679792801
 20
379.9999999999999
 30
0.0
 10
-27.32706019183359
 20
379.9999999999998
 30
0.0
 10
13.6171362419689
 20
379.9999999999999
 30
0.0
 10
27.27400325672809
 20
380.0000000000001
 30
0.0
 10
47.77257141824609
 20
379.9999999999999
 30
0.0
 10
54.60374478895805
 20
380.0000000000001
 30
0.0
 10
68.24884947756775
 20
380.0000000000001
 30
0.0
 10
75.06488289770581
 20
380.0
 30
0.0
 10
95.4934418557755
 20
379.9999999999999
 30
0.0
 10
109.0864373149446
 20
379.9999999999998
 30
0.0
 10
129.436920915049
 20
380.0000000000001
 30
0.0
 10
136.2139110054437
 20
380.0
 30
0.0
 10
146.3696207673769
 20
380.0
 30
0.0
 10
151.4450315357361
 20
380.0000000000002
 30
0.0
 10
156.5167701772057
 20
380.0
 30
0.0
 10
159.8971124105088
 20
380.0000000000001
 30
0.0
 10
161.5870114725305
 20
380.0
 30
0.0
 10
163.2762287696982
 20
380.0
 30
0.0
  0
LWPOLYLINE
  5
83
330
1F
100
AcDbEntity
  8
0
  6
Continuous
 62
     7
370
    25
100
AcDbPolyline
 90
        9
 70
   128
 43
0.0
 10
163.2762287697
 20
380.0
 10
163.5795466093
 20
379.8073850974
 10
163.8711797416
 20
379.2369604897
 10
164.1398935893
 20
378.310700633
 10
164.3753364939
 20
377.0642878177
 10
164.5684384931
 20
375.5457375804
 10
164.7117607222
 20
373.8135490023
 10
164.799781982
 20
371.9344511502
 10
164.829111431
 20
369.9808324742
  0
LWPOLYLINE
  5
84
330
1F
100
AcDbEntity
  8
0
  6
Continuous
 62
     7
370
    25
100
AcDbPolyline
 90
        9
 70
   128
 43
0.0
 10
-163.2762287725
 20
380.0
 10
-163.5795466132
 20
379.8073850974
 10
-163.8711797466
 20
379.2369604897
 10
-164.1398935952
 20
378.310700633
 10
-164.3753365007
 20
377.0642878177
 10
-164.5684385006
 20
375.5457375804
 10
-164.7117607303
 20
373.8135490023
 10
-164.7997819903
 20
371.9344511502
 10
-164.8291114394
 20
369.9808324742
  0
SPLINE
  5
86
330
1F
100
AcDbEntity
  8
0
  6
Continuous
 62
     7
370
    25
100
AcDbSpline
210
0.0
220
0.0
230
1.0
 70
    24
 71
     3
 72
    22
 73
    18
 74
     0
 42
0.000000001
 43
0.00000001
 40
0.0
 40
0.0
 40
0.0
 40
0.0
 40
0.125
 40
0.125
 40
0.25
 40
0.25
 40
0.375
 40
0.375
 40
0.5
 40
0.5
 40
0.625
 40
0.625
 40
0.75
 40
0.75
 40
0.875
 40
0.875
 40
1.0
 40
1.0
 40
1.0
 40
1.0
 10
163.2762287696981
 20
380.0
 30
0.0
 10
163.5693661985941
 20
379.9999999999999
 30
0.0
 10
163.8539538107537
 20
380.0000000000002
 30
0.0
 10
164.4070880620759
 20
379.9999999999999
 30
0.0
 10
164.6768573020766
 20
380.0000000000002
 30
0.0
 10
165.1939149936399
 20
380.0000000000002
 30
0.0
 10
165.4359836573465
 20
380.0
 30
0.0
 10
165.8891899706972
 20
379.9999999999999
 30
0.0
 10
166.1018374816162
 20
380.0
 30
0.0
 10
166.4864914525701
 20
379.9999999999999
 30
0.0
 10
166.6565152473838
 20
379.9999999999999
 30
0.0
 10
166.9542030415408
 20
380.0000000000001
 30
0.0
 10
167.0827899333939
 20
380.0000000000001
 30
0.0
 10
167.2884509389646
 20
380.0000000000001
 30
0.0
 10
167.3656079258927
 20
380.0000000000001
 30
0.0
 10
167.4708566695522
 20
380.0000000000001
 30
0.0
 10
167.4988297286356
 20
380.0000000000001
 30
0.0
 10
167.4999638928376
 20
380.0
 30
0.0
  0
SPLINE
  5
88
330
1F
100
AcDbEntity
  8
0
  6
Continuous
 62
     7
370
    25
100
AcDbSpline
210
0.0
220
0.0
230
1.0
 70
    24
 71
     3
 72
    22
 73
    18
 74
     0
 42
0.000000001
 43
0.00000001
 40
0.0
 40
0.0
 40
0.0
 40
0.0
 40
0.125
 40
0.125
 40
0.25
 40
0.25
 40
0.375
 40
0.375
 40
0.5
 40
0.5
 40
0.625
 40
0.625
 40
0.75
 40
0.75
 40
0.875
 40
0.875
 40
1.0
 40
1.0
 40
1.0
 40
1.0
 10
-167.4999638928389
 20
380.0
 30
0.0
 10
-167.4988291673317
 20
380.0
 30
0.0
 10
-167.4712648322161
 20
379.9999999999998
 30
0.0
 10
-167.3665440194759
 20
379.9999999999997
 30
0.0
 10
-167.2889358070899
 20
379.9999999999998
 30
0.0
 10
-167.082334064627
 20
379.9999999999999
 30
0.0
 10
-166.9556688848784
 20
379.9999999999999
 30
0.0
 10
-166.65840751551
 20
379.9999999999999
 30
0.0
 10
-166.4862596675767
 20
379.9999999999999
 30
0.0
 10
-166.1015819762266
 20
379.9999999999999
 30
0.0
 10
-165.8917015714296
 20
379.9999999999999
 30
0.0
 10
-165.4385838050436
 20
379.9999999999999
 30
0.0
 10
-165.1927505774139
 20
379.9999999999999
 30
0.0
 10
-164.6780844444972
 20
379.9999999999999
 30
0.0
 10
-164.41082434525
 20
379.9999999999999
 30
0.0
 10
-163.8573036807482
 20
380.0000000000001
 30
0.0
 10
-163.5692172094123
 20
380.0000000000001
 30
0.0
 10
-163.2762287724998
 20
380.0
 30
0.0
  0
LWPOLYLINE
  5
89
330
1F
100
AcDbEntity
  8
0
  6
Continuous
 62
     7
370
    25
100
AcDbPolyline
 90
        2
 70
   128
 43
0.0
 10
-177.5
 20
354.0
 10
-177.5
 20
354.0
  0
SPLINE
  5
8A
330
1F
100
AcDbEntity
  8
0
  6
Continuous
 62
     7
370
    25
100
AcDbSpline
210
0.0
220
0.0
230
1.0
 70
     8
 71
     3
 72
    10
 73
     6
 74
     0
 42
0.000000001
 43
0.00000001
 40
0.0
 40
0.0
 40
0.0
 40
0.0
 40
0.3221812026395012
 40
0.7422089115606912
 40
1.0
 40
1.0
 40
1.0
 40
1.0
 10
177.4999999999999
 20
354.0
 30
0.0
 10
177.4947572659241
 20
353.9999937977221
 30
0.0
 10
177.4826795782127
 20
353.9999795095333
 30
0.0
 10
177.5788687065814
 20
354.0000933035371
 30
0.0
 10
177.5136937972664
 20
353.999969279999
 30
0.0
 10
177.4889061831184
 20
353.9999221108101
 30
0.0
  0
SPLINE
  5
8B
330
1F
100
AcDbEntity
  8
0
  6
Continuous
 62
     7
370
    25
100
AcDbSpline
210
0.0
220
0.0
230
1.0
 70
    24
 71
     3
 72
    16
 73
    12
 74
     0
 42
0.000000001
 43
0.00000001
 40
0.0
 40
0.0
 40
0.0
 40
0.0
 40
0.114519905597204
 40
0.2290406718002159
 40
0.3470713254451485
 40
0.4651058808918546
 40
0.5832011353915049
 40
0.7013001526432514
 40
0.8193938467932533
 40
0.9374926488276484
 40
1.0
 40
1.0
 40
1.0
 40
1.0
 10
164.6335764288963
 20
355.0
 30
0.0
 10
165.3825027567864
 20
355.0
 30
0.0
 10
166.8803610406743
 20
354.9999999999999
 30
0.0
 10
169.0186970785372
 20
354.9999999999999
 30
0.0
 10
170.9994838022045
 20
355.0
 30
0.0
 10
172.7631203156321
 20
355.0
 30
0.0
 10
174.2293978066727
 20
355.0000000000001
 30
0.0
 10
175.3716245051908
 20
354.9999999999999
 30
0.0
 10
176.1324456979022
 20
355.0
 30
0.0
 10
176.4788923210352
 20
354.9999999999999
 30
0.0
 10
176.4867362601319
 20
355.0000000000001
 30
0.0
 10
176.4894510284107
 20
355.0
 30
0.0
  0
SPLINE
  5
8C
330
1F
100
AcDbEntity
  8
0
  6
Continuous
 62
     7
370
    25
100
AcDbSpline
210
0.0
220
0.0
230
1.0
 70
    24
 71
     3
 72
    25
 73
    21
 74
     0
 42
0.000000001
 43
0.00000001
 40
0.0
 40
0.0
 40
0.0
 40
0.0
 40
0.013626894126763
 40
0.0203539458796966
 40
0.0270812376067846
 40
0.0338123192172296
 40
0.0405436276876221
 40
0.0472745738603414
 40
0.0540058157144047
 40
0.0631125817147896
 40
0.0722322544167914
 40
0.1812097294979604
 40
0.290187192983047
 40
0.3994048995577699
 40
0.5086912574121105
 40
0.6179776340251587
 40
0.7271953661960157
 40
0.8361727963860263
 40
0.9451502556948691
 40
1.0
 40
1.0
 40
1.0
 40
1.0
 10
-176.8189864169271
 20
355.0
 30
0.0
 10
-176.5512905160661
 20
354.9999999999999
 30
0.0
 10
-176.151443872535
 20
355.0
 30
0.0
 10
-174.8901782170033
 20
355.0000000000001
 30
0.0
 10
-173.5981853155094
 20
354.9999999999999
 30
0.0
 10
-171.9862430899692
 20
355.0
 30
0.0
 10
-170.1090145639991
 20
355.0000000000001
 30
0.0
 10
-168.0129447648705
 20
354.9999999999999
 30
0.0
 10
-165.4912782319998
 20
355.0
 30
0.0
 10
-162.6023275508394
 20
355.0000000000001
 30
0.0
 10
-147.8740463304798
 20
355.0
 30
0.0
 10
-121.5869531114982
 20
355.0
 30
0.0
 10
-83.50346062561403
 20
355.0
 30
0.0
 10
-45.29426138627798
 20
355.0
 30
0.0
 10
-6.988152835921531
 20
354.9999999999999
 30
0.0
 10
31.32539734516571
 20
355.0000000000001
 30
0.0
 10
69.56479074472182
 20
354.9999999999999
 30
0.0
 10
107.6776915971693
 20
355.0000000000001
 30
0.0
 10
139.3541952763673
 20
354.9999999999999
 30
0.0
 10
158.2928642248779
 20
355.0000000000001
 30
0.0
 10
164.6335764288963
 20
355.0
 30
0.0
  0
SPLINE
  5
8D
330
1F
100
AcDbEntity
  8
0
  6
Continuous
 62
     7
370
    25
100
AcDbSpline
210
0.0
220
0.0
230
1.0
 70
     8
 71
     3
 72
    30
 73
    26
 74
     0
 42
0.000000001
 43
0.00000001
 40
0.0
 40
0.0
 40
0.0
 40
0.0
 40
0.0625000000000016
 40
0.0625000000000016
 40
0.1250000000000033
 40
0.1250000000000033
 40
0.250000000000006
 40
0.250000000000006
 40
0.3125000000000057
 40
0.3125000000000057
 40
0.3750000000000054
 40
0.3750000000000054
 40
0.5000000000000036
 40
0.5000000000000036
 40
0.562500000000004
 40
0.562500000000004
 40
0.6250000000000043
 40
0.6250000000000043
 40
0.7500000000000023
 40
0.7500000000000023
 40
0.812500000000002
 40
0.812500000000002
 40
0.8750000000000016
 40
0.8750000000000016
 40
1.0
 40
1.0
 40
1.0
 40
1.0
 10
164.0575750817232
 20
1.996350740373437
 30
0.0
 10
164.5174428988655
 20
1.996477849512901
 30
0.0
 10
164.9738347364636
 20
1.996378511394503
 30
0.0
 10
165.8796993202073
 20
1.996420922848047
 30
0.0
 10
166.3284778383907
 20
1.996447498308102
 30
0.0
 10
167.6463595498807
 20
1.996541232986732
 30
0.0
 10
168.4934709591032
 20
1.996622492254546
 30
0.0
 10
169.7159963685018
 20
1.996763212614772
 30
0.0
 10
170.1159554958447
 20
1.996814681238024
 30
0.0
 10
170.8972498923625
 20
1.996928299702827
 30
0.0
 10
171.2735920117737
 20
1.996989700366242
 30
0.0
 10
172.3613131964732
 20
1.997187800403782
 30
0.0
 10
173.0318847790072
 20
1.997338755828942
 30
0.0
 10
173.9528712901169
 20
1.997586658204487
 30
0.0
 10
174.2469714334641
 20
1.997672769454728
 30
0.0
 10
174.796986509774
 20
1.997850620204716
 30
0.0
 10
175.053392053499
 20
1.997942402602065
 30
0.0
 10
175.7685165410962
 20
1.998228178697548
 30
0.0
 10
176.173839938483
 20
1.998433273895123
 30
0.0
 10
176.669075610984
 20
1.998760254701609
 30
0.0
 10
176.8148043996931
 20
1.998870256390756
 30
0.0
 10
177.0628019699412
 20
1.999089738470017
 30
0.0
 10
177.1660153020278
 20
1.99919991540487
 30
0.0
 10
177.4147671070268
 20
1.999534731817076
 30
0.0
 10
177.5
 20
2.000000000000002
 30
0.0
 10
177.5
 20
2.000000000000002
 30
0.0
  0
SPLINE
  5
8E
330
1F
100
AcDbEntity
  8
0
  6
Continuous
 62
     7
370
    25
100
AcDbSpline
210
0.0
220
0.0
230
1.0
 70
     8
 71
     3
 72
    19
 73
    15
 74
     0
 42
0.000000001
 43
0.00000001
 40
0.0
 40
0.0
 40
0.0
 40
0.0
 40
0.2500000000000001
 40
0.2500000000000001
 40
0.5000000000000002
 40
0.5000000000000002
 40
0.5625000000000002
 40
0.5625000000000002
 40
0.6250000000000002
 40
0.6250000000000002
 40
0.7500000000000002
 40
0.8750000000000001
 40
0.8750000000000001
 40
1.0
 40
1.0
 40
1.0
 40
1.0
 10
-164.0575750887331
 20
1.99635074037538
 30
0.0
 10
-136.7883054360263
 20
1.988813414929846
 30
0.0
 10
-109.4899218867552
 20
1.983149314474908
 30
0.0
 10
-54.83527532277097
 20
1.975587881987095
 30
0.0
 10
-27.47901225245946
 20
1.973690389822202
 30
0.0
 10
6.752573006783862
 20
1.97368497376002
 30
0.0
 10
13.6007038681132
 20
1.9738025360308
 30
0.0
 10
27.30060031194047
 20
1.974274623529143
 30
0.0
 10
34.15367020196523
 20
1.974629246750376
 30
0.0
 10
54.70841666390091
 20
1.976048102634992
 30
0.0
 10
82.09490027241013
 20
1.978885052457552
 30
0.0
 10
109.4417502290415
 20
1.983613251570732
 30
0.0
 10
136.7687642476282
 20
1.989279532876309
 30
0.0
 10
150.4229421848179
 20
1.992582078184146
 30
0.0
 10
164.0575750817232
 20
1.996350740373437
 30
0.0
  0
SPLINE
  5
8F
330
1F
100
AcDbEntity
  8
0
  6
Continuous
 62
     7
370
    25
100
AcDbSpline
210
0.0
220
0.0
230
1.0
 70
     8
 71
     3
 72
    30
 73
    26
 74
     0
 42
0.000000001
 43
0.00000001
 40
0.0
 40
0.0
 40
0.0
 40
0.0
 40
0.0625000000000001
 40
0.0625000000000001
 40
0.1250000000000002
 40
0.1250000000000002
 40
0.2500000000000012
 40
0.2500000000000012
 40
0.3125000000000013
 40
0.3125000000000013
 40
0.3750000000000013
 40
0.3750000000000013
 40
0.5000000000000014
 40
0.5000000000000014
 40
0.5625000000000014
 40
0.5625000000000014
 40
0.6250000000000014
 40
0.6250000000000014
 40
0.7500000000000028
 40
0.7500000000000028
 40
0.8125000000000021
 40
0.8125000000000021
 40
0.8750000000000014
 40
0.8750000000000014
 40
1.0
 40
1.0
 40
1.0
 40
1.0
 10
-177.5
 20
2.000000000000002
 30
0.0
 10
-177.5
 20
2.000000000000002
 30
0.0
 10
-177.4786205865424
 20
1.999765533939796
 30
0.0
 10
-177.3932955394973
 20
1.999533507792611
 30
0.0
 10
-177.329358376234
 20
1.999418995666885
 30
0.0
 10
-177.0778082508559
 20
1.999082793143869
 30
0.0
 10
-176.8306734492822
 20
1.99886676824268
 30
0.0
 10
-176.3384662006794
 20
1.998542060430292
 30
0.0
 10
-176.1537203980608
 20
1.998435582717395
 30
0.0
 10
-175.743914972147
 20
1.998228502085614
 30
0.0
 10
-175.52154328162
 20
1.99812920883724
 30
0.0
 10
-174.8039977147754
 20
1.997843307047303
 30
0.0
 10
-174.2590032131195
 20
1.997669032283322
 30
0.0
 10
-173.337915607098
 20
1.997421144121297
 30
0.0
 10
-173.0116181590948
 20
1.99734076021732
 30
0.0
 10
-172.3348349673777
 20
1.997189724627924
 30
0.0
 10
-171.9842598029047
 20
1.997118947189458
 30
0.0
 10
-170.8971122158702
 20
1.996921510975552
 30
0.0
 10
-170.12557451899
 20
1.996810293124318
 30
0.0
 10
-168.8944618168318
 20
1.996668681294389
 30
0.0
 10
-168.4717051068096
 20
1.996624297130656
 30
0.0
 10
-167.619177082587
 20
1.996544257769739
 30
0.0
 10
-167.1872370454519
 20
1.996508437442923
 30
0.0
 10
-165.8747905914224
 20
1.996415519209177
 30
0.0
 10
-164.977818267466
 20
1.996605098941479
 30
0.0
 10
-164.0575750887331
 20
1.99635074037538
 30
0.0
  0
SPLINE
  5
90
330
1F
100
AcDbEntity
  8
0
  6
Continuous
 62
     7
370
    25
100
AcDbSpline
210
0.0
220
0.0
230
1.0
 70
    24
 71
     3
 72
    19
 73
    15
 74
     0
 42
0.000000001
 43
0.00000001
 40
0.0
 40
0.0
 40
0.0
 40
0.0
 40
0.1250000000000001
 40
0.1250000000000001
 40
0.2500000000000002
 40
0.3750000000000002
 40
0.3750000000000002
 40
0.4375000000000002
 40
0.4375000000000002
 40
0.5000000000000002
 40
0.5000000000000002
 40
0.7500000000000001
 40
0.7500000000000001
 40
1.0
 40
1.0
 40
1.0
 40
1.0
 10
163.8494033042317
 20
0.0
 30
0.0
 10
150.232070509556
 20
0.0
 30
0.0
 10
136.5952184454675
 20
0.0
 30
0.0
 10
109.3028796749223
 20
0.0
 30
0.0
 10
81.99073010227232
 20
0.0
 30
0.0
 10
54.63899599787653
 20
0.0
 30
0.0
 10
34.11032985636854
 20
0.0
 30
0.0
 10
27.26595522704083
 20
0.0
 30
0.0
 10
13.58344166275095
 20
0.0
 30
0.0
 10
6.744000018320593
 20
0.0
 30
0.0
 10
-27.44415023760148
 20
0.0
 30
0.0
 10
-54.76570064369135
 20
0.0
 30
0.0
 10
-109.3509937083178
 20
0.0
 30
0.0
 10
-136.6147364211806
 20
0.0
 30
0.0
 10
-163.8494033112327
 20
0.0
 30
0.0
  0
SPLINE
  5
94
330
1F
100
AcDbEntity
  8
0
  6
Continuous
 62
     7
370
    25
100
AcDbSpline
210
0.0
220
0.0
230
1.0
 70
    24
 71
     3
 72
    28
 73
    24
 74
     0
 42
0.000000001
 43
0.00000001
 40
0.0
 40
0.0
 40
0.0
 40
0.0
 40
0.1249999999999934
 40
0.1249999999999934
 40
0.1874999999999925
 40
0.1874999999999925
 40
0.2499999999999917
 40
0.2499999999999917
 40
0.37499999999999
 40
0.37499999999999
 40
0.4374999999999908
 40
0.4374999999999908
 40
0.4999999999999917
 40
0.4999999999999917
 40
0.6249999999999937
 40
0.6249999999999937
 40
0.7499999999999958
 40
0.7499999999999958
 40
0.8749999999999978
 40
0.8749999999999978
 40
0.9374999999999989
 40
0.9374999999999989
 40
1.0
 40
1.0
 40
1.0
 40
1.0
 10
-163.8494033112327
 20
0.0
 30
0.0
 10
-164.6470165737009
 20
0.0
 30
0.0
 10
-165.4244464634001
 20
0.0
 30
0.0
 10
-166.5620175379595
 20
0.0
 30
0.0
 10
-166.9364103524332
 20
0.0
 30
0.0
 10
-167.6753582888352
 20
0.0
 30
0.0
 10
-168.0417979497047
 20
0.0
 30
0.0
 10
-169.1088517531502
 20
0.0
 30
0.0
 10
-169.7774915467192
 20
0.0
 30
0.0
 10
-170.7197551433757
 20
0.0
 30
0.0
 10
-171.0236225676221
 20
0.0
 30
0.0
 10
-171.6102443561514
 20
0.0
 30
0.0
 10
-171.8930850399913
 20
0.0
 30
0.0
 10
-172.6913871556873
 20
0.0
 30
0.0
 10
-173.1636049366278
 20
0.0
 30
0.0
 10
-173.99275856708
 20
0.0
 30
0.0
 10
-174.351389118397
 20
0.0
 30
0.0
 10
-174.9201393029782
 20
0.0
 30
0.0
 10
-175.1341560143196
 20
0.0
 30
0.0
 10
-175.352089322058
 20
0.0
 30
0.0
 10
-175.407498171916
 20
0.0
 30
0.0
 10
-175.4814649782466
 20
0.0
 30
0.0
 10
-175.5
 20
0.0
 30
0.0
 10
-175.5
 20
0.0
 30
0.0
  0
SPLINE
  5
96
330
1F
100
AcDbEntity
  8
0
  6
Continuous
 62
     7
370
    25
100
AcDbSpline
210
0.0
220
0.0
230
1.0
 70
    24
 71
     3
 72
    28
 73
    24
 74
     0
 42
0.000000001
 43
0.00000001
 40
0.0
 40
0.0
 40
0.0
 40
0.0
 40
0.1249999999999968
 40
0.1249999999999968
 40
0.1874999999999947
 40
0.1874999999999947
 40
0.2499999999999926
 40
0.2499999999999926
 40
0.3749999999999899
 40
0.3749999999999899
 40
0.437499999999989
 40
0.437499999999989
 40
0.4999999999999881
 40
0.4999999999999881
 40
0.6249999999999909
 40
0.6249999999999909
 40
0.7499999999999937
 40
0.7499999999999937
 40
0.8749999999999966
 40
0.8749999999999966
 40
0.9374999999999982
 40
0.9374999999999982
 40
1.0
 40
1.0
 40
1.0
 40
1.0
 10
175.5
 20
0.0
 30
0.0
 10
175.5
 20
0.0
 30
0.0
 10
175.426071288807
 20
0.0
 30
0.0
 10
175.2105273543806
 20
0.0
 30
0.0
 10
175.1211096020251
 20
0.0
 30
0.0
 10
174.9062481223537
 20
0.0
 30
0.0
 10
174.7799842768005
 20
0.0
 30
0.0
 10
174.3507375659731
 20
0.0
 30
0.0
 10
173.9993041639057
 20
0.0
 30
0.0
 10
173.3794797654365
 20
0.0
 30
0.0
 10
173.1572667044499
 20
0.0
 30
0.0
 10
172.6806108582675
 20
0.0
 30
0.0
 10
172.4257350403575
 20
0.0
 30
0.0
 10
171.6274855998161
 20
0.0
 30
0.0
 10
171.0461847553596
 20
0.0
 30
0.0
 10
169.7891749220225
 20
0.0
 30
0.0
 10
169.1067014050808
 20
0.0
 30
0.0
 10
167.6939617839667
 20
0.0
 30
0.0
 10
166.9597213110008
 20
0.0
 30
0.0
 10
165.8175184723118
 20
0.0
 30
0.0
 10
165.4285760732529
 20
0.0
 30
0.0
 10
164.6434954488592
 20
0.0
 30
0.0
 10
164.2479562199117
 20
0.0
 30
0.0
 10
163.8494033042317
 20
0.0
 30
0.0
  0
SPLINE
  5
97
330
1F
100
AcDbEntity
  8
0
  6
Continuous
 62
     8
370
    25
100
AcDbSpline
210
0.0
220
0.0
230
1.0
 70
     8
 71
     3
 72
    17
 73
    13
 74
     0
 42
0.000000001
 43
0.00000001
 40
0.0
 40
0.0
 40
0.0
 40
0.0
 40
0.0257038890617052
 40
0.1098690721417215
 40
0.1964686097296699
 40
0.2806363772732786
 40
0.3672409810984727
 40
0.4513955957082286
 40
0.537986610598894
 40
0.6221300186562941
 40
0.7087095340853488
 40
0.9999999999999999
 40
0.9999999999999999
 40
0.9999999999999999
 40
0.9999999999999999
 10
164.7866073601098
 20
355.9980862053134
 30
0.0
 10
165.0366679190889
 20
355.9980913933738
 30
0.0
 10
166.1055303596444
 20
355.9981135692938
 30
0.0
 10
167.9731608265214
 20
355.9981882077562
 30
0.0
 10
170.2439566376932
 20
355.9983406431204
 30
0.0
 10
172.3135456092181
 20
355.9985359064499
 30
0.0
 10
174.0878284464555
 20
355.9987791737232
 30
0.0
 10
175.5477696932742
 20
355.9990421294476
 30
0.0
 10
176.6213611323032
 20
355.9993429635651
 30
0.0
 10
177.3221416550675
 20
355.9996355998689
 30
0.0
 10
177.6738504129574
 20
356.0002985748843
 30
0.0
 10
177.5749897094337
 20
356.0001199879802
 30
0.0
 10
177.4987804792437
 20
355.9999823198268
 30
0.0
  0
SPLINE
  5
98
330
1F
100
AcDbEntity
  8
0
  6
Continuous
 62
     8
370
    25
100
AcDbSpline
210
0.0
220
0.0
230
1.0
 70
     8
 71
     3
 72
    28
 73
    24
 74
     0
 42
0.000000001
 43
0.00000001
 40
0.0
 40
0.0
 40
0.0
 40
0.0
 40
0.0029548450728183
 40
0.0119598230983292
 40
0.0190163576342235
 40
0.0262780605513294
 40
0.0333343310690934
 40
0.0405955290488642
 40
0.0476531609130454
 40
0.0549159364107765
 40
0.0659900791571816
 40
0.0771233500297488
 40
0.0994503919200509
 40
0.1861990067449983
 40
0.2730173911001009
 40
0.3632271944610277
 40
0.4534762477108064
 40
0.5437253113721691
 40
0.6339351289368876
 40
0.7254308747434064
 40
0.8169675626917244
 40
0.9085042521430322
 40
1.0
 40
1.0
 40
1.0
 40
1.0
 10
-177.4990217851514
 20
355.9999822972042
 30
0.0
 10
-177.5024528813902
 20
355.9999850850687
 30
0.0
 10
-177.5163403452124
 20
355.9999963690327
 30
0.0
 10
-177.2577173226108
 20
355.9995687968671
 30
0.0
 10
-176.4161742082336
 20
355.9992798015571
 30
0.0
 10
-175.2537558994939
 20
355.9989793259249
 30
0.0
 10
-173.7176645072736
 20
355.9987229387186
 30
0.0
 10
-171.8774518793483
 20
355.9984887841083
 30
0.0
 10
-169.7544207344343
 20
355.9982989691339
 30
0.0
 10
-167.0091110606429
 20
355.9981571148875
 30
0.0
 10
-163.587695709862
 20
355.9979059166058
 30
0.0
 10
-158.3910655504154
 20
355.9972272193077
 30
0.0
 10
-144.4119613482488
 20
355.9953937536994
 30
0.0
 10
-121.5364025553964
 20
355.9928125600491
 30
0.0
 10
-90.65624333368295
 20
355.9900915702598
 30
0.0
 10
-59.28350293553063
 20
355.9881497588428
 30
0.0
 10
-27.4582441344266
 20
355.9870148498162
 30
0.0
 10
4.391338952177901
 20
355.9867127079865
 30
0.0
 10
36.38349722571956
 20
355.9872470009229
 30
0.0
 10
68.49585027881052
 20
355.9886282297599
 30
0.0
 10
100.6999721756518
 20
355.9908894763437
 30
0.0
 10
132.8248084394658
 20
355.9939450295199
 30
0.0
 10
154.1342632543922
 20
355.9967060192461
 30
0.0
 10
164.7866073601098
 20
355.9980862053134
 30
0.0
  0
SPLINE
  5
99
330
1F
100
AcDbEntity
  8
0
  6
Continuous
 62
     8
370
    25
100
AcDbSpline
210
0.0
220
0.0
230
1.0
 70
     8
 71
     3
 72
    59
 73
    55
 74
     0
 42
0.000000001
 43
0.00000001
 40
0.0
 40
0.0
 40
0.0
 40
0.0
 40
0.0625000000000002
 40
0.0625000000000002
 40
0.1250000000000004
 40
0.1250000000000004
 40
0.2500000000000008
 40
0.2500000000000008
 40
0.3125000000000011
 40
0.3125000000000011
 40
0.3750000000000014
 40
0.3750000000000014
 40
0.5000000000000019
 40
0.5000000000000019
 40
0.6250000000000024
 40
0.6250000000000024
 40
0.6875000000000028
 40
0.6875000000000028
 40
0.7500000000000031
 40
0.7500000000000031
 40
0.8750000000000037
 40
0.8750000000000037
 40
0.906250000000004
 40
0.906250000000004
 40
0.914062500000004
 40
0.916015625000004
 40
0.916015625000004
 40
0.9179687500000041
 40
0.9179687500000041
 40
0.9218750000000039
 40
0.9218750000000039
 40
0.9296875000000034
 40
0.9296875000000034
 40
0.9335937500000032
 40
0.9335937500000032
 40
0.937500000000003
 40
0.937500000000003
 40
0.9453125000000026
 40
0.9453125000000026
 40
0.9531250000000022
 40
0.9531250000000022
 40
0.9609375000000019
 40
0.9609375000000019
 40
0.9648437500000018
 40
0.9648437500000018
 40
0.9687500000000017
 40
0.9687500000000017
 40
0.9765625000000013
 40
0.9765625000000013
 40
0.9785156250000012
 40
0.9785156250000012
 40
0.9804687500000011
 40
0.984375000000001
 40
1.0
 40
1.0
 40
1.0
 40
1.0
 10
164.7860046838474
 20
353.9980869697603
 30
0.0
 10
157.3550002578978
 20
353.9979502377361
 30
0.0
 10
149.9116500851797
 20
353.9961132268793
 30
0.0
 10
135.0063918084759
 20
353.994348318925
 30
0.0
 10
127.5459564205491
 20
353.9935356976047
 30
0.0
 10
105.1412671663061
 20
353.9913064685875
 30
0.0
 10
90.17364193650273
 20
353.9900983403177
 30
0.0
 10
67.67533526254311
 20
353.9887041992525
 30
0.0
 10
60.16973417493315
 20
353.9883092385855
 30
0.0
 10
45.16470971776225
 20
353.9876589405512
 30
0.0
 10
37.6627037074805
 20
353.9874034340108
 30
0.0
 10
15.15820006549017
 20
353.9868450855367
 30
0.0
 10
0.1572165683591415
 20
353.9867504841305
 30
0.0
 10
-29.84071625275159
 20
353.9871169262809
 30
0.0
 10
-44.83766710935632
 20
353.9875772469405
 30
0.0
 10
-67.33006012430755
 20
353.9886850997181
 30
0.0
 10
-74.82701866521673
 20
353.9891240176628
 30
0.0
 10
-89.81991942488628
 20
353.9901422769094
 30
0.0
 10
-97.30934218647945
 20
353.9907212096626
 30
0.0
 10
-119.7486163750641
 20
353.9926661546663
 30
0.0
 10
-134.6729325018734
 20
353.9942402628745
 30
0.0
 10
-153.284296792598
 20
353.9965565453339
 30
0.0
 10
-157.0045204700351
 20
353.9970372768587
 30
0.0
 10
-161.6516233514161
 20
353.9976600359319
 30
0.0
 10
-162.8131572572672
 20
353.9978170851799
 30
0.0
 10
-163.974388871286
 20
353.9979758350556
 30
0.0
 10
-164.4388573328492
 20
353.998039471084
 30
0.0
 10
-164.6712987706683
 20
353.9980846752658
 30
0.0
 10
-165.3670442483458
 20
353.9980982140917
 30
0.0
 10
-165.8289415918941
 20
353.9981102392471
 30
0.0
 10
-167.1923549714202
 20
353.998156334756
 30
0.0
 10
-168.0667649183016
 20
353.9982004481097
 30
0.0
 10
-169.3280452042735
 20
353.9982819160927
 30
0.0
 10
-169.7400090347608
 20
353.9983113529011
 30
0.0
 10
-170.5464988552133
 20
353.9983745018116
 30
0.0
 10
-170.9415682383108
 20
353.9984086268704
 30
0.0
 10
-172.0759602415927
 20
353.9985177128979
 30
0.0
 10
-172.7736085440985
 20
353.9986003994929
 30
0.0
 10
-174.0524831478728
 20
353.9987802096216
 30
0.0
 10
-174.6365287603433
 20
353.9988758029471
 30
0.0
 10
-175.6403523101355
 20
353.9990762751027
 30
0.0
 10
-176.0665318974234
 20
353.9991828349321
 30
0.0
 10
-176.5902777403502
 20
353.9993497271364
 30
0.0
 10
-176.746012500959
 20
353.9994063338829
 30
0.0
 10
-177.0127170063583
 20
353.999519009163
 30
0.0
 10
-177.1242137929709
 20
353.9995754232025
 30
0.0
 10
-177.3949194957839
 20
353.9997466466913
 30
0.0
 10
-177.4909819593724
 20
353.9998641042283
 30
0.0
 10
-177.5015051788563
 20
354.0000128090493
 30
0.0
 10
-177.5000000000001
 20
354.0000000000001
 30
0.0
 10
-177.5000000000001
 20
354.0
 30
0.0
 10
-177.4999999999999
 20
354.0000000000001
 30
0.0
 10
-177.5
 20
354.0000000000002
 30
0.0
 10
-177.5
 20
354.0
 30
0.0
 10
-177.5
 20
354.0
 30
0.0
  0
SPLINE
  5
9A
330
1F
100
AcDbEntity
  8
0
  6
Continuous
 62
     8
370
    25
100
AcDbSpline
210
0.0
220
0.0
230
1.0
 70
     8
 71
     3
 72
    16
 73
    12
 74
     0
 42
0.000000001
 43
0.00000001
 40
0.0
 40
0.0
 40
0.0
 40
0.0
 40
0.0620286395870304
 40
0.1801903791291821
 40
0.2983473488549551
 40
0.416508382714824
 40
0.534665902879727
 40
0.6527621869932694
 40
0.770854827592811
 40
0.8854278155900015
 40
1.0
 40
1.0
 40
1.0
 40
1.0
 10
177.4889061831184
 20
353.9999221108101
 30
0.0
 10
177.4857827313113
 20
353.9999045867497
 30
0.0
 10
177.4767092457563
 20
353.9998536801507
 30
0.0
 10
177.1061491208204
 20
353.9995187386839
 30
0.0
 10
176.2909156380905
 20
353.9992368743848
 30
0.0
 10
175.067066401572
 20
353.9989459463049
 30
0.0
 10
173.4960161647992
 20
353.9986895617544
 30
0.0
 10
171.6063704668808
 20
353.9984628948018
 30
0.0
 10
169.484112572916
 20
353.9982846469308
 30
0.0
 10
167.1931284828394
 20
353.9981496687541
 30
0.0
 10
165.5883774076156
 20
353.9981078693762
 30
0.0
 10
164.7860046838475
 20
353.9980869697605
 30
0.0
  0
LINE
  5
9B
330
1F
100
AcDbEntity
  8
0
  6
Continuous
 62
     7
370
    25
100
AcDbLine
 10
177.5
 20
355.8996323852
 30
0.0
 11
177.5
 21
370.1067874462
 31
0.0
  0
LINE
  5
9C
330
1F
100
AcDbEntity
  8
0
  6
Continuous
 62
     7
370
    25
100
AcDbLine
 10
-177.5
 20
370.1067874462
 30
0.0
 11
-177.5
 21
355.8996323852
 31
0.0
  0
LINE
  5
9D
330
1F
100
AcDbEntity
  8
0
  6
Continuous
 62
     7
370
    25
100
AcDbLine
 10
177.5
 20
2.0
 30
0.0
 11
177.5
 21
354.0
 31
0.0
  0
ARC
  5
9E
330
1F
100
AcDbEntity
  8
0
  6
Continuous
 62
     7
370
    25
100
AcDbCircle
 10
167.4999273328
 20
370.0000365588
 30
0.0
 40
9.999963441230063
100
AcDbArc
 50
359.999376663
 51
89.9997905254
  0
ARC
  5
9F
330
1F
100
AcDbEntity
  8
0
  6
Continuous
 62
     7
370
    25
100
AcDbCircle
 10
-167.4999273328
 20
370.0000365588
 30
0.0
 40
9.999963441231143
100
AcDbArc
 50
90.0002094746
 51
180.000623337
  0
ARC
  5
A0
330
1F
100
AcDbEntity
  8
0
  6
Continuous
 62
     7
370
    25
100
AcDbCircle
 10
-159.1093669881
 20
1.5033018046
 30
0.0
 40
4.972711600353895
100
AcDbArc
 50
174.3097211495
 51
197.5964164823
  0
ARC
  5
A1
330
1F
100
AcDbEntity
  8
0
  6
Continuous
 62
     7
370
    25
100
AcDbCircle
 10
159.1093669809
 20
1.5033018046
 30
0.0
 40
4.972711600546078
100
AcDbArc
 50
342.4035835184
 51
5.6902788503
  0
ARC
  5
A2
330
1F
100
AcDbEntity
  8
0
  6
Continuous
 62
     7
370
    25
100
AcDbCircle
 10
-175.5
 20
2.0
 30
0.0
 40
2.000000000000029
100
AcDbArc
 50
180.0
 51
270.0
  0
ARC
  5
A3
330
1F
100
AcDbEntity
  8
0
  6
Continuous
 62
     7
370
    25
100
AcDbCircle
 10
175.5
 20
2.0
 30
0.0
 40
2.000000000000029
100
AcDbArc
 50
270.0
 51
0.0
  0
SPLINE
  5
A5
330
1B
100
AcDbEntity
 67
     1
  8
0
  6
Continuous
 62
     7
370
    25
100
AcDbSpline
210
0.0
220
0.0
230
1.0
 70
     8
 71
     3
 72
    11
 73
     7
 74
     0
 42
0.000000001
 43
0.00000001
 40
0.0
 40
0.0
 40
0.0
 40
0.0
 40
0.2500000000000455
 40
0.5000000000000504
 40
0.7500000000000208
 40
1.0
 40
1.0
 40
1.0
 40
1.0
 10
-177.5000000000001
 20
356.0000000000001
 30
0.0
 10
-177.4849684272127
 20
355.8689629561939
 30
0.0
 10
-177.4549052816381
 20
355.6068888685813
 30
0.0
 10
-177.2236560685158
 20
355.2763439314843
 30
0.0
 10
-176.8931111314187
 20
355.045094718362
 30
0.0
 10
-176.6310370438063
 20
355.0150315727873
 30
0.0
 10
-176.5000000000001
 20
355.0
 30
0.0
  0
SPLINE
  5
A6
330
1B
100
AcDbEntity
 67
     1
  8
0
  6
Continuous
 62
     7
370
    25
100
AcDbSpline
210
0.0
220
0.0
230
1.0
 70
    24
 71
     3
 72
    11
 73
     7
 74
     0
 42
0.000000001
 43
0.00000001
 40
0.0
 40
0.0
 40
0.0
 40
0.0
 40
0.0044075511465104
 40
0.2199373660801044
 40
0.594322319977533
 40
1.0
 40
1.0
 40
1.0
 40
1.0
 10
-161.7139676191764
 20
355.0
 30
0.0
 10
-161.6882922952408
 20
355.0
 30
0.0
 10
-160.4070903461407
 20
354.9999999999987
 30
0.0
 10
-156.935089695842
 20
355.0000000000009
 30
0.0
 10
-151.127678613794
 20
354.9999999999997
 30
0.0
 10
-146.5752937717301
 20
354.9999999999999
 30
0.0
 10
-144.2077903931648
 20
355.0
 30
0.0
  0
SPLINE
  5
A7
330
1B
100
AcDbEntity
 67
     1
  8
0
  6
Continuous
 62
     7
370
    25
100
AcDbSpline
210
0.0
220
0.0
230
1.0
 70
     8
 71
     3
 72
    11
 73
     7
 74
     0
 42
0.000000001
 43
0.00000001
 40
0.0
 40
0.0
 40
0.0
 40
0.0
 40
0.2500000000000128
 40
0.5000000000000167
 40
0.7500000000000255
 40
0.9999999999999999
 40
0.9999999999999999
 40
0.9999999999999999
 40
0.9999999999999999
 10
176.5000000000001
 20
355.0
 30
0.0
 10
176.6310370438063
 20
355.0150315727873
 30
0.0
 10
176.8931111314187
 20
355.045094718362
 30
0.0
 10
177.2236560685157
 20
355.2763439314844
 30
0.0
 10
177.454905281638
 20
355.6068888685811
 30
0.0
 10
177.4849684272127
 20
355.8689629561937
 30
0.0
 10
177.5000000000001
 20
355.9999999999999
 30
0.0
  0
SPLINE
  5
AB
330
1B
100
AcDbEntity
 67
     1
  8
0
  6
Continuous
 62
     7
370
    25
100
AcDbSpline
210
0.0
220
0.0
230
1.0
 70
     8
 71
     3
 72
    11
 73
     7
 74
     0
 42
0.000000001
 43
0.00000001
 40
0.0
 40
0.0
 40
0.0
 40
0.0
 40
0.2499999999999932
 40
0.5000000000000155
 40
0.7500000000000033
 40
1.0
 40
1.0
 40
1.0
 40
1.0
 10
177.5000000000001
 20
354.0
 30
0.0
 10
177.4849684272127
 20
354.1310370438061
 30
0.0
 10
177.4549052816381
 20
354.3931111314186
 30
0.0
 10
177.2236560685158
 20
354.7236560685158
 30
0.0
 10
176.8931111314187
 20
354.954905281638
 30
0.0
 10
176.6310370438063
 20
354.9849684272127
 30
0.0
 10
176.5000000000001
 20
355.0
 30
0.0
  0
SPLINE
  5
AC
330
1B
100
AcDbEntity
 67
     1
  8
0
  6
Continuous
 62
     7
370
    25
100
AcDbSpline
210
0.0
220
0.0
230
1.0
 70
    24
 71
     3
 72
    12
 73
     8
 74
     0
 42
0.000000001
 43
0.00000001
 40
0.0
 40
0.0
 40
0.0
 40
0.0
 40
0.0641761552708958
 40
0.4764434253410613
 40
0.7368170506607664
 40
0.9553391097808148
 40
1.0
 40
1.0
 40
1.0
 40
1.0
 10
176.5000000000001
 20
355.0
 30
0.0
 10
176.4999563327544
 20
355.0
 30
0.0
 10
176.4996321473613
 20
354.9999999999998
 30
0.0
 10
176.5102968748011
 20
355.0
 30
0.0
 10
176.4791266799583
 20
354.9999999999999
 30
0.0
 10
176.543425376071
 20
354.9999999999999
 30
0.0
 10
176.4817859072116
 20
355.0
 30
0.0
 10
176.4713259835775
 20
355.0
 30
0.0
  0
SPLINE
  5
AD
330
1B
100
AcDbEntity
 67
     1
  8
0
  6
Continuous
 62
     7
370
    25
100
AcDbSpline
210
0.0
220
0.0
230
1.0
 70
     8
 71
     3
 72
    11
 73
     7
 74
     0
 42
0.000000001
 43
0.00000001
 40
0.0
 40
0.0
 40
0.0
 40
0.0
 40
0.0931714376522269
 40
0.395447625101473
 40
0.697723812550725
 40
1.0
 40
1.0
 40
1.0
 40
1.0
 10
-176.7647278439345
 20
354.9473423578517
 30
0.0
 10
-176.804571049194
 20
354.9410824948024
 30
0.0
 10
-176.9736776047365
 20
354.914513751863
 30
0.0
 10
-177.2220188129557
 20
354.7187847081128
 30
0.0
 10
-177.4553145955281
 20
354.3943289715194
 30
0.0
 10
-177.4851048651761
 20
354.1314429905065
 30
0.0
 10
-177.5000000000001
 20
353.9999999999999
 30
0.0
  0
SPLINE
  5
AF
330
1B
100
AcDbEntity
 67
     1
  8
0
  6
Continuous
 62
     7
370
    25
100
AcDbSpline
210
0.0
220
0.0
230
1.0
 70
    24
 71
     3
 72
     9
 73
     5
 74
     0
 42
0.000000001
 43
0.00000001
 40
0.0
 40
0.0
 40
0.0
 40
0.0
 40
0.4998535051090108
 40
1.0
 40
1.0
 40
1.0
 40
1.0
 10
-177.5
 20
353.9994930771759
 30
0.0
 10
-177.5
 20
295.3525223171513
 30
0.0
 10
-177.5000000000001
 20
178.0242047989328
 30
0.0
 10
-177.5000000000001
 20
60.68619454565824
 30
0.0
 10
-177.5000000000001
 20
2.000000000000002
 30
0.0
  0
SPLINE
  5
B1
330
1B
100
AcDbEntity
 67
     1
  8
0
  6
Continuous
 62
     7
370
    25
100
AcDbSpline
210
0.0
220
0.0
230
1.0
 70
    24
 71
     3
 72
    11
 73
     7
 74
     0
 42
0.000000001
 43
0.00000001
 40
0.4974638839762364
 40
0.4974638839762364
 40
0.4974638839762364
 40
0.4974638839762364
 40
0.503606159957925
 40
0.5097484359396137
 40
0.5158907119213023
 40
0.522032987870373
 40
0.522032987870373
 40
0.522032987870373
 40
0.522032987870373
 10
177.5000000000001
 20
369.9999999966087
 30
0.0
 10
177.500000000001
 20
369.9999999966087
 30
0.0
 10
176.7160209245024
 20
369.9999999966091
 30
0.0
 10
173.3764537469146
 20
369.9999999966082
 30
0.0
 10
168.3871652332101
 20
369.9999999966096
 30
0.0
 10
164.463495395718
 20
369.9999999966087
 30
0.0
 10
162.4999999880879
 20
369.9999999966087
 30
0.0
  0
SPLINE
  5
B2
330
1B
100
AcDbEntity
 67
     1
  8
0
  6
Continuous
 62
     7
370
    25
100
AcDbSpline
210
0.0
220
0.0
230
1.0
 70
     8
 71
     3
 72
    14
 73
    10
 74
     0
 42
0.000000001
 43
0.00000001
 40
0.0
 40
0.0
 40
0.0
 40
0.0
 40
0.0312500000000002
 40
0.0312500000000002
 40
0.0625000000000003
 40
0.1250000000000002
 40
0.2500000000000001
 40
0.5000000000000001
 40
1.0
 40
1.0
 40
1.0
 40
1.0
 10
177.4998907734023
 20
369.9999277664072
 30
0.0
 10
177.5020286345769
 20
370.0006348826102
 30
0.0
 10
177.5
 20
369.9999999999999
 30
0.0
 10
177.4999999999999
 20
369.9999999999998
 30
0.0
 10
177.5
 20
370.0000000000002
 30
0.0
 10
177.5
 20
369.9999999999999
 30
0.0
 10
177.5
 20
369.9999999999998
 30
0.0
 10
177.5000000000001
 20
370.0000000000002
 30
0.0
 10
177.5
 20
370.0000000000002
 30
0.0
 10
177.5
 20
370.0000000000001
 30
0.0
  0
LWPOLYLINE
  5
B3
330
1B
100
AcDbEntity
 67
     1
  8
0
  6
Continuous
 62
     7
370
    25
100
AcDbPolyline
 90
        2
 70
   128
 43
0.0
 10
177.5
 20
370.0
 10
177.5
 20
370.0
  0
SPLINE
  5
B4
330
1B
100
AcDbEntity
 67
     1
  8
0
  6
Continuous
 62
     7
370
    25
100
AcDbSpline
210
0.0
220
0.0
230
1.0
 70
     8
 71
     3
 72
    30
 73
    26
 74
     0
 42
0.000000001
 43
0.00000001
 40
0.0
 40
0.0
 40
0.0
 40
0.0
 40
0.0625000000000008
 40
0.0625000000000008
 40
0.1250000000000015
 40
0.1250000000000015
 40
0.2499999999999999
 40
0.2499999999999999
 40
0.3124999999999974
 40
0.3124999999999974
 40
0.3749999999999949
 40
0.3749999999999949
 40
0.4999999999999912
 40
0.4999999999999912
 40
0.5624999999999913
 40
0.5624999999999913
 40
0.6249999999999915
 40
0.6249999999999915
 40
0.7499999999999937
 40
0.7499999999999937
 40
0.8124999999999952
 40
0.8124999999999952
 40
0.8749999999999969
 40
0.8749999999999969
 40
1.0
 40
1.0
 40
1.0
 40
1.0
 10
164.8291114394349
 20
369.9808324742245
 30
0.0
 10
165.2686731975445
 20
369.9809148285721
 30
0.0
 10
165.7058048086029
 20
369.9810234748545
 30
0.0
 10
166.5655547796772
 20
369.9812999050465
 30
0.0
 10
166.9879738749881
 20
369.9814672966884
 30
0.0
 10
168.2334806539489
 20
369.9820538227681
 30
0.0
 10
169.0350212221864
 20
369.982559000353
 30
0.0
 10
170.1929683140506
 20
369.9834259083675
 30
0.0
 10
170.5729635230975
 20
369.9837358013009
 30
0.0
 10
171.3040897647557
 20
369.9843958143228
 30
0.0
 10
171.6566261794981
 20
369.9847465758962
 30
0.0
 10
172.6761005798507
 20
369.9858626632015
 30
0.0
 10
173.3052609623252
 20
369.9866950435846
 30
0.0
 10
174.1706283912383
 20
369.9880177235706
 30
0.0
 10
174.4458757553446
 20
369.9884692836148
 30
0.0
 10
174.9592028083444
 20
369.9893893454557
 30
0.0
 10
175.1988042482245
 20
369.9898600989401
 30
0.0
 10
175.8674178721977
 20
369.9913137699
 30
0.0
 10
176.2467061558369
 20
369.9923428056816
 30
0.0
 10
176.7115316213223
 20
369.993936590432
 30
0.0
 10
176.8479357982754
 20
369.9944679448205
 30
0.0
 10
177.0811499874094
 20
369.9955312416315
 30
0.0
 10
177.1785897203607
 20
369.996065398625
 30
0.0
 10
177.4143036505514
 20
369.9976879485023
 30
0.0
 10
177.496487075724
 20
369.9988019637561
 30
0.0
 10
177.4998907734023
 20
369.9999277664072
 30
0.0
  0
SPLINE
  5
B5
330
1B
100
AcDbEntity
 67
     1
  8
0
  6
Continuous
 62
     7
370
    25
100
AcDbSpline
210
0.0
220
0.0
230
1.0
 70
     8
 71
     3
 72
    30
 73
    26
 74
     0
 42
0.000000001
 43
0.00000001
 40
0.0
 40
0.0
 40
0.0
 40
0.0
 40
0.062500000000001
 40
0.062500000000001
 40
0.125000000000002
 40
0.125000000000002
 40
0.2500000000000031
 40
0.2500000000000031
 40
0.3125000000000038
 40
0.3125000000000038
 40
0.3750000000000046
 40
0.3750000000000046
 40
0.500000000000005
 40
0.500000000000005
 40
0.5625000000000052
 40
0.5625000000000052
 40
0.6250000000000054
 40
0.6250000000000054
 40
0.7500000000000028
 40
0.7500000000000028
 40
0.812500000000002
 40
0.812500000000002
 40
0.8750000000000011
 40
0.8750000000000011
 40
1.0
 40
1.0
 40
1.0
 40
1.0
 10
-177.4998907733984
 20
369.999927766406
 30
0.0
 10
-177.4981892011773
 20
369.999364956584
 30
0.0
 10
-177.476499998508
 20
369.9987985700739
 30
0.0
 10
-177.3943244059421
 20
369.9976823888082
 30
0.0
 10
-177.3340093049909
 20
369.9971327650309
 30
0.0
 10
-177.0969660706472
 20
369.9955085868572
 30
0.0
 10
-176.8646653745738
 20
369.9944613409471
 30
0.0
 10
-176.4017344956022
 20
369.9928745201278
 30
0.0
 10
-176.2272903899112
 20
369.9923440723908
 30
0.0
 10
-175.846101867422
 20
369.9913158904729
 30
0.0
 10
-175.6389757352107
 20
369.990816222757
 30
0.0
 10
-174.9691931447775
 20
369.9893626801933
 30
0.0
 10
-174.4585853591095
 20
369.9884577760922
 30
0.0
 10
-173.5931554841447
 20
369.9871351182355
 30
0.0
 10
-173.2876237019385
 20
369.9867002267964
 30
0.0
 10
-172.6553868884145
 20
369.9858738897011
 30
0.0
 10
-172.3272650446754
 20
369.985480156593
 30
0.0
 10
-171.3075827088819
 20
369.984365705088
 30
0.0
 10
-170.5810320900021
 20
369.98371632734
 30
0.0
 10
-169.417935957909
 20
369.9828457275412
 30
0.0
 10
-169.0201207123902
 20
369.9825716810602
 30
0.0
 10
-168.21517348336
 20
369.9820754679527
 30
0.0
 10
-167.8065018747768
 20
369.9818521885014
 30
0.0
 10
-166.5621793494849
 20
369.9812679361769
 30
0.0
 10
-165.7083860378869
 20
369.980997211225
 30
0.0
 10
-164.8291114309627
 20
369.9808324742229
 30
0.0
  0
SPLINE
  5
B6
330
1B
100
AcDbEntity
 67
     1
  8
0
  6
Continuous
 62
     7
370
    25
100
AcDbSpline
210
0.0
220
0.0
230
1.0
 70
    24
 71
     3
 72
    11
 73
     7
 74
     0
 42
0.000000001
 43
0.00000001
 40
0.1340026041413494
 40
0.1340026041413494
 40
0.1340026041413494
 40
0.1340026041413494
 40
0.1401448801230381
 40
0.1462871561047266
 40
0.1524294320864153
 40
0.1585717080458906
 40
0.1585717080458906
 40
0.1585717080458906
 40
0.1585717080458906
 10
-162.4999999880879
 20
369.9999998809681
 30
0.0
 10
-164.463495395718
 20
369.9999998809681
 30
0.0
 10
-168.3871652332113
 20
369.9999998809681
 30
0.0
 10
-173.3764537469195
 20
369.9999998809679
 30
0.0
 10
-176.7160209245031
 20
369.9999998809686
 30
0.0
 10
-177.5000000000001
 20
369.9999998809681
 30
0.0
 10
-177.5000000000001
 20
369.9999998809681
 30
0.0
  0
SPLINE
  5
B7
330
1B
100
AcDbEntity
 67
     1
  8
0
  6
Continuous
 62
     7
370
    25
100
AcDbSpline
210
0.0
220
0.0
230
1.0
 70
     8
 71
     3
 72
    35
 73
    31
 74
     0
 42
0.000000001
 43
0.00000001
 40
0.0
 40
0.0
 40
0.0
 40
0.0
 40
0.0117096686172636
 40
0.0183195001438626
 40
0.0251222387091644
 40
0.0317314896240391
 40
0.0385330715093084
 40
0.0451403961943003
 40
0.0519393007871467
 40
0.0584762987764716
 40
0.0651853704504854
 40
0.3541948623715359
 40
0.4986996083320612
 40
0.6432043542925864
 40
0.7877091002531116
 40
0.8599614732333742
 40
0.878072419144656
 40
0.8962194755399562
 40
0.9142964090770028
 40
0.9323114735664391
 40
0.9389254141129659
 40
0.945731401404262
 40
0.952344705146227
 40
0.959148850265424
 40
0.965763532691845
 40
0.9725688895049601
 40
0.9791909724144802
 40
0.9860052567044956
 40
0.9983814177511009
 40
1.0
 40
1.0
 40
1.0
 40
1.0
 10
-177.6813733522088
 20
355.9999998496229
 30
0.0
 10
-177.5072386823445
 20
355.9999999267331
 30
0.0
 10
-177.2348091018072
 20
356.0000000473702
 30
0.0
 10
-176.1215020323232
 20
355.9999999866601
 30
0.0
 10
-174.852133092275
 20
355.9999997962187
 30
0.0
 10
-173.2211789054003
 20
356.0000002458804
 30
0.0
 10
-171.2998293774271
 20
355.9999997890937
 30
0.0
 10
-169.1128464937231
 20
356.000000119358
 30
0.0
 10
-166.7665436498901
 20
355.9999999611979
 30
0.0
 10
-164.2885802702364
 20
355.9999998764886
 30
0.0
 10
-126.2543685577018
 20
356.0000017730943
 30
0.0
 10
-71.06311046731399
 20
355.9999996070948
 30
0.0
 10
1.540608620536079
 20
356.000000074814
 30
0.0
 10
55.97558454224163
 20
355.9999999767186
 30
0.0
 10
101.3404121360815
 20
356.0000000113786
 30
0.0
 10
130.8362183850262
 20
355.9999999892712
 30
0.0
 10
144.4599337055968
 20
356.0000000087812
 30
0.0
 10
151.2755396413343
 20
355.9999999887589
 30
0.0
 10
158.0858579573173
 20
356.0000000436022
 30
0.0
 10
163.4568107149242
 20
355.999999745968
 30
0.0
 10
167.3200858974014
 20
356.0000000677687
 30
0.0
 10
169.6372138392676
 20
356.0000000018968
 30
0.0
 10
171.7739191980388
 20
355.9999998655231
 30
0.0
 10
173.6299036245497
 20
356.0000002250488
 30
0.0
 10
175.1834175456107
 20
355.9999997208853
 30
0.0
 10
176.3669741314607
 20
356.0000001197523
 30
0.0
 10
177.1673928377466
 20
355.9999999390125
 30
0.0
 10
177.6273507859
 20
355.9999999758779
 30
0.0
 10
177.4960496557681
 20
356.0000000007483
 30
0.0
 10
177.4995904807703
 20
356.0000000000775
 30
0.0
 10
177.5000000000001
 20
356.0
 30
0.0
  0
SPLINE
  5
B8
330
1B
100
AcDbEntity
 67
     1
  8
0
  6
Continuous
 62
     7
370
    25
100
AcDbSpline
210
0.0
220
0.0
230
1.0
 70
    24
 71
     3
 72
    25
 73
    21
 74
     0
 42
0.000000001
 43
0.00000001
 40
0.0
 40
0.0
 40
0.0
 40
0.0
 40
0.0156535981044788
 40
0.0227478102402833
 40
0.0298415408630391
 40
0.0369268913996177
 40
0.0440125282996839
 40
0.0510957821183001
 40
0.0581796547183664
 40
0.0652633954792622
 40
0.0723476970763999
 40
0.0861197742173626
 40
0.0999632492919807
 40
0.1138098724303983
 40
0.2313241186165188
 40
0.7013811033610006
 40
0.8840866624351742
 40
0.9754394419722611
 40
0.9938401079614628
 40
1.0
 40
1.0
 40
1.0
 40
1.0
 10
176.6845743347261
 20
355.0
 30
0.0
 10
176.6587287644981
 20
354.9999999999999
 30
0.0
 10
176.6211699794075
 20
354.9999999999999
 30
0.0
 10
176.1974596262718
 20
355.0000000000001
 30
0.0
 10
175.4503289546402
 20
355.0000000000001
 30
0.0
 10
174.3429211870745
 20
354.9999999999999
 30
0.0
 10
172.9033873137268
 20
355.0000000000001
 30
0.0
 10
171.1630269935861
 20
354.9999999999999
 30
0.0
 10
169.1815419275169
 20
354.9999999999999
 30
0.0
 10
167.0079280886251
 20
355.0000000000001
 30
0.0
 10
163.9775217520342
 20
354.9999999999999
 30
0.0
 10
160.1132582556029
 20
355.0000000000001
 30
0.0
 10
155.5155102348205
 20
355.0000000000001
 30
0.0
 10
139.4010434206508
 20
355.0
 30
0.0
 10
72.6378858745766
 20
355.0000000000001
 30
0.0
 10
-12.85761029902518
 20
354.9999999999996
 30
0.0
 10
-95.45388629192992
 20
355.0000000000005
 30
0.0
 10
-127.9170461623205
 20
354.9999999999995
 30
0.0
 10
-140.7828761665405
 20
355.0000000000002
 30
0.0
 10
-143.5026426719294
 20
355.0
 30
0.0
 10
-144.1847716375785
 20
355.0000000000001
 30
0.0
  0
SPLINE
  5
B9
330
1B
100
AcDbEntity
 67
     1
  8
0
  6
Continuous
 62
     7
370
    25
100
AcDbSpline
210
0.0
220
0.0
230
1.0
 70
    24
 71
     3
 72
    15
 73
    11
 74
     0
 42
0.000000001
 43
0.00000001
 40
0.0
 40
0.0
 40
0.0
 40
0.0
 40
0.2059147039362053
 40
0.3082657958827839
 40
0.4106243968853371
 40
0.5130159921549897
 40
0.615408323281589
 40
0.7178132477350039
 40
0.8202118298932212
 40
1.0
 40
1.0
 40
1.0
 40
1.0
 10
-161.7806731604712
 20
355.0
 30
0.0
 10
-163.3512702381318
 20
354.9999999999999
 30
0.0
 10
-165.702541657322
 20
354.9999999999999
 30
0.0
 10
-168.6617424343956
 20
355.0000000000001
 30
0.0
 10
-170.6957315188905
 20
355.0
 30
0.0
 10
-172.4956270300949
 20
355.0000000000001
 30
0.0
 10
-174.016962726551
 20
355.0
 30
0.0
 10
-175.2056606071914
 20
355.0
 30
0.0
 10
-176.2532883261058
 20
355.0000000000001
 30
0.0
 10
-176.5159389846396
 20
355.0
 30
0.0
 10
-176.6832802254885
 20
355.0
 30
0.0
  0
SPLINE
  5
BB
330
1B
100
AcDbEntity
 67
     1
  8
0
  6
Continuous
 62
     7
370
    25
100
AcDbSpline
210
0.0
220
0.0
230
1.0
 70
    24
 71
     3
 72
    24
 73
    20
 74
     0
 42
0.000000001
 43
0.00000001
 40
0.0
 40
0.0
 40
0.0
 40
0.0
 40
0.1250000000000091
 40
0.1250000000000091
 40
0.1875000000000085
 40
0.1875000000000085
 40
0.2500000000000078
 40
0.2500000000000078
 40
0.3750000000000065
 40
0.3750000000000065
 40
0.5000000000000052
 40
0.5000000000000052
 40
0.6250000000000039
 40
0.6250000000000039
 40
0.7500000000000026
 40
0.7500000000000026
 40
0.8750000000000013
 40
0.8750000000000013
 40
1.0
 40
1.0
 40
1.0
 40
1.0
 10
162.4999999982761
 20
380.0
 30
0.0
 10
162.8303619371908
 20
380.0000000000001
 30
0.0
 10
163.1550883818658
 20
379.9999999999998
 30
0.0
 10
163.6344955457432
 20
379.9999999999999
 30
0.0
 10
163.7929976861641
 20
379.9999999999999
 30
0.0
 10
164.1073011002158
 20
379.9999999999999
 30
0.0
 10
164.2635148079797
 20
380.0000000000002
 30
0.0
 10
164.717456486671
 20
380.0000000000002
 30
0.0
 10
165.0040764072934
 20
379.9999999999999
 30
0.0
 10
165.5474182708977
 20
380.0
 30
0.0
 10
165.8051313121957
 20
379.9999999999999
 30
0.0
 10
166.2660106041521
 20
379.9999999999998
 30
0.0
 10
166.4722346286041
 20
379.9999999999999
 30
0.0
 10
166.8377545229738
 20
379.9999999999999
 30
0.0
 10
166.9938204950163
 20
380.0000000000001
 30
0.0
 10
167.2431293051774
 20
379.9999999999999
 30
0.0
 10
167.3381528329724
 20
379.9999999999999
 30
0.0
 10
167.4668234613927
 20
379.9999999999998
 30
0.0
 10
167.5
 20
380.0
 30
0.0
 10
167.5
 20
380.0
 30
0.0
  0
SPLINE
  5
C0
330
1B
100
AcDbEntity
 67
     1
  8
0
  6
Continuous
 62
     7
370
    25
100
AcDbSpline
210
0.0
220
0.0
230
1.0
 70
    24
 71
     3
 72
    24
 73
    20
 74
     0
 42
0.000000001
 43
0.00000001
 40
0.0
 40
0.0
 40
0.0
 40
0.0
 40
0.1249999999999964
 40
0.1249999999999964
 40
0.1874999999999949
 40
0.1874999999999949
 40
0.2499999999999934
 40
0.2499999999999934
 40
0.3749999999999945
 40
0.3749999999999945
 40
0.4999999999999956
 40
0.4999999999999956
 40
0.6249999999999967
 40
0.6249999999999967
 40
0.7499999999999978
 40
0.7499999999999978
 40
0.8749999999999989
 40
0.8749999999999989
 40
1.0
 40
1.0
 40
1.0
 40
1.0
 10
-167.5
 20
380.0
 30
0.0
 10
-167.4999999995242
 20
380.0
 30
0.0
 10
-167.4667789469369
 20
379.9999999999998
 30
0.0
 10
-167.3716696808856
 20
379.9999999999999
 30
0.0
 10
-167.3323040025712
 20
380.0000000000002
 30
0.0
 10
-167.2376600422202
 20
380.0
 30
0.0
 10
-167.1821186755761
 20
379.9999999999999
 30
0.0
 10
-166.9940465883345
 20
379.9999999999998
 30
0.0
 10
-166.8396875992613
 20
379.9999999999999
 30
0.0
 10
-166.4768823247907
 20
380.0000000000001
 30
0.0
 10
-166.2665414708334
 20
380.0000000000001
 30
0.0
 10
-165.8057398252284
 20
379.9999999999999
 30
0.0
 10
-165.5536889511585
 20
379.9999999999999
 30
0.0
 10
-165.0076572015384
 20
379.9999999999999
 30
0.0
 10
-164.7175720154311
 20
380.0
 30
0.0
 10
-164.116707240271
 20
379.9999999999999
 30
0.0
 10
-163.8019310372966
 20
380.0
 30
0.0
 10
-163.1563621794946
 20
379.9999999999999
 30
0.0
 10
-162.8300557320745
 20
379.9999999999999
 30
0.0
 10
-162.499999995983
 20
380.0
 30
0.0
  0
SPLINE
  5
C1
330
1B
100
AcDbEntity
 67
     1
  8
0
  6
Continuous
 62
     7
370
    25
100
AcDbSpline
210
0.0
220
0.0
230
1.0
 70
     8
 71
     3
 72
    48
 73
    44
 74
     0
 42
0.000000001
 43
0.00000001
 40
0.0
 40
0.0
 40
0.0
 40
0.0
 40
0.0109619634798109
 40
0.0219195575068294
 40
0.0328727646889634
 40
0.0438215676989862
 40
0.0547659492777288
 40
0.0657058922372584
 40
0.0766413794640203
 40
0.0875723939219727
 40
0.0984989186556839
 40
0.1094209367934167
 40
0.1203384315501819
 40
0.1312513862307746
 40
0.1421597842327884
 40
0.153063609049601
 40
0.1639628442733453
 40
0.1748574735978526
 40
0.1857474808215785
 40
0.196632849850503
 40
0.2075135647010126
 40
0.2183896111644404
 40
0.2292610003540874
 40
0.2401277252973207
 40
0.2509897694325881
 40
0.2618471162179939
 40
0.2726997491345773
 40
0.2835476516895679
 40
0.2943908074196159
 40
0.3052291998940028
 40
0.316062812717827
 40
0.3268916295351635
 40
0.3377156340322063
 40
0.4359108189653012
 40
0.5341139363987818
 40
0.6323154509724556
 40
0.7305041916371907
 40
0.8289327727813658
 40
0.9274194824571548
 40
0.9455651763532447
 40
0.9637105438760811
 40
0.9818555101274236
 40
1.0
 40
1.0
 40
1.0
 40
1.0
 10
-143.4999999988056
 20
356.9541074547329
 30
0.0
 10
-142.4575461993554
 20
356.9547732071263
 30
0.0
 10
-140.3730541238851
 20
356.9561044465431
 30
0.0
 10
-137.2453843709959
 20
356.9580442690385
 30
0.0
 10
-134.1178628447219
 20
356.9599419634403
 30
0.0
 10
-130.990409460485
 20
356.9617935645689
 30
0.0
 10
-127.8630881795423
 20
356.9636002634494
 30
0.0
 10
-124.7359242778675
 20
356.9653618660759
 30
0.0
 10
-121.6089532793749
 20
356.9670785450825
 30
0.0
 10
-118.4822078523017
 20
356.9687503706796
 30
0.0
 10
-115.3557213182454
 20
356.9703774362747
 30
0.0
 10
-112.2295267125614
 20
356.9719598248427
 30
0.0
 10
-109.1036570360431
 20
356.9734976179449
 30
0.0
 10
-105.9781451875938
 20
356.9749908933273
 30
0.0
 10
-102.8530239823277
 20
356.9764397255774
 30
0.0
 10
-99.72832614678278
 20
356.97784418596
 30
0.0
 10
-96.60408432030856
 20
356.9792043424908
 30
0.0
 10
-93.48033105463087
 20
356.9805202598732
 30
0.0
 10
-90.35709881454092
 20
356.9817919997585
 30
0.0
 10
-87.23441997590845
 20
356.983019619843
 30
0.0
 10
-84.11232667434058
 20
356.9842031773601
 30
0.0
 10
-80.99084836555164
 20
356.9853427172193
 30
0.0
 10
-77.87001367592794
 20
356.9864383227933
 30
0.0
 10
-74.74985160030289
 20
356.987490157995
 30
0.0
 10
-71.63039365951998
 20
356.9884983675397
 30
0.0
 10
-68.5116722146508
 20
356.9894630961923
 30
0.0
 10
-65.39371954179846
 20
356.9903844842279
 30
0.0
 10
-62.27656781216474
 20
356.9912626684059
 30
0.0
 10
-59.16024917811993
 20
356.9920977829832
 30
0.0
 10
-56.04479544938485
 20
356.9928899547415
 30
0.0
 10
-52.93023930182372
 20
356.9936393219165
 30
0.0
 10
-49.81660976919724
 20
356.9943459635554
 30
0.0
 10
-38.3283672109261
 20
356.9967973984471
 30
0.0
 10
-18.45097257592612
 20
356.9996647416613
 30
0.0
 10
9.820174874997598
 20
357.0002066144992
 30
0.0
 10
38.08399856761161
 20
356.9972059281933
 30
0.0
 10
66.34281009200024
 20
356.9906831576482
 30
0.0
 10
94.58231673953144
 20
356.9806115423801
 30
0.0
 10
115.1142264004926
 20
356.9706802952577
 30
0.0
 10
127.9575894156831
 20
356.9635027141301
 30
0.0
 10
133.1418610196919
 20
356.9604811693179
 30
0.0
 10
138.3230804991536
 20
356.9573480396182
 30
0.0
 10
141.774375267996
 20
356.9551576101404
 30
0.0
 10
143.4999999995076
 20
356.9540624097784
 30
0.0
  0
SPLINE
  5
CD
330
1B
100
AcDbEntity
 67
     1
  8
0
  6
Continuous
 62
     7
370
    25
100
AcDbSpline
210
0.0
220
0.0
230
1.0
 70
     8
 71
     3
 72
    10
 73
     6
 74
     0
 42
0.000000001
 43
0.00000001
 40
0.0
 40
0.0
 40
0.0
 40
0.0
 40
0.4891681726691399
 40
0.9775017442832492
 40
1.0
 40
1.0
 40
1.0
 40
1.0
 10
167.5
 20
353.9999999999999
 30
0.0
 10
167.5268690302822
 20
353.999995972881
 30
0.0
 10
167.5805612478782
 20
353.9999879255141
 30
0.0
 10
167.9131584170334
 20
353.9998647644503
 30
0.0
 10
167.6918541841443
 20
354.0001028519812
 30
0.0
 10
167.6821074163111
 20
354.0001133379257
 30
0.0
  0
SPLINE
  5
CE
330
1B
100
AcDbEntity
 67
     1
  8
0
  6
Continuous
 62
     7
370
    25
100
AcDbSpline
210
0.0
220
0.0
230
1.0
 70
     8
 71
     3
 72
     9
 73
     5
 74
     0
 42
0.000000001
 43
0.00000001
 40
0.0
 40
0.0
 40
0.0
 40
0.0
 40
0.5073377770120335
 40
1.0
 40
1.0
 40
1.0
 40
1.0
 10
-177.7060147979169
 20
353.9999998460077
 30
0.0
 10
-177.7662008454613
 20
353.999999844882
 30
0.0
 10
-177.8848319631732
 20
353.9999998426632
 30
0.0
 10
-177.7271125798726
 20
353.999999908145
 30
0.0
 10
-177.6494101978874
 20
353.9999999404053
 30
0.0
  0
SPLINE
  5
CF
330
1B
100
AcDbEntity
 67
     1
  8
0
  6
Continuous
 62
     7
370
    25
100
AcDbSpline
210
0.0
220
0.0
230
1.0
 70
    24
 71
     3
 72
    42
 73
    38
 74
     0
 42
0.000000001
 43
0.00000001
 40
0.0
 40
0.0
 40
0.0
 40
0.0
 40
0.0056100173168651
 40
0.0167837196539856
 40
0.027834050374298
 40
0.0388334750450863
 40
0.0437927305237229
 40
0.0487522723006394
 40
0.0538316246609536
 40
0.058910941161353
 40
0.0639908771871153
 40
0.0690704767277914
 40
0.0786939945792304
 40
0.0884421974442468
 40
0.0981992515629475
 40
0.3212953288298852
 40
0.4328433674633541
 40
0.544391406096823
 40
0.6559394447302919
 40
0.6746023135083156
 40
0.693368270602291
 40
0.7121316962204004
 40
0.7307911669331029
 40
0.7493163806950678
 40
0.7678182077366
 40
0.7727780317086577
 40
0.7777378526643695
 40
0.7826981790789227
 40
0.7876581958500755
 40
0.7927522020243429
 40
0.7978456904434643
 40
0.8029174457930423
 40
0.8079961881249662
 40
0.9252091115879446
 40
0.9838155733194337
 40
0.9956446037045301
 40
1.0
 40
1.0
 40
1.0
 40
1.0
 10
-176.833045432702
 20
355.0
 30
0.0
 10
-176.8885451125694
 20
354.9999999999999
 30
0.0
 10
-177.0545857885903
 20
355.0000000000001
 30
0.0
 10
-177.254614100368
 20
355.0000000000001
 30
0.0
 10
-177.0499344612453
 20
355.0
 30
0.0
 10
-176.3574080920686
 20
355.0
 30
0.0
 10
-175.2349550664061
 20
354.9999999999999
 30
0.0
 10
-174.0370270281352
 20
354.9999999999999
 30
0.0
 10
-172.4964219986103
 20
355.0000000000001
 30
0.0
 10
-170.6490595835081
 20
354.9999999999999
 30
0.0
 10
-168.5564040025745
 20
355.0000000000001
 30
0.0
 10
-165.6055259163873
 20
355.0
 30
0.0
 10
-161.7217043353746
 20
355.0000000000002
 30
0.0
 10
-157.1098720061394
 20
354.9999999999999
 30
0.0
 10
-118.6947519961109
 20
354.9999999999997
 30
0.0
 10
-64.11702860164333
 20
354.9999999999999
 30
0.0
 10
6.563863137756376
 20
355.0
 30
0.0
 10
59.5779533715523
 20
355.0000000000001
 30
0.0
 10
97.87738943237322
 20
355.0
 30
0.0
 10
121.4771889379686
 20
355.0
 30
0.0
 10
130.3597905904319
 20
355.0000000000001
 30
0.0
 10
139.242759708208
 20
355.0
 30
0.0
 10
148.109709572642
 20
355.0
 30
0.0
 10
156.9226979361731
 20
354.9999999999999
 30
0.0
 10
163.5466786112237
 20
355.0000000000002
 30
0.0
 10
167.8785802858098
 20
354.9999999999999
 30
0.0
 10
169.9815780901859
 20
354.9999999999999
 30
0.0
 10
171.8727318511783
 20
355.0000000000001
 30
0.0
 10
173.5166714057867
 20
354.9999999999999
 30
0.0
 10
174.8477139461141
 20
354.9999999999999
 30
0.0
 10
175.8265154969234
 20
355.0000000000001
 30
0.0
 10
176.4019164418012
 20
354.9999999999999
 30
0.0
 10
177.2407807416769
 20
355.0000000000009
 30
0.0
 10
176.5264644359319
 20
355.0000000000002
 30
0.0
 10
176.2776704737691
 20
354.9999999999996
 30
0.0
 10
176.6146244788735
 20
355.0000000000002
 30
0.0
 10
176.7994556898086
 20
355.0
 30
0.0
 10
176.8491956767283
 20
355.0
 30
0.0
  0
SPLINE
  5
D0
330
1B
100
AcDbEntity
 67
     1
  8
0
  6
Continuous
 62
     7
370
    25
100
AcDbSpline
210
0.0
220
0.0
230
1.0
 70
    11
 71
     3
 72
    68
 73
    64
 74
     0
 42
0.000000001
 43
0.00000001
 40
0.0
 40
0.0
 40
0.0
 40
0.0
 40
0.03125
 40
0.03125
 40
0.0625000000000001
 40
0.0625000000000001
 40
0.0937500000000001
 40
0.0937500000000001
 40
0.1250000000000002
 40
0.1250000000000002
 40
0.1562500000000002
 40
0.1562500000000002
 40
0.1875000000000003
 40
0.1875000000000003
 40
0.2187500000000003
 40
0.2187500000000003
 40
0.2500000000000004
 40
0.2500000000000004
 40
0.2812500000000004
 40
0.2812500000000004
 40
0.3125000000000005
 40
0.3125000000000005
 40
0.3437500000000006
 40
0.3437500000000006
 40
0.3750000000000006
 40
0.3750000000000006
 40
0.4062500000000006
 40
0.4062500000000006
 40
0.4375000000000007
 40
0.4375000000000007
 40
0.4687500000000007
 40
0.4687500000000007
 40
0.5000000000000008
 40
0.5000000000000008
 40
0.5312500000000008
 40
0.5312500000000008
 40
0.5625000000000009
 40
0.5625000000000009
 40
0.5937500000000009
 40
0.5937500000000009
 40
0.625000000000001
 40
0.625000000000001
 40
0.656250000000001
 40
0.656250000000001
 40
0.6875000000000011
 40
0.6875000000000011
 40
0.7187500000000011
 40
0.7187500000000011
 40
0.7500000000000011
 40
0.7500000000000011
 40
0.7812500000000012
 40
0.7812500000000012
 40
0.8125000000000012
 40
0.8125000000000012
 40
0.8437500000000013
 40
0.8437500000000013
 40
0.8750000000000013
 40
0.8750000000000013
 40
0.9062500000000014
 40
0.9062500000000014
 40
0.9375000000000014
 40
0.9375000000000014
 40
1.0
 40
1.0
 40
1.0
 40
1.0
 10
-143.5000000000003
 20
324.9999999999998
 30
0.0
 10
-143.5000000000003
 20
324.7687729498384
 30
0.0
 10
-143.4773112280568
 20
324.541409862998
 30
0.0
 10
-143.3884119365162
 20
324.0940955685064
 30
0.0
 10
-143.3211231152435
 20
323.8718284700327
 30
0.0
 10
-143.1454460150266
 20
323.4479693578451
 30
0.0
 10
-143.0379417023794
 20
323.2469383488692
 30
0.0
 10
-142.7839539215934
 20
322.866478145843
 30
0.0
 10
-142.6361185440502
 20
322.6863421194923
 30
0.0
 10
-142.3131847339048
 20
322.3634662617082
 30
0.0
 10
-142.1369801334245
 20
322.2185838391707
 30
0.0
 10
-141.7543920817349
 20
321.9627202344993
 30
0.0
 10
-141.5506669795178
 20
321.853988026484
 30
0.0
 10
-141.1295152604218
 20
321.6794345819806
 30
0.0
 10
-140.9089891553648
 20
321.6122593011876
 30
0.0
 10
-140.4572031939181
 20
321.5223551695967
 30
0.0
 10
-140.2301133000185
 20
321.5001216925747
 30
0.0
 10
-139.7736035720129
 20
321.4998792942208
 30
0.0
 10
-139.5417653208544
 20
321.5225888449914
 30
0.0
 10
-139.0928775790395
 20
321.6118594663829
 30
0.0
 10
-138.8747023193093
 20
321.6779122972155
 30
0.0
 10
-138.4509588315278
 20
321.8530915117312
 30
0.0
 10
-138.2459571243159
 20
321.9626738224449
 30
0.0
 10
-137.8666194220621
 20
322.2159913742454
 30
0.0
 10
-137.6898216371724
 20
322.3605992312199
 30
0.0
 10
-137.362972235097
 20
322.6871132640262
 30
0.0
 10
-137.2178063505194
 20
322.8642608078776
 30
0.0
 10
-136.9642403842375
 20
323.243256719016
 30
0.0
 10
-136.8546656613848
 20
323.4477198648266
 30
0.0
 10
-136.6788543717827
 20
323.8718628470355
 30
0.0
 10
-136.6126382000193
 20
324.0900295493275
 30
0.0
 10
-136.5230481741043
 20
324.5384025720763
 30
0.0
 10
-136.5000809572177
 20
324.7703534848013
 30
0.0
 10
-136.4999194801059
 20
325.2271721422865
 30
0.0
 10
-136.5219832828389
 20
325.4541753289107
 30
0.0
 10
-136.6113003594592
 20
325.9053122447214
 30
0.0
 10
-136.6784559029091
 20
326.1266355895568
 30
0.0
 10
-136.8526509116284
 20
326.5479524076995
 30
0.0
 10
-136.9607735461697
 20
326.7510691718148
 30
0.0
 10
-137.216695240444
 20
327.1345620856689
 30
0.0
 10
-137.3615280588104
 20
327.3109600220965
 30
0.0
 10
-137.6839232951851
 20
327.6339816069189
 30
0.0
 10
-137.8637469593463
 20
327.7818782181189
 30
0.0
 10
-138.2443699465898
 20
328.0364760150066
 30
0.0
 10
-138.4453047831917
 20
328.1441087698091
 30
0.0
 10
-138.8684659625139
 20
328.319959020164
 30
0.0
 10
-139.0910565163394
 20
328.3876039371856
 30
0.0
 10
-139.5384668887536
 20
328.4769276493692
 30
0.0
 10
-139.7656476335563
 20
328.4997625786707
 30
0.0
 10
-140.2272062244917
 20
328.5002337736605
 30
0.0
 10
-140.4556294059362
 20
328.477696635037
 30
0.0
 10
-140.9029077243602
 20
328.3892078251696
 30
0.0
 10
-141.1247257647226
 20
328.3223138738069
 30
0.0
 10
-141.5493460704794
 20
328.1467926966693
 30
0.0
 10
-141.75049985763
 20
328.0394031200923
 30
0.0
 10
-142.1308466466359
 20
327.7859852200809
 30
0.0
 10
-142.3111940764075
 20
327.6382936604972
 30
0.0
 10
-142.6345975966292
 20
327.3154064441642
 30
0.0
 10
-142.779547802746
 20
327.139371168023
 30
0.0
 10
-143.0353819130912
 20
326.7576267021175
 30
0.0
 10
-143.1446600481768
 20
326.5534101734012
 30
0.0
 10
-143.4070634537124
 20
325.9218451952878
 30
0.0
 10
-143.5000000000003
 20
325.4624541003226
 30
0.0
 10
-143.5000000000003
 20
324.9999999999998
 30
0.0
  0
SPLINE
  5
D1
330
1B
100
AcDbEntity
 67
     1
  8
0
  6
Continuous
 62
     7
370
    25
100
AcDbSpline
210
0.0
220
0.0
230
1.0
 70
    11
 71
     3
 72
    68
 73
    64
 74
     0
 42
0.000000001
 43
0.00000001
 40
0.0
 40
0.0
 40
0.0
 40
0.0
 40
0.03125
 40
0.03125
 40
0.0624999999999999
 40
0.0624999999999999
 40
0.0937499999999999
 40
0.0937499999999999
 40
0.1249999999999998
 40
0.1249999999999998
 40
0.1562499999999998
 40
0.1562499999999998
 40
0.1874999999999997
 40
0.1874999999999997
 40
0.2187499999999997
 40
0.2187499999999997
 40
0.2499999999999996
 40
0.2499999999999996
 40
0.2812499999999996
 40
0.2812499999999996
 40
0.3124999999999995
 40
0.3124999999999995
 40
0.3437499999999994
 40
0.3437499999999994
 40
0.3749999999999994
 40
0.3749999999999994
 40
0.4062499999999994
 40
0.4062499999999994
 40
0.4374999999999993
 40
0.4374999999999993
 40
0.4687499999999993
 40
0.4687499999999993
 40
0.4999999999999992
 40
0.4999999999999992
 40
0.5312499999999992
 40
0.5312499999999992
 40
0.5624999999999991
 40
0.5624999999999991
 40
0.5937499999999991
 40
0.5937499999999991
 40
0.624999999999999
 40
0.624999999999999
 40
0.656249999999999
 40
0.656249999999999
 40
0.6874999999999989
 40
0.6874999999999989
 40
0.7187499999999989
 40
0.7187499999999989
 40
0.7499999999999989
 40
0.7499999999999989
 40
0.7812499999999988
 40
0.7812499999999988
 40
0.8124999999999988
 40
0.8124999999999988
 40
0.8437499999999987
 40
0.8437499999999987
 40
0.8749999999999987
 40
0.8749999999999987
 40
0.9062499999999986
 40
0.9062499999999986
 40
0.9374999999999986
 40
0.9374999999999986
 40
1.0
 40
1.0
 40
1.0
 40
1.0
 10
136.5
 20
325.0
 30
0.0
 10
136.5
 20
324.7687729498385
 30
0.0
 10
136.5226887719435
 20
324.5414098629981
 30
0.0
 10
136.611588063484
 20
324.0940955685067
 30
0.0
 10
136.6788768847567
 20
323.8718284700327
 30
0.0
 10
136.8545539849737
 20
323.4479693578454
 30
0.0
 10
136.9620582976209
 20
323.2469383488693
 30
0.0
 10
137.2160460784069
 20
322.8664781458429
 30
0.0
 10
137.3638814559501
 20
322.6863421194924
 30
0.0
 10
137.6868152660956
 20
322.3634662617084
 30
0.0
 10
137.8630198665758
 20
322.2185838391707
 30
0.0
 10
138.2456079182654
 20
321.9627202344996
 30
0.0
 10
138.4493330204825
 20
321.853988026484
 30
0.0
 10
138.8704847395785
 20
321.6794345819804
 30
0.0
 10
139.0910108446355
 20
321.6122593011877
 30
0.0
 10
139.5427968060822
 20
321.5223551695966
 30
0.0
 10
139.7698866999818
 20
321.5001216925749
 30
0.0
 10
140.2263964279874
 20
321.4998792942209
 30
0.0
 10
140.458234679146
 20
321.5225888449915
 30
0.0
 10
140.9071224209608
 20
321.611859466383
 30
0.0
 10
141.1252976806908
 20
321.6779122972157
 30
0.0
 10
141.5490411684724
 20
321.8530915117313
 30
0.0
 10
141.7540428756844
 20
321.9626738224451
 30
0.0
 10
142.1333805779382
 20
322.2159913742454
 30
0.0
 10
142.3101783628277
 20
322.3605992312199
 30
0.0
 10
142.6370277649033
 20
322.6871132640263
 30
0.0
 10
142.782193649481
 20
322.8642608078777
 30
0.0
 10
143.0357596157629
 20
323.243256719016
 30
0.0
 10
143.1453343386154
 20
323.4477198648265
 30
0.0
 10
143.3211456282176
 20
323.8718628470357
 30
0.0
 10
143.3873617999811
 20
324.0900295493273
 30
0.0
 10
143.4769518258961
 20
324.5384025720763
 30
0.0
 10
143.4999190427826
 20
324.7703534848014
 30
0.0
 10
143.5000805198944
 20
325.2271721422867
 30
0.0
 10
143.4780167171615
 20
325.4541753289108
 30
0.0
 10
143.388699640541
 20
325.9053122447215
 30
0.0
 10
143.3215440970913
 20
326.126635589557
 30
0.0
 10
143.1473490883718
 20
326.5479524076995
 30
0.0
 10
143.0392264538307
 20
326.7510691718148
 30
0.0
 10
142.7833047595562
 20
327.134562085669
 30
0.0
 10
142.63847194119
 20
327.3109600220963
 30
0.0
 10
142.3160767048152
 20
327.6339816069187
 30
0.0
 10
142.1362530406542
 20
327.7818782181191
 30
0.0
 10
141.7556300534106
 20
328.0364760150068
 30
0.0
 10
141.5546952168088
 20
328.1441087698094
 30
0.0
 10
141.1315340374865
 20
328.3199590201642
 30
0.0
 10
140.9089434836609
 20
328.3876039371858
 30
0.0
 10
140.4615331112467
 20
328.4769276493693
 30
0.0
 10
140.2343523664441
 20
328.4997625786708
 30
0.0
 10
139.7727937755087
 20
328.5002337736607
 30
0.0
 10
139.5443705940642
 20
328.4776966350369
 30
0.0
 10
139.0970922756403
 20
328.3892078251699
 30
0.0
 10
138.8752742352779
 20
328.3223138738073
 30
0.0
 10
138.450653929521
 20
328.1467926966695
 30
0.0
 10
138.2495001423705
 20
328.0394031200924
 30
0.0
 10
137.8691533533644
 20
327.785985220081
 30
0.0
 10
137.6888059235929
 20
327.6382936604975
 30
0.0
 10
137.3654024033712
 20
327.3154064441645
 30
0.0
 10
137.2204521972545
 20
327.1393711680233
 30
0.0
 10
136.9646180869093
 20
326.757626702118
 30
0.0
 10
136.8553399518237
 20
326.5534101734013
 30
0.0
 10
136.592936546288
 20
325.9218451952878
 30
0.0
 10
136.5
 20
325.4624541003229
 30
0.0
 10
136.5
 20
324.9999999999999
 30
0.0
  0
SPLINE
  5
D2
330
1B
100
AcDbEntity
 67
     1
  8
0
  6
Continuous
 62
     7
370
    25
100
AcDbSpline
210
0.0
220
0.0
230
1.0
 70
    24
 71
     3
 72
    11
 73
     7
 74
     0
 42
0.000000001
 43
0.00000001
 40
0.4974638839436185
 40
0.4974638839436185
 40
0.4974638839436185
 40
0.4974638839436185
 40
0.5036061599253071
 40
0.5097484359069957
 40
0.5158907118886844
 40
0.5220329878594572
 40
0.5220329878594572
 40
0.5220329878594572
 40
0.5220329878594572
 10
162.499999988088
 20
2.000000075708802
 30
0.0
 10
164.463495395718
 20
2.000000075708802
 30
0.0
 10
168.3926627089346
 20
2.000000075708802
 30
0.0
 10
173.3898202197243
 20
2.000000075708774
 30
0.0
 10
176.723835130551
 20
2.000000075708802
 30
0.0
 10
177.5000000000001
 20
2.000000075708802
 30
0.0
 10
177.5000000000001
 20
2.000000075708802
 30
0.0
  0
SPLINE
  5
D4
330
1B
100
AcDbEntity
 67
     1
  8
0
  6
Continuous
 62
     7
370
    25
100
AcDbSpline
210
0.0
220
0.0
230
1.0
 70
    24
 71
     3
 72
    11
 73
     7
 74
     0
 42
0.000000001
 43
0.00000001
 40
0.1340026041191361
 40
0.1340026041191361
 40
0.1340026041191361
 40
0.1340026041191361
 40
0.1401448801008247
 40
0.1462871560825134
 40
0.152429432064202
 40
0.1585717080334694
 40
0.1585717080334694
 40
0.1585717080334694
 40
0.1585717080334694
 10
-177.5000000000001
 20
2.000000025457776
 30
0.0
 10
-177.5000000000001
 20
2.000000025457776
 30
0.0
 10
-176.7238351305522
 20
2.000000025457776
 30
0.0
 10
-173.3898202197258
 20
2.000000025457776
 30
0.0
 10
-168.3926627089355
 20
2.000000025457776
 30
0.0
 10
-164.463495395718
 20
2.000000025457776
 30
0.0
 10
-162.4999999880879
 20
2.000000025457776
 30
0.0
  0
SPLINE
  5
D8
330
1B
100
AcDbEntity
 67
     1
  8
0
  6
Continuous
 62
     7
370
    25
100
AcDbSpline
210
0.0
220
0.0
230
1.0
 70
    24
 71
     3
 72
    30
 73
    26
 74
     0
 42
0.000000001
 43
0.00000001
 40
0.0
 40
0.0
 40
0.0
 40
0.0
 40
0.1249999999999964
 40
0.1249999999999964
 40
0.1874999999999923
 40
0.1874999999999923
 40
0.2499999999999883
 40
0.2499999999999883
 40
0.3749999999999848
 40
0.3749999999999848
 40
0.4374999999999836
 40
0.4374999999999836
 40
0.4999999999999831
 40
0.4999999999999831
 40
0.6249999999999862
 40
0.6249999999999862
 40
0.6874999999999886
 40
0.6874999999999886
 40
0.7499999999999908
 40
0.7499999999999908
 40
0.8124999999999931
 40
0.8124999999999931
 40
0.8749999999999954
 40
0.8749999999999954
 40
1.0
 40
1.0
 40
1.0
 40
1.0
 10
-162.4999999983925
 20
0.0
 30
0.0
 10
-163.3585911029805
 20
0.0
 30
0.0
 10
-164.2027163623139
 20
0.0
 30
0.0
 10
-165.4485444019441
 20
0.0
 30
0.0
 10
-165.8603911461905
 20
0.0
 30
0.0
 10
-166.6770248037544
 20
0.0
 30
0.0
 10
-167.0829177970971
 20
0.0
 30
0.0
 10
-168.2631548306694
 20
0.0
 30
0.0
 10
-169.0090546865631
 20
0.0
 30
0.0
 10
-170.0685315515963
 20
0.0
 30
0.0
 10
-170.4128548937958
 20
0.0
 30
0.0
 10
-171.0754080778178
 20
0.0
 30
0.0
 10
-171.3907825008695
 20
0.0
 30
0.0
 10
-172.2898948454966
 20
0.0
 30
0.0
 10
-172.8272179417033
 20
0.0
 30
0.0
 10
-173.5400293646295
 20
0.0
 30
0.0
 10
-173.7615011018523
 20
0.0
 30
0.0
 10
-174.1631187342242
 20
0.0
 30
0.0
 10
-174.3446406476194
 20
0.0
 30
0.0
 10
-174.6690180746733
 20
0.0
 30
0.0
 10
-174.8118598689556
 20
0.0
 30
0.0
 10
-175.0590040820853
 20
0.0
 30
0.0
 10
-175.1636422345368
 20
0.0
 30
0.0
 10
-175.4149819403506
 20
0.0
 30
0.0
 10
-175.4999999994114
 20
0.0
 30
0.0
 10
-175.5000000000001
 20
0.0
 30
0.0
  0
SPLINE
  5
DB
330
1B
100
AcDbEntity
 67
     1
  8
0
  6
Continuous
 62
     7
370
    25
100
AcDbSpline
210
0.0
220
0.0
230
1.0
 70
    24
 71
     3
 72
    30
 73
    26
 74
     0
 42
0.000000001
 43
0.00000001
 40
0.0
 40
0.0
 40
0.0
 40
0.0
 40
0.1249999999999986
 40
0.1249999999999986
 40
0.1874999999999974
 40
0.1874999999999974
 40
0.2499999999999962
 40
0.2499999999999962
 40
0.3749999999999944
 40
0.3749999999999944
 40
0.4374999999999936
 40
0.4374999999999936
 40
0.4999999999999927
 40
0.4999999999999927
 40
0.6249999999999937
 40
0.6249999999999937
 40
0.6874999999999948
 40
0.6874999999999948
 40
0.7499999999999959
 40
0.7499999999999959
 40
0.812499999999997
 40
0.812499999999997
 40
0.874999999999998
 40
0.874999999999998
 40
1.0
 40
1.0
 40
1.0
 40
1.0
 10
175.5000000000001
 20
0.0
 30
0.0
 10
175.4999999993953
 20
0.0
 30
0.0
 10
175.4149420746872
 20
0.0
 30
0.0
 10
175.1676264890908
 20
0.0
 30
0.0
 10
175.0650211086741
 20
0.0
 30
0.0
 10
174.8182887654967
 20
0.0
 30
0.0
 10
174.6734612717969
 20
0.0
 30
0.0
 10
174.1845034031248
 20
0.0
 30
0.0
 10
173.7846392018834
 20
0.0
 30
0.0
 10
173.0776120628488
 20
0.0
 30
0.0
 10
172.8229224646713
 20
0.0
 30
0.0
 10
172.2801085357632
 20
0.0
 30
0.0
 10
171.9945239695471
 20
0.0
 30
0.0
 10
171.095855626368
 20
0.0
 30
0.0
 10
170.4414193123053
 20
0.0
 30
0.0
 10
169.3767178916341
 20
0.0
 30
0.0
 10
169.0079704339043
 20
0.0
 30
0.0
 10
168.2584709978364
 20
0.0
 30
0.0
 10
167.8757730231843
 20
0.0
 30
0.0
 10
167.0944414873217
 20
0.0
 30
0.0
 10
166.6958053929695
 20
0.0
 30
0.0
 10
165.8826572986243
 20
0.0
 30
0.0
 10
165.4663023036725
 20
0.0
 30
0.0
 10
164.2070175933536
 20
0.0
 30
0.0
 10
163.3582633587898
 20
0.0
 30
0.0
 10
162.4999999983924
 20
0.0
 30
0.0
  0
SPLINE
  5
DE
330
1B
100
AcDbEntity
 67
     1
  8
0
  6
Continuous
 62
     8
370
    25
100
AcDbSpline
210
0.0
220
0.0
230
1.0
 70
     8
 71
     3
 72
    37
 73
    33
 74
     0
 42
0.000000001
 43
0.00000001
 40
0.0
 40
0.0
 40
0.0
 40
0.0
 40
0.0069086362059396
 40
0.0138083683779956
 40
0.0207632923218346
 40
0.0277188760797776
 40
0.0344915794552441
 40
0.0412646774324531
 40
0.0480375840574526
 40
0.0548104945264071
 40
0.0680941807557746
 40
0.0815035782554346
 40
0.0949205071911655
 40
0.1688758173954301
 40
0.4646970582124885
 40
0.6251735263698815
 40
0.7054117604485781
 40
0.7856499945272747
 40
0.8658882286059711
 40
0.8820403376747796
 40
0.8983073321484202
 40
0.914506015591192
 40
0.9305217245935411
 40
0.9464618271099026
 40
0.9533981157834279
 40
0.9603348332650631
 40
0.9672704565198934
 40
0.9742061254736949
 40
0.98097855311653
 40
0.9877506159080557
 40
0.9995078752781855
 40
1.0
 40
1.0
 40
1.0
 40
1.0
 10
177.5000000000001
 20
354.0
 30
0.0
 10
177.4648783033215
 20
353.9999999952652
 30
0.0
 10
177.3946801757404
 20
353.9999999858016
 30
0.0
 10
176.7768627986528
 20
354.0000001004217
 30
0.0
 10
175.730048538496
 20
353.9999999384148
 30
0.0
 10
174.3038653010702
 20
353.9999999934534
 30
0.0
 10
172.5423421106844
 20
354.0000000332885
 30
0.0
 10
170.5166306735813
 20
353.9999998772944
 30
0.0
 10
168.2609113437989
 20
354.000000012261
 30
0.0
 10
165.0634028408131
 20
353.9999998666647
 30
0.0
 10
160.8881024431395
 20
353.9999997878039
 30
0.0
 10
155.9067524452214
 20
353.999999938511
 30
0.0
 10
143.3831738943873
 20
354.0000001049391
 30
0.0
 10
95.7403009662083
 20
353.999999813805
 30
0.0
 10
29.83065384291513
 20
354.0000000429931
 30
0.0
 10
-36.86728796597182
 20
353.9999999909598
 30
0.0
 10
-76.76504159760535
 20
354.0000000102983
 30
0.0
 10
-106.6878386319861
 20
353.9999999630109
 30
0.0
 10
-128.6459493269258
 20
354.0000000911612
 30
0.0
 10
-142.6487619113317
 20
353.9999999407145
 30
0.0
 10
-148.6756449968127
 20
353.9999997451378
 30
0.0
 10
-154.7000919706064
 20
353.9999996163
 30
0.0
 10
-160.6875876113681
 20
353.9999995649872
 30
0.0
 10
-165.4909019723048
 20
353.999999965617
 30
0.0
 10
-168.9900980494979
 20
353.9999999996114
 30
0.0
 10
-171.2306205805848
 20
353.9999998720833
 30
0.0
 10
-173.2105877230002
 20
354.0000000221323
 30
0.0
 10
-174.8609952487296
 20
353.9999998577266
 30
0.0
 10
-176.1454394840017
 20
353.9999999491096
 30
0.0
 10
-177.2066380432368
 20
354.0000000801775
 30
0.0
 10
-177.6687520602708
 20
353.9999998384877
 30
0.0
 10
-177.7045755716316
 20
353.9999998457172
 30
0.0
 10
-177.7060147979169
 20
353.9999998460077
 30
0.0
  0
LINE
  5
DF
330
1B
100
AcDbEntity
 67
     1
  8
0
  6
Continuous
 62
     7
370
    25
100
AcDbLine
 10
177.5
 20
355.8996323852
 30
0.0
 11
177.5
 21
370.1067874462
 31
0.0
  0
LINE
  5
E0
330
1B
100
AcDbEntity
 67
     1
  8
0
  6
Continuous
 62
     7
370
    25
100
AcDbLine
 10
164.4987337628
 20
370.0
 30
0.0
 11
164.4987337628
 21
354.0
 31
0.0
  0
LINE
  5
E1
330
1B
100
AcDbEntity
 67
     1
  8
0
  6
Continuous
 62
     7
370
    25
100
AcDbLine
 10
-164.4987337629
 20
354.0
 30
0.0
 11
-164.4987337629
 21
370.0
 31
0.0
  0
LINE
  5
E2
330
1B
100
AcDbEntity
 67
     1
  8
0
  6
Continuous
 62
     7
370
    25
100
AcDbLine
 10
177.5
 20
2.0
 30
0.0
 11
177.5
 21
354.0
 31
0.0
  0
LINE
  5
E3
330
1B
100
AcDbEntity
 67
     1
  8
0
  6
Continuous
 62
     7
370
    25
100
AcDbLine
 10
162.5000000194
 20
370.0
 30
0.0
 11
-162.499999996
 21
370.0
 31
0.0
  0
LINE
  5
E4
330
1B
100
AcDbEntity
 67
     1
  8
0
  6
Continuous
 62
     7
370
    25
100
AcDbLine
 10
162.5000000194
 20
370.0
 30
0.0
 11
162.4999999983
 21
380.0
 31
0.0
  0
LINE
  5
E5
330
1B
100
AcDbEntity
 67
     1
  8
0
  6
Continuous
 62
     7
370
    25
100
AcDbLine
 10
-162.499999996
 20
370.0
 30
0.0
 11
-162.499999996
 21
380.0
 31
0.0
  0
LINE
  5
E6
330
1B
100
AcDbEntity
 67
     1
  8
0
  6
Continuous
 62
     7
370
    25
100
AcDbLine
 10
-162.499999996
 20
380.0
 30
0.0
 11
162.4999999983
 21
380.0
 31
0.0
  0
LINE
  5
E7
330
1B
100
AcDbEntity
 67
     1
  8
0
  6
Continuous
 62
     7
370
    25
100
AcDbLine
 10
-167.4999640729
 20
356.9303988401
 30
0.0
 11
-167.4999639012
 21
356.9303991679
 31
0.0
  0
LINE
  5
E8
330
1B
100
AcDbEntity
 67
     1
  8
0
  6
Continuous
 62
     7
370
    25
100
AcDbLine
 10
-167.4999639012
 20
356.9304245454
 30
0.0
 11
-167.4999638928
 21
356.9304174307
 31
0.0
  0
LINE
  5
E9
330
1B
100
AcDbEntity
 67
     1
  8
0
  6
Continuous
 62
     7
370
    25
100
AcDbLine
 10
-167.5
 20
355.9999999934
 30
0.0
 11
-167.5
 21
356.9303865255
 31
0.0
  0
LINE
  5
EA
330
1B
100
AcDbEntity
 67
     1
  8
0
  6
Continuous
 62
     7
370
    25
100
AcDbLine
 10
167.5
 20
356.0000000186
 30
0.0
 11
167.5
 21
356.9303865249
 31
0.0
  0
LINE
  5
EB
330
1B
100
AcDbEntity
 67
     1
  8
0
  6
Continuous
 62
     7
370
    25
100
AcDbLine
 10
-143.5
 20
356.0
 30
0.0
 11
-143.5
 21
370.0
 31
0.0
  0
LINE
  5
EC
330
1B
100
AcDbEntity
 67
     1
  8
0
  6
Continuous
 62
     7
370
    25
100
AcDbLine
 10
143.5
 20
354.0
 30
0.0
 11
143.5
 21
355.0
 31
0.0
  0
LINE
  5
ED
330
1B
100
AcDbEntity
 67
     1
  8
0
  6
Continuous
 62
     7
370
    25
100
AcDbLine
 10
143.5
 20
356.0000000033
 30
0.0
 11
143.5
 21
370.0
 31
0.0
  0
LINE
  5
EE
330
1B
100
AcDbEntity
 67
     1
  8
0
  6
Continuous
 62
     7
370
    25
100
AcDbLine
 10
162.8103631166
 20
354.0
 30
0.0
 11
162.8103631166
 21
370.0
 31
0.0
  0
LINE
  5
EF
330
1B
100
AcDbEntity
 67
     1
  8
0
  6
Continuous
 62
     7
370
    25
100
AcDbLine
 10
-162.8103631155
 20
354.0
 30
0.0
 11
-162.8103631155
 21
370.0
 31
0.0
  0
LINE
  5
F0
330
1B
100
AcDbEntity
 67
     1
  8
0
  6
Continuous
 62
     7
370
    25
100
AcDbLine
 10
-162.5
 20
2.0
 30
0.0
 11
162.5
 21
2.0
 31
0.0
  0
LINE
  5
F1
330
1B
100
AcDbEntity
 67
     1
  8
0
  6
Continuous
 62
     7
370
    25
100
AcDbLine
 10
162.5
 20
2.0
 30
0.0
 11
162.4999999984
 21
0.0
 31
0.0
  0
LINE
  5
F2
330
1B
100
AcDbEntity
 67
     1
  8
0
  6
Continuous
 62
     7
370
    25
100
AcDbLine
 10
162.4999999984
 20
0.0
 30
0.0
 11
-162.4999999984
 21
0.0
 31
0.0
  0
LINE
  5
F3
330
1B
100
AcDbEntity
 67
     1
  8
0
  6
Continuous
 62
     7
370
    25
100
AcDbLine
 10
-162.5
 20
2.0
 30
0.0
 11
-162.4999999984
 21
0.0
 31
0.0
  0
LINE
  5
F4
330
1B
100
AcDbEntity
 67
     1
  8
0
  6
Continuous
 62
     8
370
    25
100
AcDbLine
 10
-162.499999996
 20
355.9999999746
 30
0.0
 11
-162.499999996
 21
356.9303865243
 31
0.0
  0
LINE
  5
F5
330
1B
100
AcDbEntity
 67
     1
  8
0
  6
Continuous
 62
     8
370
    25
100
AcDbLine
 10
162.4999999983
 20
355.9999999205
 30
0.0
 11
162.4999999983
 21
356.9303865256
 31
0.0
  0
ARC
  5
F6
330
1B
100
AcDbEntity
 67
     1
  8
0
  6
Continuous
 62
     7
370
    25
100
AcDbCircle
 10
-167.5
 20
370.0
 30
0.0
 40
10.0
100
AcDbArc
 50
90.0
 51
180.0243766994
  0
ARC
  5
F7
330
1B
100
AcDbEntity
 67
     1
  8
0
  6
Continuous
 62
     7
370
    25
100
AcDbCircle
 10
167.5
 20
370.0
 30
0.0
 40
10.00000000000003
100
AcDbArc
 50
0.0
 51
90.0
  0
ARC
  5
F8
330
1B
100
AcDbEntity
 67
     1
  8
0
  6
Continuous
 62
     7
370
    25
100
AcDbCircle
 10
-175.5
 20
2.0
 30
0.0
 40
2.000000000000029
100
AcDbArc
 50
180.0
 51
270.0
  0
ARC
  5
F9
330
1B
100
AcDbEntity
 67
     1
  8
0
  6
Continuous
 62
     7
370
    25
100
AcDbCircle
 10
175.5
 20
2.0
 30
0.0
 40
2.000000000000029
100
AcDbArc
 50
270.0
 51
0.0
  0
VIEWPORT
  5
274
330
1B
100
AcDbEntity
 67
     1
  8
0
100
AcDbViewport
 10
0.0
 20
0.0
 30
0.0
 40
205.6
 41
156.0
 68
     1
 69
     1
 12
0.0421786975
 22
190.0
 13
0.0
 23
0.0
 14
10.0
 24
10.0
 15
10.0
 25
10.0
 16
0.0
 26
0.0
 36
1.0
 17
0.0
 27
0.0
 37
0.0
 42
50.0
 43
0.0
 44
0.0
 45
387.6
 50
0.0
 51
0.0
 72
   100
 90
   557152
  1

281
     0
 71
     1
 74
     0
110
0.0
120
0.0
130
0.0
111
1.0
121
0.0
131
0.0
112
0.0
122
1.0
132
0.0
 79
     0
146
0.0
  0
ENDSEC
  0
SECTION
  2
OBJECTS
  0
DICTIONARY
  5
C
330
0
100
AcDbDictionary
281
     1
  3
ACAD_GROUP
350
D
  3
ACAD_LAYOUT
350
1A
  3
ACAD_MLINESTYLE
350
17
  3
ACAD_PLOTSETTINGS
350
19
  3
ACAD_PLOTSTYLENAME
350
E
  3
ACAD_SCALELIST
350
47
  0
DICTIONARY
  5
D
102
{ACAD_REACTORS
330
C
102
}
330
C
100
AcDbDictionary
281
     1
  0
DICTIONARY
  5
1A
102
{ACAD_REACTORS
330
C
102
}
330
C
100
AcDbDictionary
281
     1
  3
_Back
350
1E
  3
_Bottom
350
1DE
  3
_Isometric
350
21F
  3
_Left
350
26
  3
_Right
350
14A
  3
_Top
350
1A2
  3
Model
350
22
  0
DICTIONARY
  5
17
102
{ACAD_REACTORS
330
C
102
}
330
C
100
AcDbDictionary
281
     1
  3
Standard
350
18
  0
DICTIONARY
  5
19
102
{ACAD_REACTORS
330
C
102
}
330
C
100
AcDbDictionary
281
     1
  0
ACDBDICTIONARYWDFLT
  5
E
102
{ACAD_REACTORS
330
C
102
}
330
C
100
AcDbDictionary
281
     1
  3
Normal
350
F
100
AcDbDictionaryWithDefault
340
F
  0
DICTIONARY
  5
47
102
{ACAD_REACTORS
330
C
102
}
330
C
100
AcDbDictionary
281
     1
  3
A0
350
48
  3
A1
350
49
  3
A2
350
4A
  3
A3
350
4B
  3
A4
350
4C
  3
A5
350
4D
  3
A6
350
4E
  3
A7
350
4F
  3
A8
350
50
  3
A9
350
51
  3
B0
350
52
  3
B1
350
53
  3
B2
350
54
  3
B3
350
55
  3
B4
350
56
  3
B5
350
57
  3
B6
350
58
  3
B7
350
59
  3
B8
350
5A
  3
B9
350
5B
  3
C0
350
5C
  3
C1
350
5D
  3
C2
350
5E
  3
C3
350
5F
  3
C4
350
60
  3
C5
350
61
  3
C6
350
62
  3
C7
350
63
  3
C8
350
64
  3
C9
350
65
  3
D0
350
66
  3
D1
350
67
  3
D2
350
68
  0
LAYOUT
  5
1E
102
{ACAD_REACTORS
330
1A
102
}
330
1A
100
AcDbPlotSettings
  1

  2
none_device
  4
ISO_A4_(210.00_x_297.00_MM)
  6

 40
7.5
 41
20.0
 42
7.5
 43
20.0
 44
210.0
 45
297.0
 46
0.0
 47
0.0
 48
0.0
 49
0.0
140
0.0
141
0.0
142
1.0
143
1.9487179487
 70
   688
 72
     1
 73
     1
 74
     1
  7

 75
     0
147
0.5131578947
148
177.8167367023
149
0.0
100
AcDbLayout
  1
_Back
 70
     1
 71
     1
 10
-216.7910956767
 20
-14.6153846154
 11
361.9781350926
 21
394.6153846154
 12
0.0
 22
0.0
 32
0.0
 14
-177.8167367023
 24
0.0
 34
0.0
 15
177.5008700919
 25
380.0
 35
0.0
146
0.0
 13
0.0
 23
0.0
 33
0.0
 16
1.0
 26
0.0
 36
0.0
 17
0.0
 27
1.0
 37
0.0
 76
     0
330
1B
331
274
  0
LAYOUT
  5
1DE
102
{ACAD_REACTORS
330
1A
102
}
330
1A
100
AcDbPlotSettings
  1

  2
none_device
  4
ISO_A4_(210.00_x_297.00_MM)
  6

 40
7.5
 41
20.0
 42
7.5
 43
20.0
 44
210.0
 45
297.0
 46
0.0
 47
0.0
 48
0.0
 49
0.0
140
0.0
141
0.0
142
1.0
143
1.9487179487
 70
   688
 72
     1
 73
     1
 74
     1
  7

 75
     0
147
0.5131578947
148
177.8167367023
149
0.0
100
AcDbLayout
  1
_Bottom
 70
     1
 71
     5
 10
0.0
 20
0.0
 11
0.0
 21
0.0
 12
0.0
 22
0.0
 32
0.0
 14
0.0
 24
0.0
 34
0.0
 15
0.0
 25
0.0
 35
0.0
146
0.0
 13
0.0
 23
0.0
 33
0.0
 16
1.0
 26
0.0
 36
0.0
 17
0.0
 27
1.0
 37
0.0
 76
     0
330
1DD
331
27C
  0
LAYOUT
  5
21F
102
{ACAD_REACTORS
330
1A
102
}
330
1A
100
AcDbPlotSettings
  1

  2
none_device
  4
ISO_A4_(210.00_x_297.00_MM)
  6

 40
7.5
 41
20.0
 42
7.5
 43
20.0
 44
210.0
 45
297.0
 46
0.0
 47
0.0
 48
0.0
 49
0.0
140
0.0
141
0.0
142
1.0
143
1.9487179487
 70
   688
 72
     1
 73
     1
 74
     1
  7

 75
     0
147
0.5131578947
148
177.8167367023
149
0.0
100
AcDbLayout
  1
_Isometric
 70
     1
 71
     6
 10
0.0
 20
0.0
 11
0.0
 21
0.0
 12
0.0
 22
0.0
 32
0.0
 14
0.0
 24
0.0
 34
0.0
 15
0.0
 25
0.0
 35
0.0
146
0.0
 13
0.0
 23
0.0
 33
0.0
 16
1.0
 26
0.0
 36
0.0
 17
0.0
 27
1.0
 37
0.0
 76
     0
330
21E
331
27E
  0
LAYOUT
  5
26
102
{ACAD_REACTORS
330
1A
102
}
330
1A
100
AcDbPlotSettings
  1

  2
none_device
  4
ISO_A4_(210.00_x_297.00_MM)
  6

 40
7.5
 41
20.0
 42
7.5
 43
20.0
 44
210.0
 45
297.0
 46
0.0
 47
0.0
 48
0.0
 49
0.0
140
0.0
141
0.0
142
1.0
143
1.9487179487
 70
   688
 72
     1
 73
     1
 74
     1
  7

 75
     0
147
0.5131578947
148
177.8167367023
149
0.0
100
AcDbLayout
  1
_Left
 70
     1
 71
     2
 10
0.0
 20
0.0
 11
0.0
 21
0.0
 12
0.0
 22
0.0
 32
0.0
 14
0.0
 24
0.0
 34
0.0
 15
0.0
 25
0.0
 35
0.0
146
0.0
 13
0.0
 23
0.0
 33
0.0
 16
1.0
 26
0.0
 36
0.0
 17
0.0
 27
1.0
 37
0.0
 76
     0
330
23
331
276
  0
LAYOUT
  5
14A
102
{ACAD_REACTORS
330
1A
102
}
330
1A
100
AcDbPlotSettings
  1

  2
none_device
  4
ISO_A4_(210.00_x_297.00_MM)
  6

 40
7.5
 41
20.0
 42
7.5
 43
20.0
 44
210.0
 45
297.0
 46
0.0
 47
0.0
 48
0.0
 49
0.0
140
0.0
141
0.0
142
1.0
143
1.9487179487
 70
   688
 72
     1
 73
     1
 74
     1
  7

 75
     0
147
0.5131578947
148
177.8167367023
149
0.0
100
AcDbLayout
  1
_Right
 70
     1
 71
     3
 10
0.0
 20
0.0
 11
0.0
 21
0.0
 12
0.0
 22
0.0
 32
0.0
 14
0.0
 24
0.0
 34
0.0
 15
0.0
 25
0.0
 35
0.0
146
0.0
 13
0.0
 23
0.0
 33
0.0
 16
1.0
 26
0.0
 36
0.0
 17
0.0
 27
1.0
 37
0.0
 76
     0
330
149
331
278
  0
LAYOUT
  5
1A2
102
{ACAD_REACTORS
330
1A
102
}
330
1A
100
AcDbPlotSettings
  1

  2
none_device
  4
ISO_A4_(210.00_x_297.00_MM)
  6

 40
7.5
 41
20.0
 42
7.5
 43
20.0
 44
210.0
 45
297.0
 46
0.0
 47
0.0
 48
0.0
 49
0.0
140
0.0
141
0.0
142
1.0
143
1.9487179487
 70
   688
 72
     1
 73
     1
 74
     1
  7

 75
     0
147
0.5131578947
148
177.8167367023
149
0.0
100
AcDbLayout
  1
_Top
 70
     1
 71
     4
 10
0.0
 20
0.0
 11
0.0
 21
0.0
 12
0.0
 22
0.0
 32
0.0
 14
0.0
 24
0.0
 34
0.0
 15
0.0
 25
0.0
 35
0.0
146
0.0
 13
0.0
 23
0.0
 33
0.0
 16
1.0
 26
0.0
 36
0.0
 17
0.0
 27
1.0
 37
0.0
 76
     0
330
1A1
331
27A
  0
LAYOUT
  5
22
102
{ACAD_REACTORS
330
1A
102
}
330
1A
100
AcDbPlotSettings
  1

  2
none_device
  4
ANSI_A_(11.00_x_8.50_Inches)
  6

 40
6.35
 41
19.05
 42
6.35000508
 43
19.05000254
 44
279.4
 45
215.9
 46
133.3262729416
 47
-17.97050127
 48
0.0
 49
0.0
140
0.0
141
0.0
142
0.0221447368
143
1.0
 70
  1696
 72
     0
 73
     0
 74
     0
  7

 75
     0
147
0.0179189148
148
-1300.4909072572
149
0.0
100
AcDbLayout
  1
Model
 70
     1
 71
     0
 10
0.0
 20
0.0
 11
420.0
 21
297.0
 12
0.0
 22
0.0
 32
0.0
 14
-177.500330352
 24
0.0
 34
0.0
 15
177.5846877471
 25
380.0
 35
0.0
146
0.0
 13
0.0
 23
0.0
 33
0.0
 16
1.0
 26
0.0
 36
0.0
 17
0.0
 27
1.0
 37
0.0
 76
     0
330
1F
331
29
  0
MLINESTYLE
  5
18
102
{ACAD_REACTORS
330
17
102
}
330
17
100
AcDbMlineStyle
  2
Standard
 70
     0
  3

 62
   256
 51
90.0
 52
90.0
 71
     2
 49
0.5
 62
   256
  6
BYLAYER
 49
-0.5
 62
   256
  6
BYLAYER
  0
ACDBPLACEHOLDER
  5
F
102
{ACAD_REACTORS
330
E
102
}
330
E
  0
SCALE
  5
48
102
{ACAD_REACTORS
330
47
102
}
330
47
100
AcDbScale
 70
     0
300
1:1
140
1.0
141
1.0
290
     1
  0
SCALE
  5
49
102
{ACAD_REACTORS
330
47
102
}
330
47
100
AcDbScale
 70
     0
300
1:2
140
1.0
141
2.0
290
     0
  0
SCALE
  5
4A
102
{ACAD_REACTORS
330
47
102
}
330
47
100
AcDbScale
 70
     0
300
1:4
140
1.0
141
4.0
290
     0
  0
SCALE
  5
4B
102
{ACAD_REACTORS
330
47
102
}
330
47
100
AcDbScale
 70
     0
300
1:5
140
1.0
141
5.0
290
     0
  0
SCALE
  5
4C
102
{ACAD_REACTORS
330
47
102
}
330
47
100
AcDbScale
 70
     0
300
1:8
140
1.0
141
8.0
290
     0
  0
SCALE
  5
4D
102
{ACAD_REACTORS
330
47
102
}
330
47
100
AcDbScale
 70
     0
300
1:10
140
1.0
141
10.0
290
     0
  0
SCALE
  5
4E
102
{ACAD_REACTORS
330
47
102
}
330
47
100
AcDbScale
 70
     0
300
1:16
140
1.0
141
16.0
290
     0
  0
SCALE
  5
4F
102
{ACAD_REACTORS
330
47
102
}
330
47
100
AcDbScale
 70
     0
300
1:20
140
1.0
141
20.0
290
     0
  0
SCALE
  5
50
102
{ACAD_REACTORS
330
47
102
}
330
47
100
AcDbScale
 70
     0
300
1:30
140
1.0
141
30.0
290
     0
  0
SCALE
  5
51
102
{ACAD_REACTORS
330
47
102
}
330
47
100
AcDbScale
 70
     0
300
1:40
140
1.0
141
40.0
290
     0
  0
SCALE
  5
52
102
{ACAD_REACTORS
330
47
102
}
330
47
100
AcDbScale
 70
     0
300
1:50
140
1.0
141
50.0
290
     0
  0
SCALE
  5
53
102
{ACAD_REACTORS
330
47
102
}
330
47
100
AcDbScale
 70
     0
300
1:100
140
1.0
141
100.0
290
     0
  0
SCALE
  5
54
102
{ACAD_REACTORS
330
47
102
}
330
47
100
AcDbScale
 70
     0
300
2:1
140
2.0
141
1.0
290
     0
  0
SCALE
  5
55
102
{ACAD_REACTORS
330
47
102
}
330
47
100
AcDbScale
 70
     0
300
4:1
140
4.0
141
1.0
290
     0
  0
SCALE
  5
56
102
{ACAD_REACTORS
330
47
102
}
330
47
100
AcDbScale
 70
     0
300
8:1
140
8.0
141
1.0
290
     0
  0
SCALE
  5
57
102
{ACAD_REACTORS
330
47
102
}
330
47
100
AcDbScale
 70
     0
300
10:1
140
10.0
141
1.0
290
     0
  0
SCALE
  5
58
102
{ACAD_REACTORS
330
47
102
}
330
47
100
AcDbScale
 70
     0
300
100:1
140
100.0
141
1.0
290
     0
  0
SCALE
  5
59
102
{ACAD_REACTORS
330
47
102
}
330
47
100
AcDbScale
 70
     0
300
1/128" = 1'-0"
140
0.0078125
141
12.0
290
     0
  0
SCALE
  5
5A
102
{ACAD_REACTORS
330
47
102
}
330
47
100
AcDbScale
 70
     0
300
1/64" = 1'-0"
140
0.015625
141
12.0
290
     0
  0
SCALE
  5
5B
102
{ACAD_REACTORS
330
47
102
}
330
47
100
AcDbScale
 70
     0
300
1/32" = 1'-0"
140
0.03125
141
12.0
290
     0
  0
SCALE
  5
5C
102
{ACAD_REACTORS
330
47
102
}
330
47
100
AcDbScale
 70
     0
300
1/16" = 1'-0"
140
0.0625
141
12.0
290
     0
  0
SCALE
  5
5D
102
{ACAD_REACTORS
330
47
102
}
330
47
100
AcDbScale
 70
     0
300
3/32" = 1'-0"
140
0.09375
141
12.0
290
     0
  0
SCALE
  5
5E
102
{ACAD_REACTORS
330
47
102
}
330
47
100
AcDbScale
 70
     0
300
1/8" = 1'-0"
140
0.125
141
12.0
290
     0
  0
SCALE
  5
5F
102
{ACAD_REACTORS
330
47
102
}
330
47
100
AcDbScale
 70
     0
300
3/16" = 1'-0"
140
0.1875
141
12.0
290
     0
  0
SCALE
  5
60
102
{ACAD_REACTORS
330
47
102
}
330
47
100
AcDbScale
 70
     0
300
1/4" = 1'-0"
140
0.25
141
12.0
290
     0
  0
SCALE
  5
61
102
{ACAD_REACTORS
330
47
102
}
330
47
100
AcDbScale
 70
     0
300
3/8" = 1'-0"
140
0.375
141
12.0
290
     0
  0
SCALE
  5
62
102
{ACAD_REACTORS
330
47
102
}
330
47
100
AcDbScale
 70
     0
300
1/2" = 1'-0"
140
0.5
141
12.0
290
     0
  0
SCALE
  5
63
102
{ACAD_REACTORS
330
47
102
}
330
47
100
AcDbScale
 70
     0
300
3/4" = 1'-0"
140
0.75
141
12.0
290
     0
  0
SCALE
  5
64
102
{ACAD_REACTORS
330
47
102
}
330
47
100
AcDbScale
 70
     0
300
1" = 1'-0"
140
1.0
141
12.0
290
     0
  0
SCALE
  5
65
102
{ACAD_REACTORS
330
47
102
}
330
47
100
AcDbScale
 70
     0
300
1-1/2" = 1'-0"
140
1.5
141
12.0
290
     0
  0
SCALE
  5
66
102
{ACAD_REACTORS
330
47
102
}
330
47
100
AcDbScale
 70
     0
300
3" = 1'-0"
140
3.0
141
12.0
290
     0
  0
SCALE
  5
67
102
{ACAD_REACTORS
330
47
102
}
330
47
100
AcDbScale
 70
     0
300
6" = 1'-0"
140
6.0
141
12.0
290
     0
  0
SCALE
  5
68
102
{ACAD_REACTORS
330
47
102
}
330
47
100
AcDbScale
 70
     0
300
1'-0" = 1'-0"
140
12.0
141
12.0
290
     0
  0
ENDSEC
  0
EOF
