  0
SECTION
  2
HEADER
  9
$ACADVER
  1
AC1015
  9
$ACADMAINTVER
 70
     6
  9
$DWGCODEPAGE
  3
ANSI_1252
  9
$INSBASE
 10
0.0
 20
0.0
 30
0.0
  9
$EXTMIN
 10
-26.0
 20
-26.0
 30
0.0
  9
$EXTMAX
 10
107.6245436784
 20
26.0
 30
0.0
  9
$LIMMIN
 10
0.0
 20
0.0
  9
$LIMMAX
 10
420.0
 20
297.0
  9
$ORTHOMODE
 70
     0
  9
$REGENMODE
 70
     1
  9
$FILLMODE
 70
     1
  9
$QTEXTMODE
 70
     0
  9
$MIRRTEXT
 70
     1
  9
$LTSCALE
 40
1.0
  9
$ATTMODE
 70
     1
  9
$TEXTSIZE
 40
3.5
  9
$TRACEWID
 40
1.0
  9
$TEXTSTYLE
  7
Standard
  9
$CLAYER
  8
0
  9
$CELTYPE
  6
ByLayer
  9
$CECOLOR
 62
   256
  9
$CELTSCALE
 40
1.0
  9
$DISPSILH
 70
     0
  9
$DIMSCALE
 40
1.0
  9
$DIMASZ
 40
3.302
  9
$DIMEXO
 40
1.0
  9
$DIMDLI
 40
3.75
  9
$DIMRND
 40
0.0
  9
$DIMDLE
 40
0.0
  9
$DIMEXE
 40
1.0
  9
$DIMTP
 40
0.0
  9
$DIMTM
 40
0.0
  9
$DIMTXT
 40
3.5
  9
$DIMCEN
 40
2.5
  9
$DIMTSZ
 40
0.0
  9
$DIMTOL
 70
     0
  9
$DIMLIM
 70
     0
  9
$DIMTIH
 70
     1
  9
$DIMTOH
 70
     1
  9
$DIMSE1
 70
     0
  9
$DIMSE2
 70
     0
  9
$DIMTAD
 70
     1
  9
$DIMZIN
 70
     1
  9
$DIMBLK
  1

  9
$DIMASO
 70
     1
  9
$DIMSHO
 70
     1
  9
$DIMPOST
  1

  9
$DIMAPOST
  1

  9
$DIMALT
 70
     0
  9
$DIMALTD
 70
     3
  9
$DIMALTF
 40
0.0393700787
  9
$DIMLFAC
 40
1.0
  9
$DIMTOFL
 70
     1
  9
$DIMTVP
 40
0.0
  9
$DIMTIX
 70
     0
  9
$DIMSOXD
 70
     0
  9
$DIMSAH
 70
     0
  9
$DIMBLK1
  1

  9
$DIMBLK2
  1

  9
$DIMSTYLE
  2
ISO-25
  9
$DIMCLRD
 70
     0
  9
$DIMCLRE
 70
     0
  9
$DIMCLRT
 70
     0
  9
$DIMTFAC
 40
1.0
  9
$DIMGAP
 40
1.524
  9
$DIMJUST
 70
     0
  9
$DIMSD1
 70
     0
  9
$DIMSD2
 70
     0
  9
$DIMTOLJ
 70
     0
  9
$DIMTZIN
 70
     1
  9
$DIMALTZ
 70
     0
  9
$DIMALTTZ
 70
     0
  9
$DIMUPT
 70
     0
  9
$DIMDEC
 70
     2
  9
$DIMTDEC
 70
     2
  9
$DIMALTU
 70
     2
  9
$DIMALTTD
 70
     3
  9
$DIMTXSTY
  7
Standard
  9
$DIMAUNIT
 70
     0
  9
$DIMADEC
 70
     2
  9
$DIMALTRND
 40
0.0
  9
$DIMAZIN
 70
     0
  9
$DIMDSEP
 70
    44
  9
$DIMATFIT
 70
     3
  9
$DIMFRAC
 70
     0
  9
$DIMLDRBLK
  1

  9
$DIMLUNIT
 70
     2
  9
$DIMLWD
 70
    -2
  9
$DIMLWE
 70
    -2
  9
$DIMTMOVE
 70
     0
  9
$LUNITS
 70
     2
  9
$LUPREC
 70
     2
  9
$SKETCHINC
 40
1.0
  9
$FILLETRAD
 40
10.0
  9
$AUNITS
 70
     0
  9
$AUPREC
 70
     2
  9
$MENU
  1
.
  9
$ELEVATION
 40
0.0
  9
$PELEVATION
 40
0.0
  9
$THICKNESS
 40
0.0
  9
$LIMCHECK
 70
     0
  9
$CHAMFERA
 40
0.0
  9
$CHAMFERB
 40
0.0
  9
$CHAMFERC
 40
0.0
  9
$CHAMFERD
 40
0.0
  9
$SKPOLY
 70
     0
  9
$TDCREATE
 40
2459283.027127269
  9
$TDUCREATE
 40
2459283.027127269
  9
$TDUPDATE
 40
2459283.027196134
  9
$TDUUPDATE
 40
2459283.027196134
  9
$TDINDWG
 40
0.0000000116
  9
$TDUSRTIMER
 40
0.0000000116
  9
$USRTIMER
 70
     1
  9
$ANGBASE
 50
0.0
  9
$ANGDIR
 70
     0
  9
$PDMODE
 70
     0
  9
$PDSIZE
 40
-1.0
  9
$PLINEWID
 40
0.0
  9
$SPLFRAME
 70
     0
  9
$SPLINETYPE
 70
     6
  9
$SPLINESEGS
 70
     8
  9
$HANDSEED
  5
19C
  9
$SURFTAB1
 70
     6
  9
$SURFTAB2
 70
     6
  9
$SURFTYPE
 70
     6
  9
$SURFU
 70
     6
  9
$SURFV
 70
     6
  9
$UCSBASE
  2

  9
$UCSNAME
  2

  9
$UCSORG
 10
0.0
 20
0.0
 30
0.0
  9
$UCSXDIR
 10
1.0
 20
0.0
 30
0.0
  9
$UCSYDIR
 10
0.0
 20
1.0
 30
0.0
  9
$UCSORTHOREF
  2

  9
$UCSORTHOVIEW
 70
     0
  9
$UCSORGTOP
 10
0.0
 20
0.0
 30
0.0
  9
$UCSORGBOTTOM
 10
0.0
 20
0.0
 30
0.0
  9
$UCSORGLEFT
 10
0.0
 20
0.0
 30
0.0
  9
$UCSORGRIGHT
 10
0.0
 20
0.0
 30
0.0
  9
$UCSORGFRONT
 10
0.0
 20
0.0
 30
0.0
  9
$UCSORGBACK
 10
0.0
 20
0.0
 30
0.0
  9
$PUCSBASE
  2

  9
$PUCSNAME
  2

  9
$PUCSORG
 10
0.0
 20
0.0
 30
0.0
  9
$PUCSXDIR
 10
1.0
 20
0.0
 30
0.0
  9
$PUCSYDIR
 10
0.0
 20
1.0
 30
0.0
  9
$PUCSORTHOREF
  2

  9
$PUCSORTHOVIEW
 70
     0
  9
$PUCSORGTOP
 10
0.0
 20
0.0
 30
0.0
  9
$PUCSORGBOTTOM
 10
0.0
 20
0.0
 30
0.0
  9
$PUCSORGLEFT
 10
0.0
 20
0.0
 30
0.0
  9
$PUCSORGRIGHT
 10
0.0
 20
0.0
 30
0.0
  9
$PUCSORGFRONT
 10
0.0
 20
0.0
 30
0.0
  9
$PUCSORGBACK
 10
0.0
 20
0.0
 30
0.0
  9
$USERI1
 70
     0
  9
$USERI2
 70
     0
  9
$USERI3
 70
     0
  9
$USERI4
 70
     0
  9
$USERI5
 70
     0
  9
$USERR1
 40
0.0
  9
$USERR2
 40
0.0
  9
$USERR3
 40
0.0
  9
$USERR4
 40
0.0
  9
$USERR5
 40
0.0
  9
$WORLDVIEW
 70
     1
  9
$SHADEDGE
 70
     3
  9
$SHADEDIF
 70
    70
  9
$TILEMODE
 70
     0
  9
$MAXACTVP
 70
    64
  9
$PINSBASE
 10
0.0
 20
0.0
 30
0.0
  9
$PLIMCHECK
 70
     0
  9
$PEXTMIN
 10
-26.0
 20
-26.0
 30
0.0
  9
$PEXTMAX
 10
107.6245436784
 20
26.0
 30
0.0
  9
$PLIMMIN
 10
0.0
 20
0.0
  9
$PLIMMAX
 10
0.0
 20
0.0
  9
$UNITMODE
 70
     0
  9
$VISRETAIN
 70
     1
  9
$PLINEGEN
 70
     0
  9
$PSLTSCALE
 70
     1
  9
$TREEDEPTH
 70
  3020
  9
$CMLSTYLE
  2
Standard
  9
$CMLJUST
 70
     0
  9
$CMLSCALE
 40
20.0
  9
$PROXYGRAPHICS
 70
     1
  9
$MEASUREMENT
 70
     1
  9
$CELWEIGHT
370
    -1
  9
$ENDCAPS
280
     0
  9
$JOINSTYLE
280
     0
  9
$LWDISPLAY
290
     1
  9
$INSUNITS
 70
     4
  9
$HYPERLINKBASE
  1

  9
$STYLESHEET
  1

  9
$XEDIT
290
     1
  9
$CEPSNTYPE
380
     0
  9
$PSTYLEMODE
290
     1
  9
$FINGERPRINTGUID
  2
{53dfc391-75a5-41d6-b488-43c731857b10}
  9
$VERSIONGUID
  2
{FAEB1C32-E019-11D5-929B-00C0DF256EC4}
  9
$EXTNAMES
290
     1
  9
$PSVPSCALE
 40
0.0
  9
$OLESTARTUP
290
     0
  0
ENDSEC
  0
SECTION
  2
CLASSES
  0
CLASS
  1
ACDBDICTIONARYWDFLT
  2
AcDbDictionaryWithDefault
  3
ObjectDBX Classes
 90
        0
280
     0
281
     0
  0
CLASS
  1
VISUALSTYLE
  2
AcDbVisualStyle
  3
ObjectDBX Classes
 90
     4095
280
     0
281
     0
  0
CLASS
  1
MATERIAL
  2
AcDbMaterial
  3
ObjectDBX Classes
 90
     1153
280
     0
281
     0
  0
CLASS
  1
SCALE
  2
AcDbScale
  3
ObjectDBX Classes
 90
     1153
280
     0
281
     0
  0
CLASS
  1
TABLESTYLE
  2
AcDbTableStyle
  3
ObjectDBX Classes
 90
     4095
280
     0
281
     0
  0
CLASS
  1
MLEADERSTYLE
  2
AcDbMLeaderStyle
  3
ACDB_MLEADERSTYLE_CLASS
 90
     4095
280
     0
281
     0
  0
CLASS
  1
SUN
  2
AcDbSun
  3
SCENEOE
 90
     1153
280
     0
281
     0
  0
CLASS
  1
ACDBPLACEHOLDER
  2
AcDbPlaceHolder
  3
ObjectDBX Classes
 90
        0
280
     0
281
     0
  0
CLASS
  1
LAYOUT
  2
AcDbLayout
  3
ObjectDBX Classes
 90
        0
280
     0
281
     0
  0
ENDSEC
  0
SECTION
  2
TABLES
  0
TABLE
  2
VPORT
  5
8
330
0
100
AcDbSymbolTable
 70
     1
  0
VPORT
  5
29
330
8
100
AcDbSymbolTableRecord
100
AcDbViewportTableRecord
  2
*Active
 70
     0
 10
0.0
 20
0.0
 11
1.0
 21
1.0
 12
40.8122718392
 22
0.0
 13
0.0
 23
0.0
 14
10.0
 24
10.0
 15
10.0
 25
10.0
 16
0.0
 26
0.0
 36
1.0
 17
0.0
 27
0.0
 37
0.0
 40
53.04
 41
2.569702763
 42
50.0
 43
0.0
 44
0.0
 50
0.0
 51
0.0
 71
     0
 72
   100
 73
     1
 74
     3
 75
     0
 76
     0
 77
     0
 78
     0
281
     0
 65
     1
110
0.0
120
0.0
130
0.0
111
1.0
121
0.0
131
0.0
112
0.0
122
1.0
132
0.0
 79
     0
146
0.0
  0
ENDTAB
  0
TABLE
  2
LTYPE
  5
5
330
0
100
AcDbSymbolTable
 70
     6
  0
LTYPE
  5
14
330
5
100
AcDbSymbolTableRecord
100
AcDbLinetypeTableRecord
  2
ByBlock
 70
     0
  3

 72
    65
 73
     0
 40
0.0
  0
LTYPE
  5
15
330
5
100
AcDbSymbolTableRecord
100
AcDbLinetypeTableRecord
  2
ByLayer
 70
     0
  3

 72
    65
 73
     0
 40
0.0
  0
LTYPE
  5
16
330
5
100
AcDbSymbolTableRecord
100
AcDbLinetypeTableRecord
  2
Continuous
 70
     0
  3
Solid line
 72
    65
 73
     0
 40
0.0
  0
LTYPE
  5
6E
330
5
100
AcDbSymbolTableRecord
100
AcDbLinetypeTableRecord
  2
HIDDEN
 70
     0
  3
Hidden __ __ __ __ __ __ __ __ __ __ __ __ __ __
 72
    65
 73
     2
 40
1.905
 49
1.27
 74
     0
 49
-0.635
 74
     0
  0
LTYPE
  5
6F
330
5
100
AcDbSymbolTableRecord
100
AcDbLinetypeTableRecord
  2
PHANTOM
 70
     0
  3
Phantom ______  __  __  ______  __  __  ______
 72
    65
 73
     6
 40
12.7
 49
6.35
 74
     0
 49
-1.27
 74
     0
 49
1.27
 74
     0
 49
-1.27
 74
     0
 49
1.27
 74
     0
 49
-1.27
 74
     0
  0
LTYPE
  5
70
330
5
100
AcDbSymbolTableRecord
100
AcDbLinetypeTableRecord
  2
CENTER
 70
     0
  3
Center ____ _ ____ _ ____ _ ____ _ ____ _ ____
 72
    65
 73
     4
 40
10.16
 49
6.35
 74
     0
 49
-1.27
 74
     0
 49
1.27
 74
     0
 49
-1.27
 74
     0
  0
LTYPE
  5
71
330
5
100
AcDbSymbolTableRecord
100
AcDbLinetypeTableRecord
  2
CENTERX2
 70
     0
  3
Center (2x) ________  __  ________  __  _____
 72
    65
 73
     4
 40
20.32
 49
12.7
 74
     0
 49
-2.54
 74
     0
 49
2.54
 74
     0
 49
-2.54
 74
     0
  0
LTYPE
  5
72
330
5
100
AcDbSymbolTableRecord
100
AcDbLinetypeTableRecord
  2
DOT2
 70
     0
  3
Dot (.5x) ........................................
 72
    65
 73
     2
 40
0.635
 49
0.0
 74
     0
 49
-0.635
 74
     0
  0
ENDTAB
  0
TABLE
  2
LAYER
  5
2
330
0
100
AcDbSymbolTable
 70
     1
  0
LAYER
  5
10
330
2
100
AcDbSymbolTableRecord
100
AcDbLayerTableRecord
  2
0
 70
     0
 62
     7
  6
Continuous
370
    -3
390
F
  0
ENDTAB
  0
TABLE
  2
STYLE
  5
3
330
0
100
AcDbSymbolTable
 70
     1
  0
STYLE
  5
11
330
3
100
AcDbSymbolTableRecord
100
AcDbTextStyleTableRecord
  2
Standard
 70
     0
 40
0.0
 41
1.0
 50
0.0
 71
     0
 42
3.5
  3
txt
  4

  0
ENDTAB
  0
TABLE
  2
VIEW
  5
6
330
0
100
AcDbSymbolTable
 70
     0
  0
ENDTAB
  0
TABLE
  2
UCS
  5
7
330
0
100
AcDbSymbolTable
 70
     0
  0
ENDTAB
  0
TABLE
  2
APPID
  5
9
330
0
100
AcDbSymbolTable
 70
     1
  0
APPID
  5
12
330
9
100
AcDbSymbolTableRecord
100
AcDbRegAppTableRecord
  2
ACAD
 70
     0
  0
ENDTAB
  0
TABLE
  2
DIMSTYLE
  5
A
330
0
100
AcDbSymbolTable
 70
     1
100
AcDbDimStyleTable
  0
DIMSTYLE
105
27
330
A
100
AcDbSymbolTableRecord
100
AcDbDimStyleTableRecord
  2
ISO-25
 70
     0
 41
2.5
 42
0.625
 43
3.75
 44
1.25
 73
     0
 74
     0
 77
     1
 78
     8
140
2.5
141
2.5
143
0.0393700787
147
0.625
171
     3
172
     1
178
     0
271
     2
272
     2
274
     3
278
    44
283
     0
284
     8
340
11
  0
ENDTAB
  0
TABLE
  2
BLOCK_RECORD
  5
1
330
0
100
AcDbSymbolTable
 70
     1
  0
BLOCK_RECORD
  5
1F
330
1
100
AcDbSymbolTableRecord
100
AcDbBlockTableRecord
  2
*Model_Space
340
22
  0
BLOCK_RECORD
  5
23
330
1
100
AcDbSymbolTableRecord
100
AcDbBlockTableRecord
  2
*Paper_Space
340
26
  0
BLOCK_RECORD
  5
1B
330
1
100
AcDbSymbolTableRecord
100
AcDbBlockTableRecord
  2
*Paper_Space0
340
1E
  0
ENDTAB
  0
ENDSEC
  0
SECTION
  2
BLOCKS
  0
BLOCK
  5
20
330
1F
100
AcDbEntity
  8
0
100
AcDbBlockBegin
  2
*Model_Space
 70
     0
 10
0.0
 20
0.0
 30
0.0
  3
*Model_Space
  1

  0
ENDBLK
  5
21
330
1F
100
AcDbEntity
  8
0
100
AcDbBlockEnd
  0
BLOCK
  5
24
330
23
100
AcDbEntity
 67
     1
  8
0
100
AcDbBlockBegin
  2
*Paper_Space
 70
     0
 10
0.0
 20
0.0
 30
0.0
  3
*Paper_Space
  1

  0
ENDBLK
  5
25
330
23
100
AcDbEntity
 67
     1
  8
0
100
AcDbBlockEnd
  0
BLOCK
  5
1C
330
1B
100
AcDbEntity
  8
0
100
AcDbBlockBegin
  2
*Paper_Space0
 70
     0
 10
0.0
 20
0.0
 30
0.0
  3
*Paper_Space0
  1

  0
SPLINE
  5
AA
330
1B
100
AcDbEntity
  8
0
  6
Continuous
 62
     7
370
    25
100
AcDbSpline
210
0.0
220
0.0
230
1.0
 70
    24
 71
     3
 72
    14
 73
    10
 74
     0
 42
0.000000001
 43
0.00000001
 40
0.0
 40
0.0
 40
0.0
 40
0.0
 40
0.25
 40
0.25
 40
0.5
 40
0.5
 40
0.75
 40
0.75
 40
1.0
 40
1.0
 40
1.0
 40
1.0
 10
-269.40332833093
 20
-0.0000000000000029
 30
0.0
 10
-269.40332833093
 20
2.421222973632988
 30
0.0
 10
-269.40332833093
 20
5.033419721766283
 30
0.0
 10
-269.40332833093
 20
10.09141388378478
 30
0.0
 10
-269.40332833093
 20
12.52153105475024
 30
0.0
 10
-269.40332833093
 20
16.53314462785595
 30
0.0
 10
-269.40332833093
 20
18.10106894056609
 30
0.0
 10
-269.40332833093
 20
20.10348270511151
 30
0.0
 10
-269.40332833093
 20
20.5447582003467
 30
0.0
 10
-269.40332833093
 20
20.5447582003467
 30
0.0
  0
CIRCLE
  5
B1
330
1B
100
AcDbEntity
  8
0
  6
Continuous
 62
     7
370
    25
100
AcDbCircle
 10
-287.0
 20
-0.4059910429
 30
0.0
 40
6.500000000000102
  0
LWPOLYLINE
  5
B2
330
1B
100
AcDbEntity
  8
0
  6
Continuous
 62
     7
370
    25
100
AcDbPolyline
 90
       19
 70
   128
 43
0.0
 10
-232.2736362993
 20
1.9800905315
 10
-232.1393280003
 20
3.3835519778
 10
-231.8932201076
 20
4.7250371729
 10
-231.541801743
 20
5.9691752038
 10
-231.0943387473
 20
7.0831619084
 10
-230.5626293682
 20
8.0376248217
 10
-229.9606931762
 20
8.8073976396
 10
-229.3044014107
 20
9.3721837778
 10
-228.6110585032
 20
9.7170915316
 10
-227.8989458121
 20
9.8330267253
 10
-227.1868395984
 20
9.716932498
 10
-226.4935159521
 20
9.3718699038
 10
-225.8372557237
 20
8.8069372012
 10
-225.2353625133
 20
8.0370299592
 10
-224.703706427
 20
7.0824483064
 10
-224.2563056301
 20
5.9683616781
 10
-223.9049567302
 20
4.7241451735
 10
-223.6589237366
 20
3.3826050241
 10
-223.5246937964
 20
1.9791135918
  0
LWPOLYLINE
  5
B3
330
1B
100
AcDbEntity
  8
0
  6
Continuous
 62
     7
370
    25
100
AcDbPolyline
 90
        9
 70
   128
 43
0.0
 10
-232.1797932114
 20
-1.0030958032
 10
-232.4875700525
 20
-0.966826585
 10
-232.7620460593
 20
-0.6859823605
 10
-232.9568382279
 20
-0.2080222826
 10
-233.0390291238
 20
0.3862843877
 10
-232.994729516
 20
0.9965072738
 10
-232.831425483
 20
1.5195263585
 10
-232.5767133588
 20
1.8669579734
 10
-232.2736362993
 20
1.9800905315
  0
LWPOLYLINE
  5
B4
330
1B
100
AcDbEntity
  8
0
  6
Continuous
 62
     7
370
    25
100
AcDbPolyline
 90
       17
 70
   128
 43
0.0
 10
-223.6199107951
 20
-1.0141731881
 10
-223.8497334836
 20
-2.4090017312
 10
-224.192339671
 20
-3.7079646017
 10
-224.6381872594
 20
-4.8748837287
 10
-225.1748587226
 20
-5.8772586585
 10
-225.7874069526
 20
-6.6871717409
 10
-226.4587715594
 20
-7.2820656778
 10
-227.1702540285
 20
-7.6453717776
 10
-227.9020385023
 20
-7.7669714189
 10
-228.6337436821
 20
-7.6434778687
 10
-229.3449904774
 20
-7.278330608
 10
-230.0159695947
 20
-6.6816995377
 10
-230.6279932558
 20
-5.870201731
 10
-231.1640156807
 20
-4.8664386228
 10
-231.6091078383
 20
-3.6983665264
 10
-231.9508732422
 20
-2.3985180074
 10
-232.1797932114
 20
-1.0030958032
  0
LWPOLYLINE
  5
B5
330
1B
100
AcDbEntity
  8
0
  6
Continuous
 62
     7
370
    25
100
AcDbPolyline
 90
        9
 70
   128
 43
0.0
 10
-223.5246937964
 20
1.9791135918
 10
-223.2368019033
 20
1.8372893125
 10
-222.9988870995
 20
1.4834146467
 10
-222.8481318836
 20
0.9727948722
 10
-222.8080970241
 20
0.3852321652
 10
-222.8850393663
 20
-0.1874462773
 10
-223.0669339815
 20
-0.6557394444
 10
-223.3253534824
 20
-0.9464601709
 10
-223.6199107951
 20
-1.0141731881
  0
LWPOLYLINE
  5
B6
330
1B
100
AcDbEntity
  8
0
  6
Continuous
 62
     7
370
    25
100
AcDbPolyline
 90
       45
 70
   128
 43
0.0
 10
-233.5485464311
 20
1.3236387646
 10
-233.4912920417
 20
-0.2774031659
 10
-233.3206944077
 20
-1.8458524998
 10
-233.0402264049
 20
-3.3497801316
 10
-232.6555975532
 20
-4.7585704317
 10
-232.1746377868
 20
-6.0435444923
 10
-231.6071380595
 20
-7.1785439469
 10
-230.9646510293
 20
-8.1404634797
 10
-230.2602558792
 20
-8.9097211831
 10
-229.5082920633
 20
-9.4706571885
 10
-228.7240673964
 20
-9.8118524565
 10
-227.9235464311
 20
-9.9263612354
 10
-227.1230254658
 20
-9.8118524565
 10
-226.3388007988
 20
-9.4706571885
 10
-225.5868369829
 20
-8.9097211831
 10
-224.8824418329
 20
-8.1404634797
 10
-224.2399548026
 20
-7.1785439469
 10
-223.6724550753
 20
-6.0435444923
 10
-223.1914953089
 20
-4.7585704317
 10
-222.8068664572
 20
-3.3497801316
 10
-222.5263984545
 20
-1.8458524998
 10
-222.3558008205
 20
-0.2774031659
 10
-222.2985464311
 20
1.3236387646
 10
-222.3558008205
 20
2.9246806952
 10
-222.5263984545
 20
4.4931300291
 10
-222.8068664572
 20
5.9970576609
 10
-223.1914953089
 20
7.405847961
 10
-223.6724550753
 20
8.6908220215
 10
-224.2399548026
 20
9.8258214761
 10
-224.8824418329
 20
10.787741009
 10
-225.5868369829
 20
11.5569987124
 10
-226.3388007988
 20
12.1179347178
 10
-227.1230254658
 20
12.4591299858
 10
-227.9235464311
 20
12.5736387646
 10
-228.7240673964
 20
12.4591299858
 10
-229.5082920633
 20
12.1179347178
 10
-230.2602558792
 20
11.5569987124
 10
-230.9646510293
 20
10.787741009
 10
-231.6071380595
 20
9.8258214761
 10
-232.1746377868
 20
8.6908220215
 10
-232.6555975532
 20
7.405847961
 10
-233.0402264049
 20
5.9970576609
 10
-233.3206944077
 20
4.4931300291
 10
-233.4912920417
 20
2.9246806952
 10
-233.5485464311
 20
1.3236387646
  0
LWPOLYLINE
  5
B7
330
1B
100
AcDbEntity
  8
0
  6
Continuous
 62
     7
370
    25
100
AcDbPolyline
 90
       12
 70
   128
 43
0.0
 10
-238.3982886923
 20
1.3236387646
 10
-238.3410343028
 20
-0.2774031659
 10
-238.1704366688
 20
-1.8458524998
 10
-237.8899686661
 20
-3.3497801316
 10
-237.5053398144
 20
-4.7585704317
 10
-237.024380048
 20
-6.0435444923
 10
-236.4568803207
 20
-7.1785439469
 10
-235.8143932905
 20
-8.1404634797
 10
-235.1099981404
 20
-8.9097211831
 10
-234.3580343245
 20
-9.4706571885
 10
-233.5738096576
 20
-9.8118524565
 10
-232.7732886923
 20
-9.9263612354
  0
LWPOLYLINE
  5
B8
330
1B
100
AcDbEntity
  8
0
  6
Continuous
 62
     7
370
    25
100
AcDbPolyline
 90
       12
 70
   128
 43
0.0
 10
-232.7732886923
 20
12.5736387646
 10
-233.5738096576
 20
12.4591299858
 10
-234.3580343245
 20
12.1179347178
 10
-235.1099981404
 20
11.5569987124
 10
-235.8143932905
 20
10.787741009
 10
-236.4568803207
 20
9.8258214761
 10
-237.024380048
 20
8.6908220215
 10
-237.5053398144
 20
7.405847961
 10
-237.8899686661
 20
5.9970576609
 10
-238.1704366688
 20
4.4931300291
 10
-238.3410343028
 20
2.9246806952
 10
-238.3982886923
 20
1.3236387646
  0
LWPOLYLINE
  5
BE
330
1B
100
AcDbEntity
  8
0
  6
Continuous
 62
     7
370
    25
100
AcDbPolyline
 90
       27
 70
   128
 43
0.0
 10
-231.0627101039
 20
7.1492837212
 10
-230.6777168762
 20
7.6581210778
 10
-230.0734439244
 20
8.2216752879
 10
-229.4294211557
 20
8.5668060494
 10
-228.7652168762
 20
8.6830267389
 10
-228.1010125966
 20
8.5668060494
 10
-227.4569898279
 20
8.2216752879
 10
-226.8527168762
 20
7.6581210778
 10
-226.3065542691
 20
6.8932667287
 10
-225.8350968812
 20
5.950351953
 10
-225.4526697067
 20
4.8580267389
 10
-225.1708926017
 20
3.6494808353
 10
-224.9983272209
 20
2.361435298
 10
-224.9402168762
 20
1.0330267389
 10
-224.9983272209
 20
-0.2953818203
 10
-225.1708926017
 20
-1.5834273576
 10
-225.4526697067
 20
-2.7919732611
 10
-225.8350968812
 20
-3.8842984752
 10
-226.3065542691
 20
-4.827213251
 10
-226.8527168762
 20
-5.5920676001
 10
-227.4569898279
 20
-6.1556218101
 10
-228.1010125966
 20
-6.5007525717
 10
-228.7652168762
 20
-6.6169732611
 10
-229.4294211557
 20
-6.5007525717
 10
-230.0734439244
 20
-6.1556218101
 10
-230.6777168762
 20
-5.5920676001
 10
-231.0627101037
 20
-5.0832302438
  0
LWPOLYLINE
  5
BF
330
1B
100
AcDbEntity
  8
0
  6
Continuous
 62
     7
370
    25
100
AcDbPolyline
 90
        3
 70
   128
 43
0.0
 10
-232.4503245319
 20
-1.0169552765
 10
-232.5321065314
 20
-0.2953818203
 10
-232.5902168762
 20
1.0330267389
  0
LWPOLYLINE
  5
C0
330
1B
100
AcDbEntity
  8
0
  6
Continuous
 62
     7
370
    25
100
AcDbPolyline
 90
       21
 70
   128
 43
0.0
 10
-228.5847949176
 20
9.7255402803
 10
-228.4059967234
 20
9.703311828
 10
-227.6973550071
 20
9.4668090526
 10
-227.0178417789
 20
9.0002546808
 10
-226.3859923883
 20
8.3163750998
 10
-225.8190420396
 20
7.4338247617
 10
-225.3324556603
 20
6.3766773393
 10
-224.9395060584
 20
5.1737690583
 10
-224.6509118748
 20
3.857912121
 10
-224.4745452064
 20
2.4649996743
 10
-224.4152168762
 20
1.0330267389
 10
-224.4745452064
 20
-0.3989461966
 10
-224.6509118748
 20
-1.7918586432
 10
-224.9395060584
 20
-3.1077155805
 10
-225.3324556603
 20
-4.3106238615
 10
-225.8190420396
 20
-5.367771284
 10
-226.3859923883
 20
-6.250321622
 10
-227.0178417789
 20
-6.934201203
 10
-227.6973550071
 20
-7.4007555748
 10
-228.4059967234
 20
-7.6372583503
 10
-228.5847949171
 20
-7.6594868025
  0
LWPOLYLINE
  5
C1
330
1B
100
AcDbEntity
  8
0
  6
Continuous
 62
     7
370
    25
100
AcDbPolyline
 90
       17
 70
   128
 43
0.0
 10
-229.5902168762
 20
1.0330267389
 10
-229.5274174905
 20
0.4015990755
 10
-229.3485799706
 20
-0.1336994501
 10
-229.0809307079
 20
-0.4913744898
 10
-228.7652168762
 20
-0.6169732611
 10
-228.4495030445
 20
-0.4913744898
 10
-228.1818537817
 20
-0.1336994501
 10
-228.0030162618
 20
0.4015990755
 10
-227.9402168762
 20
1.0330267389
 10
-228.0030162618
 20
1.6644544023
 10
-228.1818537817
 20
2.1997529278
 10
-228.4495030445
 20
2.5574279675
 10
-228.7652168762
 20
2.6830267389
 10
-229.0809307079
 20
2.5574279675
 10
-229.3485799706
 20
2.1997529278
 10
-229.5274174905
 20
1.6644544023
 10
-229.5902168762
 20
1.0330267389
  0
LINE
  5
FC
330
1B
100
AcDbEntity
  8
0
  6
Continuous
 62
     7
370
    25
100
AcDbLine
 10
0.0
 20
26.0
 30
0.0
 11
-5.0
 21
26.0
 31
0.0
  0
LINE
  5
FD
330
1B
100
AcDbEntity
  8
0
  6
Continuous
 62
     7
370
    25
100
AcDbLine
 10
-5.0
 20
-26.0
 30
0.0
 11
0.0
 21
-26.0
 31
0.0
  0
LINE
  5
FE
330
1B
100
AcDbEntity
  8
0
  6
Continuous
 62
     7
370
    25
100
AcDbLine
 10
-5.0
 20
22.0
 30
0.0
 11
-269.0
 21
22.0
 31
0.0
  0
LINE
  5
FF
330
1B
100
AcDbEntity
  8
0
  6
Continuous
 62
     7
370
    25
100
AcDbLine
 10
-269.0
 20
-22.0
 30
0.0
 11
-5.0
 21
-22.0
 31
0.0
  0
LINE
  5
100
330
1B
100
AcDbEntity
  8
0
  6
Continuous
 62
     7
370
    25
100
AcDbLine
 10
-269.4033283309
 20
20.5447582003
 30
0.0
 11
-271.0
 21
20.0990206927
 31
0.0
  0
LINE
  5
101
330
1B
100
AcDbEntity
  8
0
  6
Continuous
 62
     7
370
    25
100
AcDbLine
 10
-271.0
 20
-20.0990206927
 30
0.0
 11
-269.4033283309
 21
-20.5447582003
 31
0.0
  0
LINE
  5
102
330
1B
100
AcDbEntity
  8
0
  6
Continuous
 62
     7
370
    25
100
AcDbLine
 10
-269.4033283309
 20
-20.5447582003
 30
0.0
 11
-269.0
 21
-19.1
 31
0.0
  0
LINE
  5
103
330
1B
100
AcDbEntity
  8
0
  6
Continuous
 62
     7
370
    25
100
AcDbLine
 10
-269.0
 20
19.1
 30
0.0
 11
-269.4033283309
 21
20.5447582003
 31
0.0
  0
LINE
  5
104
330
1B
100
AcDbEntity
  8
0
  6
Continuous
 62
     7
370
    25
100
AcDbLine
 10
-271.263107361
 20
22.0
 30
0.0
 11
-297.5
 21
22.0
 31
0.0
  0
LINE
  5
105
330
1B
100
AcDbEntity
  8
0
  6
Continuous
 62
     7
370
    25
100
AcDbLine
 10
-297.5
 20
-22.0
 30
0.0
 11
-271.263107361
 21
-22.0
 31
0.0
  0
LINE
  5
106
330
1B
100
AcDbEntity
  8
0
  6
Continuous
 62
     7
370
    25
100
AcDbLine
 10
-232.7732886923
 20
-9.9263612354
 30
0.0
 11
-227.9235464311
 21
-9.9263612354
 31
0.0
  0
LINE
  5
107
330
1B
100
AcDbEntity
  8
0
  6
Continuous
 62
     7
370
    25
100
AcDbLine
 10
-227.9235464311
 20
12.5736387646
 30
0.0
 11
-232.7732886923
 21
12.5736387646
 31
0.0
  0
LINE
  5
108
330
1B
100
AcDbEntity
  8
0
  6
Continuous
 62
     7
370
    25
100
AcDbLine
 10
0.0
 20
-26.0
 30
0.0
 11
0.0
 21
26.0
 31
0.0
  0
LINE
  5
109
330
1B
100
AcDbEntity
  8
0
  6
Continuous
 62
     7
370
    25
100
AcDbLine
 10
-5.0
 20
-26.0
 30
0.0
 11
-5.0
 21
26.0
 31
0.0
  0
LINE
  5
10A
330
1B
100
AcDbEntity
  8
0
  6
Continuous
 62
     7
370
    25
100
AcDbLine
 10
-155.0
 20
-22.0
 30
0.0
 11
-155.0
 21
22.0
 31
0.0
  0
LINE
  5
10B
330
1B
100
AcDbEntity
  8
0
  6
Continuous
 62
     7
370
    25
100
AcDbLine
 10
-238.5
 20
13.8858620488
 30
0.0
 11
-238.5
 21
-10.7920633097
 31
0.0
  0
LINE
  5
10C
330
1B
100
AcDbEntity
  8
0
  6
Continuous
 62
     7
370
    25
100
AcDbLine
 10
-269.0
 20
-22.0
 30
0.0
 11
-269.0
 21
22.0
 31
0.0
  0
LINE
  5
10D
330
1B
100
AcDbEntity
  8
0
  6
Continuous
 62
     7
370
    25
100
AcDbLine
 10
-269.4033283309
 20
-20.5447582003
 30
0.0
 11
-269.4033283309
 21
0.0
 31
0.0
  0
LINE
  5
10E
330
1B
100
AcDbEntity
  8
0
  6
Continuous
 62
     7
370
    25
100
AcDbLine
 10
-271.0
 20
21.988120481
 30
0.0
 11
-271.263107361
 21
22.0
 31
0.0
  0
LINE
  5
10F
330
1B
100
AcDbEntity
  8
0
  6
Continuous
 62
     7
370
    25
100
AcDbLine
 10
-271.263107361
 20
-22.0
 30
0.0
 11
-271.0
 21
-21.988120481
 31
0.0
  0
LINE
  5
110
330
1B
100
AcDbEntity
  8
0
  6
Continuous
 62
     7
370
    25
100
AcDbLine
 10
-297.5
 20
-22.0
 30
0.0
 11
-297.5
 21
22.0
 31
0.0
  0
LINE
  5
111
330
1B
100
AcDbEntity
  8
0
  6
Continuous
 62
     7
370
    25
100
AcDbLine
 10
-271.0
 20
-21.988120481
 30
0.0
 11
-271.0
 21
21.988120481
 31
0.0
  0
LINE
  5
112
330
1B
100
AcDbEntity
  8
0
  6
Continuous
 62
     7
370
    25
100
AcDbLine
 10
-232.1797932114
 20
-1.0030958032
 30
0.0
 11
-232.4012249436
 21
-1.0030958032
 31
0.0
  0
LINE
  5
113
330
1B
100
AcDbEntity
  8
0
  6
Continuous
 62
     7
370
    25
100
AcDbLine
 10
-232.2736362993
 20
1.9800905315
 30
0.0
 11
-232.3073818557
 21
1.9800905315
 31
0.0
  0
LINE
  5
114
330
1B
100
AcDbEntity
  8
0
  6
Continuous
 62
     7
370
    25
100
AcDbLine
 10
-223.5246937964
 20
1.9791135918
 30
0.0
 11
-224.4410140691
 21
1.9791135918
 31
0.0
  0
LINE
  5
115
330
1B
100
AcDbEntity
  8
0
  6
Continuous
 62
     7
370
    25
100
AcDbLine
 10
-223.6199107951
 20
-1.0141731881
 30
0.0
 11
-224.5373636248
 21
-1.0141731881
 31
0.0
  0
LINE
  5
116
330
1B
100
AcDbEntity
  8
0
  6
Continuous
 62
     7
370
    25
100
AcDbLine
 10
-232.5902168762
 20
1.0330267389
 30
0.0
 11
-232.5669884676
 21
1.8748290116
 31
0.0
  0
LINE
  5
117
330
1B
100
AcDbEntity
  8
0
  6
Continuous
 62
     7
370
    25
100
AcDbLine
 10
-227.7402258685
 20
1.0244397441
 30
0.0
 11
-224.9402504328
 21
1.0009825875
 31
0.0
  0
LINE
  5
118
330
1B
100
AcDbEntity
  8
0
  6
Continuous
 62
     7
370
    25
100
AcDbLine
 10
-225.3549374452
 20
-2.4314323548
 30
0.0
 11
-227.7795913116
 21
0.4702932443
 31
0.0
  0
LINE
  5
119
330
1B
100
AcDbEntity
  8
0
  6
Continuous
 62
     7
370
    25
100
AcDbLine
 10
-227.8796953735
 20
0.0005991755
 30
0.0
 11
-225.4607098054
 21
-2.8196907536
 31
0.0
  0
LINE
  5
11A
330
1B
100
AcDbEntity
  8
0
  6
Continuous
 62
     7
370
    25
100
AcDbLine
 10
-226.6779430284
 20
-5.3775622775
 30
0.0
 11
-228.0523234723
 21
-0.4399403275
 31
0.0
  0
LINE
  5
11B
330
1B
100
AcDbEntity
  8
0
  6
Continuous
 62
     7
370
    25
100
AcDbLine
 10
-228.2564396501
 20
-0.7466032612
 30
0.0
 11
-226.866609179
 21
-5.608031554
 31
0.0
  0
LINE
  5
11C
330
1B
100
AcDbEntity
  8
0
  6
Continuous
 62
     7
370
    25
100
AcDbLine
 10
-228.5602319534
 20
-6.6059800503
 30
0.0
 11
-228.5160748448
 21
-0.9554935635
 31
0.0
  0
LINE
  5
11D
330
1B
100
AcDbEntity
  8
0
  6
Continuous
 62
     7
370
    25
100
AcDbLine
 10
-228.7695103736
 20
-1.0169552765
 30
0.0
 11
-228.7812389518
 21
-6.6169061479
 31
0.0
  0
LINE
  5
11E
330
1B
100
AcDbEntity
  8
0
  6
Continuous
 62
     7
370
    25
100
AcDbLine
 10
-230.497446423
 20
-5.787532123
 30
0.0
 11
-229.0465836234
 21
-0.9382243903
 31
0.0
  0
LINE
  5
11F
330
1B
100
AcDbEntity
  8
0
  6
Continuous
 62
     7
370
    25
100
AcDbLine
 10
-229.2814306578
 20
-0.7380162664
 30
0.0
 11
-230.6915756224
 21
-5.5759874026
 31
0.0
  0
LINE
  5
120
330
1B
100
AcDbEntity
  8
0
  6
Continuous
 62
     7
370
    25
100
AcDbLine
 10
-231.8173492499
 20
-2.9709910584
 30
0.0
 11
-229.5017004094
 21
-0.3927600689
 31
0.0
  0
LINE
  5
121
330
1B
100
AcDbEntity
  8
0
  6
Continuous
 62
     7
370
    25
100
AcDbLine
 10
-229.6550318762
 20
0.0154722868
 30
0.0
 11
-231.9139848508
 21
-2.567769911
 31
0.0
  0
LINE
  5
122
330
1B
100
AcDbEntity
  8
0
  6
Continuous
 62
     7
370
    25
100
AcDbLine
 10
-232.5847202708
 20
0.6230568934
 30
0.0
 11
-229.7594770273
 21
0.5347426762
 31
0.0
  0
LINE
  5
123
330
1B
100
AcDbEntity
  8
0
  6
Continuous
 62
     7
370
    25
100
AcDbLine
 10
-229.7902078839
 20
1.0416137337
 30
0.0
 11
-232.5901833196
 21
1.0650708902
 31
0.0
  0
LINE
  5
124
330
1B
100
AcDbEntity
  8
0
  6
Continuous
 62
     7
370
    25
100
AcDbLine
 10
-231.9896928433
 20
4.2751239214
 30
0.0
 11
-229.7508424407
 21
1.5957602334
 31
0.0
  0
LINE
  5
125
330
1B
100
AcDbEntity
  8
0
  6
Continuous
 62
     7
370
    25
100
AcDbLine
 10
-229.6507383788
 20
2.0654543022
 30
0.0
 11
-231.9013887096
 21
4.6894825501
 31
0.0
  0
LINE
  5
126
330
1B
100
AcDbEntity
  8
0
  6
Continuous
 62
     7
370
    25
100
AcDbLine
 10
-230.8524907239
 20
7.4436157553
 30
0.0
 11
-229.4781102801
 21
2.5059938053
 31
0.0
  0
LINE
  5
127
330
1B
100
AcDbEntity
  8
0
  6
Continuous
 62
     7
370
    25
100
AcDbLine
 10
-229.2739941022
 20
2.8126567389
 30
0.0
 11
-230.6638245733
 21
7.6740850318
 31
0.0
  0
LINE
  5
128
330
1B
100
AcDbEntity
  8
0
  6
Continuous
 62
     7
370
    25
100
AcDbLine
 10
-228.9702017989
 20
8.6720335281
 30
0.0
 11
-229.0143589075
 21
3.0215470412
 31
0.0
  0
LINE
  5
129
330
1B
100
AcDbEntity
  8
0
  6
Continuous
 62
     7
370
    25
100
AcDbLine
 10
-228.7609233788
 20
3.0830087543
 30
0.0
 11
-228.7491948005
 21
8.6829596257
 31
0.0
  0
LINE
  5
12A
330
1B
100
AcDbEntity
  8
0
  6
Continuous
 62
     7
370
    25
100
AcDbLine
 10
-227.0329873293
 20
7.8535856008
 30
0.0
 11
-228.4838501289
 21
3.004277868
 31
0.0
  0
LINE
  5
12B
330
1B
100
AcDbEntity
  8
0
  6
Continuous
 62
     7
370
    25
100
AcDbLine
 10
-228.2490030945
 20
2.8040697441
 30
0.0
 11
-226.8388581299
 21
7.6420408804
 31
0.0
  0
LINE
  5
12C
330
1B
100
AcDbEntity
  8
0
  6
Continuous
 62
     7
370
    25
100
AcDbLine
 10
-225.5599223679
 20
5.2075744344
 30
0.0
 11
-228.028733343
 21
2.4588135467
 31
0.0
  0
LINE
  5
12D
330
1B
100
AcDbEntity
  8
0
  6
Continuous
 62
     7
370
    25
100
AcDbLine
 10
-227.8754018761
 20
2.0505811909
 30
0.0
 11
-225.4446877297
 21
4.8302421332
 31
0.0
  0
LINE
  5
12E
330
1B
100
AcDbEntity
  8
0
  6
Continuous
 62
     7
370
    25
100
AcDbLine
 10
-224.9457134815
 20
1.4429965843
 30
0.0
 11
-227.770956725
 21
1.5313108016
 31
0.0
  0
LINE
  5
12F
330
1B
100
AcDbEntity
  8
0
  6
Continuous
 62
     7
370
    25
100
AcDbLine
 10
-232.5820942973
 20
0.5347426762
 30
0.0
 11
-229.7594770273
 21
0.5347426762
 31
0.0
  0
LINE
  5
130
330
1B
100
AcDbEntity
  8
0
  6
Continuous
 62
     7
370
    25
100
AcDbLine
 10
-232.5798541792
 20
1.5957602334
 30
0.0
 11
-229.7508424407
 21
1.5957602334
 31
0.0
  0
LINE
  5
131
330
1B
100
AcDbEntity
  8
0
  6
Continuous
 62
     7
370
    25
100
AcDbLine
 10
-232.5562287113
 20
0.0154722868
 30
0.0
 11
-229.6550318762
 21
0.0154722868
 31
0.0
  0
LINE
  5
132
330
1B
100
AcDbEntity
  8
0
  6
Continuous
 62
     7
370
    25
100
AcDbLine
 10
-230.028592687
 20
2.5059938053
 30
0.0
 11
-229.4781102801
 21
2.5059938053
 31
0.0
  0
LINE
  5
133
330
1B
100
AcDbEntity
  8
0
  6
Continuous
 62
     7
370
    25
100
AcDbLine
 10
-229.8117936929
 20
-0.7380162664
 30
0.0
 11
-229.2814306578
 21
-0.7380162664
 31
0.0
  0
LINE
  5
134
330
1B
100
AcDbEntity
  8
0
  6
Continuous
 62
     7
370
    25
100
AcDbLine
 10
-229.3337136105
 20
3.0215470412
 30
0.0
 11
-229.0143589075
 21
3.0215470412
 31
0.0
  0
LINE
  5
135
330
1B
100
AcDbEntity
  8
0
  6
Continuous
 62
     7
370
    25
100
AcDbLine
 10
-229.0701390916
 20
-1.0169552765
 30
0.0
 11
-228.7695103736
 21
-1.0169552765
 31
0.0
  0
LINE
  5
136
330
1B
100
AcDbEntity
  8
0
  6
Continuous
 62
     7
370
    25
100
AcDbLine
 10
-228.7509318475
 20
7.8535856008
 30
0.0
 11
-227.0329873293
 21
7.8535856008
 31
0.0
  0
LINE
  5
137
330
1B
100
AcDbEntity
  8
0
  6
Continuous
 62
     7
370
    25
100
AcDbLine
 10
-228.5524332408
 20
-5.608031554
 30
0.0
 11
-226.866609179
 21
-5.608031554
 31
0.0
  0
LINE
  5
138
330
1B
100
AcDbEntity
  8
0
  6
Continuous
 62
     7
370
    25
100
AcDbLine
 10
-227.5484428925
 20
5.2075744344
 30
0.0
 11
-225.5599223679
 21
5.2075744344
 31
0.0
  0
LINE
  5
139
330
1B
100
AcDbEntity
  8
0
  6
Continuous
 62
     7
370
    25
100
AcDbLine
 10
-227.3899231346
 20
-2.8196907536
 30
0.0
 11
-225.4607098054
 21
-2.8196907536
 31
0.0
  0
LINE
  5
13A
330
1B
100
AcDbEntity
  8
0
  6
Continuous
 62
     7
370
    25
100
AcDbLine
 10
-227.7403421067
 20
1.0009825875
 30
0.0
 11
-224.9402504328
 21
1.0009825875
 31
0.0
  0
ARC
  5
13B
330
1B
100
AcDbEntity
  8
0
  6
Continuous
 62
     7
370
    25
100
AcDbCircle
 10
-236.5
 20
1.5468993695
 30
0.0
 40
12.50000000000009
100
AcDbArc
 50
61.9014945052
 51
293.3846707108
  0
ARC
  5
13C
330
1B
100
AcDbEntity
  8
0
  6
Continuous
 62
     7
370
    25
100
AcDbCircle
 10
-231.732871273
 20
1.0295977032
 30
0.0
 40
3.992648736291348
100
AcDbArc
 50
351.9473183223
 51
359.9259816248
  0
ARC
  5
13D
330
1B
100
AcDbEntity
  8
0
  6
Continuous
 62
     7
370
    25
100
AcDbCircle
 10
-236.5327125141
 20
0.405166842
 30
0.0
 40
11.53208352784786
100
AcDbArc
 50
343.7611467417
 51
345.7605653704
  0
ARC
  5
13E
330
1B
100
AcDbEntity
  8
0
  6
Continuous
 62
     7
370
    25
100
AcDbCircle
 10
-230.2527999536
 20
0.6764222801
 30
0.0
 40
2.467460681909639
100
AcDbArc
 50
333.1000585527
 51
344.1038750223
  0
ARC
  5
13F
330
1B
100
AcDbEntity
  8
0
  6
Continuous
 62
     7
370
    25
100
AcDbCircle
 10
-230.3891843131
 20
-2.5319330662
 30
0.0
 40
4.676635273562152
100
AcDbArc
 50
318.8708228536
 51
322.5204735724
  0
ARC
  5
140
330
1B
100
AcDbEntity
  8
0
  6
Continuous
 62
     7
370
    25
100
AcDbCircle
 10
-228.9203396079
 20
-0.187223543
 30
0.0
 40
0.8681410155873386
100
AcDbArc
 50
297.7534081843
 51
319.8836412096
  0
ARC
  5
141
330
1B
100
AcDbEntity
  8
0
  6
Continuous
 62
     7
370
    25
100
AcDbCircle
 10
-228.7653406762
 20
-4.6978214806
 30
0.0
 40
1.919150519205826
100
AcDbArc
 50
269.5253553577
 51
276.1351894321
  0
ARC
  5
142
330
1B
100
AcDbEntity
  8
0
  6
Continuous
 62
     7
370
    25
100
AcDbCircle
 10
-228.7583588048
 20
-0.4508004596
 30
0.0
 40
0.5662646326962447
100
AcDbArc
 50
239.4032128467
 51
268.8715891968
  0
ARC
  5
143
330
1B
100
AcDbEntity
  8
0
  6
Continuous
 62
     7
370
    25
100
AcDbCircle
 10
-227.5094970818
 20
-2.8507210795
 30
0.0
 40
4.189594296636795
100
AcDbArc
 50
220.5781441576
 51
224.5054760561
  0
ARC
  5
144
330
1B
100
AcDbEntity
  8
0
  6
Continuous
 62
     7
370
    25
100
AcDbCircle
 10
-228.0520079585
 20
0.2892352001
 30
0.0
 40
1.602100417879541
100
AcDbArc
 50
205.1942330295
 51
219.8806447439
  0
ARC
  5
145
330
1B
100
AcDbEntity
  8
0
  6
Continuous
 62
     7
370
    25
100
AcDbCircle
 10
-226.3247163121
 20
0.9554653731
 30
0.0
 40
3.460431874538109
100
AcDbArc
 50
186.9833541859
 51
195.7619033382
  0
ARC
  5
146
330
1B
100
AcDbEntity
  8
0
  6
Continuous
 62
     7
370
    25
100
AcDbCircle
 10
-217.3035204407
 20
1.0329648388
 30
0.0
 40
15.28669659445653
100
AcDbArc
 50
179.879663825
 51
181.5365524225
  0
ARC
  5
147
330
1B
100
AcDbEntity
  8
0
  6
Continuous
 62
     7
370
    25
100
AcDbCircle
 10
-225.797562479
 20
1.0364557745
 30
0.0
 40
3.992648736539558
100
AcDbArc
 50
171.9473183224
 51
179.9259816244
  0
ARC
  5
148
330
1B
100
AcDbEntity
  8
0
  6
Continuous
 62
     7
370
    25
100
AcDbCircle
 10
-227.2776337987
 20
1.3896311977
 30
0.0
 40
2.467460681921676
100
AcDbArc
 50
153.1000585527
 51
164.1038750223
  0
ARC
  5
149
330
1B
100
AcDbEntity
  8
0
  6
Continuous
 62
     7
370
    25
100
AcDbCircle
 10
-227.141249439
 20
4.5979865439
 30
0.0
 40
4.676635273769051
100
AcDbArc
 50
138.8708228536
 51
142.5204735721
  0
ARC
  5
14A
330
1B
100
AcDbEntity
  8
0
  6
Continuous
 62
     7
370
    25
100
AcDbCircle
 10
-228.6100941445
 20
2.2532770208
 30
0.0
 40
0.8681410155850038
100
AcDbArc
 50
117.7534081843
 51
139.8836412096
  0
ARC
  5
14B
330
1B
100
AcDbEntity
  8
0
  6
Continuous
 62
     7
370
    25
100
AcDbCircle
 10
-228.7650930761
 20
6.7638749584
 30
0.0
 40
1.919150519196133
100
AcDbArc
 50
89.5253553576
 51
96.1351894321
  0
ARC
  5
14C
330
1B
100
AcDbEntity
  8
0
  6
Continuous
 62
     7
370
    25
100
AcDbCircle
 10
-228.7720749475
 20
2.5168539373
 30
0.0
 40
0.5662646326940449
100
AcDbArc
 50
59.4032128466
 51
88.8715891972
  0
ARC
  5
14D
330
1B
100
AcDbEntity
  8
0
  6
Continuous
 62
     7
370
    25
100
AcDbCircle
 10
-230.0209366707
 20
4.9167745571
 30
0.0
 40
4.189594296910596
100
AcDbArc
 50
40.5781441577
 51
44.5054760557
  0
ARC
  5
14E
330
1B
100
AcDbEntity
  8
0
  6
Continuous
 62
     7
370
    25
100
AcDbCircle
 10
-229.4784257938
 20
1.7768182776
 30
0.0
 40
1.602100417878771
100
AcDbArc
 50
25.1942330295
 51
39.8806447441
  0
ARC
  5
14F
330
1B
100
AcDbEntity
  8
0
  6
Continuous
 62
     7
370
    25
100
AcDbCircle
 10
-235.8951364842
 20
1.845010458
 30
0.0
 40
10.86846296974524
100
AcDbArc
 50
15.942299678
 51
18.0223078105
  0
ARC
  5
150
330
1B
100
AcDbEntity
  8
0
  6
Continuous
 62
     7
370
    25
100
AcDbCircle
 10
-231.2057174401
 20
1.1105881047
 30
0.0
 40
3.460431874423411
100
AcDbArc
 50
6.9833541859
 51
15.7619033386
  0
ARC
  5
151
330
1B
100
AcDbEntity
  8
0
  6
Continuous
 62
     7
370
    25
100
AcDbCircle
 10
-240.226913312
 20
1.0330886389
 30
0.0
 40
15.28669659486088
100
AcDbArc
 50
359.8796638251
 51
1.5365524223
  0
VIEWPORT
  5
198
330
1B
100
AcDbEntity
  8
0
100
AcDbViewport
 10
0.0
 20
0.0
 30
0.0
 40
205.6
 41
156.0
 68
     1
 69
     1
 12
40.8122718392
 22
0.0
 13
0.0
 23
0.0
 14
10.0
 24
10.0
 15
10.0
 25
10.0
 16
0.0
 26
0.0
 36
1.0
 17
0.0
 27
0.0
 37
0.0
 42
50.0
 43
0.0
 44
0.0
 45
103.4160378896
 50
0.0
 51
0.0
 72
   100
 90
   557152
  1

281
     0
 71
     1
 74
     0
110
0.0
120
0.0
130
0.0
111
1.0
121
0.0
131
0.0
112
0.0
122
1.0
132
0.0
 79
     0
146
0.0
  0
ENDBLK
  5
1D
330
1B
100
AcDbEntity
  8
0
100
AcDbBlockEnd
  0
ENDSEC
  0
SECTION
  2
ENTITIES
  0
LWPOLYLINE
  5
7A
330
1F
100
AcDbEntity
  8
0
  6
Continuous
 62
     7
370
    25
100
AcDbPolyline
 90
        3
 70
   128
 43
0.0
 10
105.0
 20
13.8858620488
 10
102.9313299861
 20
14.0209092921
 10
101.5358983849
 20
14.0468993695
  0
LWPOLYLINE
  5
7B
330
1F
100
AcDbEntity
  8
0
  6
Continuous
 62
     7
370
    25
100
AcDbPolyline
 90
        3
 70
   128
 43
0.0
 10
101.5358983849
 20
-10.9531006305
 10
102.9313299861
 20
-10.9271105531
 10
105.0
 20
-10.7920633097
  0
CIRCLE
  5
7D
330
1F
100
AcDbEntity
  8
0
  6
Continuous
 62
     7
370
    25
100
AcDbCircle
 10
0.0
 20
0.0
 30
0.0
 40
22.0
  0
LINE
  5
82
330
1F
100
AcDbEntity
  8
0
  6
Continuous
 62
     7
370
    25
100
AcDbLine
 10
19.0928386949
 20
-10.9531006305
 30
0.0
 11
101.5358983849
 21
-10.9531006305
 31
0.0
  0
LINE
  5
83
330
1F
100
AcDbEntity
  8
0
  6
Continuous
 62
     7
370
    25
100
AcDbLine
 10
101.5358983849
 20
14.0468993695
 30
0.0
 11
16.9317635851
 21
14.0468993695
 31
0.0
  0
LINE
  5
84
330
1F
100
AcDbEntity
  8
0
  6
Continuous
 62
     7
370
    25
100
AcDbLine
 10
50.0
 20
-6.9059910429
 30
0.0
 11
80.0
 21
-6.9059910429
 31
0.0
  0
LINE
  5
85
330
1F
100
AcDbEntity
  8
0
  6
Continuous
 62
     7
370
    25
100
AcDbLine
 10
80.0
 20
6.0940089571
 30
0.0
 11
50.0
 21
6.0940089571
 31
0.0
  0
LINE
  5
86
330
1F
100
AcDbEntity
  8
0
  6
Continuous
 62
     7
370
    25
100
AcDbLine
 10
50.0
 20
5.0940089571
 30
0.0
 11
21.4021277621
 21
5.0940089571
 31
0.0
  0
LINE
  5
87
330
1F
100
AcDbEntity
  8
0
  6
Continuous
 62
     7
370
    25
100
AcDbLine
 10
21.1924342585
 20
-5.9059910429
 30
0.0
 11
50.0
 21
-5.9059910429
 31
0.0
  0
LINE
  5
88
330
1F
100
AcDbEntity
  8
0
  6
Continuous
 62
     7
370
    25
100
AcDbLine
 10
105.0
 20
13.8858620488
 30
0.0
 11
105.0
 21
-10.7920633097
 31
0.0
  0
LINE
  5
89
330
1F
100
AcDbEntity
  8
0
  6
Continuous
 62
     7
370
    25
100
AcDbLine
 10
80.0
 20
6.0940089571
 30
0.0
 11
80.0
 21
-6.9059910429
 31
0.0
  0
LINE
  5
8A
330
1F
100
AcDbEntity
  8
0
  6
Continuous
 62
     7
370
    25
100
AcDbLine
 10
50.0
 20
6.0940089571
 30
0.0
 11
50.0
 21
-6.9059910429
 31
0.0
  0
ARC
  5
8B
330
1F
100
AcDbEntity
  8
0
  6
Continuous
 62
     7
370
    25
100
AcDbCircle
 10
0.0
 20
0.0
 30
0.0
 40
26.00000000000001
100
AcDbArc
 50
32.7017049023
 51
335.0850101921
  0
ARC
  5
8C
330
1F
100
AcDbEntity
  8
0
  6
Continuous
 62
     7
370
    25
100
AcDbCircle
 10
95.4562942341
 20
1.191929598
 30
0.0
 40
12.16824944431251
100
AcDbArc
 50
321.6571043386
 51
0.6201817911
  0
ARC
  5
8D
330
1F
100
AcDbEntity
  8
0
  6
Continuous
 62
     7
370
    25
100
AcDbCircle
 10
95.4562942341
 20
1.4553479313
 30
0.0
 40
12.16824944431252
100
AcDbArc
 50
359.3798182089
 51
38.3428956614
  0
SPLINE
  5
16B
330
23
100
AcDbEntity
 67
     1
  8
0
  6
Continuous
 62
     7
370
    25
100
AcDbSpline
210
0.0
220
0.0
230
1.0
 70
     8
 71
     3
 72
    27
 73
    23
 74
     0
 42
0.000000001
 43
0.00000001
 40
0.0
 40
0.0
 40
0.0
 40
0.0
 40
0.0608629976004999
 40
0.0918304408344586
 40
0.1234952513035775
 40
0.1849277020106629
 40
0.2469439512768371
 40
0.2891502315816918
 40
0.3302078224722046
 40
0.3707085852811087
 40
0.4337548100870498
 40
0.4936226225070962
 40
0.5542918638170674
 40
0.5853671863242867
 40
0.6175102400570551
 40
0.6780803736824403
 40
0.7412891996491816
 40
0.8033959701451552
 40
0.8648763720598399
 40
0.9271913560880031
 40
0.9880427505750207
 40
1.0
 40
1.0
 40
1.0
 40
1.0
 10
21.94554857688885
 20
-249.0
 30
0.0
 10
21.86132081629412
 20
-248.9546598070698
 30
0.0
 10
21.73423748667104
 20
-248.8862502632016
 30
0.0
 10
21.38632136175981
 20
-248.4693534738915
 30
0.0
 10
20.96951999218819
 20
-247.9165544738767
 30
0.0
 10
20.32226501151396
 20
-246.9694375989072
 30
0.0
 10
19.53639680808987
 20
-245.6320861683216
 30
0.0
 10
18.83304113187649
 20
-244.2607365556007
 30
0.0
 10
18.25807449660573
 20
-242.9574289236687
 30
0.0
 10
17.65418212578128
 20
-241.2953120467436
 30
0.0
 10
17.11577525164049
 20
-239.2373017614027
 30
0.0
 10
16.86566158436866
 20
-236.7529695767835
 30
0.0
 10
17.00205676703576
 20
-234.684160099117
 30
0.0
 10
17.30230629931724
 20
-233.0710354905169
 30
0.0
 10
17.70795009524007
 20
-231.5266282839034
 30
0.0
 10
18.36470329008651
 20
-229.7225759921305
 30
0.0
 10
19.26388278020841
 20
-227.8600456002746
 30
0.0
 10
20.15853499919771
 20
-226.2895693301829
 30
0.0
 10
20.96575760055129
 20
-225.0723023755193
 30
0.0
 10
21.56433199490177
 20
-224.2967384850922
 30
0.0
 10
21.89169742058765
 20
-223.9526769536585
 30
0.0
 10
21.91861020985735
 20
-224.0268788359277
 30
0.0
 10
21.92303005503959
 20
-224.0390648947034
 30
0.0
  0
SPLINE
  5
170
330
23
100
AcDbEntity
 67
     1
  8
0
  6
Continuous
 62
     7
370
    25
100
AcDbSpline
210
0.0
220
0.0
230
1.0
 70
    24
 71
     3
 72
    22
 73
    18
 74
     0
 42
0.000000001
 43
0.00000001
 40
0.0
 40
0.0
 40
0.0
 40
0.0
 40
0.125
 40
0.125
 40
0.25
 40
0.25
 40
0.375
 40
0.375
 40
0.5
 40
0.5
 40
0.625
 40
0.625
 40
0.75
 40
0.75
 40
0.875
 40
0.875
 40
1.0
 40
1.0
 40
1.0
 40
1.0
 10
20.5447582003467
 20
-269.40332833093
 30
0.0
 10
20.5447582003467
 20
-269.40332833093
 30
0.0
 10
20.10348270497455
 20
-269.40332833093
 30
0.0
 10
18.10106894070305
 20
-269.40332833093
 30
0.0
 10
16.53314462764965
 20
-269.40332833093
 30
0.0
 10
12.52153105495656
 20
-269.40332833093
 30
0.0
 10
10.09141388361016
 20
-269.40332833093
 30
0.0
 10
5.033419721940893
 20
-269.40332833093
 30
0.0
 10
2.421222973547791
 20
-269.40332833093
 30
0.0
 10
-2.421222973547785
 20
-269.40332833093
 30
0.0
 10
-5.033419721942073
 20
-269.40332833093
 30
0.0
 10
-10.09141388360898
 20
-269.40332833093
 30
0.0
 10
-12.52153105495836
 20
-269.40332833093
 30
0.0
 10
-16.53314462764784
 20
-269.40332833093
 30
0.0
 10
-18.1010689407043
 20
-269.40332833093
 30
0.0
 10
-20.1034827049733
 20
-269.40332833093
 30
0.0
 10
-20.5447582003467
 20
-269.40332833093
 30
0.0
 10
-20.5447582003467
 20
-269.40332833093
 30
0.0
  0
LINE
  5
178
330
23
100
AcDbEntity
 67
     1
  8
0
  6
Continuous
 62
     7
370
    25
100
AcDbLine
 10
-26.0
 20
0.0
 30
0.0
 11
-26.0
 21
-5.0
 31
0.0
  0
LINE
  5
179
330
23
100
AcDbEntity
 67
     1
  8
0
  6
Continuous
 62
     7
370
    25
100
AcDbLine
 10
26.0
 20
-5.0
 30
0.0
 11
26.0
 21
0.0
 31
0.0
  0
LINE
  5
17A
330
23
100
AcDbEntity
 67
     1
  8
0
  6
Continuous
 62
     7
370
    25
100
AcDbLine
 10
-22.0
 20
-5.0
 30
0.0
 11
-22.0
 21
-269.0
 31
0.0
  0
LINE
  5
17B
330
23
100
AcDbEntity
 67
     1
  8
0
  6
Continuous
 62
     7
370
    25
100
AcDbLine
 10
22.0
 20
-224.0
 30
0.0
 11
22.0
 21
-5.0
 31
0.0
  0
LINE
  5
17C
330
23
100
AcDbEntity
 67
     1
  8
0
  6
Continuous
 62
     7
370
    25
100
AcDbLine
 10
22.0
 20
-269.0
 30
0.0
 11
22.0
 21
-249.0
 31
0.0
  0
LINE
  5
17D
330
23
100
AcDbEntity
 67
     1
  8
0
  6
Continuous
 62
     7
370
    25
100
AcDbLine
 10
21.9455485769
 20
-249.0
 30
0.0
 11
105.0
 21
-249.0
 31
0.0
  0
LINE
  5
17E
330
23
100
AcDbEntity
 67
     1
  8
0
  6
Continuous
 62
     7
370
    25
100
AcDbLine
 10
79.8852632903
 20
-224.0
 30
0.0
 11
21.923030055
 21
-224.0
 31
0.0
  0
LINE
  5
17F
330
23
100
AcDbEntity
 67
     1
  8
0
  6
Continuous
 62
     7
370
    25
100
AcDbLine
 10
-20.5447582003
 20
-269.4033283309
 30
0.0
 11
-18.1784839951
 21
-277.8795344393
 31
0.0
  0
LINE
  5
180
330
23
100
AcDbEntity
 67
     1
  8
0
  6
Continuous
 62
     7
370
    25
100
AcDbLine
 10
20.0990206927
 20
-271.0
 30
0.0
 11
20.5447582003
 21
-269.4033283309
 31
0.0
  0
LINE
  5
181
330
23
100
AcDbEntity
 67
     1
  8
0
  6
Continuous
 62
     7
370
    25
100
AcDbLine
 10
20.5447582003
 20
-269.4033283309
 30
0.0
 11
19.1
 21
-269.0
 31
0.0
  0
LINE
  5
182
330
23
100
AcDbEntity
 67
     1
  8
0
  6
Continuous
 62
     7
370
    25
100
AcDbLine
 10
-19.1
 20
-269.0
 30
0.0
 11
-20.5447582003
 21
-269.4033283309
 31
0.0
  0
LINE
  5
183
330
23
100
AcDbEntity
 67
     1
  8
0
  6
Continuous
 62
     7
370
    25
100
AcDbLine
 10
-22.0
 20
-279.2704525148
 30
0.0
 11
-22.0
 21
-297.5
 31
0.0
  0
LINE
  5
184
330
23
100
AcDbEntity
 67
     1
  8
0
  6
Continuous
 62
     7
370
    25
100
AcDbLine
 10
22.0
 20
-297.5
 30
0.0
 11
22.0
 21
-292.4849951024
 31
0.0
  0
LINE
  5
185
330
23
100
AcDbEntity
 67
     1
  8
0
  6
Continuous
 62
     7
370
    25
100
AcDbLine
 10
22.0
 20
-281.5150048976
 30
0.0
 11
22.0
 21
-271.0
 31
0.0
  0
LINE
  5
186
330
23
100
AcDbEntity
 67
     1
  8
0
  6
Continuous
 62
     7
370
    25
100
AcDbLine
 10
50.0
 20
-293.5
 30
0.0
 11
80.0
 21
-293.5
 31
0.0
  0
LINE
  5
187
330
23
100
AcDbEntity
 67
     1
  8
0
  6
Continuous
 62
     7
370
    25
100
AcDbLine
 10
80.0
 20
-280.5
 30
0.0
 11
50.0
 21
-280.5
 31
0.0
  0
LINE
  5
188
330
23
100
AcDbEntity
 67
     1
  8
0
  6
Continuous
 62
     7
370
    25
100
AcDbLine
 10
50.0
 20
-281.5
 30
0.0
 11
22.0
 21
-281.5
 31
0.0
  0
LINE
  5
189
330
23
100
AcDbEntity
 67
     1
  8
0
  6
Continuous
 62
     7
370
    25
100
AcDbLine
 10
22.0
 20
-292.5
 30
0.0
 11
50.0
 21
-292.5
 31
0.0
  0
LINE
  5
18A
330
23
100
AcDbEntity
 67
     1
  8
0
  6
Continuous
 62
     7
370
    25
100
AcDbLine
 10
104.8238308473
 20
-238.3982886923
 30
0.0
 11
107.6238308473
 21
-233.5485464311
 31
0.0
  0
LINE
  5
18B
330
23
100
AcDbEntity
 67
     1
  8
0
  6
Continuous
 62
     7
370
    25
100
AcDbLine
 10
88.1382592621
 20
-222.2985464311
 30
0.0
 11
85.3382592621
 21
-227.1482886923
 31
0.0
  0
LINE
  5
18C
330
23
100
AcDbEntity
 67
     1
  8
0
  6
Continuous
 62
     7
370
    25
100
AcDbLine
 10
26.0
 20
-5.0
 30
0.0
 11
-26.0
 21
-5.0
 31
0.0
  0
LINE
  5
18D
330
23
100
AcDbEntity
 67
     1
  8
0
  6
Continuous
 62
     7
370
    25
100
AcDbLine
 10
26.0
 20
0.0
 30
0.0
 11
-26.0
 21
0.0
 31
0.0
  0
LINE
  5
18E
330
23
100
AcDbEntity
 67
     1
  8
0
  6
Continuous
 62
     7
370
    25
100
AcDbLine
 10
22.0
 20
-155.0
 30
0.0
 11
-22.0
 21
-155.0
 31
0.0
  0
LINE
  5
18F
330
23
100
AcDbEntity
 67
     1
  8
0
  6
Continuous
 62
     7
370
    25
100
AcDbLine
 10
22.0
 20
-269.0
 30
0.0
 11
-22.0
 21
-269.0
 31
0.0
  0
LINE
  5
190
330
23
100
AcDbEntity
 67
     1
  8
0
  6
Continuous
 62
     7
370
    25
100
AcDbLine
 10
105.0
 20
-238.5
 30
0.0
 11
79.8852632903
 21
-224.0
 31
0.0
  0
LINE
  5
191
330
23
100
AcDbEntity
 67
     1
  8
0
  6
Continuous
 62
     7
370
    25
100
AcDbLine
 10
105.0
 20
-238.5
 30
0.0
 11
105.0
 21
-249.0
 31
0.0
  0
LINE
  5
192
330
23
100
AcDbEntity
 67
     1
  8
0
  6
Continuous
 62
     7
370
    25
100
AcDbLine
 10
0.7228815332
 20
-271.0
 30
0.0
 11
-22.0
 21
-279.2704525148
 31
0.0
  0
LINE
  5
193
330
23
100
AcDbEntity
 67
     1
  8
0
  6
Continuous
 62
     7
370
    25
100
AcDbLine
 10
22.0
 20
-271.0
 30
0.0
 11
0.7228815332
 21
-271.0
 31
0.0
  0
LINE
  5
194
330
23
100
AcDbEntity
 67
     1
  8
0
  6
Continuous
 62
     7
370
    25
100
AcDbLine
 10
22.0
 20
-297.5
 30
0.0
 11
-22.0
 21
-297.5
 31
0.0
  0
LINE
  5
195
330
23
100
AcDbEntity
 67
     1
  8
0
  6
Continuous
 62
     7
370
    25
100
AcDbLine
 10
80.0
 20
-280.5
 30
0.0
 11
80.0
 21
-293.5
 31
0.0
  0
LINE
  5
196
330
23
100
AcDbEntity
 67
     1
  8
0
  6
Continuous
 62
     7
370
    25
100
AcDbLine
 10
50.0
 20
-280.5
 30
0.0
 11
50.0
 21
-293.5
 31
0.0
  0
LINE
  5
197
330
23
100
AcDbEntity
 67
     1
  8
0
  6
Continuous
 62
     7
370
    25
100
AcDbLine
 10
88.1382592621
 20
-222.2985464311
 30
0.0
 11
107.6238308473
 21
-233.5485464311
 31
0.0
  0
VIEWPORT
  5
19A
330
23
100
AcDbEntity
 67
     1
  8
0
100
AcDbViewport
 10
0.0
 20
0.0
 30
0.0
 40
205.6
 41
156.0
 68
     1
 69
     1
 12
40.8122718392
 22
0.0
 13
0.0
 23
0.0
 14
10.0
 24
10.0
 15
10.0
 25
10.0
 16
0.0
 26
0.0
 36
1.0
 17
0.0
 27
0.0
 37
0.0
 42
50.0
 43
0.0
 44
0.0
 45
103.4160378896
 50
0.0
 51
0.0
 72
   100
 90
   557152
  1

281
     0
 71
     1
 74
     0
110
0.0
120
0.0
130
0.0
111
1.0
121
0.0
131
0.0
112
0.0
122
1.0
132
0.0
 79
     0
146
0.0
  0
ENDSEC
  0
SECTION
  2
OBJECTS
  0
DICTIONARY
  5
C
330
0
100
AcDbDictionary
281
     1
  3
ACAD_GROUP
350
D
  3
ACAD_LAYOUT
350
1A
  3
ACAD_MLINESTYLE
350
17
  3
ACAD_PLOTSETTINGS
350
19
  3
ACAD_PLOTSTYLENAME
350
E
  3
ACAD_SCALELIST
350
47
  0
DICTIONARY
  5
D
102
{ACAD_REACTORS
330
C
102
}
330
C
100
AcDbDictionary
281
     1
  0
DICTIONARY
  5
1A
102
{ACAD_REACTORS
330
C
102
}
330
C
100
AcDbDictionary
281
     1
  3
_Right
350
1E
  3
_Top
350
26
  3
Model
350
22
  0
DICTIONARY
  5
17
102
{ACAD_REACTORS
330
C
102
}
330
C
100
AcDbDictionary
281
     1
  3
Standard
350
18
  0
DICTIONARY
  5
19
102
{ACAD_REACTORS
330
C
102
}
330
C
100
AcDbDictionary
281
     1
  0
ACDBDICTIONARYWDFLT
  5
E
102
{ACAD_REACTORS
330
C
102
}
330
C
100
AcDbDictionary
281
     1
  3
Normal
350
F
100
AcDbDictionaryWithDefault
340
F
  0
DICTIONARY
  5
47
102
{ACAD_REACTORS
330
C
102
}
330
C
100
AcDbDictionary
281
     1
  3
A0
350
48
  3
A1
350
49
  3
A2
350
4A
  3
A3
350
4B
  3
A4
350
4C
  3
A5
350
4D
  3
A6
350
4E
  3
A7
350
4F
  3
A8
350
50
  3
A9
350
51
  3
B0
350
52
  3
B1
350
53
  3
B2
350
54
  3
B3
350
55
  3
B4
350
56
  3
B5
350
57
  3
B6
350
58
  3
B7
350
59
  3
B8
350
5A
  3
B9
350
5B
  3
C0
350
5C
  3
C1
350
5D
  3
C2
350
5E
  3
C3
350
5F
  3
C4
350
60
  3
C5
350
61
  3
C6
350
62
  3
C7
350
63
  3
C8
350
64
  3
C9
350
65
  3
D0
350
66
  3
D1
350
67
  3
D2
350
68
  0
LAYOUT
  5
1E
102
{ACAD_REACTORS
330
1A
102
}
330
1A
100
AcDbPlotSettings
  1

  2
none_device
  4
ISO_A4_(210.00_x_297.00_MM)
  6

 40
7.5
 41
20.0
 42
7.5
 43
20.0
 44
210.0
 45
297.0
 46
0.0
 47
0.0
 48
0.0
 49
0.0
140
0.0
141
0.0
142
1.0
143
1.1575875486
 70
   688
 72
     1
 73
     1
 74
     1
  7

 75
     0
147
0.8638655462
148
297.5
149
26.0
100
AcDbLayout
  1
_Right
 70
     1
 71
     1
 10
-320.6517509728
 20
-34.6819066148
 11
23.1517509728
 21
208.4114785992
 12
0.0
 22
0.0
 32
0.0
 14
1.0000000000E+20
 24
1.0000000000E+20
 34
1.0000000000E+20
 15
-1.0000000000E+20
 25
-1.0000000000E+20
 35
-1.0000000000E+20
146
0.0
 13
0.0
 23
0.0
 33
0.0
 16
1.0
 26
0.0
 36
0.0
 17
0.0
 27
1.0
 37
0.0
 76
     0
330
1B
331
198
  0
LAYOUT
  5
26
102
{ACAD_REACTORS
330
1A
102
}
330
1A
100
AcDbPlotSettings
  1

  2
none_device
  4
ANSI_A_(11.00_x_8.50_Inches)
  6

 40
6.35
 41
19.05
 42
6.35000508
 43
19.05000254
 44
279.4
 45
215.9
 46
48.8676190466
 47
88.89999873
 48
0.0
 49
0.0
140
0.0
141
0.0
142
0.0814970042
143
1.0
 70
  1696
 72
     0
 73
     0
 74
     1
  7

 75
     0
147
0.0785783772
148
660.4
149
660.4
100
AcDbLayout
  1
_Top
 70
     1
 71
     2
 10
0.0
 20
0.0
 11
0.0
 21
0.0
 12
0.0
 22
0.0
 32
0.0
 14
-26.0
 24
-26.0
 34
0.0
 15
107.6245436784
 25
26.0
 35
0.0
146
0.0
 13
0.0
 23
0.0
 33
0.0
 16
1.0
 26
0.0
 36
0.0
 17
0.0
 27
1.0
 37
0.0
 76
     0
330
23
331
19A
  0
LAYOUT
  5
22
102
{ACAD_REACTORS
330
1A
102
}
330
1A
100
AcDbPlotSettings
  1

  2
none_device
  4
Letter_(8.50_x_11.00_Inches)
  6

 40
6.35
 41
6.35
 42
6.35000508
 43
6.35000508
 44
215.9
 45
279.4
 46
0.0
 47
0.0
 48
0.0
 49
0.0
140
0.0
141
0.0
142
1.0
143
1.0
 70
  1712
 72
     1
 73
     0
 74
     0
  7

 75
     0
147
1.0
148
0.0
149
0.0
100
AcDbLayout
  1
Model
 70
     1
 71
     0
 10
0.0
 20
0.0
 11
420.0
 21
297.0
 12
0.0
 22
0.0
 32
0.0
 14
-26.0
 24
-26.0
 34
0.0
 15
107.6245436784
 25
26.0
 35
0.0
146
0.0
 13
0.0
 23
0.0
 33
0.0
 16
1.0
 26
0.0
 36
0.0
 17
0.0
 27
1.0
 37
0.0
 76
     0
330
1F
331
29
  0
MLINESTYLE
  5
18
102
{ACAD_REACTORS
330
17
102
}
330
17
100
AcDbMlineStyle
  2
Standard
 70
     0
  3

 62
   256
 51
90.0
 52
90.0
 71
     2
 49
0.5
 62
   256
  6
BYLAYER
 49
-0.5
 62
   256
  6
BYLAYER
  0
ACDBPLACEHOLDER
  5
F
102
{ACAD_REACTORS
330
E
102
}
330
E
  0
SCALE
  5
48
102
{ACAD_REACTORS
330
47
102
}
330
47
100
AcDbScale
 70
     0
300
1:1
140
1.0
141
1.0
290
     1
  0
SCALE
  5
49
102
{ACAD_REACTORS
330
47
102
}
330
47
100
AcDbScale
 70
     0
300
1:2
140
1.0
141
2.0
290
     0
  0
SCALE
  5
4A
102
{ACAD_REACTORS
330
47
102
}
330
47
100
AcDbScale
 70
     0
300
1:4
140
1.0
141
4.0
290
     0
  0
SCALE
  5
4B
102
{ACAD_REACTORS
330
47
102
}
330
47
100
AcDbScale
 70
     0
300
1:5
140
1.0
141
5.0
290
     0
  0
SCALE
  5
4C
102
{ACAD_REACTORS
330
47
102
}
330
47
100
AcDbScale
 70
     0
300
1:8
140
1.0
141
8.0
290
     0
  0
SCALE
  5
4D
102
{ACAD_REACTORS
330
47
102
}
330
47
100
AcDbScale
 70
     0
300
1:10
140
1.0
141
10.0
290
     0
  0
SCALE
  5
4E
102
{ACAD_REACTORS
330
47
102
}
330
47
100
AcDbScale
 70
     0
300
1:16
140
1.0
141
16.0
290
     0
  0
SCALE
  5
4F
102
{ACAD_REACTORS
330
47
102
}
330
47
100
AcDbScale
 70
     0
300
1:20
140
1.0
141
20.0
290
     0
  0
SCALE
  5
50
102
{ACAD_REACTORS
330
47
102
}
330
47
100
AcDbScale
 70
     0
300
1:30
140
1.0
141
30.0
290
     0
  0
SCALE
  5
51
102
{ACAD_REACTORS
330
47
102
}
330
47
100
AcDbScale
 70
     0
300
1:40
140
1.0
141
40.0
290
     0
  0
SCALE
  5
52
102
{ACAD_REACTORS
330
47
102
}
330
47
100
AcDbScale
 70
     0
300
1:50
140
1.0
141
50.0
290
     0
  0
SCALE
  5
53
102
{ACAD_REACTORS
330
47
102
}
330
47
100
AcDbScale
 70
     0
300
1:100
140
1.0
141
100.0
290
     0
  0
SCALE
  5
54
102
{ACAD_REACTORS
330
47
102
}
330
47
100
AcDbScale
 70
     0
300
2:1
140
2.0
141
1.0
290
     0
  0
SCALE
  5
55
102
{ACAD_REACTORS
330
47
102
}
330
47
100
AcDbScale
 70
     0
300
4:1
140
4.0
141
1.0
290
     0
  0
SCALE
  5
56
102
{ACAD_REACTORS
330
47
102
}
330
47
100
AcDbScale
 70
     0
300
8:1
140
8.0
141
1.0
290
     0
  0
SCALE
  5
57
102
{ACAD_REACTORS
330
47
102
}
330
47
100
AcDbScale
 70
     0
300
10:1
140
10.0
141
1.0
290
     0
  0
SCALE
  5
58
102
{ACAD_REACTORS
330
47
102
}
330
47
100
AcDbScale
 70
     0
300
100:1
140
100.0
141
1.0
290
     0
  0
SCALE
  5
59
102
{ACAD_REACTORS
330
47
102
}
330
47
100
AcDbScale
 70
     0
300
1/128" = 1'-0"
140
0.0078125
141
12.0
290
     0
  0
SCALE
  5
5A
102
{ACAD_REACTORS
330
47
102
}
330
47
100
AcDbScale
 70
     0
300
1/64" = 1'-0"
140
0.015625
141
12.0
290
     0
  0
SCALE
  5
5B
102
{ACAD_REACTORS
330
47
102
}
330
47
100
AcDbScale
 70
     0
300
1/32" = 1'-0"
140
0.03125
141
12.0
290
     0
  0
SCALE
  5
5C
102
{ACAD_REACTORS
330
47
102
}
330
47
100
AcDbScale
 70
     0
300
1/16" = 1'-0"
140
0.0625
141
12.0
290
     0
  0
SCALE
  5
5D
102
{ACAD_REACTORS
330
47
102
}
330
47
100
AcDbScale
 70
     0
300
3/32" = 1'-0"
140
0.09375
141
12.0
290
     0
  0
SCALE
  5
5E
102
{ACAD_REACTORS
330
47
102
}
330
47
100
AcDbScale
 70
     0
300
1/8" = 1'-0"
140
0.125
141
12.0
290
     0
  0
SCALE
  5
5F
102
{ACAD_REACTORS
330
47
102
}
330
47
100
AcDbScale
 70
     0
300
3/16" = 1'-0"
140
0.1875
141
12.0
290
     0
  0
SCALE
  5
60
102
{ACAD_REACTORS
330
47
102
}
330
47
100
AcDbScale
 70
     0
300
1/4" = 1'-0"
140
0.25
141
12.0
290
     0
  0
SCALE
  5
61
102
{ACAD_REACTORS
330
47
102
}
330
47
100
AcDbScale
 70
     0
300
3/8" = 1'-0"
140
0.375
141
12.0
290
     0
  0
SCALE
  5
62
102
{ACAD_REACTORS
330
47
102
}
330
47
100
AcDbScale
 70
     0
300
1/2" = 1'-0"
140
0.5
141
12.0
290
     0
  0
SCALE
  5
63
102
{ACAD_REACTORS
330
47
102
}
330
47
100
AcDbScale
 70
     0
300
3/4" = 1'-0"
140
0.75
141
12.0
290
     0
  0
SCALE
  5
64
102
{ACAD_REACTORS
330
47
102
}
330
47
100
AcDbScale
 70
     0
300
1" = 1'-0"
140
1.0
141
12.0
290
     0
  0
SCALE
  5
65
102
{ACAD_REACTORS
330
47
102
}
330
47
100
AcDbScale
 70
     0
300
1-1/2" = 1'-0"
140
1.5
141
12.0
290
     0
  0
SCALE
  5
66
102
{ACAD_REACTORS
330
47
102
}
330
47
100
AcDbScale
 70
     0
300
3" = 1'-0"
140
3.0
141
12.0
290
     0
  0
SCALE
  5
67
102
{ACAD_REACTORS
330
47
102
}
330
47
100
AcDbScale
 70
     0
300
6" = 1'-0"
140
6.0
141
12.0
290
     0
  0
SCALE
  5
68
102
{ACAD_REACTORS
330
47
102
}
330
47
100
AcDbScale
 70
     0
300
1'-0" = 1'-0"
140
12.0
141
12.0
290
     0
  0
ENDSEC
  0
EOF
