  0
SECTION
  2
HEADER
  9
$ACADVER
  1
AC1015
  9
$ACADMAINTVER
 70
     6
  9
$DWGCODEPAGE
  3
ANSI_1252
  9
$INSBASE
 10
0.0
 20
0.0
 30
0.0
  9
$EXTMIN
 10
-13.7795275591
 20
-13.7795275591
 30
0.0
  9
$EXTMAX
 10
13.7795275591
 20
13.7795275591
 30
0.0
  9
$LIMMIN
 10
0.0
 20
0.0
  9
$LIMMAX
 10
12.0
 20
9.0
  9
$ORTHOMODE
 70
     0
  9
$REGENMODE
 70
     1
  9
$FILLMODE
 70
     1
  9
$QTEXTMODE
 70
     0
  9
$MIRRTEXT
 70
     1
  9
$LTSCALE
 40
1.0
  9
$ATTMODE
 70
     1
  9
$TEXTSIZE
 40
0.1377952756
  9
$TRACEWID
 40
0.05
  9
$TEXTSTYLE
  7
Standard
  9
$CLAYER
  8
0
  9
$CELTYPE
  6
ByLayer
  9
$CECOLOR
 62
   256
  9
$CELTSCALE
 40
1.0
  9
$DISPSILH
 70
     0
  9
$DIMSCALE
 40
1.0
  9
$DIMASZ
 40
0.13
  9
$DIMEXO
 40
0.0393700787
  9
$DIMDLI
 40
0.38
  9
$DIMRND
 40
0.0
  9
$DIMDLE
 40
0.0
  9
$DIMEXE
 40
0.0393700787
  9
$DIMTP
 40
0.0
  9
$DIMTM
 40
0.0
  9
$DIMTXT
 40
0.1377952756
  9
$DIMCEN
 40
0.09
  9
$DIMTSZ
 40
0.0
  9
$DIMTOL
 70
     0
  9
$DIMLIM
 70
     0
  9
$DIMTIH
 70
     1
  9
$DIMTOH
 70
     1
  9
$DIMSE1
 70
     0
  9
$DIMSE2
 70
     0
  9
$DIMTAD
 70
     1
  9
$DIMZIN
 70
     1
  9
$DIMBLK
  1

  9
$DIMASO
 70
     1
  9
$DIMSHO
 70
     1
  9
$DIMPOST
  1

  9
$DIMAPOST
  1

  9
$DIMALT
 70
     0
  9
$DIMALTD
 70
     2
  9
$DIMALTF
 40
25.4
  9
$DIMLFAC
 40
1.0
  9
$DIMTOFL
 70
     0
  9
$DIMTVP
 40
0.0
  9
$DIMTIX
 70
     0
  9
$DIMSOXD
 70
     0
  9
$DIMSAH
 70
     0
  9
$DIMBLK1
  1

  9
$DIMBLK2
  1

  9
$DIMSTYLE
  2
Standard
  9
$DIMCLRD
 70
     0
  9
$DIMCLRE
 70
     0
  9
$DIMCLRT
 70
     0
  9
$DIMTFAC
 40
1.0
  9
$DIMGAP
 40
0.06
  9
$DIMJUST
 70
     0
  9
$DIMSD1
 70
     0
  9
$DIMSD2
 70
     0
  9
$DIMTOLJ
 70
     1
  9
$DIMTZIN
 70
     1
  9
$DIMALTZ
 70
     0
  9
$DIMALTTZ
 70
     0
  9
$DIMUPT
 70
     0
  9
$DIMDEC
 70
     2
  9
$DIMTDEC
 70
     2
  9
$DIMALTU
 70
     2
  9
$DIMALTTD
 70
     2
  9
$DIMTXSTY
  7
Standard
  9
$DIMAUNIT
 70
     0
  9
$DIMADEC
 70
     2
  9
$DIMALTRND
 40
0.0
  9
$DIMAZIN
 70
     0
  9
$DIMDSEP
 70
    46
  9
$DIMATFIT
 70
     3
  9
$DIMFRAC
 70
     0
  9
$DIMLDRBLK
  1

  9
$DIMLUNIT
 70
     2
  9
$DIMLWD
 70
    -2
  9
$DIMLWE
 70
    -2
  9
$DIMTMOVE
 70
     0
  9
$LUNITS
 70
     2
  9
$LUPREC
 70
     2
  9
$SKETCHINC
 40
0.1
  9
$FILLETRAD
 40
0.5
  9
$AUNITS
 70
     0
  9
$AUPREC
 70
     2
  9
$MENU
  1
.
  9
$ELEVATION
 40
0.0
  9
$PELEVATION
 40
0.0
  9
$THICKNESS
 40
0.0
  9
$LIMCHECK
 70
     0
  9
$CHAMFERA
 40
0.0
  9
$CHAMFERB
 40
0.0
  9
$CHAMFERC
 40
0.0
  9
$CHAMFERD
 40
0.0
  9
$SKPOLY
 70
     0
  9
$TDCREATE
 40
2459556.533911053
  9
$TDUCREATE
 40
2459556.533911053
  9
$TDUPDATE
 40
2459556.533940324
  9
$TDUUPDATE
 40
2459556.533940324
  9
$TDINDWG
 40
0.0000000116
  9
$TDUSRTIMER
 40
0.0000000116
  9
$USRTIMER
 70
     1
  9
$ANGBASE
 50
0.0
  9
$ANGDIR
 70
     0
  9
$PDMODE
 70
     0
  9
$PDSIZE
 40
-1.0
  9
$PLINEWID
 40
0.0
  9
$SPLFRAME
 70
     0
  9
$SPLINETYPE
 70
     6
  9
$SPLINESEGS
 70
     8
  9
$HANDSEED
  5
10F
  9
$SURFTAB1
 70
     6
  9
$SURFTAB2
 70
     6
  9
$SURFTYPE
 70
     6
  9
$SURFU
 70
     6
  9
$SURFV
 70
     6
  9
$UCSBASE
  2

  9
$UCSNAME
  2

  9
$UCSORG
 10
0.0
 20
0.0
 30
0.0
  9
$UCSXDIR
 10
1.0
 20
0.0
 30
0.0
  9
$UCSYDIR
 10
0.0
 20
1.0
 30
0.0
  9
$UCSORTHOREF
  2

  9
$UCSORTHOVIEW
 70
     0
  9
$UCSORGTOP
 10
0.0
 20
0.0
 30
0.0
  9
$UCSORGBOTTOM
 10
0.0
 20
0.0
 30
0.0
  9
$UCSORGLEFT
 10
0.0
 20
0.0
 30
0.0
  9
$UCSORGRIGHT
 10
0.0
 20
0.0
 30
0.0
  9
$UCSORGFRONT
 10
0.0
 20
0.0
 30
0.0
  9
$UCSORGBACK
 10
0.0
 20
0.0
 30
0.0
  9
$PUCSBASE
  2

  9
$PUCSNAME
  2

  9
$PUCSORG
 10
0.0
 20
0.0
 30
0.0
  9
$PUCSXDIR
 10
1.0
 20
0.0
 30
0.0
  9
$PUCSYDIR
 10
0.0
 20
1.0
 30
0.0
  9
$PUCSORTHOREF
  2

  9
$PUCSORTHOVIEW
 70
     0
  9
$PUCSORGTOP
 10
0.0
 20
0.0
 30
0.0
  9
$PUCSORGBOTTOM
 10
0.0
 20
0.0
 30
0.0
  9
$PUCSORGLEFT
 10
0.0
 20
0.0
 30
0.0
  9
$PUCSORGRIGHT
 10
0.0
 20
0.0
 30
0.0
  9
$PUCSORGFRONT
 10
0.0
 20
0.0
 30
0.0
  9
$PUCSORGBACK
 10
0.0
 20
0.0
 30
0.0
  9
$USERI1
 70
     0
  9
$USERI2
 70
     0
  9
$USERI3
 70
     0
  9
$USERI4
 70
     0
  9
$USERI5
 70
     0
  9
$USERR1
 40
0.0
  9
$USERR2
 40
0.0
  9
$USERR3
 40
0.0
  9
$USERR4
 40
0.0
  9
$USERR5
 40
0.0
  9
$WORLDVIEW
 70
     1
  9
$SHADEDGE
 70
     3
  9
$SHADEDIF
 70
    70
  9
$TILEMODE
 70
     1
  9
$MAXACTVP
 70
    64
  9
$PINSBASE
 10
0.0
 20
0.0
 30
0.0
  9
$PLIMCHECK
 70
     0
  9
$PEXTMIN
 10
-13.7795275591
 20
-13.7795275591
 30
0.0
  9
$PEXTMAX
 10
13.7795275591
 20
13.7795275591
 30
0.0
  9
$PLIMMIN
 10
-14.6407494301
 20
-14.6407480739
  9
$PLIMMAX
 10
23.2529532221
 20
14.6407494301
  9
$UNITMODE
 70
     0
  9
$VISRETAIN
 70
     1
  9
$PLINEGEN
 70
     0
  9
$PSLTSCALE
 70
     1
  9
$TREEDEPTH
 70
  3020
  9
$CMLSTYLE
  2
Standard
  9
$CMLJUST
 70
     0
  9
$CMLSCALE
 40
1.0
  9
$PROXYGRAPHICS
 70
     1
  9
$MEASUREMENT
 70
     0
  9
$CELWEIGHT
370
    -1
  9
$ENDCAPS
280
     0
  9
$JOINSTYLE
280
     0
  9
$LWDISPLAY
290
     1
  9
$INSUNITS
 70
     1
  9
$HYPERLINKBASE
  1

  9
$STYLESHEET
  1

  9
$XEDIT
290
     1
  9
$CEPSNTYPE
380
     0
  9
$PSTYLEMODE
290
     1
  9
$FINGERPRINTGUID
  2
{c2131106-a374-4545-9b11-16fd5440f438}
  9
$VERSIONGUID
  2
{FAEB1C32-E019-11D5-929B-00C0DF256EC4}
  9
$EXTNAMES
290
     1
  9
$PSVPSCALE
 40
0.0
  9
$OLESTARTUP
290
     0
  0
ENDSEC
  0
SECTION
  2
CLASSES
  0
CLASS
  1
ACDBDICTIONARYWDFLT
  2
AcDbDictionaryWithDefault
  3
ObjectDBX Classes
 90
        0
280
     0
281
     0
  0
CLASS
  1
VISUALSTYLE
  2
AcDbVisualStyle
  3
ObjectDBX Classes
 90
     4095
280
     0
281
     0
  0
CLASS
  1
MATERIAL
  2
AcDbMaterial
  3
ObjectDBX Classes
 90
     1153
280
     0
281
     0
  0
CLASS
  1
SCALE
  2
AcDbScale
  3
ObjectDBX Classes
 90
     1153
280
     0
281
     0
  0
CLASS
  1
TABLESTYLE
  2
AcDbTableStyle
  3
ObjectDBX Classes
 90
     4095
280
     0
281
     0
  0
CLASS
  1
MLEADERSTYLE
  2
AcDbMLeaderStyle
  3
ACDB_MLEADERSTYLE_CLASS
 90
     4095
280
     0
281
     0
  0
CLASS
  1
SUN
  2
AcDbSun
  3
SCENEOE
 90
     1153
280
     0
281
     0
  0
CLASS
  1
ACDBPLACEHOLDER
  2
AcDbPlaceHolder
  3
ObjectDBX Classes
 90
        0
280
     0
281
     0
  0
CLASS
  1
LAYOUT
  2
AcDbLayout
  3
ObjectDBX Classes
 90
        0
280
     0
281
     0
  0
ENDSEC
  0
SECTION
  2
TABLES
  0
TABLE
  2
VPORT
  5
8
330
0
100
AcDbSymbolTable
 70
     1
  0
VPORT
  5
29
330
8
100
AcDbSymbolTableRecord
100
AcDbViewportTableRecord
  2
*Active
 70
     0
 10
0.0
 20
0.0
 11
1.0
 21
1.0
 12
0.0
 22
0.0
 13
0.0
 23
0.0
 14
0.5
 24
0.5
 15
0.5
 25
0.5
 16
0.0
 26
0.0
 36
1.0
 17
0.0
 27
0.0
 37
0.0
 40
28.1102362205
 41
1.0
 42
50.0
 43
0.0
 44
0.0
 50
0.0
 51
0.0
 71
     0
 72
   100
 73
     1
 74
     3
 75
     0
 76
     0
 77
     0
 78
     0
281
     0
 65
     1
110
0.0
120
0.0
130
0.0
111
1.0
121
0.0
131
0.0
112
0.0
122
1.0
132
0.0
 79
     0
146
0.0
  0
ENDTAB
  0
TABLE
  2
LTYPE
  5
5
330
0
100
AcDbSymbolTable
 70
     6
  0
LTYPE
  5
14
330
5
100
AcDbSymbolTableRecord
100
AcDbLinetypeTableRecord
  2
ByBlock
 70
     0
  3

 72
    65
 73
     0
 40
0.0
  0
LTYPE
  5
15
330
5
100
AcDbSymbolTableRecord
100
AcDbLinetypeTableRecord
  2
ByLayer
 70
     0
  3

 72
    65
 73
     0
 40
0.0
  0
LTYPE
  5
16
330
5
100
AcDbSymbolTableRecord
100
AcDbLinetypeTableRecord
  2
Continuous
 70
     0
  3
Solid line
 72
    65
 73
     0
 40
0.0
  0
LTYPE
  5
6E
330
5
100
AcDbSymbolTableRecord
100
AcDbLinetypeTableRecord
  2
HIDDEN
 70
     0
  3
Hidden __ __ __ __ __ __ __ __ __ __ __ __ __ __
 72
    65
 73
     2
 40
0.075
 49
0.05
 74
     0
 49
-0.025
 74
     0
  0
LTYPE
  5
6F
330
5
100
AcDbSymbolTableRecord
100
AcDbLinetypeTableRecord
  2
PHANTOM
 70
     0
  3
Phantom ______  __  __  ______  __  __  ______
 72
    65
 73
     6
 40
0.5
 49
0.25
 74
     0
 49
-0.05
 74
     0
 49
0.05
 74
     0
 49
-0.05
 74
     0
 49
0.05
 74
     0
 49
-0.05
 74
     0
  0
LTYPE
  5
70
330
5
100
AcDbSymbolTableRecord
100
AcDbLinetypeTableRecord
  2
CENTER
 70
     0
  3
Center ____ _ ____ _ ____ _ ____ _ ____ _ ____
 72
    65
 73
     4
 40
0.4
 49
0.25
 74
     0
 49
-0.05
 74
     0
 49
0.05
 74
     0
 49
-0.05
 74
     0
  0
LTYPE
  5
71
330
5
100
AcDbSymbolTableRecord
100
AcDbLinetypeTableRecord
  2
CENTERX2
 70
     0
  3
Center (2x) ________  __  ________  __  _____
 72
    65
 73
     4
 40
0.8
 49
0.5
 74
     0
 49
-0.1
 74
     0
 49
0.1
 74
     0
 49
-0.1
 74
     0
  0
LTYPE
  5
72
330
5
100
AcDbSymbolTableRecord
100
AcDbLinetypeTableRecord
  2
DOT2
 70
     0
  3
Dot (.5x) ........................................
 72
    65
 73
     2
 40
0.025
 49
0.0
 74
     0
 49
-0.025
 74
     0
  0
ENDTAB
  0
TABLE
  2
LAYER
  5
2
330
0
100
AcDbSymbolTable
 70
     1
  0
LAYER
  5
10
330
2
100
AcDbSymbolTableRecord
100
AcDbLayerTableRecord
  2
0
 70
     0
 62
     7
  6
Continuous
370
    -3
390
F
  0
ENDTAB
  0
TABLE
  2
STYLE
  5
3
330
0
100
AcDbSymbolTable
 70
     1
  0
STYLE
  5
11
330
3
100
AcDbSymbolTableRecord
100
AcDbTextStyleTableRecord
  2
Standard
 70
     0
 40
0.0
 41
1.0
 50
0.0
 71
     0
 42
0.1377952756
  3
txt
  4

  0
ENDTAB
  0
TABLE
  2
VIEW
  5
6
330
0
100
AcDbSymbolTable
 70
     0
  0
ENDTAB
  0
TABLE
  2
UCS
  5
7
330
0
100
AcDbSymbolTable
 70
     0
  0
ENDTAB
  0
TABLE
  2
APPID
  5
9
330
0
100
AcDbSymbolTable
 70
     1
  0
APPID
  5
12
330
9
100
AcDbSymbolTableRecord
100
AcDbRegAppTableRecord
  2
ACAD
 70
     0
  0
ENDTAB
  0
TABLE
  2
DIMSTYLE
  5
A
330
0
100
AcDbSymbolTable
 70
     1
100
AcDbDimStyleTable
  0
DIMSTYLE
105
27
330
A
100
AcDbSymbolTableRecord
100
AcDbDimStyleTableRecord
  2
Standard
 70
     0
178
     0
340
11
  0
ENDTAB
  0
TABLE
  2
BLOCK_RECORD
  5
1
330
0
100
AcDbSymbolTable
 70
     2
  0
BLOCK_RECORD
  5
1F
330
1
100
AcDbSymbolTableRecord
100
AcDbBlockTableRecord
  2
*Model_Space
340
22
  0
BLOCK_RECORD
  5
1B
330
1
100
AcDbSymbolTableRecord
100
AcDbBlockTableRecord
  2
*Paper_Space
340
1E
  0
BLOCK_RECORD
  5
23
330
1
100
AcDbSymbolTableRecord
100
AcDbBlockTableRecord
  2
*Paper_Space0
340
26
  0
BLOCK_RECORD
  5
E1
330
1
100
AcDbSymbolTableRecord
100
AcDbBlockTableRecord
  2
*Paper_Space1
340
E2
  0
ENDTAB
  0
ENDSEC
  0
SECTION
  2
BLOCKS
  0
BLOCK
  5
20
330
1F
100
AcDbEntity
  8
0
100
AcDbBlockBegin
  2
*Model_Space
 70
     0
 10
0.0
 20
0.0
 30
0.0
  3
*Model_Space
  1

  0
ENDBLK
  5
21
330
1F
100
AcDbEntity
  8
0
100
AcDbBlockEnd
  0
BLOCK
  5
1C
330
1B
100
AcDbEntity
 67
     1
  8
0
100
AcDbBlockBegin
  2
*Paper_Space
 70
     0
 10
0.0
 20
0.0
 30
0.0
  3
*Paper_Space
  1

  0
ENDBLK
  5
1D
330
1B
100
AcDbEntity
 67
     1
  8
0
100
AcDbBlockEnd
  0
BLOCK
  5
24
330
23
100
AcDbEntity
  8
0
100
AcDbBlockBegin
  2
*Paper_Space0
 70
     0
 10
0.0
 20
0.0
 30
0.0
  3
*Paper_Space0
  1

  0
LINE
  5
D6
330
23
100
AcDbEntity
  8
0
  6
Continuous
 62
     7
370
    25
100
AcDbLine
 10
1.7716535433
 20
13.3267716535
 30
0.0
 11
0.3937007874
 21
13.3267716535
 31
0.0
  0
LINE
  5
D7
330
23
100
AcDbEntity
  8
0
  6
Continuous
 62
     7
370
    25
100
AcDbLine
 10
0.3937007874
 20
-13.3267716535
 30
0.0
 11
1.7716535433
 21
-13.3267716535
 31
0.0
  0
LINE
  5
D8
330
23
100
AcDbEntity
  8
0
  6
Continuous
 62
     7
370
    25
100
AcDbLine
 10
0.3937007874
 20
13.7795275591
 30
0.0
 11
-0.1377952756
 21
13.7795275591
 31
0.0
  0
LINE
  5
D9
330
23
100
AcDbEntity
  8
0
  6
Continuous
 62
     7
370
    25
100
AcDbLine
 10
-0.1377952756
 20
-13.7795275591
 30
0.0
 11
0.3937007874
 21
-13.7795275591
 31
0.0
  0
LINE
  5
DA
330
23
100
AcDbEntity
  8
0
  6
Continuous
 62
     7
370
    25
100
AcDbLine
 10
-0.1377952756
 20
13.5826771654
 30
0.0
 11
-0.157480315
 21
13.562992126
 31
0.0
  0
LINE
  5
DB
330
23
100
AcDbEntity
  8
0
  6
Continuous
 62
     7
370
    25
100
AcDbLine
 10
-0.157480315
 20
-13.562992126
 30
0.0
 11
-0.1377952756
 21
-13.5826771654
 31
0.0
  0
LINE
  5
DC
330
23
100
AcDbEntity
  8
0
  6
Continuous
 62
     7
370
    25
100
AcDbLine
 10
1.7716535433
 20
-13.3267716535
 30
0.0
 11
1.7716535433
 21
13.3267716535
 31
0.0
  0
LINE
  5
DD
330
23
100
AcDbEntity
  8
0
  6
Continuous
 62
     7
370
    25
100
AcDbLine
 10
0.3937007874
 20
-13.7795275591
 30
0.0
 11
0.3937007874
 21
13.7795275591
 31
0.0
  0
LINE
  5
DE
330
23
100
AcDbEntity
  8
0
  6
Continuous
 62
     7
370
    25
100
AcDbLine
 10
0.0
 20
-13.7795275591
 30
0.0
 11
0.0
 21
13.7795275591
 31
0.0
  0
LINE
  5
DF
330
23
100
AcDbEntity
  8
0
  6
Continuous
 62
     7
370
    25
100
AcDbLine
 10
-0.1377952756
 20
-13.7795275591
 30
0.0
 11
-0.1377952756
 21
13.7795275591
 31
0.0
  0
LINE
  5
E0
330
23
100
AcDbEntity
  8
0
  6
Continuous
 62
     7
370
    25
100
AcDbLine
 10
-0.157480315
 20
-13.562992126
 30
0.0
 11
-0.157480315
 21
13.562992126
 31
0.0
  0
VIEWPORT
  5
10B
330
23
100
AcDbEntity
  8
0
100
AcDbViewport
 10
0.0
 20
0.0
 30
0.0
 40
8.4
 41
6.4
 68
     1
 69
     1
 12
0.0
 22
0.0
 13
0.0
 23
0.0
 14
0.5
 24
0.5
 15
0.5
 25
0.5
 16
0.0
 26
0.0
 36
1.0
 17
0.0
 27
0.0
 37
0.0
 42
50.0
 43
0.0
 44
0.0
 45
28.1102362205
 50
0.0
 51
0.0
 72
   100
 90
   557152
  1

281
     0
 71
     1
 74
     0
110
0.0
120
0.0
130
0.0
111
1.0
121
0.0
131
0.0
112
0.0
122
1.0
132
0.0
 79
     0
146
0.0
  0
ENDBLK
  5
25
330
23
100
AcDbEntity
  8
0
100
AcDbBlockEnd
  0
BLOCK
  5
E3
330
E1
100
AcDbEntity
  8
0
100
AcDbBlockBegin
  2
*Paper_Space1
 70
     0
 10
0.0
 20
0.0
 30
0.0
  3
*Paper_Space1
  1

  0
LWPOLYLINE
  5
EF
330
E1
100
AcDbEntity
  8
0
  6
Continuous
 62
     7
370
    25
100
AcDbPolyline
 90
       70
 70
   128
 43
0.0
 10
10.6739433942
 20
-4.9536132671
 10
10.6756948868
 20
-4.6040161604
 10
10.6676641087
 20
-4.2488886996
 10
10.6498593972
 20
-3.8885995541
 10
10.6222992357
 20
-3.5235227518
 10
10.5850122353
 20
-3.1540372912
 10
10.5380371051
 20
-2.780526747
 10
10.4814226113
 20
-2.403378873
 10
10.4152275274
 20
-2.0229851986
 10
10.3395205727
 20
-1.6397406232
 10
10.2543803409
 20
-1.2540430054
 10
10.159895219
 20
-0.8662927507
 10
10.0561632952
 20
-0.4768923953
 10
9.9432922568
 20
-0.0862461885
 10
9.8213992791
 20
0.305240327
 10
9.6906109032
 20
0.6971607362
 10
9.5510629048
 20
1.0891081736
 10
9.4029001532
 20
1.4806757457
 10
9.246276461
 20
1.8714569534
 10
9.0813544245
 20
2.2610461138
 10
8.9083052546
 20
2.6490387816
 10
8.7273085995
 20
3.035032169
 10
8.5385523575
 20
3.4186255634
 10
8.3422324829
 20
3.7994207439
 10
8.1385527817
 20
4.1770223946
 10
7.9277247005
 20
4.5510385148
 10
7.7099671069
 20
4.9210808261
 10
7.4855060622
 20
5.2867651754
 10
7.2545745867
 20
5.6477119336
 10
7.0174124181
 20
6.0035463903
 10
6.7742657621
 20
6.3538991418
 10
6.5253870373
 20
6.6984064755
 10
6.271034613
 20
7.036710747
 10
6.0114725406
 20
7.3684607516
 10
5.7469702801
 20
7.6933120886
 10
5.47780242
 20
8.0109275192
 10
5.2042483924
 20
8.3209773164
 10
4.9265921826
 20
8.6231396073
 10
4.6451220346
 20
8.9171007073
 10
4.3601301519
 20
9.2025554457
 10
4.0719123939
 20
9.4792074826
 10
3.780767969
 20
9.7467696163
 10
3.4869991237
 20
10.004964082
 10
3.1909108291
 20
10.2535228393
 10
2.8928104642
 20
10.4921878513
 10
2.5930074969
 20
10.720711352
 10
2.2918131623
 20
10.9388561037
 10
1.9895401403
 20
11.146395643
 10
1.6865022305
 20
11.3431145165
 10
1.3830140263
 20
11.5288085036
 10
1.0793905889
 20
11.7032848295
 10
0.7759471199
 20
11.8663623646
 10
0.4729986337
 20
12.0178718126
 10
0.1708596312
 20
12.1576558866
 10
-0.1301562272
 20
12.2855694722
 10
-0.429736447
 20
12.4014797781
 10
-0.7275700242
 20
12.505266474
 10
-1.0233477679
 20
12.5968218156
 10
-1.3167626216
 20
12.6760507561
 10
-1.6075099816
 20
12.7428710455
 10
-1.8952880135
 20
12.7972133154
 10
-2.1797979656
 20
12.8390211513
 10
-2.4607444786
 20
12.8682511511
 10
-2.7378358929
 20
12.8848729702
 10
-3.0107845506
 20
12.888869353
 10
-3.2793070948
 20
12.8802361506
 10
-3.5431247634
 20
12.8589823254
 10
-3.8019636787
 20
12.8251299419
 10
-4.0555551314
 20
12.7787141432
 10
-4.2332620115
 20
12.7379120305
  0
LWPOLYLINE
  5
F0
330
E1
100
AcDbEntity
  8
0
  6
Continuous
 62
     7
370
    25
100
AcDbPolyline
 90
       20
 70
   128
 43
0.0
 10
8.9137826918
 20
-10.0359049556
 10
9.0203168389
 20
-9.9220277626
 10
9.1881690178
 20
-9.7267618429
 10
9.3477831757
 20
-9.5206474784
 10
9.4989936118
 20
-9.3038986431
 10
9.6416433495
 20
-9.0767403513
 10
9.7755842995
 20
-8.8394084232
 10
9.9006774134
 20
-8.5921492411
 10
10.0167928278
 20
-8.3352194928
 10
10.1238099994
 20
-8.0688859056
 10
10.2216178303
 20
-7.793424969
 10
10.310114783
 20
-7.5091226481
 10
10.3892089858
 20
-7.2162740865
 10
10.4588183284
 20
-6.9151833
 10
10.5188705471
 20
-6.6061628607
 10
10.5693032998
 20
-6.289533573
 10
10.6100642304
 20
-5.96562414
 10
10.6411110238
 20
-5.6347708229
 10
10.6624114493
 20
-5.2973170913
 10
10.6739433942
 20
-4.9536132671
  0
LWPOLYLINE
  5
F1
330
E1
100
AcDbEntity
  8
0
  6
Continuous
 62
     7
370
    25
100
AcDbPolyline
 90
       76
 70
   128
 43
0.0
 10
10.0219858751
 20
-5.4641487799
 10
10.0170803868
 20
-5.1043285789
 10
10.0023688612
 20
-4.73920693
 10
9.9778661117
 20
-4.3691514799
 10
9.9435968105
 20
-3.994534843
 10
9.8995954637
 20
-3.6157342265
 10
9.8459063771
 20
-3.2331310505
 10
9.782583611
 20
-2.847110564
 10
9.709690926
 20
-2.4580614569
 10
9.627301719
 20
-2.0663754686
 10
9.5354989488
 20
-1.6724469939
 10
9.4343750531
 20
-1.2766726851
 10
9.324031855
 20
-0.8794510536
 10
9.2045804608
 20
-0.4811820678
 10
9.076141148
 20
-0.0822667508
 10
8.938843244
 20
0.3168932234
 10
8.7928249962
 20
0.7158959346
 10
8.6382334326
 20
1.1143396209
 10
8.4752242137
 20
1.5118230832
 10
8.3039614761
 20
1.9079460895
 10
8.1246176668
 20
2.3023097774
 10
7.9373733699
 20
2.6945170561
 10
7.7424171244
 20
3.0841730062
 10
7.5399452347
 20
3.4708852771
 10
7.330161573
 20
3.8542644823
 10
7.1132773735
 20
4.2339245915
 10
6.8895110203
 20
4.6094833191
 10
6.6590878271
 20
4.9805625094
 10
6.4222398106
 20
5.346788517
 10
6.1792054566
 20
5.7077925835
 10
5.93022948
 20
6.0632112082
 10
5.6755625787
 20
6.4126865148
 10
5.4154611806
 20
6.7558666113
 10
5.1501871858
 20
7.0924059444
 10
4.8800077027
 20
7.4219656474
 10
4.605194779
 20
7.7442138819
 10
4.3260251282
 20
8.058826171
 10
4.0427798505
 20
8.3654857268
 10
3.7557441497
 20
8.6638837693
 10
3.4652070465
 20
8.9537198368
 10
3.1714610872
 20
9.2347020891
 10
2.8748020491
 20
9.5065476007
 10
2.5755286425
 20
9.7689826463
 10
2.2739422106
 20
10.0217429761
 10
1.9703464252
 20
10.2645740818
 10
1.6650469817
 20
10.4972314532
 10
1.3583512905
 20
10.7194808239
 10
1.0505681684
 20
10.9310984076
 10
0.7420075268
 20
11.1318711234
 10
0.4329800602
 20
11.3215968103
 10
0.1237969329
 20
11.5000844304
 10
-0.1852305338
 20
11.667154262
 10
-0.4937911754
 20
11.8226380798
 10
-0.8015742975
 20
11.9663793248
 10
-1.1082699886
 20
12.0982332618
 10
-1.4135694322
 20
12.2180671251
 10
-1.7171652175
 20
12.325760252
 10
-2.0187516495
 20
12.4212042048
 10
-2.318025056
 20
12.5043028794
 10
-2.6146840942
 20
12.5749726026
 10
-2.9084300535
 20
12.6331422159
 10
-3.1989671566
 20
12.6787531475
 10
-3.4860028574
 20
12.711759471
 10
-3.7692481352
 20
12.7321279519
 10
-4.048417786
 20
12.7398380808
 10
-4.3232307096
 20
12.7348820942
 10
-4.5934101927
 20
12.7172649825
 10
-4.8586841876
 20
12.6870044845
 10
-5.1187855857
 20
12.6441310701
 10
-5.373452487
 20
12.5886879091
 10
-5.6224284635
 20
12.520730828
 10
-5.8654628175
 20
12.440328254
 10
-6.1023108341
 20
12.3475611455
 10
-6.3327340272
 20
12.2425229113
 10
-6.5565003804
 20
12.1253193158
 10
-6.6108153701
 20
12.0944544249
  0
LWPOLYLINE
  5
F2
330
E1
100
AcDbEntity
  8
0
  6
Continuous
 62
     7
370
    25
100
AcDbPolyline
 90
       26
 70
   128
 43
0.0
 10
7.1675923631
 20
-11.7730339084
 10
7.330161573
 20
-11.6746478567
 10
7.5399452347
 20
-11.5334797117
 10
7.7424171244
 20
-11.3805365087
 10
7.9373733699
 20
-11.2159722485
 10
8.1246176668
 20
-11.0399526334
 10
8.3039614761
 20
-10.8526549002
 10
8.4752242137
 20
-10.6542676418
 10
8.6382334326
 20
-10.4449906175
 10
8.7928249962
 20
-10.2250345513
 10
8.938843244
 20
-9.9946209205
 10
9.076141148
 20
-9.753981732
 10
9.2045804608
 20
-9.5033592892
 10
9.324031855
 20
-9.2430059475
 10
9.4343750531
 20
-8.9731838606
 10
9.5354989488
 20
-8.6941647167
 10
9.627301719
 20
-8.4062294642
 10
9.709690926
 20
-8.1096680297
 10
9.782583611
 20
-7.8047790252
 10
9.8459063771
 20
-7.4918694483
 10
9.8995954637
 20
-7.1712543723
 10
9.9435968105
 20
-6.8432566293
 10
9.9778661117
 20
-6.5082064855
 10
10.0023688612
 20
-6.1664413077
 10
10.0170803868
 20
-5.8183052247
 10
10.0219858751
 20
-5.4641487799
  0
LWPOLYLINE
  5
F3
330
E1
100
AcDbEntity
  8
0
  6
Continuous
 62
     7
370
    25
100
AcDbPolyline
 90
       76
 70
   128
 43
0.0
 10
9.7435973786
 20
-5.6248590381
 10
9.7386918902
 20
-5.2650388371
 10
9.7239803647
 20
-4.8999171882
 10
9.6994776152
 20
-4.5298617381
 10
9.6652083139
 20
-4.1552451012
 10
9.6212069672
 20
-3.7764444847
 10
9.5675178806
 20
-3.3938413087
 10
9.5041951145
 20
-3.0078208222
 10
9.4313024295
 20
-2.6187717151
 10
9.3489132225
 20
-2.2270857269
 10
9.2571104523
 20
-1.8331572521
 10
9.1559865565
 20
-1.4373829433
 10
9.0456433585
 20
-1.0401613118
 10
8.9261919643
 20
-0.641892326
 10
8.7977526515
 20
-0.2429770091
 10
8.6604547475
 20
0.1561829652
 10
8.5144364997
 20
0.5551856764
 10
8.359844936
 20
0.9536293627
 10
8.1968357172
 20
1.351112825
 10
8.0255729796
 20
1.7472358313
 10
7.8462291703
 20
2.1415995192
 10
7.6589848733
 20
2.5338067979
 10
7.4640286278
 20
2.9234627479
 10
7.2615567382
 20
3.3101750188
 10
7.0517730765
 20
3.693554224
 10
6.834888877
 20
4.0732143333
 10
6.6111225238
 20
4.4487730609
 10
6.3806993306
 20
4.8198522512
 10
6.143851314
 20
5.1860782588
 10
5.90081696
 20
5.5470823252
 10
5.6518409835
 20
5.90250095
 10
5.3971740822
 20
6.2519762566
 10
5.1370726841
 20
6.595156353
 10
4.8717986893
 20
6.9316956861
 10
4.6016192061
 20
7.2612553892
 10
4.3268062825
 20
7.5835036236
 10
4.0476366317
 20
7.8981159127
 10
3.7643913539
 20
8.2047754686
 10
3.4773556531
 20
8.5031735111
 10
3.18681855
 20
8.7930095786
 10
2.8930725907
 20
9.0739918308
 10
2.5964135525
 20
9.3458373425
 10
2.297140146
 20
9.6082723881
 10
1.9955537141
 20
9.8610327179
 10
1.6919579287
 20
10.1038638236
 10
1.3866584851
 20
10.3365211949
 10
1.079962794
 20
10.5587705656
 10
0.7721796719
 20
10.7703881494
 10
0.4636190303
 20
10.9711608652
 10
0.1545915636
 20
11.1608865521
 10
-0.1545915636
 20
11.3393741722
 10
-0.4636190303
 20
11.5064440038
 10
-0.7721796719
 20
11.6619278216
 10
-1.079962794
 20
11.8056690666
 10
-1.3866584851
 20
11.9375230036
 10
-1.6919579287
 20
12.0573568668
 10
-1.9955537141
 20
12.1650499938
 10
-2.297140146
 20
12.2604939465
 10
-2.5964135525
 20
12.3435926212
 10
-2.8930725907
 20
12.4142623444
 10
-3.18681855
 20
12.4724319577
 10
-3.4773556531
 20
12.5180428893
 10
-3.7643913539
 20
12.5510492128
 10
-4.0476366317
 20
12.5714176937
 10
-4.3268062825
 20
12.5791278225
 10
-4.6016192061
 20
12.574171836
 10
-4.8717986893
 20
12.5565547243
 10
-5.1370726841
 20
12.5262942263
 10
-5.3971740822
 20
12.4834208119
 10
-5.6518409835
 20
12.4279776509
 10
-5.90081696
 20
12.3600205698
 10
-6.143851314
 20
12.2796179958
 10
-6.3806993306
 20
12.1868508873
 10
-6.6111225238
 20
12.081812653
 10
-6.834888877
 20
11.9646090576
 10
-6.8892038666
 20
11.9337441667
  0
LWPOLYLINE
  5
F4
330
E1
100
AcDbEntity
  8
0
  6
Continuous
 62
     7
370
    25
100
AcDbPolyline
 90
       26
 70
   128
 43
0.0
 10
6.8892038666
 20
-11.9337441667
 10
7.0517730765
 20
-11.835358115
 10
7.2615567382
 20
-11.69418997
 10
7.4640286278
 20
-11.541246767
 10
7.6589848733
 20
-11.3766825068
 10
7.8462291703
 20
-11.2006628916
 10
8.0255729796
 20
-11.0133651584
 10
8.1968357172
 20
-10.8149779001
 10
8.359844936
 20
-10.6057008757
 10
8.5144364997
 20
-10.3857448095
 10
8.6604547475
 20
-10.1553311787
 10
8.7977526515
 20
-9.9146919903
 10
8.9261919643
 20
-9.6640695474
 10
9.0456433585
 20
-9.4037162057
 10
9.1559865565
 20
-9.1338941189
 10
9.2571104523
 20
-8.8548749749
 10
9.3489132225
 20
-8.5669397225
 10
9.4313024295
 20
-8.2703782879
 10
9.5041951145
 20
-7.9654892835
 10
9.5675178806
 20
-7.6525797065
 10
9.6212069672
 20
-7.3319646305
 10
9.6652083139
 20
-7.0039668876
 10
9.6994776152
 20
-6.6689167437
 10
9.7239803647
 20
-6.327151566
 10
9.7386918902
 20
-5.9790154829
 10
9.7435973786
 20
-5.6248590381
  0
LWPOLYLINE
  5
F5
330
E1
100
AcDbEntity
  8
0
  6
Continuous
 62
     7
370
    25
100
AcDbPolyline
 90
      199
 70
   128
 43
0.0
 10
9.6461614048
 20
-5.6811076285
 10
9.6412559165
 20
-5.3212874275
 10
9.6265443909
 20
-4.9561657786
 10
9.6020416414
 20
-4.5861103285
 10
9.5677723402
 20
-4.2114936916
 10
9.5237709934
 20
-3.8326930751
 10
9.4700819068
 20
-3.4500898991
 10
9.4067591407
 20
-3.0640694126
 10
9.3338664557
 20
-2.6750203055
 10
9.2514772487
 20
-2.2833343173
 10
9.1596744785
 20
-1.8894058425
 10
9.0585505828
 20
-1.4936315337
 10
8.9482073847
 20
-1.0964099022
 10
8.8287559905
 20
-0.6981409164
 10
8.7003166777
 20
-0.2992255994
 10
8.5630187737
 20
0.0999343748
 10
8.4170005259
 20
0.498937086
 10
8.2624089623
 20
0.8973807723
 10
8.0993997434
 20
1.2948642346
 10
7.9281370058
 20
1.6909872409
 10
7.7487931965
 20
2.0853509288
 10
7.5615488996
 20
2.4775582075
 10
7.366592654
 20
2.8672141576
 10
7.1641207644
 20
3.2539264284
 10
6.9543371027
 20
3.6373056337
 10
6.7374529032
 20
4.0169657429
 10
6.51368655
 20
4.3925244705
 10
6.2832633568
 20
4.7636036608
 10
6.0464153403
 20
5.1298296684
 10
5.8033809862
 20
5.4908337349
 10
5.5544050097
 20
5.8462523596
 10
5.2997381084
 20
6.1957276662
 10
5.0396367103
 20
6.5389077627
 10
4.7743627155
 20
6.8754470957
 10
4.5041832323
 20
7.2050067988
 10
4.2293703087
 20
7.5272550333
 10
3.9502006579
 20
7.8418673224
 10
3.6669553801
 20
8.1485268782
 10
3.3799196794
 20
8.4469249207
 10
3.0893825762
 20
8.7367609882
 10
2.7956366169
 20
9.0177432404
 10
2.4989775787
 20
9.2895887521
 10
2.1997041722
 20
9.5520237977
 10
1.8981177403
 20
9.8047841275
 10
1.5945219549
 20
10.0476152332
 10
1.2892225113
 20
10.2802726046
 10
0.9825268202
 20
10.5025219752
 10
0.6747436981
 20
10.714139559
 10
0.3661830565
 20
10.9149122748
 10
0.0571555898
 20
11.1046379617
 10
-0.2520275374
 20
11.2831255818
 10
-0.5610550041
 20
11.4501954134
 10
-0.8696156457
 20
11.6056792312
 10
-1.1773987678
 20
11.7494204762
 10
-1.4840944589
 20
11.8812744132
 10
-1.7893939025
 20
12.0011082764
 10
-2.0929896879
 20
12.1088014034
 10
-2.3945761198
 20
12.2042453562
 10
-2.6938495263
 20
12.2873440308
 10
-2.9905085645
 20
12.358013754
 10
-3.2842545238
 20
12.4161833673
 10
-3.5747916269
 20
12.4617942989
 10
-3.8618273277
 20
12.4948006224
 10
-4.1450726055
 20
12.5151691033
 10
-4.4242422563
 20
12.5228792322
 10
-4.6990551799
 20
12.5179232456
 10
-4.9692346631
 20
12.5003061339
 10
-5.2345086579
 20
12.4700456359
 10
-5.494610056
 20
12.4271722215
 10
-5.7492769573
 20
12.3717290605
 10
-5.9982529338
 20
12.3037719794
 10
-6.2412872878
 20
12.2233694054
 10
-6.4781353044
 20
12.1306022969
 10
-6.7085584976
 20
12.0255640627
 10
-6.9323248508
 20
11.9083604672
 10
-7.1492090502
 20
11.7791095246
 10
-7.358992712
 20
11.6379413796
 10
-7.5614646016
 20
11.4849981766
 10
-7.7564208471
 20
11.3204339164
 10
-7.9436651441
 20
11.1444143013
 10
-8.1230089534
 20
10.957116568
 10
-8.294271691
 20
10.7587293097
 10
-8.4572809098
 20
10.5494522853
 10
-8.6118724735
 20
10.3294962192
 10
-8.7578907213
 20
10.0990825884
 10
-8.8951886253
 20
9.8584433999
 10
-9.0236279381
 20
9.607820957
 10
-9.1430793323
 20
9.3474676153
 10
-9.2534225303
 20
9.0776455285
 10
-9.354546426
 20
8.7986263846
 10
-9.4463491962
 20
8.5106911321
 10
-9.5287384033
 20
8.2141296975
 10
-9.6016310882
 20
7.9092406931
 10
-9.6649538544
 20
7.5963311161
 10
-9.718642941
 20
7.2757160401
 10
-9.7626442877
 20
6.9477182972
 10
-9.796913589
 20
6.6126681533
 10
-9.8214163385
 20
6.2709029756
 10
-9.836127864
 20
5.9227668926
 10
-9.8410333523
 20
5.5686104478
 10
-9.836127864
 20
5.2087902467
 10
-9.8214163385
 20
4.8436685979
 10
-9.796913589
 20
4.4736131477
 10
-9.7626442877
 20
4.0989965108
 10
-9.718642941
 20
3.7201958943
 10
-9.6649538544
 20
3.3375927183
 10
-9.6016310882
 20
2.9515722318
 10
-9.5287384033
 20
2.5625231247
 10
-9.4463491962
 20
2.1708371365
 10
-9.354546426
 20
1.7769086617
 10
-9.2534225303
 20
1.381134353
 10
-9.1430793323
 20
0.9839127214
 10
-9.0236279381
 20
0.5856437356
 10
-8.8951886253
 20
0.1867284187
 10
-8.7578907213
 20
-0.2124315555
 10
-8.6118724735
 20
-0.6114342667
 10
-8.4572809098
 20
-1.009877953
 10
-8.294271691
 20
-1.4073614154
 10
-8.1230089534
 20
-1.8034844217
 10
-7.9436651441
 20
-2.1978481096
 10
-7.7564208471
 20
-2.5900553883
 10
-7.5614646016
 20
-2.9797113383
 10
-7.358992712
 20
-3.3664236092
 10
-7.1492090502
 20
-3.7498028144
 10
-6.9323248508
 20
-4.1294629236
 10
-6.7085584976
 20
-4.5050216513
 10
-6.4781353044
 20
-4.8761008416
 10
-6.2412872878
 20
-5.2423268492
 10
-5.9982529338
 20
-5.6033309156
 10
-5.7492769573
 20
-5.9587495403
 10
-5.494610056
 20
-6.308224847
 10
-5.2345086579
 20
-6.6514049434
 10
-4.9692346631
 20
-6.9879442765
 10
-4.6990551799
 20
-7.3175039796
 10
-4.4242422563
 20
-7.639752214
 10
-4.1450726055
 20
-7.9543645031
 10
-3.8618273277
 20
-8.261024059
 10
-3.5747916269
 20
-8.5594221015
 10
-3.2842545238
 20
-8.849258169
 10
-2.9905085645
 20
-9.1302404212
 10
-2.6938495263
 20
-9.4020859328
 10
-2.3945761198
 20
-9.6645209785
 10
-2.0929896879
 20
-9.9172813083
 10
-1.7893939025
 20
-10.160112414
 10
-1.4840944589
 20
-10.3927697853
 10
-1.1773987678
 20
-10.615019156
 10
-0.8696156457
 20
-10.8266367397
 10
-0.5610550041
 20
-11.0274094556
 10
-0.2520275374
 20
-11.2171351424
 10
0.0571555898
 20
-11.3956227626
 10
0.3661830565
 20
-11.5626925941
 10
0.6747436981
 20
-11.7181764119
 10
0.9825268202
 20
-11.861917657
 10
1.2892225113
 20
-11.993771594
 10
1.5945219549
 20
-12.1136054572
 10
1.8981177403
 20
-12.2212985841
 10
2.1997041722
 20
-12.3167425369
 10
2.4989775787
 20
-12.3998412116
 10
2.7956366169
 20
-12.4705109348
 10
3.0893825762
 20
-12.5286805481
 10
3.3799196794
 20
-12.5742914797
 10
3.6669553801
 20
-12.6072978032
 10
3.9502006579
 20
-12.6276662841
 10
4.2293703087
 20
-12.6353764129
 10
4.5041832323
 20
-12.6304204264
 10
4.7743627155
 20
-12.6128033147
 10
5.0396367103
 20
-12.5825428167
 10
5.2997381084
 20
-12.5396694023
 10
5.5544050097
 20
-12.4842262412
 10
5.8033809862
 20
-12.4162691602
 10
6.0464153403
 20
-12.3358665862
 10
6.2832633568
 20
-12.2430994777
 10
6.51368655
 20
-12.1380612434
 10
6.7374529032
 20
-12.0208576479
 10
6.9543371027
 20
-11.8916067053
 10
7.1641207644
 20
-11.7504385603
 10
7.366592654
 20
-11.5974953573
 10
7.5615488996
 20
-11.4329310971
 10
7.7487931965
 20
-11.256911482
 10
7.9281370058
 20
-11.0696137488
 10
8.0993997434
 20
-10.8712264904
 10
8.2624089623
 20
-10.6619494661
 10
8.4170005259
 20
-10.4419933999
 10
8.5630187737
 20
-10.2115797691
 10
8.7003166777
 20
-9.9709405807
 10
8.8287559905
 20
-9.7203181378
 10
8.9482073847
 20
-9.4599647961
 10
9.0585505828
 20
-9.1901427093
 10
9.1596744785
 20
-8.9111235653
 10
9.2514772487
 20
-8.6231883129
 10
9.3338664557
 20
-8.3266268783
 10
9.4067591407
 20
-8.0217378739
 10
9.4700819068
 20
-7.7088282969
 10
9.5237709934
 20
-7.3882132209
 10
9.5677723402
 20
-7.060215478
 10
9.6020416414
 20
-6.7251653341
 10
9.6265443909
 20
-6.3834001564
 10
9.6412559165
 20
-6.0352640733
 10
9.6461614048
 20
-5.6811076285
  0
LWPOLYLINE
  5
F6
330
E1
100
AcDbEntity
  8
0
  6
Continuous
 62
     7
370
    25
100
AcDbPolyline
 90
      100
 70
   128
 43
0.0
 10
9.5069671565
 20
-5.6007524994
 10
9.5020825357
 20
-5.2442585463
 10
9.4874336418
 20
-4.8824875425
 10
9.4630353751
 20
-4.5158074679
 10
9.4289125525
 20
-4.144591296
 10
9.3850998827
 20
-3.7692166139
 10
9.3316419301
 20
-3.3900652389
 10
9.2685930702
 20
-3.0075228296
 10
9.196017434
 20
-2.621978494
 10
9.1139888427
 20
-2.2338243933
 10
9.0225907327
 20
-1.8434553435
 10
8.9219160709
 20
-1.4512684135
 10
8.8120672596
 20
-1.0576625213
 10
8.6931560331
 20
-0.663038028
 10
8.5653033435
 20
-0.2677963311
 10
8.4286392376
 20
0.1276605443
 10
8.2833027253
 20
0.5229303542
 10
8.1294416372
 20
0.9176110448
 10
7.9672124753
 20
1.3113011616
 10
7.7967802531
 20
1.7036002576
 10
7.6183183277
 20
2.0941093009
 10
7.4320082241
 20
2.4824310802
 10
7.2380394499
 20
2.8681706089
 10
7.0366093031
 20
3.2509355271
 10
6.8279226707
 20
3.6303365008
 10
6.6121918212
 20
4.0059876172
 10
6.3896361878
 20
4.377506778
 10
6.160482146
 20
4.7445160879
 10
5.9249627827
 20
5.1066422385
 10
5.6833176594
 20
5.4635168886
 10
5.4357925685
 20
5.8147770386
 10
5.1826392834
 20
6.1600653997
 10
4.9241153022
 20
6.4990307575
 10
4.6604835858
 20
6.831328329
 10
4.3920122906
 20
7.1566201134
 10
4.1189744957
 20
7.4745752362
 10
3.8416479249
 20
7.7848702851
 10
3.5603146645
 20
8.0871896395
 10
3.2752608762
 20
8.3812257915
 10
2.9867765061
 20
8.6666796585
 10
2.6951549898
 20
8.9432608873
 10
2.4006929539
 20
9.2106881499
 10
2.1036899142
 20
9.4686894292
 10
1.8044479711
 20
9.7170022958
 10
1.5032715024
 20
9.9553741752
 10
1.2004668536
 20
10.1835626044
 10
0.8963420263
 20
10.4013354785
 10
0.591206365
 20
10.6084712871
 10
0.2853702424
 20
10.8047593394
 10
-0.0208552565
 20
10.9899999785
 10
-0.3271586505
 20
11.1640047844
 10
-0.6332283791
 20
11.326596766
 10
-0.9387531196
 20
11.4776105408
 10
-1.2434221036
 20
11.6168925031
 10
-1.5469254331
 20
11.7443009805
 10
-1.8489543959
 20
11.8597063779
 10
-2.1492017793
 20
11.9629913092
 10
-2.4473621828
 20
12.0540507167
 10
-2.7431323288
 20
12.1327919783
 10
-3.0362113709
 20
12.1991350013
 10
-3.3263012
 20
12.253012304
 10
-3.6131067475
 20
12.2943690844
 10
-3.8963362855
 20
12.3231632759
 10
-4.1757017234
 20
12.3393655903
 10
-4.4509189011
 20
12.3429595469
 10
-4.7217078779
 20
12.3339414904
 10
-4.9877932173
 20
12.3123205934
 10
-5.2489042673
 20
12.2781188479
 10
-5.5047754353
 20
12.2313710427
 10
-5.7551464589
 20
12.1721247279
 10
-5.9997626697
 20
12.1004401667
 10
-6.2383752535
 20
12.0163902739
 10
-6.4707415022
 20
11.9200605419
 10
-6.6966250616
 20
11.8115489538
 10
-6.9157961714
 20
11.6909658836
 10
-7.1280318989
 20
11.5584339838
 10
-7.3331163657
 20
11.4140880609
 10
-7.5308409675
 20
11.2580749383
 10
-7.7210045864
 20
11.0905533067
 10
-7.9034137948
 20
10.9116935628
 10
-8.077883053
 20
10.7216776362
 10
-8.2442348973
 20
10.520698804
 10
-8.4023001208
 20
10.3089614944
 10
-8.5519179454
 20
10.0866810786
 10
-8.6929361855
 20
9.8540836521
 10
-8.8252114025
 20
9.6114058043
 10
-8.948609051
 20
9.3588943781
 10
-9.0630036155
 20
9.0968062188
 10
-9.1682787382
 20
8.8254079125
 10
-9.264327337
 20
8.5449755157
 10
-9.3510517149
 20
8.2557942736
 10
-9.4283636591
 20
7.9581583308
 10
-9.4961845308
 20
7.6523704314
 10
-9.5544453451
 20
7.3387416115
 10
-9.6030868413
 20
7.0175908826
 10
-9.642059543
 20
6.6892449074
 10
-9.6713238087
 20
6.3540376672
 10
-9.6908498718
 20
6.0123101222
 10
-9.7006178712
 20
5.664409865
 10
-9.7018391041
 20
5.4882553186
  0
LWPOLYLINE
  5
F7
330
E1
100
AcDbEntity
  8
0
  6
Continuous
 62
     7
370
    25
100
AcDbPolyline
 90
       51
 70
   128
 43
0.0
 10
-0.0989969594
 20
-11.1461575463
 10
-0.0208552565
 20
-11.1909153734
 10
0.2853702424
 20
-11.3592351696
 10
0.591206365
 20
-11.5160579883
 10
0.8963420263
 20
-11.6612243152
 10
1.2004668536
 20
-11.7945864926
 10
1.5032715024
 20
-11.9160088692
 10
1.8044479711
 20
-12.0253679389
 10
2.1036899142
 20
-12.1225524657
 10
2.4006929539
 20
-12.207463597
 10
2.6951549898
 20
-12.2800149645
 10
2.9867765061
 20
-12.3401327715
 10
3.2752608762
 20
-12.3877558685
 10
3.5603146645
 20
-12.422835815
 10
3.8416479249
 20
-12.445336929
 10
4.1189744957
 20
-12.4552363232
 10
4.3920122906
 20
-12.4525239284
 10
4.6604835858
 20
-12.4372025034
 10
4.9241153022
 20
-12.4092876327
 10
5.1826392834
 20
-12.3688077102
 10
5.4357925685
 20
-12.3158039106
 10
5.6833176594
 20
-12.2503301474
 10
5.9249627827
 20
-12.172453018
 10
6.160482146
 20
-12.0822517363
 10
6.3896361878
 20
-11.9798180515
 10
6.6121918212
 20
-11.8652561553
 10
6.8279226707
 20
-11.738682576
 10
7.0366093031
 20
-11.6002260595
 10
7.2380394499
 20
-11.4500274385
 10
7.4320082241
 20
-11.2882394894
 10
7.6183183277
 20
-11.1150267771
 10
7.7967802531
 20
-10.930565487
 10
7.9672124753
 20
-10.7350432463
 10
8.1294416372
 20
-10.5286589329
 10
8.2833027253
 20
-10.3116224733
 10
8.4286392376
 20
-10.0841546288
 10
8.5653033435
 20
-9.8464867714
 10
8.6931560331
 20
-9.5988606479
 10
8.8120672596
 20
-9.3415281344
 10
8.9219160709
 20
-9.0747509799
 10
9.0225907327
 20
-8.7988005404
 10
9.1139888427
 20
-8.5139575022
 10
9.196017434
 20
-8.2205115971
 10
9.2685930702
 20
-7.9187613074
 10
9.3316419301
 20
-7.6090135622
 10
9.3850998827
 20
-7.2915834255
 10
9.4289125525
 20
-6.9667937754
 10
9.4630353751
 20
-6.6349749757
 10
9.4874336418
 20
-6.2964645403
 10
9.5020825357
 20
-5.9516067894
 10
9.5069671565
 20
-5.6007524994
  0
LWPOLYLINE
  5
F8
330
E1
100
AcDbEntity
  8
0
  6
Continuous
 62
     7
370
    25
100
AcDbPolyline
 90
       76
 70
   128
 43
0.0
 10
9.7435973786
 20
-5.6248590381
 10
9.7386918902
 20
-5.2650388371
 10
9.7239803647
 20
-4.8999171882
 10
9.6994776152
 20
-4.5298617381
 10
9.6652083139
 20
-4.1552451012
 10
9.6212069672
 20
-3.7764444847
 10
9.5675178806
 20
-3.3938413087
 10
9.5041951145
 20
-3.0078208222
 10
9.4313024295
 20
-2.6187717151
 10
9.3489132225
 20
-2.2270857269
 10
9.2571104523
 20
-1.8331572521
 10
9.1559865565
 20
-1.4373829433
 10
9.0456433585
 20
-1.0401613118
 10
8.9261919643
 20
-0.641892326
 10
8.7977526515
 20
-0.2429770091
 10
8.6604547475
 20
0.1561829652
 10
8.5144364997
 20
0.5551856764
 10
8.359844936
 20
0.9536293627
 10
8.1968357172
 20
1.351112825
 10
8.0255729796
 20
1.7472358313
 10
7.8462291703
 20
2.1415995192
 10
7.6589848733
 20
2.5338067979
 10
7.4640286278
 20
2.9234627479
 10
7.2615567382
 20
3.3101750188
 10
7.0517730765
 20
3.693554224
 10
6.834888877
 20
4.0732143333
 10
6.6111225238
 20
4.4487730609
 10
6.3806993306
 20
4.8198522512
 10
6.143851314
 20
5.1860782588
 10
5.90081696
 20
5.5470823252
 10
5.6518409835
 20
5.90250095
 10
5.3971740822
 20
6.2519762566
 10
5.1370726841
 20
6.595156353
 10
4.8717986893
 20
6.9316956861
 10
4.6016192061
 20
7.2612553892
 10
4.3268062825
 20
7.5835036236
 10
4.0476366317
 20
7.8981159127
 10
3.7643913539
 20
8.2047754686
 10
3.4773556531
 20
8.5031735111
 10
3.18681855
 20
8.7930095786
 10
2.8930725907
 20
9.0739918308
 10
2.5964135525
 20
9.3458373425
 10
2.297140146
 20
9.6082723881
 10
1.9955537141
 20
9.8610327179
 10
1.6919579287
 20
10.1038638236
 10
1.3866584851
 20
10.3365211949
 10
1.079962794
 20
10.5587705656
 10
0.7721796719
 20
10.7703881494
 10
0.4636190303
 20
10.9711608652
 10
0.1545915636
 20
11.1608865521
 10
-0.1545915636
 20
11.3393741722
 10
-0.4636190303
 20
11.5064440038
 10
-0.7721796719
 20
11.6619278216
 10
-1.079962794
 20
11.8056690666
 10
-1.3866584851
 20
11.9375230036
 10
-1.6919579287
 20
12.0573568668
 10
-1.9955537141
 20
12.1650499938
 10
-2.297140146
 20
12.2604939465
 10
-2.5964135525
 20
12.3435926212
 10
-2.8930725907
 20
12.4142623444
 10
-3.18681855
 20
12.4724319577
 10
-3.4773556531
 20
12.5180428893
 10
-3.7643913539
 20
12.5510492128
 10
-4.0476366317
 20
12.5714176937
 10
-4.3268062825
 20
12.5791278225
 10
-4.6016192061
 20
12.574171836
 10
-4.8717986893
 20
12.5565547243
 10
-5.1370726841
 20
12.5262942263
 10
-5.3971740822
 20
12.4834208119
 10
-5.6518409835
 20
12.4279776509
 10
-5.90081696
 20
12.3600205698
 10
-6.143851314
 20
12.2796179958
 10
-6.3806993306
 20
12.1868508873
 10
-6.6111225238
 20
12.081812653
 10
-6.834888877
 20
11.9646090576
 10
-6.8892038666
 20
11.9337441667
  0
LWPOLYLINE
  5
F9
330
E1
100
AcDbEntity
  8
0
  6
Continuous
 62
     7
370
    25
100
AcDbPolyline
 90
       26
 70
   128
 43
0.0
 10
6.8892038666
 20
-11.9337441667
 10
7.0517730765
 20
-11.835358115
 10
7.2615567382
 20
-11.69418997
 10
7.4640286278
 20
-11.541246767
 10
7.6589848733
 20
-11.3766825068
 10
7.8462291703
 20
-11.2006628916
 10
8.0255729796
 20
-11.0133651584
 10
8.1968357172
 20
-10.8149779001
 10
8.359844936
 20
-10.6057008757
 10
8.5144364997
 20
-10.3857448095
 10
8.6604547475
 20
-10.1553311787
 10
8.7977526515
 20
-9.9146919903
 10
8.9261919643
 20
-9.6640695474
 10
9.0456433585
 20
-9.4037162057
 10
9.1559865565
 20
-9.1338941189
 10
9.2571104523
 20
-8.8548749749
 10
9.3489132225
 20
-8.5669397225
 10
9.4313024295
 20
-8.2703782879
 10
9.5041951145
 20
-7.9654892835
 10
9.5675178806
 20
-7.6525797065
 10
9.6212069672
 20
-7.3319646305
 10
9.6652083139
 20
-7.0039668876
 10
9.6994776152
 20
-6.6689167437
 10
9.7239803647
 20
-6.327151566
 10
9.7386918902
 20
-5.9790154829
 10
9.7435973786
 20
-5.6248590381
  0
LWPOLYLINE
  5
FA
330
E1
100
AcDbEntity
  8
0
  6
Continuous
 62
     7
370
    25
100
AcDbPolyline
 90
      198
 70
   128
 43
0.0
 10
9.4791283069
 20
-5.6007524994
 10
9.4742507652
 20
-5.2447752042
 10
9.4596231016
 20
-4.8835285062
 10
9.4352601947
 20
-4.517379852
 10
9.4011868255
 20
-4.1467016745
 10
9.3574376522
 20
-3.7718710138
 10
9.3040571749
 20
-3.3932691335
 10
9.2410996902
 20
-3.0112811335
 10
9.1686292361
 20
-2.6262955577
 10
9.0867195268
 20
-2.2387039992
 10
8.9954538779
 20
-1.8489007017
 10
8.8949251213
 20
-1.4572821586
 10
8.7852355113
 20
-1.0642467096
 10
8.6664966199
 20
-0.6701941359
 10
8.538829224
 20
-0.2755252531
 10
8.4023631821
 20
0.1193584964
 10
8.2572373023
 20
0.5140554515
 10
8.1035992014
 20
0.9081641411
 10
7.9416051542
 20
1.3012836925
 10
7.7714199352
 20
1.6930142392
 10
7.5932166503
 20
2.0829573273
 10
7.4071765613
 20
2.4707163213
 10
7.2134889013
 20
2.8558968073
 10
7.0123506822
 20
3.2381069938
 10
6.8039664942
 20
3.6169581109
 10
6.5885482981
 20
3.9920648054
 10
6.3663152092
 20
4.3630455327
 10
6.1374932747
 20
4.729522945
 10
5.9023152437
 20
5.0911242751
 10
5.6610203308
 20
5.4474817156
 10
5.4138539719
 20
5.7982327929
 10
5.1610675756
 20
6.1430207361
 10
4.9029182668
 20
6.4814948397
 10
4.6396686254
 20
6.8133108205
 10
4.3715864191
 20
7.1381311676
 10
4.0989443311
 20
7.4556254858
 10
3.8220196828
 20
7.7654708317
 10
3.5410941518
 20
8.0673520422
 10
3.2564534849
 20
8.3609620549
 10
2.9683872081
 20
8.6460022206
 10
2.6771883317
 20
8.9221826071
 10
2.3831530524
 20
9.1892222939
 10
2.0865804518
 20
9.4468496583
 10
1.7877721927
 20
9.6948026512
 10
1.4870322116
 20
9.9328290641
 10
1.1846664102
 20
10.1606867854
 10
0.8809823435
 20
10.3781440466
 10
0.5762889078
 20
10.5849796584
 10
0.2708960259
 20
10.7809832353
 10
-0.0348856679
 20
10.9659554097
 10
-0.3407451439
 20
11.1397080348
 10
-0.6463712932
 20
11.3020643758
 10
-0.9514532442
 20
11.45285929
 10
-1.2556806789
 20
11.5919393944
 10
-1.5587441486
 20
11.7191632219
 10
-1.8603353882
 20
11.8344013651
 10
-2.1601476305
 20
11.937536608
 10
-2.4578759175
 20
12.0284640454
 10
-2.7532174111
 20
12.1070911892
 10
-3.045871701
 20
12.1733380629
 10
-3.33554111
 20
12.2271372825
 10
-3.6219309973
 20
12.2684341256
 10
-3.9047500577
 20
12.2971865864
 10
-4.1837106181
 20
12.3133654191
 10
-4.4585289303
 20
12.3169541672
 10
-4.7289254593
 20
12.3079491802
 10
-4.9946251679
 20
12.2863596179
 10
-5.255357796
 20
12.2522074401
 10
-5.5108581363
 20
12.2055273854
 10
-5.7608663033
 20
12.1463669348
 10
-6.0051279979
 20
12.0747862643
 10
-6.2433947663
 20
11.9908581829
 10
-6.4754242523
 20
11.8946680593
 10
-6.7009804443
 20
11.7863137344
 10
-6.9198339148
 20
11.6659054222
 10
-7.1317620542
 20
11.5335655976
 10
-7.3365492972
 20
11.3894288717
 10
-7.5339873417
 20
11.233641855
 10
-7.7238753611
 20
11.0663630084
 10
-7.9060202083
 20
10.8877624816
 10
-8.0802366125
 20
10.6980219404
 10
-8.2463473672
 20
10.4973343818
 10
-8.4041835106
 20
10.2859039378
 10
-8.5535844978
 20
10.0639456676
 10
-8.6943983636
 20
9.8316853389
 10
-8.8264818774
 20
9.5893591981
 10
-8.9497006888
 20
9.3372137305
 10
-9.0639294641
 20
9.075505409
 10
-9.1690520141
 20
8.8045004337
 10
-9.264961412
 20
8.5244744606
 10
-9.3515601024
 20
8.2357123218
 10
-9.4287600004
 20
7.9385077354
 10
-9.4964825809
 20
7.6331630069
 10
-9.5546589593
 20
7.3199887215
 10
-9.6032299605
 20
6.9993034285
 10
-9.6421461801
 20
6.671433317
 10
-9.6713680338
 20
6.3367118843
 10
-9.6908657983
 20
5.9954795966
 10
-9.7006196411
 20
5.6480835427
 10
-9.7006196411
 20
5.294877081
 10
-9.6908657983
 20
4.9362194798
 10
-9.6713680338
 20
4.5724755524
 10
-9.6421461801
 20
4.2040152856
 10
-9.6032299605
 20
3.8312134635
 10
-9.5546589593
 20
3.4544492861
 10
-9.4964825809
 20
3.074105984
 10
-9.4287600004
 20
2.6905704282
 10
-9.3515601024
 20
2.304232737
 10
-9.264961412
 20
1.9154858784
 10
-9.1690520141
 20
1.5247252716
 10
-9.0639294641
 20
1.1323483834
 10
-8.9497006888
 20
0.7387543253
 10
-8.8264818774
 20
0.3443434463
 10
-8.6943983636
 20
-0.0504830734
 10
-8.5535844978
 20
-0.445323631
 10
-8.4041835106
 20
-0.8397766094
 10
-8.2463473672
 20
-1.2334407857
 10
-8.0802366125
 20
-1.6259157392
 10
-7.9060202083
 20
-2.0168022592
 10
-7.7238753611
 20
-2.4057027503
 10
-7.5339873417
 20
-2.7922216375
 10
-7.3365492972
 20
-3.1759657681
 10
-7.1317620542
 20
-3.5565448119
 10
-6.9198339148
 20
-3.933571658
 10
-6.7009804443
 20
-4.3066628087
 10
-6.4754242523
 20
-4.6754387696
 10
-6.2433947663
 20
-5.0395244355
 10
-6.0051279979
 20
-5.3985494721
 10
-5.7608663033
 20
-5.7521486923
 10
-5.5108581363
 20
-6.0999624283
 10
-5.255357796
 20
-6.4416368968
 10
-4.9946251679
 20
-6.7768245593
 10
-4.7289254593
 20
-7.1051844753
 10
-4.4585289303
 20
-7.4263826494
 10
-4.1837106181
 20
-7.7400923708
 10
-3.9047500577
 20
-8.0459945455
 10
-3.6219309973
 20
-8.3437780212
 10
-3.33554111
 20
-8.6331399038
 10
-3.045871701
 20
-8.913785865
 10
-2.7532174111
 20
-9.1854304422
 10
-2.4578759175
 20
-9.4477973286
 10
-2.1601476305
 20
-9.7006196545
 10
-1.8603353882
 20
-9.9436402583
 10
-1.5587441486
 20
-10.1766119485
 10
-1.2556806789
 20
-10.3992977551
 10
-0.9514532442
 20
-10.6114711702
 10
-0.6463712932
 20
-10.812916379
 10
-0.3407451439
 20
-11.0034284789
 10
-0.0348856679
 20
-11.182813688
 10
0.2708960259
 20
-11.3508895425
 10
0.5762889078
 20
-11.5074850818
 10
0.8809823435
 20
-11.6524410227
 10
1.1846664102
 20
-11.7856099216
 10
1.4870322116
 20
-11.9068563238
 10
1.7877721927
 20
-12.0160569021
 10
2.0865804518
 20
-12.1131005817
 10
2.3831530524
 20
-12.1978886534
 10
2.6771883317
 20
-12.2703348739
 10
2.9683872081
 20
-12.3303655537
 10
3.2564534849
 20
-12.3779196317
 10
3.5410941518
 20
-12.4129487377
 10
3.8220196828
 20
-12.4354172414
 10
4.0989443311
 20
-12.4453022887
 10
4.3715864191
 20
-12.4425938249
 10
4.6396686254
 20
-12.4272946049
 10
4.9029182668
 20
-12.3994201905
 10
5.1610675756
 20
-12.3589989346
 10
5.4138539719
 20
-12.3060719521
 10
5.6610203308
 20
-12.2406930783
 10
5.9023152437
 20
-12.1629288144
 10
6.1374932747
 20
-12.0728582591
 10
6.3663152092
 20
-11.9705730289
 10
6.5885482981
 20
-11.8561771645
 10
6.8039664942
 20
-11.7297870252
 10
7.0123506822
 20
-11.5915311702
 10
7.2134889013
 20
-11.4415502284
 10
7.4071765613
 20
-11.2799967547
 10
7.5932166503
 20
-11.1070350753
 10
7.7714199352
 20
-10.9228411204
 10
7.9416051542
 20
-10.7276022452
 10
8.1035992014
 20
-10.5215170395
 10
8.2572373023
 20
-10.3047951255
 10
8.4023631821
 20
-10.0776569446
 10
8.538829224
 20
-9.8403335333
 10
8.6664966199
 20
-9.5930662883
 10
8.7852355113
 20
-9.3361067204
 10
8.8949251213
 20
-9.0697161995
 10
8.9954538779
 20
-8.7941656881
 10
9.0867195268
 20
-8.5097354659
 10
9.1686292361
 20
-8.2167148448
 10
9.2410996902
 20
-7.9154018743
 10
9.3040571749
 20
-7.6061030389
 10
9.3574376522
 20
-7.2891329459
 10
9.4011868255
 20
-6.9648140054
 10
9.4352601947
 20
-6.6334761026
 10
9.4596231016
 20
-6.295456262
 10
9.4742507652
 20
-5.9510983049
 10
9.4791283069
 20
-5.6007524994
  0
LWPOLYLINE
  5
FB
330
E1
100
AcDbEntity
  8
0
  6
Continuous
 62
     7
370
    25
100
AcDbPolyline
 90
       30
 70
   128
 43
0.0
 10
0.0974359738
 20
-8.2216358116
 10
0.0925545475
 20
-8.1669874686
 10
0.0781385188
 20
-8.1092584465
 10
0.0548619651
 20
-8.0511480903
 10
0.0238132723
 20
-7.9953735758
 10
-0.0135557574
 20
-7.9445428571
 10
-0.0554977897
 20
-7.9010327222
 10
-0.1000516616
 20
-7.8668776566
 10
-0.1451340837
 20
-7.8436747133
 10
-0.188637052
 20
-7.832508836
 10
-0.2285264162
 20
-7.8339021289
 10
-0.2629369937
 20
-7.8477894431
 10
-0.2902597844
 20
-7.8735214231
 10
-0.3092172048
 20
-7.9098948703
 10
-0.318922827
 20
-7.9552090026
 10
-0.318922827
 20
-8.0073449816
 10
-0.3092172048
 20
-8.0638649868
 10
-0.2902597844
 20
-8.1221262057
 10
-0.2629369937
 20
-8.1794044083
 10
-0.2285264162
 20
-8.2330213296
 10
-0.188637052
 20
-8.280469902
 10
-0.1451340837
 20
-8.3195314829
 10
-0.1000516616
 20
-8.3483795962
 10
-0.0554977897
 20
-8.3656653362
 10
-0.0135557574
 20
-8.370580441
 10
0.0238132723
 20
-8.3628950856
 10
0.0548619651
 20
-8.3429686287
 10
0.0781385188
 20
-8.3117328094
 10
0.0925545475
 20
-8.2706481798
 10
0.0974359738
 20
-8.2216358116
  0
LWPOLYLINE
  5
FC
330
E1
100
AcDbEntity
  8
0
  6
Continuous
 62
     7
370
    25
100
AcDbPolyline
 90
       17
 70
   128
 43
0.0
 10
-0.2587028073
 20
-7.8452193184
 10
-0.2626586052
 20
-7.8476287328
 10
-0.2899813959
 20
-7.8733607128
 10
-0.3089388163
 20
-7.90973416
 10
-0.3186444385
 20
-7.9550482923
 10
-0.3186444385
 20
-8.0071842713
 10
-0.3089388163
 20
-8.0637042765
 10
-0.2899813959
 20
-8.1219654954
 10
-0.2626586052
 20
-8.179243698
 10
-0.2282480277
 20
-8.2328606194
 10
-0.1883586635
 20
-8.2803091917
 10
-0.1448556952
 20
-8.3193707726
 10
-0.0997732731
 20
-8.348218886
 10
-0.0552194012
 20
-8.365504626
 10
-0.0132773689
 20
-8.3704197307
 10
0.0240916608
 20
-8.3627343753
 10
0.036548787
 20
-8.3566654969
  0
LWPOLYLINE
  5
FD
330
E1
100
AcDbEntity
  8
0
  6
Continuous
 62
     7
370
    25
100
AcDbPolyline
 90
       12
 70
   128
 43
0.0
 10
0.0698755126
 20
-8.2054040755
 10
0.064997914
 20
-8.1543994293
 10
0.0506280706
 20
-8.1005129013
 10
0.0275406644
 20
-8.0466495281
 10
-0.0030196565
 20
-7.995713098
 10
-0.0394053772
 20
-7.9504496073
 10
-0.0796549343
 20
-7.9132992224
 10
-0.1215984636
 20
-7.8862647301
 10
-0.1629747786
 20
-7.8708035671
 10
-0.2015532715
 20
-7.8677492485
 10
-0.2352541657
 20
-7.8772664335
 10
-0.2390193676
 20
-7.8793157303
  0
LWPOLYLINE
  5
FF
330
E1
100
AcDbEntity
  8
0
  6
Continuous
 62
     7
370
    25
100
AcDbPolyline
 90
       28
 70
   128
 43
0.0
 10
0.0695971241
 20
-8.2055647858
 10
0.0647195255
 20
-8.1545601396
 10
0.0503496821
 20
-8.1006736116
 10
0.0272622759
 20
-8.0468102383
 10
-0.003298045
 20
-7.9958738083
 10
-0.0396837657
 20
-7.9506103175
 10
-0.0799333228
 20
-7.9134599326
 10
-0.1218768521
 20
-7.8864254404
 10
-0.1632531671
 20
-7.8709642773
 10
-0.20183166
 20
-7.8679099588
 10
-0.2355325542
 20
-7.8774271437
 10
-0.2625390258
 20
-7.8990027584
 10
-0.2813951489
 20
-7.9314736557
 10
-0.2910843851
 20
-7.9730893213
 10
-0.2910843851
 20
-8.0216062437
 10
-0.2813951489
 20
-8.0744088633
 10
-0.2625390258
 20
-8.128650577
 10
-0.2355325542
 20
-8.1814072
 10
-0.20183166
 20
-8.2298346092
 10
-0.1632531671
 20
-8.2713220704
 10
-0.1218768521
 20
-8.3036329838
 10
-0.0799333228
 20
-8.3250254597
 10
-0.0396837657
 20
-8.3343462242
 10
-0.003298045
 20
-8.3310927925
 10
0.0272622759
 20
-8.3154405579
 10
0.0503496821
 20
-8.2882333364
 10
0.0647195255
 20
-8.2509378764
 10
0.0695971241
 20
-8.2055647858
  0
LINE
  5
100
330
E1
100
AcDbEntity
  8
0
  6
Continuous
 62
     7
370
    25
100
AcDbLine
 10
-6.6108153701
 20
12.0944544249
 30
0.0
 11
-6.9866398404
 21
11.8774955763
 31
0.0
  0
LINE
  5
101
330
E1
100
AcDbEntity
  8
0
  6
Continuous
 62
     7
370
    25
100
AcDbLine
 10
6.7917678928
 20
-11.989992757
 30
0.0
 11
7.1675923631
 21
-11.7730339084
 31
0.0
  0
LINE
  5
102
330
E1
100
AcDbEntity
  8
0
  6
Continuous
 62
     7
370
    25
100
AcDbLine
 10
-9.7018391041
 20
5.4882553186
 30
0.0
 11
-9.7018391041
 21
5.4721842928
 31
0.0
  0
LINE
  5
103
330
E1
100
AcDbEntity
  8
0
  6
Continuous
 62
     7
370
    25
100
AcDbLine
 10
-0.1129141219
 20
-11.1381207274
 30
0.0
 11
-0.0989969594
 21
-11.1461575463
 31
0.0
  0
LINE
  5
104
330
E1
100
AcDbEntity
  8
0
  6
Continuous
 62
     7
370
    25
100
AcDbLine
 10
0.0362703985
 20
-8.3568262072
 30
0.0
 11
0.036548787
 21
-8.3566654969
 31
0.0
  0
LINE
  5
105
330
E1
100
AcDbEntity
  8
0
  6
Continuous
 62
     7
370
    25
100
AcDbLine
 10
-0.2587028073
 20
-7.8452193184
 30
0.0
 11
-0.2589811958
 21
-7.8453800286
 31
0.0
  0
LINE
  5
106
330
E1
100
AcDbEntity
  8
0
  6
Continuous
 62
     7
370
    25
100
AcDbLine
 10
0.0165869589
 20
-8.3227297953
 30
0.0
 11
0.0168653474
 21
-8.322569085
 31
0.0
  0
LINE
  5
107
330
E1
100
AcDbEntity
  8
0
  6
Continuous
 62
     7
370
    25
100
AcDbLine
 10
-0.2390193676
 20
-7.8793157303
 30
0.0
 11
-0.2392977561
 21
-7.8794764405
 31
0.0
  0
ARC
  5
108
330
E1
100
AcDbEntity
  8
0
  6
Continuous
 62
     7
370
    25
100
AcDbCircle
 10
-0.0542669064
 20
-8.2198115202
 30
0.0
 40
0.1249756562803386
100
AcDbArc
 50
304.6922892564
 51
6.619891137
  0
VIEWPORT
  5
10D
330
E1
100
AcDbEntity
  8
0
100
AcDbViewport
 10
0.0
 20
0.0
 30
0.0
 40
8.4
 41
6.4
 68
     1
 69
     1
 12
0.0
 22
0.0
 13
0.0
 23
0.0
 14
0.5
 24
0.5
 15
0.5
 25
0.5
 16
0.0
 26
0.0
 36
1.0
 17
0.0
 27
0.0
 37
0.0
 42
50.0
 43
0.0
 44
0.0
 45
28.1102362205
 50
0.0
 51
0.0
 72
   100
 90
   557152
  1

281
     0
 71
     1
 74
     0
110
0.0
120
0.0
130
0.0
111
1.0
121
0.0
131
0.0
112
0.0
122
1.0
132
0.0
 79
     0
146
0.0
  0
ENDBLK
  5
E4
330
E1
100
AcDbEntity
  8
0
100
AcDbBlockEnd
  0
ENDSEC
  0
SECTION
  2
ENTITIES
  0
CIRCLE
  5
73
330
1F
100
AcDbEntity
  8
0
  6
Continuous
 62
     7
370
    25
100
AcDbCircle
 10
0.0
 20
-9.842519685
 30
0.0
 40
0.2559055118110242
  0
CIRCLE
  5
74
330
1F
100
AcDbEntity
  8
0
  6
Continuous
 62
     7
370
    25
100
AcDbCircle
 10
0.0
 20
0.0
 30
0.0
 40
13.56299212598427
  0
CIRCLE
  5
75
330
1F
100
AcDbEntity
  8
0
  6
Continuous
 62
     7
370
    25
100
AcDbCircle
 10
0.0
 20
-9.842519685
 30
0.0
 40
0.295275590551181
  0
CIRCLE
  5
76
330
1F
100
AcDbEntity
  8
0
  6
Continuous
 62
     7
370
    25
100
AcDbCircle
 10
0.0
 20
0.0
 30
0.0
 40
13.58267716535432
  0
CIRCLE
  5
77
330
1F
100
AcDbEntity
  8
0
  6
Continuous
 62
     7
370
    25
100
AcDbCircle
 10
0.0
 20
0.0
 30
0.0
 40
13.77952755905512
  0
CIRCLE
  5
90
330
1B
100
AcDbEntity
 67
     1
  8
0
  6
Continuous
 62
     7
370
    25
100
AcDbCircle
 10
0.0
 20
0.0
 30
0.0
 40
13.32677165354337
  0
CIRCLE
  5
9D
330
1B
100
AcDbEntity
 67
     1
  8
0
  6
Continuous
 62
     7
370
    25
100
AcDbCircle
 10
0.0
 20
0.0
 30
0.0
 40
13.77952755905512
  0
LINE
  5
9E
330
1B
100
AcDbEntity
 67
     1
  8
0
  6
Continuous
 62
     7
370
    25
100
AcDbLine
 10
7.1312900915
 20
7.9335051662
 30
0.0
 11
7.367454026
 21
7.938673112
 31
0.0
  0
LINE
  5
9F
330
1B
100
AcDbEntity
 67
     1
  8
0
  6
Continuous
 62
     7
370
    25
100
AcDbLine
 10
7.1364580373
 20
7.6973412318
 30
0.0
 11
7.1312900915
 21
7.9335051662
 31
0.0
  0
LINE
  5
A0
330
1B
100
AcDbEntity
 67
     1
  8
0
  6
Continuous
 62
     7
370
    25
100
AcDbLine
 10
6.9002941028
 20
7.692173286
 30
0.0
 11
7.1364580373
 21
7.6973412318
 31
0.0
  0
LINE
  5
A1
330
1B
100
AcDbEntity
 67
     1
  8
0
  6
Continuous
 62
     7
370
    25
100
AcDbLine
 10
6.9054620486
 20
7.4560093515
 30
0.0
 11
6.9002941028
 21
7.692173286
 31
0.0
  0
LINE
  5
A2
330
1B
100
AcDbEntity
 67
     1
  8
0
  6
Continuous
 62
     7
370
    25
100
AcDbLine
 10
7.1416259831
 20
7.4611772973
 30
0.0
 11
6.9054620486
 21
7.4560093515
 31
0.0
  0
LINE
  5
A3
330
1B
100
AcDbEntity
 67
     1
  8
0
  6
Continuous
 62
     7
370
    25
100
AcDbLine
 10
7.1467939289
 20
7.2250133629
 30
0.0
 11
7.1416259831
 21
7.4611772973
 31
0.0
  0
LINE
  5
A4
330
1B
100
AcDbEntity
 67
     1
  8
0
  6
Continuous
 62
     7
370
    25
100
AcDbLine
 10
7.3829578633
 20
7.2301813086
 30
0.0
 11
7.1467939289
 21
7.2250133629
 31
0.0
  0
LINE
  5
A5
330
1B
100
AcDbEntity
 67
     1
  8
0
  6
Continuous
 62
     7
370
    25
100
AcDbLine
 10
7.3777899175
 20
7.4663452431
 30
0.0
 11
7.3829578633
 21
7.2301813086
 31
0.0
  0
LINE
  5
A6
330
1B
100
AcDbEntity
 67
     1
  8
0
  6
Continuous
 62
     7
370
    25
100
AcDbLine
 10
7.613953852
 20
7.4715131889
 30
0.0
 11
7.3777899175
 21
7.4663452431
 31
0.0
  0
LINE
  5
A7
330
1B
100
AcDbEntity
 67
     1
  8
0
  6
Continuous
 62
     7
370
    25
100
AcDbLine
 10
7.6087859062
 20
7.7076771233
 30
0.0
 11
7.613953852
 21
7.4715131889
 31
0.0
  0
LINE
  5
A8
330
1B
100
AcDbEntity
 67
     1
  8
0
  6
Continuous
 62
     7
370
    25
100
AcDbLine
 10
7.3726219717
 20
7.7025091775
 30
0.0
 11
7.6087859062
 21
7.7076771233
 31
0.0
  0
LINE
  5
A9
330
1B
100
AcDbEntity
 67
     1
  8
0
  6
Continuous
 62
     7
370
    25
100
AcDbLine
 10
7.367454026
 20
7.938673112
 30
0.0
 11
7.3726219717
 21
7.7025091775
 31
0.0
  0
LINE
  5
AA
330
1B
100
AcDbEntity
 67
     1
  8
0
  6
Continuous
 62
     7
370
    25
100
AcDbLine
 10
-7.938673112
 20
7.367454026
 30
0.0
 11
-7.9335051662
 21
7.1312900915
 31
0.0
  0
LINE
  5
AB
330
1B
100
AcDbEntity
 67
     1
  8
0
  6
Continuous
 62
     7
370
    25
100
AcDbLine
 10
-7.9335051662
 20
7.1312900915
 30
0.0
 11
-7.6973412318
 21
7.1364580373
 31
0.0
  0
LINE
  5
AC
330
1B
100
AcDbEntity
 67
     1
  8
0
  6
Continuous
 62
     7
370
    25
100
AcDbLine
 10
-7.6973412318
 20
7.1364580373
 30
0.0
 11
-7.692173286
 21
6.9002941028
 31
0.0
  0
LINE
  5
AD
330
1B
100
AcDbEntity
 67
     1
  8
0
  6
Continuous
 62
     7
370
    25
100
AcDbLine
 10
-7.692173286
 20
6.9002941028
 30
0.0
 11
-7.4560093515
 21
6.9054620486
 31
0.0
  0
LINE
  5
AE
330
1B
100
AcDbEntity
 67
     1
  8
0
  6
Continuous
 62
     7
370
    25
100
AcDbLine
 10
-7.4560093515
 20
6.9054620486
 30
0.0
 11
-7.4611772973
 21
7.1416259831
 31
0.0
  0
LINE
  5
AF
330
1B
100
AcDbEntity
 67
     1
  8
0
  6
Continuous
 62
     7
370
    25
100
AcDbLine
 10
-7.4611772973
 20
7.1416259831
 30
0.0
 11
-7.2250133629
 21
7.1467939289
 31
0.0
  0
LINE
  5
B0
330
1B
100
AcDbEntity
 67
     1
  8
0
  6
Continuous
 62
     7
370
    25
100
AcDbLine
 10
-7.2250133629
 20
7.1467939289
 30
0.0
 11
-7.2301813086
 21
7.3829578633
 31
0.0
  0
LINE
  5
B1
330
1B
100
AcDbEntity
 67
     1
  8
0
  6
Continuous
 62
     7
370
    25
100
AcDbLine
 10
-7.2301813086
 20
7.3829578633
 30
0.0
 11
-7.4663452431
 21
7.3777899175
 31
0.0
  0
LINE
  5
B2
330
1B
100
AcDbEntity
 67
     1
  8
0
  6
Continuous
 62
     7
370
    25
100
AcDbLine
 10
-7.4663452431
 20
7.3777899175
 30
0.0
 11
-7.4715131889
 21
7.613953852
 31
0.0
  0
LINE
  5
B3
330
1B
100
AcDbEntity
 67
     1
  8
0
  6
Continuous
 62
     7
370
    25
100
AcDbLine
 10
-7.4715131889
 20
7.613953852
 30
0.0
 11
-7.7076771233
 21
7.6087859062
 31
0.0
  0
LINE
  5
B4
330
1B
100
AcDbEntity
 67
     1
  8
0
  6
Continuous
 62
     7
370
    25
100
AcDbLine
 10
-7.7076771233
 20
7.6087859062
 30
0.0
 11
-7.7025091775
 21
7.3726219717
 31
0.0
  0
LINE
  5
B5
330
1B
100
AcDbEntity
 67
     1
  8
0
  6
Continuous
 62
     7
370
    25
100
AcDbLine
 10
-7.7025091775
 20
7.3726219717
 30
0.0
 11
-7.938673112
 21
7.367454026
 31
0.0
  0
LINE
  5
B6
330
1B
100
AcDbEntity
 67
     1
  8
0
  6
Continuous
 62
     7
370
    25
100
AcDbLine
 10
-2.011099002
 20
1.9249665723
 30
0.0
 11
-1.9249665723
 21
-2.011099002
 31
0.0
  0
LINE
  5
B7
330
1B
100
AcDbEntity
 67
     1
  8
0
  6
Continuous
 62
     7
370
    25
100
AcDbLine
 10
-1.9249665723
 20
-2.011099002
 30
0.0
 11
2.011099002
 21
-1.9249665723
 31
0.0
  0
LINE
  5
B8
330
1B
100
AcDbEntity
 67
     1
  8
0
  6
Continuous
 62
     7
370
    25
100
AcDbLine
 10
2.011099002
 20
-1.9249665723
 30
0.0
 11
1.9249665723
 21
2.011099002
 31
0.0
  0
LINE
  5
B9
330
1B
100
AcDbEntity
 67
     1
  8
0
  6
Continuous
 62
     7
370
    25
100
AcDbLine
 10
1.9249665723
 20
2.011099002
 30
0.0
 11
-2.011099002
 21
1.9249665723
 31
0.0
  0
LINE
  5
BA
330
1B
100
AcDbEntity
 67
     1
  8
0
  6
Continuous
 62
     7
370
    25
100
AcDbLine
 10
7.1459326046
 20
7.2643740186
 30
0.0
 11
7.382096539
 21
7.2695419644
 31
0.0
  0
LINE
  5
BB
330
1B
100
AcDbEntity
 67
     1
  8
0
  6
Continuous
 62
     7
370
    25
100
AcDbLine
 10
7.3683153503
 20
7.8993124563
 30
0.0
 11
7.1321514158
 21
7.8941445105
 31
0.0
  0
LINE
  5
BC
330
1B
100
AcDbEntity
 67
     1
  8
0
  6
Continuous
 62
     7
370
    25
100
AcDbLine
 10
-7.8941445105
 20
7.1321514158
 30
0.0
 11
-7.8993124563
 21
7.3683153503
 31
0.0
  0
LINE
  5
BD
330
1B
100
AcDbEntity
 67
     1
  8
0
  6
Continuous
 62
     7
370
    25
100
AcDbLine
 10
7.5745931962
 20
7.4706518646
 30
0.0
 11
7.5694252505
 21
7.706815799
 31
0.0
  0
LINE
  5
BE
330
1B
100
AcDbEntity
 67
     1
  8
0
  6
Continuous
 62
     7
370
    25
100
AcDbLine
 10
-7.706815799
 20
7.5694252505
 30
0.0
 11
-7.4706518646
 21
7.5745931962
 31
0.0
  0
LINE
  5
BF
330
1B
100
AcDbEntity
 67
     1
  8
0
  6
Continuous
 62
     7
370
    25
100
AcDbLine
 10
-7.4568706758
 20
6.9448227044
 30
0.0
 11
-7.6930346103
 21
6.9396547586
 31
0.0
  0
LINE
  5
C0
330
1B
100
AcDbEntity
 67
     1
  8
0
  6
Continuous
 62
     7
370
    25
100
AcDbLine
 10
-7.2695419644
 20
7.382096539
 30
0.0
 11
-7.2643740186
 21
7.1459326046
 31
0.0
  0
LINE
  5
C1
330
1B
100
AcDbEntity
 67
     1
  8
0
  6
Continuous
 62
     7
370
    25
100
AcDbLine
 10
6.9396547586
 20
7.6930346103
 30
0.0
 11
6.9448227044
 21
7.4568706758
 31
0.0
  0
VIEWPORT
  5
109
330
1B
100
AcDbEntity
 67
     1
  8
0
100
AcDbViewport
 10
0.0
 20
0.0
 30
0.0
 40
8.4
 41
6.4
 68
     1
 69
     1
 12
0.0
 22
0.0
 13
0.0
 23
0.0
 14
0.5
 24
0.5
 15
0.5
 25
0.5
 16
0.0
 26
0.0
 36
1.0
 17
0.0
 27
0.0
 37
0.0
 42
50.0
 43
0.0
 44
0.0
 45
28.1102362205
 50
0.0
 51
0.0
 72
   100
 90
   557152
  1

281
     0
 71
     1
 74
     0
110
0.0
120
0.0
130
0.0
111
1.0
121
0.0
131
0.0
112
0.0
122
1.0
132
0.0
 79
     0
146
0.0
  0
ENDSEC
  0
SECTION
  2
OBJECTS
  0
DICTIONARY
  5
C
330
0
100
AcDbDictionary
281
     1
  3
ACAD_GROUP
350
D
  3
ACAD_LAYOUT
350
1A
  3
ACAD_MLINESTYLE
350
17
  3
ACAD_PLOTSETTINGS
350
19
  3
ACAD_PLOTSTYLENAME
350
E
  3
ACAD_SCALELIST
350
47
  0
DICTIONARY
  5
D
102
{ACAD_REACTORS
330
C
102
}
330
C
100
AcDbDictionary
281
     1
  0
DICTIONARY
  5
1A
102
{ACAD_REACTORS
330
C
102
}
330
C
100
AcDbDictionary
281
     1
  3
_Back
350
1E
  3
_Isometric
350
E2
  3
_Right
350
26
  3
Model
350
22
  0
DICTIONARY
  5
17
102
{ACAD_REACTORS
330
C
102
}
330
C
100
AcDbDictionary
281
     1
  3
Standard
350
18
  0
DICTIONARY
  5
19
102
{ACAD_REACTORS
330
C
102
}
330
C
100
AcDbDictionary
281
     1
  0
ACDBDICTIONARYWDFLT
  5
E
102
{ACAD_REACTORS
330
C
102
}
330
C
100
AcDbDictionary
281
     1
  3
Normal
350
F
100
AcDbDictionaryWithDefault
340
F
  0
DICTIONARY
  5
47
102
{ACAD_REACTORS
330
C
102
}
330
C
100
AcDbDictionary
281
     1
  3
A0
350
48
  3
A1
350
49
  3
A2
350
4A
  3
A3
350
4B
  3
A4
350
4C
  3
A5
350
4D
  3
A6
350
4E
  3
A7
350
4F
  3
A8
350
50
  3
A9
350
51
  3
B0
350
52
  3
B1
350
53
  3
B2
350
54
  3
B3
350
55
  3
B4
350
56
  3
B5
350
57
  3
B6
350
58
  3
B7
350
59
  3
B8
350
5A
  3
B9
350
5B
  3
C0
350
5C
  3
C1
350
5D
  3
C2
350
5E
  3
C3
350
5F
  3
C4
350
60
  3
C5
350
61
  3
C6
350
62
  3
C7
350
63
  3
C8
350
64
  3
C9
350
65
  3
D0
350
66
  3
D1
350
67
  3
D2
350
68
  0
LAYOUT
  5
1E
102
{ACAD_REACTORS
330
1A
102
}
330
1A
100
AcDbPlotSettings
  1

  2
none_device
  4
Letter_(8.50_x_11.00_Inches)
  6

 40
6.35
 41
6.35
 42
6.35001
 43
6.35001
 44
215.9
 45
279.4
 46
0.0
 47
0.0
 48
0.0
 49
0.0
140
0.0
141
0.0
142
1.0
143
3.4448820593
 70
   688
 72
     0
 73
     1
 74
     1
  7

 75
     0
147
0.2902857
148
350.0
149
350.0
100
AcDbLayout
  1
_Back
 70
     1
 71
     1
 10
-14.6407494301
 20
-14.6407480739
 11
23.2529532221
 21
14.6407494301
 12
0.0
 22
0.0
 32
0.0
 14
-13.7795275591
 24
-13.7795275591
 34
0.0
 15
13.7795275591
 25
13.7795275591
 35
0.0
146
0.0
 13
0.0
 23
0.0
 33
0.0
 16
1.0
 26
0.0
 36
0.0
 17
0.0
 27
1.0
 37
0.0
 76
     0
330
1B
331
109
  0
LAYOUT
  5
E2
102
{ACAD_REACTORS
330
1A
102
}
330
1A
100
AcDbPlotSettings
  1

  2
none_device
  4
Letter_(8.50_x_11.00_Inches)
  6

 40
6.35
 41
6.35
 42
6.35001
 43
6.35001
 44
215.9
 45
279.4
 46
0.0
 47
0.0
 48
0.0
 49
0.0
140
0.0
141
0.0
142
1.0
143
3.4448820593
 70
   688
 72
     0
 73
     1
 74
     1
  7

 75
     0
147
0.2902857
148
350.0
149
350.0
100
AcDbLayout
  1
_Isometric
 70
     1
 71
     3
 10
0.0
 20
0.0
 11
0.0
 21
0.0
 12
0.0
 22
0.0
 32
0.0
 14
0.0
 24
0.0
 34
0.0
 15
0.0
 25
0.0
 35
0.0
146
0.0
 13
0.0
 23
0.0
 33
0.0
 16
1.0
 26
0.0
 36
0.0
 17
0.0
 27
1.0
 37
0.0
 76
     0
330
E1
331
10D
  0
LAYOUT
  5
26
102
{ACAD_REACTORS
330
1A
102
}
330
1A
100
AcDbPlotSettings
  1

  2
none_device
  4
Letter_(8.50_x_11.00_Inches)
  6

 40
6.35
 41
6.35
 42
6.35001
 43
6.35001
 44
215.9
 45
279.4
 46
0.0
 47
0.0
 48
0.0
 49
0.0
140
0.0
141
0.0
142
1.0
143
3.4448820593
 70
   688
 72
     0
 73
     1
 74
     1
  7

 75
     0
147
0.2902857
148
350.0
149
350.0
100
AcDbLayout
  1
_Right
 70
     1
 71
     2
 10
0.0
 20
0.0
 11
0.0
 21
0.0
 12
0.0
 22
0.0
 32
0.0
 14
0.0
 24
0.0
 34
0.0
 15
0.0
 25
0.0
 35
0.0
146
0.0
 13
0.0
 23
0.0
 33
0.0
 16
1.0
 26
0.0
 36
0.0
 17
0.0
 27
1.0
 37
0.0
 76
     0
330
23
331
10B
  0
LAYOUT
  5
22
102
{ACAD_REACTORS
330
1A
102
}
330
1A
100
AcDbPlotSettings
  1

  2
none_device
  4
ANSI_A_(11.00_x_8.50_Inches)
  6

 40
6.35
 41
19.05
 42
6.35000508
 43
19.05000254
 44
279.4
 45
215.9
 46
133.34999746
 47
88.89999873
 48
0.0
 49
0.0
140
0.0
141
0.0
142
0.3053442857
143
1.0
 70
  1696
 72
     0
 73
     0
 74
     0
  7

 75
     0
147
0.5913241897
148
-39.4088153714
149
0.0
100
AcDbLayout
  1
Model
 70
     1
 71
     0
 10
0.0
 20
0.0
 11
12.0
 21
9.0
 12
0.0
 22
0.0
 32
0.0
 14
-13.7795275591
 24
-13.7795275591
 34
0.0
 15
13.7795275591
 25
13.7795275591
 35
0.0
146
0.0
 13
0.0
 23
0.0
 33
0.0
 16
1.0
 26
0.0
 36
0.0
 17
0.0
 27
1.0
 37
0.0
 76
     0
330
1F
331
29
  0
MLINESTYLE
  5
18
102
{ACAD_REACTORS
330
17
102
}
330
17
100
AcDbMlineStyle
  2
Standard
 70
     0
  3

 62
   256
 51
90.0
 52
90.0
 71
     2
 49
0.5
 62
   256
  6
BYLAYER
 49
-0.5
 62
   256
  6
BYLAYER
  0
ACDBPLACEHOLDER
  5
F
102
{ACAD_REACTORS
330
E
102
}
330
E
  0
SCALE
  5
48
102
{ACAD_REACTORS
330
47
102
}
330
47
100
AcDbScale
 70
     0
300
1:1
140
1.0
141
1.0
290
     1
  0
SCALE
  5
49
102
{ACAD_REACTORS
330
47
102
}
330
47
100
AcDbScale
 70
     0
300
1:2
140
1.0
141
2.0
290
     0
  0
SCALE
  5
4A
102
{ACAD_REACTORS
330
47
102
}
330
47
100
AcDbScale
 70
     0
300
1:4
140
1.0
141
4.0
290
     0
  0
SCALE
  5
4B
102
{ACAD_REACTORS
330
47
102
}
330
47
100
AcDbScale
 70
     0
300
1:5
140
1.0
141
5.0
290
     0
  0
SCALE
  5
4C
102
{ACAD_REACTORS
330
47
102
}
330
47
100
AcDbScale
 70
     0
300
1:8
140
1.0
141
8.0
290
     0
  0
SCALE
  5
4D
102
{ACAD_REACTORS
330
47
102
}
330
47
100
AcDbScale
 70
     0
300
1:10
140
1.0
141
10.0
290
     0
  0
SCALE
  5
4E
102
{ACAD_REACTORS
330
47
102
}
330
47
100
AcDbScale
 70
     0
300
1:16
140
1.0
141
16.0
290
     0
  0
SCALE
  5
4F
102
{ACAD_REACTORS
330
47
102
}
330
47
100
AcDbScale
 70
     0
300
1:20
140
1.0
141
20.0
290
     0
  0
SCALE
  5
50
102
{ACAD_REACTORS
330
47
102
}
330
47
100
AcDbScale
 70
     0
300
1:30
140
1.0
141
30.0
290
     0
  0
SCALE
  5
51
102
{ACAD_REACTORS
330
47
102
}
330
47
100
AcDbScale
 70
     0
300
1:40
140
1.0
141
40.0
290
     0
  0
SCALE
  5
52
102
{ACAD_REACTORS
330
47
102
}
330
47
100
AcDbScale
 70
     0
300
1:50
140
1.0
141
50.0
290
     0
  0
SCALE
  5
53
102
{ACAD_REACTORS
330
47
102
}
330
47
100
AcDbScale
 70
     0
300
1:100
140
1.0
141
100.0
290
     0
  0
SCALE
  5
54
102
{ACAD_REACTORS
330
47
102
}
330
47
100
AcDbScale
 70
     0
300
2:1
140
2.0
141
1.0
290
     0
  0
SCALE
  5
55
102
{ACAD_REACTORS
330
47
102
}
330
47
100
AcDbScale
 70
     0
300
4:1
140
4.0
141
1.0
290
     0
  0
SCALE
  5
56
102
{ACAD_REACTORS
330
47
102
}
330
47
100
AcDbScale
 70
     0
300
8:1
140
8.0
141
1.0
290
     0
  0
SCALE
  5
57
102
{ACAD_REACTORS
330
47
102
}
330
47
100
AcDbScale
 70
     0
300
10:1
140
10.0
141
1.0
290
     0
  0
SCALE
  5
58
102
{ACAD_REACTORS
330
47
102
}
330
47
100
AcDbScale
 70
     0
300
100:1
140
100.0
141
1.0
290
     0
  0
SCALE
  5
59
102
{ACAD_REACTORS
330
47
102
}
330
47
100
AcDbScale
 70
     0
300
1/128" = 1'-0"
140
0.0078125
141
12.0
290
     0
  0
SCALE
  5
5A
102
{ACAD_REACTORS
330
47
102
}
330
47
100
AcDbScale
 70
     0
300
1/64" = 1'-0"
140
0.015625
141
12.0
290
     0
  0
SCALE
  5
5B
102
{ACAD_REACTORS
330
47
102
}
330
47
100
AcDbScale
 70
     0
300
1/32" = 1'-0"
140
0.03125
141
12.0
290
     0
  0
SCALE
  5
5C
102
{ACAD_REACTORS
330
47
102
}
330
47
100
AcDbScale
 70
     0
300
1/16" = 1'-0"
140
0.0625
141
12.0
290
     0
  0
SCALE
  5
5D
102
{ACAD_REACTORS
330
47
102
}
330
47
100
AcDbScale
 70
     0
300
3/32" = 1'-0"
140
0.09375
141
12.0
290
     0
  0
SCALE
  5
5E
102
{ACAD_REACTORS
330
47
102
}
330
47
100
AcDbScale
 70
     0
300
1/8" = 1'-0"
140
0.125
141
12.0
290
     0
  0
SCALE
  5
5F
102
{ACAD_REACTORS
330
47
102
}
330
47
100
AcDbScale
 70
     0
300
3/16" = 1'-0"
140
0.1875
141
12.0
290
     0
  0
SCALE
  5
60
102
{ACAD_REACTORS
330
47
102
}
330
47
100
AcDbScale
 70
     0
300
1/4" = 1'-0"
140
0.25
141
12.0
290
     0
  0
SCALE
  5
61
102
{ACAD_REACTORS
330
47
102
}
330
47
100
AcDbScale
 70
     0
300
3/8" = 1'-0"
140
0.375
141
12.0
290
     0
  0
SCALE
  5
62
102
{ACAD_REACTORS
330
47
102
}
330
47
100
AcDbScale
 70
     0
300
1/2" = 1'-0"
140
0.5
141
12.0
290
     0
  0
SCALE
  5
63
102
{ACAD_REACTORS
330
47
102
}
330
47
100
AcDbScale
 70
     0
300
3/4" = 1'-0"
140
0.75
141
12.0
290
     0
  0
SCALE
  5
64
102
{ACAD_REACTORS
330
47
102
}
330
47
100
AcDbScale
 70
     0
300
1" = 1'-0"
140
1.0
141
12.0
290
     0
  0
SCALE
  5
65
102
{ACAD_REACTORS
330
47
102
}
330
47
100
AcDbScale
 70
     0
300
1-1/2" = 1'-0"
140
1.5
141
12.0
290
     0
  0
SCALE
  5
66
102
{ACAD_REACTORS
330
47
102
}
330
47
100
AcDbScale
 70
     0
300
3" = 1'-0"
140
3.0
141
12.0
290
     0
  0
SCALE
  5
67
102
{ACAD_REACTORS
330
47
102
}
330
47
100
AcDbScale
 70
     0
300
6" = 1'-0"
140
6.0
141
12.0
290
     0
  0
SCALE
  5
68
102
{ACAD_REACTORS
330
47
102
}
330
47
100
AcDbScale
 70
     0
300
1'-0" = 1'-0"
140
12.0
141
12.0
290
     0
  0
ENDSEC
  0
EOF
