  0
SECTION
  2
HEADER
  9
$ACADVER
  1
AC1015
  9
$ACADMAINTVER
 70
     6
  9
$DWGCODEPAGE
  3
ANSI_1252
  9
$INSBASE
 10
0.0
 20
0.0
 30
0.0
  9
$EXTMIN
 10
-11.811023622
 20
-11.811023622
 30
0.0
  9
$EXTMAX
 10
11.811023622
 20
11.8110236221
 30
0.0
  9
$LIMMIN
 10
0.0
 20
0.0
  9
$LIMMAX
 10
12.0
 20
9.0
  9
$ORTHOMODE
 70
     0
  9
$REGENMODE
 70
     1
  9
$FILLMODE
 70
     1
  9
$QTEXTMODE
 70
     0
  9
$MIRRTEXT
 70
     1
  9
$LTSCALE
 40
1.0
  9
$ATTMODE
 70
     1
  9
$TEXTSIZE
 40
0.1377952756
  9
$TRACEWID
 40
0.05
  9
$TEXTSTYLE
  7
Standard
  9
$CLAYER
  8
0
  9
$CELTYPE
  6
ByLayer
  9
$CECOLOR
 62
   256
  9
$CELTSCALE
 40
1.0
  9
$DISPSILH
 70
     0
  9
$DIMSCALE
 40
1.0
  9
$DIMASZ
 40
0.13
  9
$DIMEXO
 40
0.0393700787
  9
$DIMDLI
 40
0.38
  9
$DIMRND
 40
0.0
  9
$DIMDLE
 40
0.0
  9
$DIMEXE
 40
0.0393700787
  9
$DIMTP
 40
0.0
  9
$DIMTM
 40
0.0
  9
$DIMTXT
 40
0.1377952756
  9
$DIMCEN
 40
0.09
  9
$DIMTSZ
 40
0.0
  9
$DIMTOL
 70
     0
  9
$DIMLIM
 70
     0
  9
$DIMTIH
 70
     1
  9
$DIMTOH
 70
     1
  9
$DIMSE1
 70
     0
  9
$DIMSE2
 70
     0
  9
$DIMTAD
 70
     1
  9
$DIMZIN
 70
     1
  9
$DIMBLK
  1

  9
$DIMASO
 70
     1
  9
$DIMSHO
 70
     1
  9
$DIMPOST
  1

  9
$DIMAPOST
  1

  9
$DIMALT
 70
     0
  9
$DIMALTD
 70
     2
  9
$DIMALTF
 40
25.4
  9
$DIMLFAC
 40
1.0
  9
$DIMTOFL
 70
     0
  9
$DIMTVP
 40
0.0
  9
$DIMTIX
 70
     0
  9
$DIMSOXD
 70
     0
  9
$DIMSAH
 70
     0
  9
$DIMBLK1
  1

  9
$DIMBLK2
  1

  9
$DIMSTYLE
  2
Standard
  9
$DIMCLRD
 70
     0
  9
$DIMCLRE
 70
     0
  9
$DIMCLRT
 70
     0
  9
$DIMTFAC
 40
1.0
  9
$DIMGAP
 40
0.06
  9
$DIMJUST
 70
     0
  9
$DIMSD1
 70
     0
  9
$DIMSD2
 70
     0
  9
$DIMTOLJ
 70
     1
  9
$DIMTZIN
 70
     1
  9
$DIMALTZ
 70
     0
  9
$DIMALTTZ
 70
     0
  9
$DIMUPT
 70
     0
  9
$DIMDEC
 70
     2
  9
$DIMTDEC
 70
     2
  9
$DIMALTU
 70
     2
  9
$DIMALTTD
 70
     2
  9
$DIMTXSTY
  7
Standard
  9
$DIMAUNIT
 70
     0
  9
$DIMADEC
 70
     2
  9
$DIMALTRND
 40
0.0
  9
$DIMAZIN
 70
     0
  9
$DIMDSEP
 70
    46
  9
$DIMATFIT
 70
     3
  9
$DIMFRAC
 70
     0
  9
$DIMLDRBLK
  1

  9
$DIMLUNIT
 70
     2
  9
$DIMLWD
 70
    -2
  9
$DIMLWE
 70
    -2
  9
$DIMTMOVE
 70
     0
  9
$LUNITS
 70
     2
  9
$LUPREC
 70
     2
  9
$SKETCHINC
 40
0.1
  9
$FILLETRAD
 40
0.5
  9
$AUNITS
 70
     0
  9
$AUPREC
 70
     2
  9
$MENU
  1
.
  9
$ELEVATION
 40
0.0
  9
$PELEVATION
 40
0.0
  9
$THICKNESS
 40
0.0
  9
$LIMCHECK
 70
     0
  9
$CHAMFERA
 40
0.0
  9
$CHAMFERB
 40
0.0
  9
$CHAMFERC
 40
0.0
  9
$CHAMFERD
 40
0.0
  9
$SKPOLY
 70
     0
  9
$TDCREATE
 40
2459556.534195069
  9
$TDUCREATE
 40
2459556.534195069
  9
$TDUPDATE
 40
2459556.534212211
  9
$TDUUPDATE
 40
2459556.534212211
  9
$TDINDWG
 40
0.0000000116
  9
$TDUSRTIMER
 40
0.0000000116
  9
$USRTIMER
 70
     1
  9
$ANGBASE
 50
0.0
  9
$ANGDIR
 70
     0
  9
$PDMODE
 70
     0
  9
$PDSIZE
 40
-1.0
  9
$PLINEWID
 40
0.0
  9
$SPLFRAME
 70
     0
  9
$SPLINETYPE
 70
     6
  9
$SPLINESEGS
 70
     8
  9
$HANDSEED
  5
109
  9
$SURFTAB1
 70
     6
  9
$SURFTAB2
 70
     6
  9
$SURFTYPE
 70
     6
  9
$SURFU
 70
     6
  9
$SURFV
 70
     6
  9
$UCSBASE
  2

  9
$UCSNAME
  2

  9
$UCSORG
 10
0.0
 20
0.0
 30
0.0
  9
$UCSXDIR
 10
1.0
 20
0.0
 30
0.0
  9
$UCSYDIR
 10
0.0
 20
1.0
 30
0.0
  9
$UCSORTHOREF
  2

  9
$UCSORTHOVIEW
 70
     0
  9
$UCSORGTOP
 10
0.0
 20
0.0
 30
0.0
  9
$UCSORGBOTTOM
 10
0.0
 20
0.0
 30
0.0
  9
$UCSORGLEFT
 10
0.0
 20
0.0
 30
0.0
  9
$UCSORGRIGHT
 10
0.0
 20
0.0
 30
0.0
  9
$UCSORGFRONT
 10
0.0
 20
0.0
 30
0.0
  9
$UCSORGBACK
 10
0.0
 20
0.0
 30
0.0
  9
$PUCSBASE
  2

  9
$PUCSNAME
  2

  9
$PUCSORG
 10
0.0
 20
0.0
 30
0.0
  9
$PUCSXDIR
 10
1.0
 20
0.0
 30
0.0
  9
$PUCSYDIR
 10
0.0
 20
1.0
 30
0.0
  9
$PUCSORTHOREF
  2

  9
$PUCSORTHOVIEW
 70
     0
  9
$PUCSORGTOP
 10
0.0
 20
0.0
 30
0.0
  9
$PUCSORGBOTTOM
 10
0.0
 20
0.0
 30
0.0
  9
$PUCSORGLEFT
 10
0.0
 20
0.0
 30
0.0
  9
$PUCSORGRIGHT
 10
0.0
 20
0.0
 30
0.0
  9
$PUCSORGFRONT
 10
0.0
 20
0.0
 30
0.0
  9
$PUCSORGBACK
 10
0.0
 20
0.0
 30
0.0
  9
$USERI1
 70
     0
  9
$USERI2
 70
     0
  9
$USERI3
 70
     0
  9
$USERI4
 70
     0
  9
$USERI5
 70
     0
  9
$USERR1
 40
0.0
  9
$USERR2
 40
0.0
  9
$USERR3
 40
0.0
  9
$USERR4
 40
0.0
  9
$USERR5
 40
0.0
  9
$WORLDVIEW
 70
     1
  9
$SHADEDGE
 70
     3
  9
$SHADEDIF
 70
    70
  9
$TILEMODE
 70
     1
  9
$MAXACTVP
 70
    64
  9
$PINSBASE
 10
0.0
 20
0.0
 30
0.0
  9
$PLIMCHECK
 70
     0
  9
$PEXTMIN
 10
-11.811023622
 20
-11.811023622
 30
0.0
  9
$PEXTMAX
 10
11.811023622
 20
11.8110236221
 30
0.0
  9
$PLIMMIN
 10
-12.5492137973
 20
-12.5492126348
  9
$PLIMMAX
 10
19.9311027618
 20
12.5492137973
  9
$UNITMODE
 70
     0
  9
$VISRETAIN
 70
     1
  9
$PLINEGEN
 70
     0
  9
$PSLTSCALE
 70
     1
  9
$TREEDEPTH
 70
  3020
  9
$CMLSTYLE
  2
Standard
  9
$CMLJUST
 70
     0
  9
$CMLSCALE
 40
1.0
  9
$PROXYGRAPHICS
 70
     1
  9
$MEASUREMENT
 70
     0
  9
$CELWEIGHT
370
    -1
  9
$ENDCAPS
280
     0
  9
$JOINSTYLE
280
     0
  9
$LWDISPLAY
290
     1
  9
$INSUNITS
 70
     1
  9
$HYPERLINKBASE
  1

  9
$STYLESHEET
  1

  9
$XEDIT
290
     1
  9
$CEPSNTYPE
380
     0
  9
$PSTYLEMODE
290
     1
  9
$FINGERPRINTGUID
  2
{a095698d-d413-4dbb-9cf1-ec6648fcc4d9}
  9
$VERSIONGUID
  2
{FAEB1C32-E019-11D5-929B-00C0DF256EC4}
  9
$EXTNAMES
290
     1
  9
$PSVPSCALE
 40
0.0
  9
$OLESTARTUP
290
     0
  0
ENDSEC
  0
SECTION
  2
CLASSES
  0
CLASS
  1
ACDBDICTIONARYWDFLT
  2
AcDbDictionaryWithDefault
  3
ObjectDBX Classes
 90
        0
280
     0
281
     0
  0
CLASS
  1
VISUALSTYLE
  2
AcDbVisualStyle
  3
ObjectDBX Classes
 90
     4095
280
     0
281
     0
  0
CLASS
  1
MATERIAL
  2
AcDbMaterial
  3
ObjectDBX Classes
 90
     1153
280
     0
281
     0
  0
CLASS
  1
SCALE
  2
AcDbScale
  3
ObjectDBX Classes
 90
     1153
280
     0
281
     0
  0
CLASS
  1
TABLESTYLE
  2
AcDbTableStyle
  3
ObjectDBX Classes
 90
     4095
280
     0
281
     0
  0
CLASS
  1
MLEADERSTYLE
  2
AcDbMLeaderStyle
  3
ACDB_MLEADERSTYLE_CLASS
 90
     4095
280
     0
281
     0
  0
CLASS
  1
SUN
  2
AcDbSun
  3
SCENEOE
 90
     1153
280
     0
281
     0
  0
CLASS
  1
ACDBPLACEHOLDER
  2
AcDbPlaceHolder
  3
ObjectDBX Classes
 90
        0
280
     0
281
     0
  0
CLASS
  1
LAYOUT
  2
AcDbLayout
  3
ObjectDBX Classes
 90
        0
280
     0
281
     0
  0
ENDSEC
  0
SECTION
  2
TABLES
  0
TABLE
  2
VPORT
  5
8
330
0
100
AcDbSymbolTable
 70
     1
  0
VPORT
  5
29
330
8
100
AcDbSymbolTableRecord
100
AcDbViewportTableRecord
  2
*Active
 70
     0
 10
0.0
 20
0.0
 11
1.0
 21
1.0
 12
0.0
 22
0.0
 13
0.0
 23
0.0
 14
0.5
 24
0.5
 15
0.5
 25
0.5
 16
0.0
 26
0.0
 36
1.0
 17
0.0
 27
0.0
 37
0.0
 40
24.094488189
 41
1.0
 42
50.0
 43
0.0
 44
0.0
 50
0.0
 51
0.0
 71
     0
 72
   100
 73
     1
 74
     3
 75
     0
 76
     0
 77
     0
 78
     0
281
     0
 65
     1
110
0.0
120
0.0
130
0.0
111
1.0
121
0.0
131
0.0
112
0.0
122
1.0
132
0.0
 79
     0
146
0.0
  0
ENDTAB
  0
TABLE
  2
LTYPE
  5
5
330
0
100
AcDbSymbolTable
 70
     6
  0
LTYPE
  5
14
330
5
100
AcDbSymbolTableRecord
100
AcDbLinetypeTableRecord
  2
ByBlock
 70
     0
  3

 72
    65
 73
     0
 40
0.0
  0
LTYPE
  5
15
330
5
100
AcDbSymbolTableRecord
100
AcDbLinetypeTableRecord
  2
ByLayer
 70
     0
  3

 72
    65
 73
     0
 40
0.0
  0
LTYPE
  5
16
330
5
100
AcDbSymbolTableRecord
100
AcDbLinetypeTableRecord
  2
Continuous
 70
     0
  3
Solid line
 72
    65
 73
     0
 40
0.0
  0
LTYPE
  5
6E
330
5
100
AcDbSymbolTableRecord
100
AcDbLinetypeTableRecord
  2
HIDDEN
 70
     0
  3
Hidden __ __ __ __ __ __ __ __ __ __ __ __ __ __
 72
    65
 73
     2
 40
0.075
 49
0.05
 74
     0
 49
-0.025
 74
     0
  0
LTYPE
  5
6F
330
5
100
AcDbSymbolTableRecord
100
AcDbLinetypeTableRecord
  2
PHANTOM
 70
     0
  3
Phantom ______  __  __  ______  __  __  ______
 72
    65
 73
     6
 40
0.5
 49
0.25
 74
     0
 49
-0.05
 74
     0
 49
0.05
 74
     0
 49
-0.05
 74
     0
 49
0.05
 74
     0
 49
-0.05
 74
     0
  0
LTYPE
  5
70
330
5
100
AcDbSymbolTableRecord
100
AcDbLinetypeTableRecord
  2
CENTER
 70
     0
  3
Center ____ _ ____ _ ____ _ ____ _ ____ _ ____
 72
    65
 73
     4
 40
0.4
 49
0.25
 74
     0
 49
-0.05
 74
     0
 49
0.05
 74
     0
 49
-0.05
 74
     0
  0
LTYPE
  5
71
330
5
100
AcDbSymbolTableRecord
100
AcDbLinetypeTableRecord
  2
CENTERX2
 70
     0
  3
Center (2x) ________  __  ________  __  _____
 72
    65
 73
     4
 40
0.8
 49
0.5
 74
     0
 49
-0.1
 74
     0
 49
0.1
 74
     0
 49
-0.1
 74
     0
  0
LTYPE
  5
72
330
5
100
AcDbSymbolTableRecord
100
AcDbLinetypeTableRecord
  2
DOT2
 70
     0
  3
Dot (.5x) ........................................
 72
    65
 73
     2
 40
0.025
 49
0.0
 74
     0
 49
-0.025
 74
     0
  0
ENDTAB
  0
TABLE
  2
LAYER
  5
2
330
0
100
AcDbSymbolTable
 70
     1
  0
LAYER
  5
10
330
2
100
AcDbSymbolTableRecord
100
AcDbLayerTableRecord
  2
0
 70
     0
 62
     7
  6
Continuous
370
    -3
390
F
  0
ENDTAB
  0
TABLE
  2
STYLE
  5
3
330
0
100
AcDbSymbolTable
 70
     1
  0
STYLE
  5
11
330
3
100
AcDbSymbolTableRecord
100
AcDbTextStyleTableRecord
  2
Standard
 70
     0
 40
0.0
 41
1.0
 50
0.0
 71
     0
 42
0.1377952756
  3
txt
  4

  0
ENDTAB
  0
TABLE
  2
VIEW
  5
6
330
0
100
AcDbSymbolTable
 70
     0
  0
ENDTAB
  0
TABLE
  2
UCS
  5
7
330
0
100
AcDbSymbolTable
 70
     0
  0
ENDTAB
  0
TABLE
  2
APPID
  5
9
330
0
100
AcDbSymbolTable
 70
     1
  0
APPID
  5
12
330
9
100
AcDbSymbolTableRecord
100
AcDbRegAppTableRecord
  2
ACAD
 70
     0
  0
ENDTAB
  0
TABLE
  2
DIMSTYLE
  5
A
330
0
100
AcDbSymbolTable
 70
     1
100
AcDbDimStyleTable
  0
DIMSTYLE
105
27
330
A
100
AcDbSymbolTableRecord
100
AcDbDimStyleTableRecord
  2
Standard
 70
     0
178
     0
340
11
  0
ENDTAB
  0
TABLE
  2
BLOCK_RECORD
  5
1
330
0
100
AcDbSymbolTable
 70
     2
  0
BLOCK_RECORD
  5
1F
330
1
100
AcDbSymbolTableRecord
100
AcDbBlockTableRecord
  2
*Model_Space
340
22
  0
BLOCK_RECORD
  5
1B
330
1
100
AcDbSymbolTableRecord
100
AcDbBlockTableRecord
  2
*Paper_Space
340
1E
  0
BLOCK_RECORD
  5
23
330
1
100
AcDbSymbolTableRecord
100
AcDbBlockTableRecord
  2
*Paper_Space0
340
26
  0
BLOCK_RECORD
  5
DB
330
1
100
AcDbSymbolTableRecord
100
AcDbBlockTableRecord
  2
*Paper_Space1
340
DC
  0
ENDTAB
  0
ENDSEC
  0
SECTION
  2
BLOCKS
  0
BLOCK
  5
20
330
1F
100
AcDbEntity
  8
0
100
AcDbBlockBegin
  2
*Model_Space
 70
     0
 10
0.0
 20
0.0
 30
0.0
  3
*Model_Space
  1

  0
ENDBLK
  5
21
330
1F
100
AcDbEntity
  8
0
100
AcDbBlockEnd
  0
BLOCK
  5
1C
330
1B
100
AcDbEntity
 67
     1
  8
0
100
AcDbBlockBegin
  2
*Paper_Space
 70
     0
 10
0.0
 20
0.0
 30
0.0
  3
*Paper_Space
  1

  0
ENDBLK
  5
1D
330
1B
100
AcDbEntity
 67
     1
  8
0
100
AcDbBlockEnd
  0
BLOCK
  5
24
330
23
100
AcDbEntity
  8
0
100
AcDbBlockBegin
  2
*Paper_Space0
 70
     0
 10
0.0
 20
0.0
 30
0.0
  3
*Paper_Space0
  1

  0
LINE
  5
D0
330
23
100
AcDbEntity
  8
0
  6
Continuous
 62
     7
370
    25
100
AcDbLine
 10
-1.7716535433
 20
-11.3582677165
 30
0.0
 11
-0.3937007874
 21
-11.3582677165
 31
0.0
  0
LINE
  5
D1
330
23
100
AcDbEntity
  8
0
  6
Continuous
 62
     7
370
    25
100
AcDbLine
 10
-0.3937007874
 20
11.3582677165
 30
0.0
 11
-1.7716535433
 21
11.3582677165
 31
0.0
  0
LINE
  5
D2
330
23
100
AcDbEntity
  8
0
  6
Continuous
 62
     7
370
    25
100
AcDbLine
 10
-0.3937007874
 20
-11.811023622
 30
0.0
 11
0.1377952756
 21
-11.811023622
 31
0.0
  0
LINE
  5
D3
330
23
100
AcDbEntity
  8
0
  6
Continuous
 62
     7
370
    25
100
AcDbLine
 10
0.1377952756
 20
11.811023622
 30
0.0
 11
-0.3937007874
 21
11.811023622
 31
0.0
  0
LINE
  5
D4
330
23
100
AcDbEntity
  8
0
  6
Continuous
 62
     7
370
    25
100
AcDbLine
 10
0.1377952756
 20
-11.6141732283
 30
0.0
 11
0.157480315
 21
-11.594488189
 31
0.0
  0
LINE
  5
D5
330
23
100
AcDbEntity
  8
0
  6
Continuous
 62
     7
370
    25
100
AcDbLine
 10
0.157480315
 20
11.594488189
 30
0.0
 11
0.1377952756
 21
11.6141732283
 31
0.0
  0
LINE
  5
D6
330
23
100
AcDbEntity
  8
0
  6
Continuous
 62
     7
370
    25
100
AcDbLine
 10
-1.7716535433
 20
11.3582677165
 30
0.0
 11
-1.7716535433
 21
-11.3582677165
 31
0.0
  0
LINE
  5
D7
330
23
100
AcDbEntity
  8
0
  6
Continuous
 62
     7
370
    25
100
AcDbLine
 10
-0.3937007874
 20
11.811023622
 30
0.0
 11
-0.3937007874
 21
-11.811023622
 31
0.0
  0
LINE
  5
D8
330
23
100
AcDbEntity
  8
0
  6
Continuous
 62
     7
370
    25
100
AcDbLine
 10
0.0
 20
11.811023622
 30
0.0
 11
0.0
 21
-11.811023622
 31
0.0
  0
LINE
  5
D9
330
23
100
AcDbEntity
  8
0
  6
Continuous
 62
     7
370
    25
100
AcDbLine
 10
0.1377952756
 20
11.811023622
 30
0.0
 11
0.1377952756
 21
-11.811023622
 31
0.0
  0
LINE
  5
DA
330
23
100
AcDbEntity
  8
0
  6
Continuous
 62
     7
370
    25
100
AcDbLine
 10
0.157480315
 20
11.594488189
 30
0.0
 11
0.157480315
 21
-11.594488189
 31
0.0
  0
VIEWPORT
  5
105
330
23
100
AcDbEntity
  8
0
100
AcDbViewport
 10
0.0
 20
0.0
 30
0.0
 40
8.4
 41
6.4
 68
     1
 69
     1
 12
0.0
 22
0.0
 13
0.0
 23
0.0
 14
0.5
 24
0.5
 15
0.5
 25
0.5
 16
0.0
 26
0.0
 36
1.0
 17
0.0
 27
0.0
 37
0.0
 42
50.0
 43
0.0
 44
0.0
 45
24.094488189
 50
0.0
 51
0.0
 72
   100
 90
   557152
  1

281
     0
 71
     1
 74
     0
110
0.0
120
0.0
130
0.0
111
1.0
121
0.0
131
0.0
112
0.0
122
1.0
132
0.0
 79
     0
146
0.0
  0
ENDBLK
  5
25
330
23
100
AcDbEntity
  8
0
100
AcDbBlockEnd
  0
BLOCK
  5
DD
330
DB
100
AcDbEntity
  8
0
100
AcDbBlockBegin
  2
*Paper_Space1
 70
     0
 10
0.0
 20
0.0
 30
0.0
  3
*Paper_Space1
  1

  0
LWPOLYLINE
  5
E9
330
DB
100
AcDbEntity
  8
0
  6
Continuous
 62
     7
370
    25
100
AcDbPolyline
 90
       65
 70
   128
 43
0.0
 10
9.2823340648
 20
-4.1150889792
 10
9.2835748633
 20
-3.7920841398
 10
9.2750313366
 20
-3.4635781269
 10
9.2567138937
 20
-3.1299711744
 10
9.2286448516
 20
-2.7916697311
 10
9.190858408
 20
-2.4490859651
 10
9.1434005999
 20
-2.102637262
 10
9.0863292474
 20
-1.7527457161
 10
9.0197138831
 20
-1.3998376165
 10
8.9436356676
 20
-1.0443429272
 10
8.8581872904
 20
-0.6866947638
 10
8.7634728573
 20
-0.3273288655
 10
8.6596077631
 20
0.0333169357
 10
8.5467185516
 20
0.3948032485
 10
8.4249427607
 20
0.7566896574
 10
8.2944287557
 20
1.1185352598
 10
8.1553355476
 20
1.4798992023
 10
8.0078326001
 20
1.8403412187
 10
7.8520996228
 20
2.199422166
 10
7.6883263525
 20
2.5567045592
 10
7.5167123215
 20
2.9117531049
 10
7.3374666152
 20
3.2641352311
 10
7.1508076168
 20
3.6134216145
 10
6.9569627416
 20
3.9591867033
 10
6.7561681597
 20
4.3010092361
 10
6.5486685083
 20
4.6384727549
 10
6.3347165939
 20
4.9711661122
 10
6.1145730838
 20
5.2986839724
 10
5.8885061891
 20
5.6206273056
 10
5.6567913373
 20
5.9366038733
 10
5.4197108375
 20
6.2462287067
 10
5.1775535355
 20
6.5491245758
 10
4.9306144629
 20
6.8449224485
 10
4.6791944769
 20
7.1332619407
 10
4.4235998938
 20
7.4137917552
 10
4.1641421165
 20
7.6861701095
 10
3.9011372542
 20
7.9500651527
 10
3.6349057378
 20
8.2051553692
 10
3.3657719294
 20
8.4511299709
 10
3.0940637272
 20
8.6876892756
 10
2.8201121657
 20
8.9145450724
 10
2.5442510126
 20
9.1314209722
 10
2.2668163623
 20
9.3380527454
 10
1.9881462263
 20
9.5341886428
 10
1.7085801211
 20
9.7195897031
 10
1.4284586549
 20
9.8940300436
 10
1.1481231126
 20
10.0572971357
 10
0.86791504
 20
10.2091920636
 10
0.5881758273
 20
10.3495297667
 10
0.3092462937
 20
10.4781392651
 10
0.0314662719
 20
10.594863868
 10
-0.244825806
 20
10.6995613644
 10
-0.5192933205
 20
10.7921041965
 10
-0.7916018754
 20
10.8723796152
 10
-1.0614197046
 20
10.9402898172
 10
-1.3284180767
 20
10.9957520645
 10
-1.5922716951
 20
11.0386987847
 10
-1.8526590951
 20
11.0690776539
 10
-2.1092630345
 20
11.0868516602
 10
-2.3617708811
 20
11.0919991487
 10
-2.609874993
 20
11.084513848
 10
-2.8532730934
 20
11.0644048777
 10
-3.0916686393
 20
11.0316967375
 10
-3.3247711825
 20
10.9864292772
 10
-3.5018321065
 20
10.9426813251
  0
LWPOLYLINE
  5
EA
330
DB
100
AcDbEntity
  8
0
  6
Continuous
 62
     7
370
    25
100
AcDbPolyline
 90
       19
 70
   128
 43
0.0
 10
7.7249259242
 20
-8.5047411571
 10
7.8113205597
 20
-8.4161892322
 10
7.9691108741
 20
-8.2397038836
 10
8.1187183352
 20
-8.0522986218
 10
8.2599606693
 20
-7.8542017714
 10
8.3926657945
 20
-7.6456546829
 10
8.5166720299
 20
-7.4269114387
 10
8.6318282932
 20
-7.1982385438
 10
8.737994284
 20
-6.959914601
 10
8.8350406556
 20
-6.7122299712
 10
8.9228491717
 20
-6.45548642
 10
9.0013128514
 20
-6.1899967499
 10
9.0703360987
 20
-5.916084419
 10
9.1298348194
 20
-5.6340831475
 10
9.1797365234
 20
-5.3443365105
 10
9.2199804133
 20
-5.0471975195
 10
9.250517458
 20
-4.7430281926
 10
9.2713104528
 20
-4.4321991134
 10
9.2823340648
 20
-4.1150889792
  0
LWPOLYLINE
  5
EB
330
DB
100
AcDbEntity
  8
0
  6
Continuous
 62
     7
370
    25
100
AcDbPolyline
 90
       70
 70
   128
 43
0.0
 10
8.6300433924
 20
-4.6605974888
 10
8.625121213
 20
-4.32669432
 10
8.6103604768
 20
-3.9875017062
 10
8.5857785827
 20
-3.6434194641
 10
8.5514045061
 20
-3.2948531745
 10
8.5072787648
 20
-2.9422137034
 10
8.4534533713
 20
-2.5859167181
 10
8.3899917713
 20
-2.226382197
 10
8.3169687689
 20
-1.8640339348
 10
8.2344704386
 20
-1.4992990428
 10
8.1425940239
 20
-1.1326074455
 10
8.0414478223
 20
-0.764391374
 10
7.9311510581
 20
-0.395084856
 10
7.8118337415
 20
-0.0251232047
 10
7.6836365156
 20
0.3450574943
 10
7.5467104906
 20
0.7150208973
 10
7.4012170654
 20
1.084330917
 10
7.2473277378
 20
1.4525522359
 10
7.0852239019
 20
1.81925082
 10
6.9150966346
 20
2.18399443
 10
6.7371464703
 20
2.5463531313
 10
6.5515831645
 20
2.9058998001
 10
6.3586254464
 20
3.2622106275
 10
6.1585007615
 20
3.6148656187
 10
5.951445003
 20
3.9634490881
 10
5.737702234
 20
4.3075501494
 10
5.5175243999
 20
4.6467631999
 10
5.2911710313
 20
4.9806883985
 10
5.0589089379
 20
5.3089321369
 10
4.8210118944
 20
5.631107504
 10
4.5777603176
 20
5.9468347415
 10
4.3294409358
 20
6.2557416918
 10
4.0763464508
 20
6.5574642365
 10
3.8187751931
 20
6.8516467257
 10
3.5570307701
 20
7.1379423972
 10
3.2914217081
 20
7.4160137854
 10
3.0222610889
 20
7.6855331187
 10
2.7498661807
 20
7.9461827062
 10
2.4745580638
 20
8.197655312
 10
2.1966612526
 20
8.4396545175
 10
1.9165033129
 20
8.6718950705
 10
1.6344144757
 20
8.8941032217
 10
1.3507272479
 20
9.1060170475
 10
1.0657760207
 20
9.3073867584
 10
0.7798966749
 20
9.4979749934
 10
0.4934261857
 20
9.6775571003
 10
0.2067022247
 20
9.8459214
 10
-0.0799372373
 20
10.0028694361
 10
-0.3661543296
 20
10.148216209
 10
-0.6516116789
 20
10.281790394
 10
-0.9359728077
 20
10.403434543
 10
-1.2189025305
 20
10.5130052701
 10
-1.5000673493
 20
10.6103734208
 10
-1.7791358461
 20
10.6954242244
 10
-2.0557790741
 20
10.7680574286
 10
-2.3296709453
 20
10.8281874186
 10
-2.6004886146
 20
10.875743317
 10
-2.8679128608
 20
10.9106690684
 10
-3.1316284624
 20
10.9329235046
 10
-3.3913245696
 20
10.9424803937
 10
-3.6466950703
 20
10.9393284705
 10
-3.8974389514
 20
10.9234714505
 10
-4.1432606531
 20
10.8949280247
 10
-4.3838704176
 20
10.8537318382
 10
-4.6189846307
 20
10.7999314502
 10
-4.8483261557
 20
10.733590277
 10
-5.0716246606
 20
10.654786517
 10
-5.2886169365
 20
10.5636130586
 10
-5.4990472076
 20
10.4601773709
 10
-5.6266433891
 20
10.3896338297
  0
LWPOLYLINE
  5
EC
330
DB
100
AcDbEntity
  8
0
  6
Continuous
 62
     7
370
    25
100
AcDbPolyline
 90
       24
 70
   128
 43
0.0
 10
6.1834203822
 20
-10.0682133132
 10
6.3586254464
 20
-9.9608822665
 10
6.5515831645
 20
-9.8273556782
 10
6.7371464703
 20
-9.6820558419
 10
6.9150966346
 20
-9.5251540271
 10
7.0852239019
 20
-9.3568351789
 10
7.2473277378
 20
-9.1772976999
 10
7.4012170654
 20
-8.9867532168
 10
7.5467104906
 20
-8.7854263302
 10
7.6836365156
 20
-8.5735543506
 10
7.8118337415
 20
-8.351387018
 10
7.9311510581
 20
-8.1191862082
 10
8.0414478223
 20
-7.8772256235
 10
8.1425940239
 20
-7.6257904705
 10
8.2344704386
 20
-7.3651771238
 10
8.3169687689
 20
-7.0956927765
 10
8.3899917713
 20
-6.8176550782
 10
8.4534533713
 20
-6.5313917609
 10
8.5072787648
 20
-6.2372402521
 10
8.5514045061
 20
-5.9355472774
 10
8.5857785827
 20
-5.6266684519
 10
8.6103604768
 20
-5.3109678607
 10
8.625121213
 20
-4.9888176301
 10
8.6300433924
 20
-4.6605974888
  0
LWPOLYLINE
  5
ED
330
DB
100
AcDbEntity
  8
0
  6
Continuous
 62
     7
370
    25
100
AcDbPolyline
 90
       70
 70
   128
 43
0.0
 10
8.3516548959
 20
-4.821307747
 10
8.3467327165
 20
-4.4874045783
 10
8.3319719803
 20
-4.1482119644
 10
8.3073900861
 20
-3.8041297223
 10
8.2730160095
 20
-3.4555634327
 10
8.2288902683
 20
-3.1029239616
 10
8.1750648748
 20
-2.7466269763
 10
8.1116032748
 20
-2.3870924552
 10
8.0385802724
 20
-2.024744193
 10
7.9560819421
 20
-1.660009301
 10
7.8642055274
 20
-1.2933177038
 10
7.7630593258
 20
-0.9251016322
 10
7.6527625616
 20
-0.5557951142
 10
7.533445245
 20
-0.185833463
 10
7.4052480191
 20
0.184347236
 10
7.2683219941
 20
0.5543106391
 10
7.1228285689
 20
0.9236206588
 10
6.9689392412
 20
1.2918419777
 10
6.8068354053
 20
1.6585405617
 10
6.636708138
 20
2.0232841718
 10
6.4587579737
 20
2.385642873
 10
6.2731946679
 20
2.7451895418
 10
6.0802369499
 20
3.1015003692
 10
5.880112265
 20
3.4541553604
 10
5.6730565065
 20
3.8027388298
 10
5.4593137375
 20
4.1468398912
 10
5.2391359034
 20
4.4860529417
 10
5.0127825347
 20
4.8199781403
 10
4.7805204414
 20
5.1482218787
 10
4.5426233979
 20
5.4703972458
 10
4.2993718211
 20
5.7861244833
 10
4.0510524393
 20
6.0950314336
 10
3.7979579543
 20
6.3967539782
 10
3.5403866966
 20
6.6909364674
 10
3.2786422736
 20
6.977232139
 10
3.0130332116
 20
7.2553035272
 10
2.7438725924
 20
7.5248228605
 10
2.4714776841
 20
7.785472448
 10
2.1961695673
 20
8.0369450538
 10
1.9182727561
 20
8.2789442592
 10
1.6381148164
 20
8.5111848122
 10
1.3560259792
 20
8.7333929635
 10
1.0723387514
 20
8.9453067893
 10
0.7873875241
 20
9.1466765001
 10
0.5015081784
 20
9.3372647352
 10
0.2150376891
 20
9.5168468421
 10
-0.0716862718
 20
9.6852111417
 10
-0.3583257339
 20
9.8421591778
 10
-0.6445428261
 20
9.9875059508
 10
-0.9300001754
 20
10.1210801358
 10
-1.2143613042
 20
10.2427242848
 10
-1.4972910271
 20
10.3522950118
 10
-1.7784558458
 20
10.4496631626
 10
-2.0575243426
 20
10.5347139662
 10
-2.3341675706
 20
10.6073471704
 10
-2.6080594418
 20
10.6674771603
 10
-2.8788771111
 20
10.7150330588
 10
-3.1463013573
 20
10.7499588102
 10
-3.4100169589
 20
10.7722132464
 10
-3.6697130661
 20
10.7817701354
 10
-3.9250835669
 20
10.7786182123
 10
-4.175827448
 20
10.7627611922
 10
-4.4216491496
 20
10.7342177664
 10
-4.6622589142
 20
10.6930215799
 10
-4.8973731272
 20
10.639221192
 10
-5.1267146522
 20
10.5728800188
 10
-5.3500131572
 20
10.4940762587
 10
-5.567005433
 20
10.4029028003
 10
-5.7774357041
 20
10.2994671127
 10
-5.9050318856
 20
10.2289235714
  0
LWPOLYLINE
  5
EE
330
DB
100
AcDbEntity
  8
0
  6
Continuous
 62
     7
370
    25
100
AcDbPolyline
 90
       24
 70
   128
 43
0.0
 10
5.9050318856
 20
-10.2289235714
 10
6.0802369499
 20
-10.1215925247
 10
6.2731946679
 20
-9.9880659365
 10
6.4587579737
 20
-9.8427661002
 10
6.636708138
 20
-9.6858642854
 10
6.8068354053
 20
-9.5175454371
 10
6.9689392412
 20
-9.3380079582
 10
7.1228285689
 20
-9.147463475
 10
7.2683219941
 20
-8.9461365884
 10
7.4052480191
 20
-8.7342646088
 10
7.533445245
 20
-8.5120972762
 10
7.6527625616
 20
-8.2798964664
 10
7.7630593258
 20
-8.0379358817
 10
7.8642055274
 20
-7.7865007287
 10
7.9560819421
 20
-7.525887382
 10
8.0385802724
 20
-7.2564030347
 10
8.1116032748
 20
-6.9783653365
 10
8.1750648748
 20
-6.6921020192
 10
8.2288902683
 20
-6.3979505103
 10
8.2730160095
 20
-6.0962575356
 10
8.3073900861
 20
-5.7873787101
 10
8.3319719803
 20
-5.4716781189
 10
8.3467327165
 20
-5.1495278883
 10
8.3516548959
 20
-4.821307747
  0
LWPOLYLINE
  5
EF
330
DB
100
AcDbEntity
  8
0
  6
Continuous
 62
     7
370
    25
100
AcDbPolyline
 90
      184
 70
   128
 43
0.0
 10
8.2542189221
 20
-4.8775563374
 10
8.2492967427
 20
-4.5436531687
 10
8.2345360065
 20
-4.2044605548
 10
8.2099541123
 20
-3.8603783127
 10
8.1755800357
 20
-3.5118120231
 10
8.1314542945
 20
-3.159172552
 10
8.077628901
 20
-2.8028755667
 10
8.014167301
 20
-2.4433410456
 10
7.9411442986
 20
-2.0809927834
 10
7.8586459683
 20
-1.7162578914
 10
7.7667695536
 20
-1.3495662942
 10
7.665623352
 20
-0.9813502226
 10
7.5553265878
 20
-0.6120437046
 10
7.4360092712
 20
-0.2420820533
 10
7.3078120453
 20
0.1280986456
 10
7.1708860203
 20
0.4980620487
 10
7.0253925951
 20
0.8673720684
 10
6.8715032675
 20
1.2355933873
 10
6.7093994315
 20
1.6022919714
 10
6.5392721642
 20
1.9670355814
 10
6.361322
 20
2.3293942826
 10
6.1757586941
 20
2.6889409515
 10
5.9828009761
 20
3.0452517789
 10
5.7826762912
 20
3.39790677
 10
5.5756205327
 20
3.7464902395
 10
5.3618777637
 20
4.0905913008
 10
5.1416999296
 20
4.4298043513
 10
4.9153465609
 20
4.7637295499
 10
4.6830844676
 20
5.0919732883
 10
4.4451874241
 20
5.4141486554
 10
4.2019358473
 20
5.7298758929
 10
3.9536164655
 20
6.0387828432
 10
3.7005219805
 20
6.3405053879
 10
3.4429507228
 20
6.634687877
 10
3.1812062998
 20
6.9209835486
 10
2.9155972378
 20
7.1990549368
 10
2.6464366186
 20
7.4685742701
 10
2.3740417104
 20
7.7292238576
 10
2.0987335935
 20
7.9806964634
 10
1.8208367823
 20
8.2226956689
 10
1.5406788426
 20
8.4549362219
 10
1.2585900054
 20
8.6771443731
 10
0.9749027776
 20
8.8890581989
 10
0.6899515503
 20
9.0904279098
 10
0.4040722046
 20
9.2810161448
 10
0.1176017154
 20
9.4605982517
 10
-0.1691222456
 20
9.6289625513
 10
-0.4557617077
 20
9.7859105874
 10
-0.7419787999
 20
9.9312573604
 10
-1.0274361492
 20
10.0648315454
 10
-1.311797278
 20
10.1864756944
 10
-1.5947270008
 20
10.2960464215
 10
-1.8758918196
 20
10.3934145722
 10
-2.1549603164
 20
10.4784653758
 10
-2.4316035444
 20
10.55109858
 10
-2.7054954156
 20
10.61122857
 10
-2.9763130849
 20
10.6587844684
 10
-3.2437373311
 20
10.6937102198
 10
-3.5074529327
 20
10.715964656
 10
-3.7671490399
 20
10.725521545
 10
-4.0225195407
 20
10.7223696219
 10
-4.2732634217
 20
10.7065126018
 10
-4.5190851234
 20
10.6779691761
 10
-4.759694888
 20
10.6367729896
 10
-4.994809101
 20
10.5829726016
 10
-5.224150626
 20
10.5166314284
 10
-5.4474491309
 20
10.4378276683
 10
-5.6644414068
 20
10.34665421
 10
-5.8748716779
 20
10.2432185223
 10
-6.0784919035
 20
10.1276425282
 10
-6.2750620701
 20
10.0000624607
 10
-6.4643504741
 20
9.8606287026
 10
-6.6461339954
 20
9.7095056087
 10
-6.8201983599
 20
9.5468713126
 10
-6.9863383927
 20
9.3729175165
 10
-7.144358259
 20
9.1878492652
 10
-7.2940716961
 20
8.9918847046
 10
-7.4353022318
 20
8.7852548241
 10
-7.5678833934
 20
8.5682031849
 10
-7.6916589032
 20
8.3409856327
 10
-7.8064828632
 20
8.1038699959
 10
-7.9122199267
 20
7.8571357702
 10
-8.0087454581
 20
7.601073789
 10
-8.0959456798
 20
7.3359858807
 10
-8.173717806
 20
7.0621845127
 10
-8.2419701644
 20
6.7799924232
 10
-8.3006223037
 20
6.4897422411
 10
-8.3496050888
 20
6.1917760934
 10
-8.3888607821
 20
5.8864452021
 10
-8.4183431118
 20
5.5741094703
 10
-8.438017326
 20
5.2551370581
 10
-8.4478602342
 20
4.9299039483
 10
-8.4478602342
 20
4.5987935034
 10
-8.438017326
 20
4.2621960137
 10
-8.4183431118
 20
3.9205082372
 10
-8.3888607821
 20
3.5741329322
 10
-8.3496050888
 20
3.2234783821
 10
-8.3006223037
 20
2.8689579145
 10
-8.2419701644
 20
2.5109894138
 10
-8.173717806
 20
2.1499948287
 10
-8.0959456798
 20
1.7863996751
 10
-8.0087454581
 20
1.4206325338
 10
-7.9122199267
 20
1.0531245463
 10
-7.8064828632
 20
0.6843089057
 10
-7.6916589032
 20
0.3146203466
 10
-7.5678833934
 20
-0.0555053674
 10
-7.4353022318
 20
-0.4256319574
 10
-7.2940716961
 20
-0.7953231437
 10
-7.144358259
 20
-1.1641431594
 10
-6.9863383927
 20
-1.531657265
 10
-6.8201983599
 20
-1.8974322598
 10
-6.6461339954
 20
-2.2610369934
 10
-6.4643504741
 20
-2.6220428735
 10
-6.2750620701
 20
-2.980024371
 10
-6.0784919035
 20
-3.3345595218
 10
-5.8748716779
 20
-3.6852304243
 10
-5.6644414068
 20
-4.0316237316
 10
-5.4474491309
 20
-4.3733311389
 10
-5.224150626
 20
-4.7099498649
 10
-4.994809101
 20
-5.0410831267
 10
-4.759694888
 20
-5.3663406069
 10
-4.5190851234
 20
-5.6853389143
 10
-4.2732634217
 20
-5.9977020356
 10
-4.0225195407
 20
-6.3030617785
 10
-3.7671490399
 20
-6.6010582059
 10
-3.5074529327
 20
-6.89134006
 10
-3.2437373311
 20
-7.1735651764
 10
-2.9763130849
 20
-7.4474008875
 10
-2.7054954156
 20
-7.7125244144
 10
-2.4316035444
 20
-7.9686232478
 10
-2.1549603164
 20
-8.2153955159
 10
-1.8758918196
 20
-8.4525503405
 10
-1.5947270008
 20
-8.6798081795
 10
-1.311797278
 20
-8.8969011572
 10
-1.0274361492
 20
-9.1035733792
 10
-0.7419787999
 20
-9.2995812343
 10
-0.4557617077
 20
-9.484693682
 10
-0.1691222456
 20
-9.6586925244
 10
0.1176017154
 20
-9.8213726636
 10
0.4040722046
 20
-9.9725423433
 10
0.6899515503
 20
-10.1120233752
 10
0.9749027776
 20
-10.2396513484
 10
1.2585900054
 20
-10.355275824
 10
1.5406788426
 20
-10.4587605116
 10
1.8208367823
 20
-10.5499834307
 10
2.0987335935
 20
-10.6288370538
 10
2.3740417104
 20
-10.6952284339
 10
2.6464366186
 20
-10.7490793131
 10
2.9155972378
 20
-10.7903262158
 10
3.1812062998
 20
-10.8189205231
 10
3.4429507228
 20
-10.8348285298
 10
3.7005219805
 20
-10.8380314847
 10
3.9536164655
 20
-10.8285256124
 10
4.2019358473
 20
-10.8063221177
 10
4.4451874241
 20
-10.7714471727
 10
4.6830844676
 20
-10.7239418854
 10
4.9153465609
 20
-10.663862252
 10
5.1416999296
 20
-10.59127909
 10
5.3618777637
 20
-10.5062779557
 10
5.5756205327
 20
-10.4089590425
 10
5.7826762912
 20
-10.2994370633
 10
5.9828009761
 20
-10.1778411151
 10
6.1757586941
 20
-10.0443145268
 10
6.361322
 20
-9.8990146906
 10
6.5392721642
 20
-9.7421128757
 10
6.7093994315
 20
-9.5737940275
 10
6.8715032675
 20
-9.3942565486
 10
7.0253925951
 20
-9.2037120654
 10
7.1708860203
 20
-9.0023851788
 10
7.3078120453
 20
-8.7905131992
 10
7.4360092712
 20
-8.5683458666
 10
7.5553265878
 20
-8.3361450568
 10
7.665623352
 20
-8.0941844721
 10
7.7667695536
 20
-7.8427493191
 10
7.8586459683
 20
-7.5821359724
 10
7.9411442986
 20
-7.3126516251
 10
8.014167301
 20
-7.0346139269
 10
8.077628901
 20
-6.7483506095
 10
8.1314542945
 20
-6.4541991007
 10
8.1755800357
 20
-6.152506126
 10
8.2099541123
 20
-5.8436273005
 10
8.2345360065
 20
-5.5279267093
 10
8.2492967427
 20
-5.2057764787
 10
8.2542189221
 20
-4.8775563374
  0
LWPOLYLINE
  5
F0
330
DB
100
AcDbEntity
  8
0
  6
Continuous
 62
     7
370
    25
100
AcDbPolyline
 90
       92
 70
   128
 43
0.0
 10
8.1150246739
 20
-4.7972012082
 10
8.1101312016
 20
-4.4670443117
 10
8.0954566164
 20
-4.1316309865
 10
8.0710184063
 20
-3.7913609511
 10
8.0368456947
 20
-3.4466397118
 10
7.992979206
 20
-3.0978780792
 10
7.9394712166
 20
-2.7454916793
 10
7.876385493
 20
-2.3899004576
 10
7.8037972157
 20
-2.0315281789
 10
7.7217928894
 20
-1.6708019222
 10
7.6304702404
 20
-1.3081515717
 10
7.5299380995
 20
-0.9440093048
 10
7.4203162728
 20
-0.5788090767
 10
7.3017353986
 20
-0.2129861034
 10
7.1743367921
 20
0.153023657
 10
7.0382722766
 20
0.5187840237
 10
6.8937040027
 20
0.8838591132
 10
6.7408042551
 20
1.2478138585
 10
6.5797552475
 20
1.610214528
 10
6.4107489049
 20
1.9706292419
 10
6.2339866354
 20
2.3286284871
 10
6.0496790899
 20
2.6837856293
 10
5.8580459112
 20
3.035677421
 10
5.6593154722
 20
3.3838845059
 10
5.4537246038
 20
3.7279919193
 10
5.2415183123
 20
4.0675895817
 10
5.0229494882
 20
4.4022727882
 10
4.7982786039
 20
4.7316426906
 10
4.5677734041
 20
5.0553067724
 10
4.331708586
 20
5.3728793171
 10
4.0903654727
 20
5.6839818675
 10
3.8440316773
 20
5.9882436768
 10
3.5930007604
 20
6.2853021504
 10
3.3375718803
 20
6.5748032781
 10
3.0780494364
 20
6.856402056
 10
2.8147427065
 20
7.1297628976
 10
2.5479654783
 20
7.3945600334
 10
2.2780356752
 20
7.6504778998
 10
2.0052749776
 20
7.8972115145
 10
1.7300084396
 20
8.1344668406
 10
1.4525641016
 20
8.3619611363
 10
1.1732725992
 20
8.5794232924
 10
0.8924667694
 20
8.7865941551
 10
0.6104812538
 20
8.983226835
 10
0.3276520998
 20
9.1690870012
 10
0.0443163604
 20
9.3439531607
 10
-0.239188308
 20
9.507616922
 10
-0.5225240474
 20
9.6598832441
 10
-0.8053532014
 20
9.8005706683
 10
-1.087338717
 20
9.9295115347
 10
-1.3681445468
 20
10.0465521821
 10
-1.6474360492
 20
10.1515531308
 10
-1.9248803872
 20
10.2443892494
 10
-2.2001469251
 20
10.3249499031
 10
-2.4729076227
 20
10.3931390864
 10
-2.7428374259
 20
10.448875537
 10
-3.0096146541
 20
10.4920928326
 10
-3.2729213839
 20
10.5227394704
 10
-3.5324438278
 20
10.5407789282
 10
-3.7878727079
 20
10.5461897081
 10
-4.0389036249
 20
10.5389653619
 10
-4.2852374203
 20
10.5191144989
 10
-4.5265805336
 20
10.486660776
 10
-4.7626453516
 20
10.4416428687
 10
-4.9931505515
 20
10.3841144257
 10
-5.2178214358
 20
10.3141440049
 10
-5.4363902599
 20
10.2318149912
 10
-5.6485965513
 20
10.1372254978
 10
-5.8541874198
 20
10.0304882486
 10
-6.0529178588
 20
9.9117304445
 10
-6.2445510375
 20
9.7810936114
 10
-6.428858583
 20
9.6387334317
 10
-6.6056208525
 20
9.4848195588
 10
-6.7746271951
 20
9.3195354146
 10
-6.9356762027
 20
9.1430779714
 10
-7.0885759502
 20
8.9556575169
 10
-7.2331442241
 20
8.7574974036
 10
-7.3692087397
 20
8.5488337827
 10
-7.4966073462
 20
8.3299153224
 10
-7.6151882203
 20
8.1010029122
 10
-7.7248100471
 20
7.8623693512
 10
-7.825342188
 20
7.6142990235
 10
-7.916664837
 20
7.3570875593
 10
-7.9986691632
 20
7.0910414823
 10
-8.0712574405
 20
6.8164778446
 10
-8.1343431641
 20
6.533723849
 10
-8.1878511535
 20
6.2431164587
 10
-8.2317176423
 20
5.945001996
 10
-8.2658903539
 20
5.6397357296
 10
-8.290328564
 20
5.327681451
 10
-8.3050031491
 20
5.0092110412
 10
-8.3098966214
 20
4.6847040275
  0
LWPOLYLINE
  5
F1
330
DB
100
AcDbEntity
  8
0
  6
Continuous
 62
     7
370
    25
100
AcDbPolyline
 90
       47
 70
   128
 43
0.0
 10
-0.0987707296
 20
-9.5389243643
 10
0.0443163604
 20
-9.6201141028
 10
0.3276520998
 20
-9.7723804249
 10
0.6104812538
 20
-9.9130678491
 10
0.8924667694
 20
-10.0420087155
 10
1.1732725992
 20
-10.1590493628
 10
1.4525641016
 20
-10.2640503116
 10
1.7300084396
 20
-10.3568864301
 10
2.0052749776
 20
-10.4374470839
 10
2.2780356752
 20
-10.5056362672
 10
2.5479654783
 20
-10.5613727178
 10
2.8147427065
 20
-10.6045900134
 10
3.0780494364
 20
-10.6352366512
 10
3.3375718803
 20
-10.653276109
 10
3.5930007604
 20
-10.6586868889
 10
3.8440316773
 20
-10.6514625426
 10
4.0903654727
 20
-10.6316116797
 10
4.331708586
 20
-10.5991579567
 10
4.5677734041
 20
-10.5541400494
 10
4.7982786039
 20
-10.4966116065
 10
5.0229494882
 20
-10.4266411857
 10
5.2415183123
 20
-10.344312172
 10
5.4537246038
 20
-10.2497226785
 10
5.6593154722
 20
-10.1429854293
 10
5.8580459112
 20
-10.0242276253
 10
6.0496790899
 20
-9.8935907922
 10
6.2339866354
 20
-9.7512306125
 10
6.4107489049
 20
-9.5973167395
 10
6.5797552475
 20
-9.4320325953
 10
6.7408042551
 20
-9.2555751522
 10
6.8937040027
 20
-9.0681546977
 10
7.0382722766
 20
-8.8699945844
 10
7.1743367921
 20
-8.6613309634
 10
7.3017353986
 20
-8.4424125032
 10
7.4203162728
 20
-8.2135000929
 10
7.5299380995
 20
-7.9748665319
 10
7.6304702404
 20
-7.7267962042
 10
7.7217928894
 20
-7.46958474
 10
7.8037972157
 20
-7.203538663
 10
7.876385493
 20
-6.9289750254
 10
7.9394712166
 20
-6.6462210297
 10
7.992979206
 20
-6.3556136394
 10
8.0368456947
 20
-6.0574991767
 10
8.0710184063
 20
-5.7522329103
 10
8.0954566164
 20
-5.4401786317
 10
8.1101312016
 20
-5.121708222
 10
8.1150246739
 20
-4.7972012082
  0
LWPOLYLINE
  5
F2
330
DB
100
AcDbEntity
  8
0
  6
Continuous
 62
     7
370
    25
100
AcDbPolyline
 90
       70
 70
   128
 43
0.0
 10
8.3516548959
 20
-4.821307747
 10
8.3467327165
 20
-4.4874045783
 10
8.3319719803
 20
-4.1482119644
 10
8.3073900861
 20
-3.8041297223
 10
8.2730160095
 20
-3.4555634327
 10
8.2288902683
 20
-3.1029239616
 10
8.1750648748
 20
-2.7466269763
 10
8.1116032748
 20
-2.3870924552
 10
8.0385802724
 20
-2.024744193
 10
7.9560819421
 20
-1.660009301
 10
7.8642055274
 20
-1.2933177038
 10
7.7630593258
 20
-0.9251016322
 10
7.6527625616
 20
-0.5557951142
 10
7.533445245
 20
-0.185833463
 10
7.4052480191
 20
0.184347236
 10
7.2683219941
 20
0.5543106391
 10
7.1228285689
 20
0.9236206588
 10
6.9689392412
 20
1.2918419777
 10
6.8068354053
 20
1.6585405617
 10
6.636708138
 20
2.0232841718
 10
6.4587579737
 20
2.385642873
 10
6.2731946679
 20
2.7451895418
 10
6.0802369499
 20
3.1015003692
 10
5.880112265
 20
3.4541553604
 10
5.6730565065
 20
3.8027388298
 10
5.4593137375
 20
4.1468398912
 10
5.2391359034
 20
4.4860529417
 10
5.0127825347
 20
4.8199781403
 10
4.7805204414
 20
5.1482218787
 10
4.5426233979
 20
5.4703972458
 10
4.2993718211
 20
5.7861244833
 10
4.0510524393
 20
6.0950314336
 10
3.7979579543
 20
6.3967539782
 10
3.5403866966
 20
6.6909364674
 10
3.2786422736
 20
6.977232139
 10
3.0130332116
 20
7.2553035272
 10
2.7438725924
 20
7.5248228605
 10
2.4714776841
 20
7.785472448
 10
2.1961695673
 20
8.0369450538
 10
1.9182727561
 20
8.2789442592
 10
1.6381148164
 20
8.5111848122
 10
1.3560259792
 20
8.7333929635
 10
1.0723387514
 20
8.9453067893
 10
0.7873875241
 20
9.1466765001
 10
0.5015081784
 20
9.3372647352
 10
0.2150376891
 20
9.5168468421
 10
-0.0716862718
 20
9.6852111417
 10
-0.3583257339
 20
9.8421591778
 10
-0.6445428261
 20
9.9875059508
 10
-0.9300001754
 20
10.1210801358
 10
-1.2143613042
 20
10.2427242848
 10
-1.4972910271
 20
10.3522950118
 10
-1.7784558458
 20
10.4496631626
 10
-2.0575243426
 20
10.5347139662
 10
-2.3341675706
 20
10.6073471704
 10
-2.6080594418
 20
10.6674771603
 10
-2.8788771111
 20
10.7150330588
 10
-3.1463013573
 20
10.7499588102
 10
-3.4100169589
 20
10.7722132464
 10
-3.6697130661
 20
10.7817701354
 10
-3.9250835669
 20
10.7786182123
 10
-4.175827448
 20
10.7627611922
 10
-4.4216491496
 20
10.7342177664
 10
-4.6622589142
 20
10.6930215799
 10
-4.8973731272
 20
10.639221192
 10
-5.1267146522
 20
10.5728800188
 10
-5.3500131572
 20
10.4940762587
 10
-5.567005433
 20
10.4029028003
 10
-5.7774357041
 20
10.2994671127
 10
-5.9050318856
 20
10.2289235714
  0
LWPOLYLINE
  5
F3
330
DB
100
AcDbEntity
  8
0
  6
Continuous
 62
     7
370
    25
100
AcDbPolyline
 90
       24
 70
   128
 43
0.0
 10
5.9050318856
 20
-10.2289235714
 10
6.0802369499
 20
-10.1215925247
 10
6.2731946679
 20
-9.9880659365
 10
6.4587579737
 20
-9.8427661002
 10
6.636708138
 20
-9.6858642854
 10
6.8068354053
 20
-9.5175454371
 10
6.9689392412
 20
-9.3380079582
 10
7.1228285689
 20
-9.147463475
 10
7.2683219941
 20
-8.9461365884
 10
7.4052480191
 20
-8.7342646088
 10
7.533445245
 20
-8.5120972762
 10
7.6527625616
 20
-8.2798964664
 10
7.7630593258
 20
-8.0379358817
 10
7.8642055274
 20
-7.7865007287
 10
7.9560819421
 20
-7.525887382
 10
8.0385802724
 20
-7.2564030347
 10
8.1116032748
 20
-6.9783653365
 10
8.1750648748
 20
-6.6921020192
 10
8.2288902683
 20
-6.3979505103
 10
8.2730160095
 20
-6.0962575356
 10
8.3073900861
 20
-5.7873787101
 10
8.3319719803
 20
-5.4716781189
 10
8.3467327165
 20
-5.1495278883
 10
8.3516548959
 20
-4.821307747
  0
LWPOLYLINE
  5
F4
330
DB
100
AcDbEntity
  8
0
  6
Continuous
 62
     7
370
    25
100
AcDbPolyline
 90
      183
 70
   128
 43
0.0
 10
8.0871858242
 20
-4.7972012082
 10
8.0823006459
 20
-4.4676038997
 10
8.0676509329
 20
-4.1327590716
 10
8.0432541435
 20
-3.7930657651
 10
8.0091393518
 20
-3.448928799
 10
7.965347213
 20
-3.1007582879
 10
7.9119299151
 20
-2.7489691531
 10
7.8489511165
 20
-2.3939806284
 10
7.7764858702
 20
-2.0362157603
 10
7.6946205343
 20
-1.676100904
 10
7.6034526694
 20
-1.3140652152
 10
7.503090922
 20
-0.9505401385
 10
7.393654895
 20
-0.5859588939
 10
7.2752750054
 20
-0.2207559595
 10
7.1480923287
 20
0.1446334454
 10
7.012258431
 20
0.5097738792
 10
6.8679351881
 20
0.8742301974
 10
6.7152945926
 20
1.2375680703
 10
6.5545185494
 20
1.5993545013
 10
6.3857986582
 20
1.9591583428
 10
6.2093359858
 20
2.3165508097
 10
6.025340826
 20
2.6711059906
 10
5.8340324493
 20
3.0224013555
 10
5.6356388416
 20
3.370018259
 10
5.4303964322
 20
3.7135424394
 10
5.2185498125
 20
4.0525645126
 10
5.0003514439
 20
4.3866804594
 10
4.7760613578
 20
4.7154921077
 10
4.5459468447
 20
5.0386076063
 10
4.3102821365
 20
5.3556418925
 10
4.0693480793
 20
5.6662171504
 10
3.8234317988
 20
5.9699632617
 10
3.572826358
 20
6.2665182464
 10
3.3178304082
 20
6.5555286942
 10
3.0587478329
 20
6.8366501861
 10
2.7958873856
 20
7.1095477042
 10
2.5295623222
 20
7.3738960313
 10
2.2600900272
 20
7.6293801386
 10
1.9877916359
 20
7.8756955608
 10
1.7129916514
 20
8.1125487592
 10
1.436017558
 20
8.3396574713
 10
1.157199431
 20
8.5567510475
 10
0.8768695433
 20
8.7635707731
 10
0.5953619693
 20
8.9598701773
 10
0.3130121868
 20
9.1454153263
 10
0.0301566774
 20
9.3199851024
 10
-0.2528674746
 20
9.4833714676
 10
-0.535722984
 20
9.6353797112
 10
-0.8180727665
 20
9.7758286821
 10
-1.0995803405
 20
9.9045510046
 10
-1.3799102283
 20
10.021393278
 10
-1.6587283552
 20
10.1262162591
 10
-1.9357024486
 20
10.2188950282
 10
-2.2105024331
 20
10.2993191385
 10
-2.4828008244
 20
10.367392747
 10
-2.7522731194
 20
10.423034729
 10
-3.0185981828
 20
10.4661787749
 10
-3.2814586301
 20
10.4967734693
 10
-3.5405412054
 20
10.5147823517
 10
-3.7955371553
 20
10.5201839608
 10
-4.046142596
 20
10.5129718592
 10
-4.2920588766
 20
10.4931546418
 10
-4.5329929337
 20
10.4607559252
 10
-4.7686576419
 20
10.4158143194
 10
-4.998772155
 20
10.3583833823
 10
-5.2230622412
 20
10.2885315554
 10
-5.4412606097
 20
10.2063420824
 10
-5.6531072294
 20
10.1119129101
 10
-5.8583496388
 20
10.0053565715
 10
-6.0567432465
 20
9.8868000519
 10
-6.2480516232
 20
9.7563846371
 10
-6.432046783
 20
9.6142657459
 10
-6.6085094555
 20
9.4606127439
 10
-6.7772293466
 20
9.2956087423
 10
-6.9380053899
 20
9.1194503796
 10
-7.0906459853
 20
8.9323475869
 10
-7.2349692282
 20
8.7345233382
 10
-7.3708031259
 20
8.5262133844
 10
-7.4979858026
 20
8.3076659724
 10
-7.6163656922
 20
8.0791415493
 10
-7.7258017192
 20
7.8409124519
 10
-7.8261634667
 20
7.5932625824
 10
-7.9173313315
 20
7.3364870698
 10
-7.9991966674
 20
7.0708919184
 10
-8.0716619137
 20
6.7967936428
 10
-8.1346407124
 20
6.5145188913
 10
-8.1880580103
 20
6.2244040558
 10
-8.231850149
 20
5.9267948719
 10
-8.2659649407
 20
5.6220460059
 10
-8.2903617302
 20
5.3105206329
 10
-8.3050114432
 20
4.9925900035
 10
-8.3098966214
 20
4.6686330017
 10
-8.3050114432
 20
4.3390356931
 10
-8.2903617302
 20
4.0041908651
 10
-8.2659649407
 20
3.6644975585
 10
-8.231850149
 20
3.3203605925
 10
-8.1880580103
 20
2.9721900813
 10
-8.1346407124
 20
2.6204009465
 10
-8.0716619137
 20
2.2654124218
 10
-7.9991966674
 20
1.9076475537
 10
-7.9173313315
 20
1.5475326974
 10
-7.8261634667
 20
1.1854970086
 10
-7.7258017192
 20
0.821971932
 10
-7.6163656922
 20
0.4573906873
 10
-7.4979858026
 20
0.0921877529
 10
-7.3708031259
 20
-0.273201652
 10
-7.2349692282
 20
-0.6383420858
 10
-7.0906459853
 20
-1.002798404
 10
-6.9380053899
 20
-1.3661362768
 10
-6.7772293466
 20
-1.7279227079
 10
-6.6085094555
 20
-2.0877265494
 10
-6.432046783
 20
-2.4451190163
 10
-6.2480516232
 20
-2.7996741972
 10
-6.0567432465
 20
-3.1509695621
 10
-5.8583496388
 20
-3.4985864655
 10
-5.6531072294
 20
-3.842110646
 10
-5.4412606097
 20
-4.1811327191
 10
-5.2230622412
 20
-4.515248666
 10
-4.998772155
 20
-4.8440603143
 10
-4.7686576419
 20
-5.1671758129
 10
-4.5329929337
 20
-5.4842100991
 10
-4.2920588766
 20
-5.794785357
 10
-4.046142596
 20
-6.0985314683
 10
-3.7955371553
 20
-6.395086453
 10
-3.5405412054
 20
-6.6840969008
 10
-3.2814586301
 20
-6.9652183927
 10
-3.0185981828
 20
-7.2381159107
 10
-2.7522731194
 20
-7.5024642379
 10
-2.4828008244
 20
-7.7579483451
 10
-2.2105024331
 20
-8.0042637674
 10
-1.9357024486
 20
-8.2411169658
 10
-1.6587283552
 20
-8.4682256779
 10
-1.3799102283
 20
-8.6853192541
 10
-1.0995803405
 20
-8.8921389797
 10
-0.8180727665
 20
-9.0884383839
 10
-0.535722984
 20
-9.2739835329
 10
-0.2528674746
 20
-9.448553309
 10
0.0301566774
 20
-9.6119396742
 10
0.3130121868
 20
-9.7639479178
 10
0.5953619693
 20
-9.9043968887
 10
0.8768695433
 20
-10.0331192112
 10
1.157199431
 20
-10.1499614846
 10
1.436017558
 20
-10.2547844656
 10
1.7129916514
 20
-10.3474632348
 10
1.9877916359
 20
-10.4278873451
 10
2.2600900272
 20
-10.4959609535
 10
2.5295623222
 20
-10.5516029355
 10
2.7958873856
 20
-10.5947469815
 10
3.0587478329
 20
-10.6253416759
 10
3.3178304082
 20
-10.6433505583
 10
3.572826358
 20
-10.6487521674
 10
3.8234317988
 20
-10.6415400658
 10
4.0693480793
 20
-10.6217228484
 10
4.3102821365
 20
-10.5893241317
 10
4.5459468447
 20
-10.544382526
 10
4.7760613578
 20
-10.4869515889
 10
5.0003514439
 20
-10.417099762
 10
5.2185498125
 20
-10.334910289
 10
5.4303964322
 20
-10.2404811167
 10
5.6356388416
 20
-10.1339247781
 10
5.8340324493
 20
-10.0153682584
 10
6.025340826
 20
-9.8849528437
 10
6.2093359858
 20
-9.7428339525
 10
6.3857986582
 20
-9.5891809505
 10
6.5545185494
 20
-9.4241769489
 10
6.7152945926
 20
-9.2480185862
 10
6.8679351881
 20
-9.0609157935
 10
7.012258431
 20
-8.8630915448
 10
7.1480923287
 20
-8.654781591
 10
7.2752750054
 20
-8.436234179
 10
7.393654895
 20
-8.2077097559
 10
7.503090922
 20
-7.9694806585
 10
7.6034526694
 20
-7.721830789
 10
7.6946205343
 20
-7.4650552764
 10
7.7764858702
 20
-7.199460125
 10
7.8489511165
 20
-6.9253618494
 10
7.9119299151
 20
-6.6430870978
 10
7.965347213
 20
-6.3529722624
 10
8.0091393518
 20
-6.0553630785
 10
8.0432541435
 20
-5.7506142125
 10
8.0676509329
 20
-5.4390888395
 10
8.0823006459
 20
-5.1211582101
 10
8.0871858242
 20
-4.7972012082
  0
LWPOLYLINE
  5
F5
330
DB
100
AcDbEntity
  8
0
  6
Continuous
 62
     7
370
    25
100
AcDbPolyline
 90
       30
 70
   128
 43
0.0
 10
0.0974359738
 20
-6.6142720087
 10
0.0925545475
 20
-6.5596236656
 10
0.0781385188
 20
-6.5018946436
 10
0.0548619651
 20
-6.4437842874
 10
0.0238132723
 20
-6.3880097728
 10
-0.0135557574
 20
-6.3371790541
 10
-0.0554977897
 20
-6.2936689192
 10
-0.1000516616
 20
-6.2595138537
 10
-0.1451340837
 20
-6.2363109103
 10
-0.188637052
 20
-6.2251450331
 10
-0.2285264162
 20
-6.226538326
 10
-0.2629369937
 20
-6.2404256401
 10
-0.2902597844
 20
-6.2661576202
 10
-0.3092172048
 20
-6.3025310673
 10
-0.318922827
 20
-6.3478451996
 10
-0.318922827
 20
-6.3999811786
 10
-0.3092172048
 20
-6.4565011839
 10
-0.2902597844
 20
-6.5147624027
 10
-0.2629369937
 20
-6.5720406054
 10
-0.2285264162
 20
-6.6256575267
 10
-0.188637052
 20
-6.6731060991
 10
-0.1451340837
 20
-6.71216768
 10
-0.1000516616
 20
-6.7410157933
 10
-0.0554977897
 20
-6.7583015333
 10
-0.0135557574
 20
-6.763216638
 10
0.0238132723
 20
-6.7555312827
 10
0.0548619651
 20
-6.7356048258
 10
0.0781385188
 20
-6.7043690065
 10
0.0925545475
 20
-6.6632843769
 10
0.0974359738
 20
-6.6142720087
  0
LWPOLYLINE
  5
F6
330
DB
100
AcDbEntity
  8
0
  6
Continuous
 62
     7
370
    25
100
AcDbPolyline
 90
       17
 70
   128
 43
0.0
 10
-0.2587028073
 20
-6.2378555154
 10
-0.2626586052
 20
-6.2402649299
 10
-0.2899813959
 20
-6.2659969099
 10
-0.3089388163
 20
-6.3023703571
 10
-0.3186444385
 20
-6.3476844894
 10
-0.3186444385
 20
-6.3998204684
 10
-0.3089388163
 20
-6.4563404736
 10
-0.2899813959
 20
-6.5146016925
 10
-0.2626586052
 20
-6.5718798951
 10
-0.2282480277
 20
-6.6254968164
 10
-0.1883586635
 20
-6.6729453888
 10
-0.1448556952
 20
-6.7120069697
 10
-0.0997732731
 20
-6.740855083
 10
-0.0552194012
 20
-6.7581408231
 10
-0.0132773689
 20
-6.7630559278
 10
0.0240916608
 20
-6.7553705724
 10
0.036548787
 20
-6.749301694
  0
LWPOLYLINE
  5
F7
330
DB
100
AcDbEntity
  8
0
  6
Continuous
 62
     7
370
    25
100
AcDbPolyline
 90
       12
 70
   128
 43
0.0
 10
0.0698755126
 20
-6.5980402726
 10
0.064997914
 20
-6.5470356264
 10
0.0506280706
 20
-6.4931490984
 10
0.0275406644
 20
-6.4392857251
 10
-0.0030196565
 20
-6.3883492951
 10
-0.0394053772
 20
-6.3430858043
 10
-0.0796549343
 20
-6.3059354194
 10
-0.1215984636
 20
-6.2789009272
 10
-0.1629747786
 20
-6.2634397642
 10
-0.2015532715
 20
-6.2603854456
 10
-0.2352541657
 20
-6.2699026305
 10
-0.2390193676
 20
-6.2719519274
  0
LWPOLYLINE
  5
F9
330
DB
100
AcDbEntity
  8
0
  6
Continuous
 62
     7
370
    25
100
AcDbPolyline
 90
       28
 70
   128
 43
0.0
 10
0.0695971241
 20
-6.5982009828
 10
0.0647195255
 20
-6.5471963367
 10
0.0503496821
 20
-6.4933098086
 10
0.0272622759
 20
-6.4394464354
 10
-0.003298045
 20
-6.3885100053
 10
-0.0396837657
 20
-6.3432465146
 10
-0.0799333228
 20
-6.3060961297
 10
-0.1218768521
 20
-6.2790616375
 10
-0.1632531671
 20
-6.2636004744
 10
-0.20183166
 20
-6.2605461558
 10
-0.2355325542
 20
-6.2700633408
 10
-0.2625390258
 20
-6.2916389554
 10
-0.2813951489
 20
-6.3241098528
 10
-0.2910843851
 20
-6.3657255183
 10
-0.2910843851
 20
-6.4142424408
 10
-0.2813951489
 20
-6.4670450603
 10
-0.2625390258
 20
-6.521286774
 10
-0.2355325542
 20
-6.5740433971
 10
-0.20183166
 20
-6.6224708063
 10
-0.1632531671
 20
-6.6639582675
 10
-0.1218768521
 20
-6.6962691809
 10
-0.0799333228
 20
-6.7176616568
 10
-0.0396837657
 20
-6.7269824213
 10
-0.003298045
 20
-6.7237289896
 10
0.0272622759
 20
-6.7080767549
 10
0.0503496821
 20
-6.6808695335
 10
0.0647195255
 20
-6.6435740735
 10
0.0695971241
 20
-6.5982009828
  0
LINE
  5
FA
330
DB
100
AcDbEntity
  8
0
  6
Continuous
 62
     7
370
    25
100
AcDbLine
 10
-5.6266433891
 20
10.3896338297
 30
0.0
 11
-6.0024678594
 21
10.172674981
 31
0.0
  0
LINE
  5
FB
330
DB
100
AcDbEntity
  8
0
  6
Continuous
 62
     7
370
    25
100
AcDbLine
 10
5.8075959119
 20
-10.2851721618
 30
0.0
 11
6.1834203822
 21
-10.0682133132
 31
0.0
  0
LINE
  5
FC
330
DB
100
AcDbEntity
  8
0
  6
Continuous
 62
     7
370
    25
100
AcDbLine
 10
-8.3098966214
 20
4.6847040275
 30
0.0
 11
-8.3098966214
 21
4.6686330017
 31
0.0
  0
LINE
  5
FD
330
DB
100
AcDbEntity
  8
0
  6
Continuous
 62
     7
370
    25
100
AcDbLine
 10
-0.1126878921
 20
-9.5308875453
 30
0.0
 11
-0.0987707296
 21
-9.5389243643
 31
0.0
  0
LINE
  5
FE
330
DB
100
AcDbEntity
  8
0
  6
Continuous
 62
     7
370
    25
100
AcDbLine
 10
0.0362703985
 20
-6.7494624043
 30
0.0
 11
0.036548787
 21
-6.749301694
 31
0.0
  0
LINE
  5
FF
330
DB
100
AcDbEntity
  8
0
  6
Continuous
 62
     7
370
    25
100
AcDbLine
 10
-0.2587028073
 20
-6.2378555154
 30
0.0
 11
-0.2589811958
 21
-6.2380162257
 31
0.0
  0
LINE
  5
100
330
DB
100
AcDbEntity
  8
0
  6
Continuous
 62
     7
370
    25
100
AcDbLine
 10
0.0165869589
 20
-6.7153659924
 30
0.0
 11
0.0168653474
 21
-6.7152052821
 31
0.0
  0
LINE
  5
101
330
DB
100
AcDbEntity
  8
0
  6
Continuous
 62
     7
370
    25
100
AcDbLine
 10
-0.2390193676
 20
-6.2719519274
 30
0.0
 11
-0.2392977561
 21
-6.2721126376
 31
0.0
  0
ARC
  5
102
330
DB
100
AcDbEntity
  8
0
  6
Continuous
 62
     7
370
    25
100
AcDbCircle
 10
-0.0542669064
 20
-6.6124477173
 30
0.0
 40
0.1249756562803446
100
AcDbArc
 50
304.6922892564
 51
6.619891137
  0
VIEWPORT
  5
107
330
DB
100
AcDbEntity
  8
0
100
AcDbViewport
 10
0.0
 20
0.0
 30
0.0
 40
8.4
 41
6.4
 68
     1
 69
     1
 12
0.0
 22
0.0
 13
0.0
 23
0.0
 14
0.5
 24
0.5
 15
0.5
 25
0.5
 16
0.0
 26
0.0
 36
1.0
 17
0.0
 27
0.0
 37
0.0
 42
50.0
 43
0.0
 44
0.0
 45
24.094488189
 50
0.0
 51
0.0
 72
   100
 90
   557152
  1

281
     0
 71
     1
 74
     0
110
0.0
120
0.0
130
0.0
111
1.0
121
0.0
131
0.0
112
0.0
122
1.0
132
0.0
 79
     0
146
0.0
  0
ENDBLK
  5
DE
330
DB
100
AcDbEntity
  8
0
100
AcDbBlockEnd
  0
ENDSEC
  0
SECTION
  2
ENTITIES
  0
CIRCLE
  5
73
330
1F
100
AcDbEntity
  8
0
  6
Continuous
 62
     7
370
    25
100
AcDbCircle
 10
0.0
 20
-7.874015748
 30
0.0
 40
0.2559055118110238
  0
CIRCLE
  5
74
330
1F
100
AcDbEntity
  8
0
  6
Continuous
 62
     7
370
    25
100
AcDbCircle
 10
0.0
 20
0.0
 30
0.0
 40
11.59448818897636
  0
CIRCLE
  5
75
330
1F
100
AcDbEntity
  8
0
  6
Continuous
 62
     7
370
    25
100
AcDbCircle
 10
0.0
 20
-7.874015748
 30
0.0
 40
0.2952755905511817
  0
CIRCLE
  5
76
330
1F
100
AcDbEntity
  8
0
  6
Continuous
 62
     7
370
    25
100
AcDbCircle
 10
0.0
 20
0.0
 30
0.0
 40
11.61417322834647
  0
CIRCLE
  5
77
330
1F
100
AcDbEntity
  8
0
  6
Continuous
 62
     7
370
    25
100
AcDbCircle
 10
0.0
 20
0.0
 30
0.0
 40
11.81102362204727
  0
CIRCLE
  5
90
330
1B
100
AcDbEntity
 67
     1
  8
0
  6
Continuous
 62
     7
370
    25
100
AcDbCircle
 10
0.0
 20
0.0
 30
0.0
 40
11.35826771653541
  0
CIRCLE
  5
9D
330
1B
100
AcDbEntity
 67
     1
  8
0
  6
Continuous
 62
     7
370
    25
100
AcDbCircle
 10
0.0
 20
0.0
 30
0.0
 40
11.81102362204728
  0
LINE
  5
9E
330
1B
100
AcDbEntity
 67
     1
  8
0
  6
Continuous
 62
     7
370
    25
100
AcDbLine
 10
5.2063235193
 20
5.9224061642
 30
0.0
 11
5.4424874537
 21
5.92757411
 31
0.0
  0
LINE
  5
9F
330
1B
100
AcDbEntity
 67
     1
  8
0
  6
Continuous
 62
     7
370
    25
100
AcDbLine
 10
5.211491465
 20
5.6862422298
 30
0.0
 11
5.2063235193
 21
5.9224061642
 31
0.0
  0
LINE
  5
A0
330
1B
100
AcDbEntity
 67
     1
  8
0
  6
Continuous
 62
     7
370
    25
100
AcDbLine
 10
4.9753275306
 20
5.681074284
 30
0.0
 11
5.211491465
 21
5.6862422298
 31
0.0
  0
LINE
  5
A1
330
1B
100
AcDbEntity
 67
     1
  8
0
  6
Continuous
 62
     7
370
    25
100
AcDbLine
 10
4.9804954764
 20
5.4449103496
 30
0.0
 11
4.9753275306
 21
5.681074284
 31
0.0
  0
LINE
  5
A2
330
1B
100
AcDbEntity
 67
     1
  8
0
  6
Continuous
 62
     7
370
    25
100
AcDbLine
 10
5.2166594108
 20
5.4500782953
 30
0.0
 11
4.9804954764
 21
5.4449103496
 31
0.0
  0
LINE
  5
A3
330
1B
100
AcDbEntity
 67
     1
  8
0
  6
Continuous
 62
     7
370
    25
100
AcDbLine
 10
5.2218273566
 20
5.2139143609
 30
0.0
 11
5.2166594108
 21
5.4500782953
 31
0.0
  0
LINE
  5
A4
330
1B
100
AcDbEntity
 67
     1
  8
0
  6
Continuous
 62
     7
370
    25
100
AcDbLine
 10
5.4579912911
 20
5.2190823067
 30
0.0
 11
5.2218273566
 21
5.2139143609
 31
0.0
  0
LINE
  5
A5
330
1B
100
AcDbEntity
 67
     1
  8
0
  6
Continuous
 62
     7
370
    25
100
AcDbLine
 10
5.4528233453
 20
5.4552462411
 30
0.0
 11
5.4579912911
 21
5.2190823067
 31
0.0
  0
LINE
  5
A6
330
1B
100
AcDbEntity
 67
     1
  8
0
  6
Continuous
 62
     7
370
    25
100
AcDbLine
 10
5.6889872797
 20
5.4604141869
 30
0.0
 11
5.4528233453
 21
5.4552462411
 31
0.0
  0
LINE
  5
A7
330
1B
100
AcDbEntity
 67
     1
  8
0
  6
Continuous
 62
     7
370
    25
100
AcDbLine
 10
5.6838193339
 20
5.6965781214
 30
0.0
 11
5.6889872797
 21
5.4604141869
 31
0.0
  0
LINE
  5
A8
330
1B
100
AcDbEntity
 67
     1
  8
0
  6
Continuous
 62
     7
370
    25
100
AcDbLine
 10
5.4476553995
 20
5.6914101756
 30
0.0
 11
5.6838193339
 21
5.6965781214
 31
0.0
  0
LINE
  5
A9
330
1B
100
AcDbEntity
 67
     1
  8
0
  6
Continuous
 62
     7
370
    25
100
AcDbLine
 10
5.4424874537
 20
5.92757411
 30
0.0
 11
5.4476553995
 21
5.6914101756
 31
0.0
  0
LINE
  5
AA
330
1B
100
AcDbEntity
 67
     1
  8
0
  6
Continuous
 62
     7
370
    25
100
AcDbLine
 10
-5.92757411
 20
5.4424874537
 30
0.0
 11
-5.9224061642
 21
5.2063235193
 31
0.0
  0
LINE
  5
AB
330
1B
100
AcDbEntity
 67
     1
  8
0
  6
Continuous
 62
     7
370
    25
100
AcDbLine
 10
-5.9224061642
 20
5.2063235193
 30
0.0
 11
-5.6862422298
 21
5.211491465
 31
0.0
  0
LINE
  5
AC
330
1B
100
AcDbEntity
 67
     1
  8
0
  6
Continuous
 62
     7
370
    25
100
AcDbLine
 10
-5.6862422298
 20
5.211491465
 30
0.0
 11
-5.681074284
 21
4.9753275306
 31
0.0
  0
LINE
  5
AD
330
1B
100
AcDbEntity
 67
     1
  8
0
  6
Continuous
 62
     7
370
    25
100
AcDbLine
 10
-5.681074284
 20
4.9753275306
 30
0.0
 11
-5.4449103496
 21
4.9804954764
 31
0.0
  0
LINE
  5
AE
330
1B
100
AcDbEntity
 67
     1
  8
0
  6
Continuous
 62
     7
370
    25
100
AcDbLine
 10
-5.4449103496
 20
4.9804954764
 30
0.0
 11
-5.4500782953
 21
5.2166594108
 31
0.0
  0
LINE
  5
AF
330
1B
100
AcDbEntity
 67
     1
  8
0
  6
Continuous
 62
     7
370
    25
100
AcDbLine
 10
-5.4500782953
 20
5.2166594108
 30
0.0
 11
-5.2139143609
 21
5.2218273566
 31
0.0
  0
LINE
  5
B0
330
1B
100
AcDbEntity
 67
     1
  8
0
  6
Continuous
 62
     7
370
    25
100
AcDbLine
 10
-5.2139143609
 20
5.2218273566
 30
0.0
 11
-5.2190823067
 21
5.4579912911
 31
0.0
  0
LINE
  5
B1
330
1B
100
AcDbEntity
 67
     1
  8
0
  6
Continuous
 62
     7
370
    25
100
AcDbLine
 10
-5.2190823067
 20
5.4579912911
 30
0.0
 11
-5.4552462411
 21
5.4528233453
 31
0.0
  0
LINE
  5
B2
330
1B
100
AcDbEntity
 67
     1
  8
0
  6
Continuous
 62
     7
370
    25
100
AcDbLine
 10
-5.4552462411
 20
5.4528233453
 30
0.0
 11
-5.4604141869
 21
5.6889872797
 31
0.0
  0
LINE
  5
B3
330
1B
100
AcDbEntity
 67
     1
  8
0
  6
Continuous
 62
     7
370
    25
100
AcDbLine
 10
-5.4604141869
 20
5.6889872797
 30
0.0
 11
-5.6965781214
 21
5.6838193339
 31
0.0
  0
LINE
  5
B4
330
1B
100
AcDbEntity
 67
     1
  8
0
  6
Continuous
 62
     7
370
    25
100
AcDbLine
 10
-5.6965781214
 20
5.6838193339
 30
0.0
 11
-5.6914101756
 21
5.4476553995
 31
0.0
  0
LINE
  5
B5
330
1B
100
AcDbEntity
 67
     1
  8
0
  6
Continuous
 62
     7
370
    25
100
AcDbLine
 10
-5.6914101756
 20
5.4476553995
 30
0.0
 11
-5.92757411
 21
5.4424874537
 31
0.0
  0
LINE
  5
B6
330
1B
100
AcDbEntity
 67
     1
  8
0
  6
Continuous
 62
     7
370
    25
100
AcDbLine
 10
-2.011099002
 20
1.9249665723
 30
0.0
 11
-1.9249665723
 21
-2.011099002
 31
0.0
  0
LINE
  5
B7
330
1B
100
AcDbEntity
 67
     1
  8
0
  6
Continuous
 62
     7
370
    25
100
AcDbLine
 10
-1.9249665723
 20
-2.011099002
 30
0.0
 11
2.011099002
 21
-1.9249665723
 31
0.0
  0
LINE
  5
B8
330
1B
100
AcDbEntity
 67
     1
  8
0
  6
Continuous
 62
     7
370
    25
100
AcDbLine
 10
2.011099002
 20
-1.9249665723
 30
0.0
 11
1.9249665723
 21
2.011099002
 31
0.0
  0
LINE
  5
B9
330
1B
100
AcDbEntity
 67
     1
  8
0
  6
Continuous
 62
     7
370
    25
100
AcDbLine
 10
1.9249665723
 20
2.011099002
 30
0.0
 11
-2.011099002
 21
1.9249665723
 31
0.0
  0
LINE
  5
BA
330
1B
100
AcDbEntity
 67
     1
  8
0
  6
Continuous
 62
     7
370
    25
100
AcDbLine
 10
5.2209660323
 20
5.2532750166
 30
0.0
 11
5.4571299668
 21
5.2584429624
 31
0.0
  0
LINE
  5
BB
330
1B
100
AcDbEntity
 67
     1
  8
0
  6
Continuous
 62
     7
370
    25
100
AcDbLine
 10
5.443348778
 20
5.8882134543
 30
0.0
 11
5.2071848436
 21
5.8830455085
 31
0.0
  0
LINE
  5
BC
330
1B
100
AcDbEntity
 67
     1
  8
0
  6
Continuous
 62
     7
370
    25
100
AcDbLine
 10
-5.8830455085
 20
5.2071848436
 30
0.0
 11
-5.8882134543
 21
5.443348778
 31
0.0
  0
LINE
  5
BD
330
1B
100
AcDbEntity
 67
     1
  8
0
  6
Continuous
 62
     7
370
    25
100
AcDbLine
 10
5.649626624
 20
5.4595528626
 30
0.0
 11
5.6444586782
 21
5.6957167971
 31
0.0
  0
LINE
  5
BE
330
1B
100
AcDbEntity
 67
     1
  8
0
  6
Continuous
 62
     7
370
    25
100
AcDbLine
 10
-5.6957167971
 20
5.6444586782
 30
0.0
 11
-5.4595528626
 21
5.649626624
 31
0.0
  0
LINE
  5
BF
330
1B
100
AcDbEntity
 67
     1
  8
0
  6
Continuous
 62
     7
370
    25
100
AcDbLine
 10
-5.4457716739
 20
5.0198561321
 30
0.0
 11
-5.6819356083
 21
5.0146881863
 31
0.0
  0
LINE
  5
C0
330
1B
100
AcDbEntity
 67
     1
  8
0
  6
Continuous
 62
     7
370
    25
100
AcDbLine
 10
-5.2584429624
 20
5.4571299668
 30
0.0
 11
-5.2532750166
 21
5.2209660323
 31
0.0
  0
LINE
  5
C1
330
1B
100
AcDbEntity
 67
     1
  8
0
  6
Continuous
 62
     7
370
    25
100
AcDbLine
 10
5.0146881863
 20
5.6819356083
 30
0.0
 11
5.0198561321
 21
5.4457716739
 31
0.0
  0
VIEWPORT
  5
103
330
1B
100
AcDbEntity
 67
     1
  8
0
100
AcDbViewport
 10
0.0
 20
0.0
 30
0.0
 40
8.4
 41
6.4
 68
     1
 69
     1
 12
0.0
 22
0.0
 13
0.0
 23
0.0
 14
0.5
 24
0.5
 15
0.5
 25
0.5
 16
0.0
 26
0.0
 36
1.0
 17
0.0
 27
0.0
 37
0.0
 42
50.0
 43
0.0
 44
0.0
 45
24.094488189
 50
0.0
 51
0.0
 72
   100
 90
   557152
  1

281
     0
 71
     1
 74
     0
110
0.0
120
0.0
130
0.0
111
1.0
121
0.0
131
0.0
112
0.0
122
1.0
132
0.0
 79
     0
146
0.0
  0
ENDSEC
  0
SECTION
  2
OBJECTS
  0
DICTIONARY
  5
C
330
0
100
AcDbDictionary
281
     1
  3
ACAD_GROUP
350
D
  3
ACAD_LAYOUT
350
1A
  3
ACAD_MLINESTYLE
350
17
  3
ACAD_PLOTSETTINGS
350
19
  3
ACAD_PLOTSTYLENAME
350
E
  3
ACAD_SCALELIST
350
47
  0
DICTIONARY
  5
D
102
{ACAD_REACTORS
330
C
102
}
330
C
100
AcDbDictionary
281
     1
  0
DICTIONARY
  5
1A
102
{ACAD_REACTORS
330
C
102
}
330
C
100
AcDbDictionary
281
     1
  3
_Back
350
1E
  3
_Isometric
350
DC
  3
_Left
350
26
  3
Model
350
22
  0
DICTIONARY
  5
17
102
{ACAD_REACTORS
330
C
102
}
330
C
100
AcDbDictionary
281
     1
  3
Standard
350
18
  0
DICTIONARY
  5
19
102
{ACAD_REACTORS
330
C
102
}
330
C
100
AcDbDictionary
281
     1
  0
ACDBDICTIONARYWDFLT
  5
E
102
{ACAD_REACTORS
330
C
102
}
330
C
100
AcDbDictionary
281
     1
  3
Normal
350
F
100
AcDbDictionaryWithDefault
340
F
  0
DICTIONARY
  5
47
102
{ACAD_REACTORS
330
C
102
}
330
C
100
AcDbDictionary
281
     1
  3
A0
350
48
  3
A1
350
49
  3
A2
350
4A
  3
A3
350
4B
  3
A4
350
4C
  3
A5
350
4D
  3
A6
350
4E
  3
A7
350
4F
  3
A8
350
50
  3
A9
350
51
  3
B0
350
52
  3
B1
350
53
  3
B2
350
54
  3
B3
350
55
  3
B4
350
56
  3
B5
350
57
  3
B6
350
58
  3
B7
350
59
  3
B8
350
5A
  3
B9
350
5B
  3
C0
350
5C
  3
C1
350
5D
  3
C2
350
5E
  3
C3
350
5F
  3
C4
350
60
  3
C5
350
61
  3
C6
350
62
  3
C7
350
63
  3
C8
350
64
  3
C9
350
65
  3
D0
350
66
  3
D1
350
67
  3
D2
350
68
  0
LAYOUT
  5
1E
102
{ACAD_REACTORS
330
1A
102
}
330
1A
100
AcDbPlotSettings
  1

  2
none_device
  4
Letter_(8.50_x_11.00_Inches)
  6

 40
6.35
 41
6.35
 42
6.35001
 43
6.35001
 44
215.9
 45
279.4
 46
0.0
 47
0.0
 48
0.0
 49
0.0
140
0.0
141
0.0
142
1.0
143
2.9527560508
 70
   688
 72
     0
 73
     1
 74
     1
  7

 75
     0
147
0.33866665
148
300.0
149
300.0
100
AcDbLayout
  1
_Back
 70
     1
 71
     1
 10
-12.5492137973
 20
-12.5492126348
 11
19.9311027618
 21
12.5492137973
 12
0.0
 22
0.0
 32
0.0
 14
-11.811023622
 24
-11.811023622
 34
0.0
 15
11.811023622
 25
11.8110236221
 35
0.0
146
0.0
 13
0.0
 23
0.0
 33
0.0
 16
1.0
 26
0.0
 36
0.0
 17
0.0
 27
1.0
 37
0.0
 76
     0
330
1B
331
103
  0
LAYOUT
  5
DC
102
{ACAD_REACTORS
330
1A
102
}
330
1A
100
AcDbPlotSettings
  1

  2
none_device
  4
Letter_(8.50_x_11.00_Inches)
  6

 40
6.35
 41
6.35
 42
6.35001
 43
6.35001
 44
215.9
 45
279.4
 46
0.0
 47
0.0
 48
0.0
 49
0.0
140
0.0
141
0.0
142
1.0
143
2.9527560508
 70
   688
 72
     0
 73
     1
 74
     1
  7

 75
     0
147
0.33866665
148
300.0
149
300.0
100
AcDbLayout
  1
_Isometric
 70
     1
 71
     3
 10
0.0
 20
0.0
 11
0.0
 21
0.0
 12
0.0
 22
0.0
 32
0.0
 14
0.0
 24
0.0
 34
0.0
 15
0.0
 25
0.0
 35
0.0
146
0.0
 13
0.0
 23
0.0
 33
0.0
 16
1.0
 26
0.0
 36
0.0
 17
0.0
 27
1.0
 37
0.0
 76
     0
330
DB
331
107
  0
LAYOUT
  5
26
102
{ACAD_REACTORS
330
1A
102
}
330
1A
100
AcDbPlotSettings
  1

  2
none_device
  4
Letter_(8.50_x_11.00_Inches)
  6

 40
6.35
 41
6.35
 42
6.35001
 43
6.35001
 44
215.9
 45
279.4
 46
0.0
 47
0.0
 48
0.0
 49
0.0
140
0.0
141
0.0
142
1.0
143
2.9527560508
 70
   688
 72
     0
 73
     1
 74
     1
  7

 75
     0
147
0.33866665
148
300.0
149
300.0
100
AcDbLayout
  1
_Left
 70
     1
 71
     2
 10
0.0
 20
0.0
 11
0.0
 21
0.0
 12
0.0
 22
0.0
 32
0.0
 14
0.0
 24
0.0
 34
0.0
 15
0.0
 25
0.0
 35
0.0
146
0.0
 13
0.0
 23
0.0
 33
0.0
 16
1.0
 26
0.0
 36
0.0
 17
0.0
 27
1.0
 37
0.0
 76
     0
330
23
331
105
  0
LAYOUT
  5
22
102
{ACAD_REACTORS
330
1A
102
}
330
1A
100
AcDbPlotSettings
  1

  2
none_device
  4
ANSI_A_(11.00_x_8.50_Inches)
  6

 40
6.35
 41
19.05
 42
6.35000508
 43
19.05000254
 44
279.4
 45
215.9
 46
133.34999746
 47
88.89999873
 48
0.0
 49
0.0
140
0.0
141
0.0
142
0.356235
143
1.0
 70
  1696
 72
     0
 73
     0
 74
     0
  7

 75
     0
147
0.5913241897
148
-39.4088153714
149
0.0
100
AcDbLayout
  1
Model
 70
     1
 71
     0
 10
0.0
 20
0.0
 11
12.0
 21
9.0
 12
0.0
 22
0.0
 32
0.0
 14
-11.811023622
 24
-11.811023622
 34
0.0
 15
11.811023622
 25
11.8110236221
 35
0.0
146
0.0
 13
0.0
 23
0.0
 33
0.0
 16
1.0
 26
0.0
 36
0.0
 17
0.0
 27
1.0
 37
0.0
 76
     0
330
1F
331
29
  0
MLINESTYLE
  5
18
102
{ACAD_REACTORS
330
17
102
}
330
17
100
AcDbMlineStyle
  2
Standard
 70
     0
  3

 62
   256
 51
90.0
 52
90.0
 71
     2
 49
0.5
 62
   256
  6
BYLAYER
 49
-0.5
 62
   256
  6
BYLAYER
  0
ACDBPLACEHOLDER
  5
F
102
{ACAD_REACTORS
330
E
102
}
330
E
  0
SCALE
  5
48
102
{ACAD_REACTORS
330
47
102
}
330
47
100
AcDbScale
 70
     0
300
1:1
140
1.0
141
1.0
290
     1
  0
SCALE
  5
49
102
{ACAD_REACTORS
330
47
102
}
330
47
100
AcDbScale
 70
     0
300
1:2
140
1.0
141
2.0
290
     0
  0
SCALE
  5
4A
102
{ACAD_REACTORS
330
47
102
}
330
47
100
AcDbScale
 70
     0
300
1:4
140
1.0
141
4.0
290
     0
  0
SCALE
  5
4B
102
{ACAD_REACTORS
330
47
102
}
330
47
100
AcDbScale
 70
     0
300
1:5
140
1.0
141
5.0
290
     0
  0
SCALE
  5
4C
102
{ACAD_REACTORS
330
47
102
}
330
47
100
AcDbScale
 70
     0
300
1:8
140
1.0
141
8.0
290
     0
  0
SCALE
  5
4D
102
{ACAD_REACTORS
330
47
102
}
330
47
100
AcDbScale
 70
     0
300
1:10
140
1.0
141
10.0
290
     0
  0
SCALE
  5
4E
102
{ACAD_REACTORS
330
47
102
}
330
47
100
AcDbScale
 70
     0
300
1:16
140
1.0
141
16.0
290
     0
  0
SCALE
  5
4F
102
{ACAD_REACTORS
330
47
102
}
330
47
100
AcDbScale
 70
     0
300
1:20
140
1.0
141
20.0
290
     0
  0
SCALE
  5
50
102
{ACAD_REACTORS
330
47
102
}
330
47
100
AcDbScale
 70
     0
300
1:30
140
1.0
141
30.0
290
     0
  0
SCALE
  5
51
102
{ACAD_REACTORS
330
47
102
}
330
47
100
AcDbScale
 70
     0
300
1:40
140
1.0
141
40.0
290
     0
  0
SCALE
  5
52
102
{ACAD_REACTORS
330
47
102
}
330
47
100
AcDbScale
 70
     0
300
1:50
140
1.0
141
50.0
290
     0
  0
SCALE
  5
53
102
{ACAD_REACTORS
330
47
102
}
330
47
100
AcDbScale
 70
     0
300
1:100
140
1.0
141
100.0
290
     0
  0
SCALE
  5
54
102
{ACAD_REACTORS
330
47
102
}
330
47
100
AcDbScale
 70
     0
300
2:1
140
2.0
141
1.0
290
     0
  0
SCALE
  5
55
102
{ACAD_REACTORS
330
47
102
}
330
47
100
AcDbScale
 70
     0
300
4:1
140
4.0
141
1.0
290
     0
  0
SCALE
  5
56
102
{ACAD_REACTORS
330
47
102
}
330
47
100
AcDbScale
 70
     0
300
8:1
140
8.0
141
1.0
290
     0
  0
SCALE
  5
57
102
{ACAD_REACTORS
330
47
102
}
330
47
100
AcDbScale
 70
     0
300
10:1
140
10.0
141
1.0
290
     0
  0
SCALE
  5
58
102
{ACAD_REACTORS
330
47
102
}
330
47
100
AcDbScale
 70
     0
300
100:1
140
100.0
141
1.0
290
     0
  0
SCALE
  5
59
102
{ACAD_REACTORS
330
47
102
}
330
47
100
AcDbScale
 70
     0
300
1/128" = 1'-0"
140
0.0078125
141
12.0
290
     0
  0
SCALE
  5
5A
102
{ACAD_REACTORS
330
47
102
}
330
47
100
AcDbScale
 70
     0
300
1/64" = 1'-0"
140
0.015625
141
12.0
290
     0
  0
SCALE
  5
5B
102
{ACAD_REACTORS
330
47
102
}
330
47
100
AcDbScale
 70
     0
300
1/32" = 1'-0"
140
0.03125
141
12.0
290
     0
  0
SCALE
  5
5C
102
{ACAD_REACTORS
330
47
102
}
330
47
100
AcDbScale
 70
     0
300
1/16" = 1'-0"
140
0.0625
141
12.0
290
     0
  0
SCALE
  5
5D
102
{ACAD_REACTORS
330
47
102
}
330
47
100
AcDbScale
 70
     0
300
3/32" = 1'-0"
140
0.09375
141
12.0
290
     0
  0
SCALE
  5
5E
102
{ACAD_REACTORS
330
47
102
}
330
47
100
AcDbScale
 70
     0
300
1/8" = 1'-0"
140
0.125
141
12.0
290
     0
  0
SCALE
  5
5F
102
{ACAD_REACTORS
330
47
102
}
330
47
100
AcDbScale
 70
     0
300
3/16" = 1'-0"
140
0.1875
141
12.0
290
     0
  0
SCALE
  5
60
102
{ACAD_REACTORS
330
47
102
}
330
47
100
AcDbScale
 70
     0
300
1/4" = 1'-0"
140
0.25
141
12.0
290
     0
  0
SCALE
  5
61
102
{ACAD_REACTORS
330
47
102
}
330
47
100
AcDbScale
 70
     0
300
3/8" = 1'-0"
140
0.375
141
12.0
290
     0
  0
SCALE
  5
62
102
{ACAD_REACTORS
330
47
102
}
330
47
100
AcDbScale
 70
     0
300
1/2" = 1'-0"
140
0.5
141
12.0
290
     0
  0
SCALE
  5
63
102
{ACAD_REACTORS
330
47
102
}
330
47
100
AcDbScale
 70
     0
300
3/4" = 1'-0"
140
0.75
141
12.0
290
     0
  0
SCALE
  5
64
102
{ACAD_REACTORS
330
47
102
}
330
47
100
AcDbScale
 70
     0
300
1" = 1'-0"
140
1.0
141
12.0
290
     0
  0
SCALE
  5
65
102
{ACAD_REACTORS
330
47
102
}
330
47
100
AcDbScale
 70
     0
300
1-1/2" = 1'-0"
140
1.5
141
12.0
290
     0
  0
SCALE
  5
66
102
{ACAD_REACTORS
330
47
102
}
330
47
100
AcDbScale
 70
     0
300
3" = 1'-0"
140
3.0
141
12.0
290
     0
  0
SCALE
  5
67
102
{ACAD_REACTORS
330
47
102
}
330
47
100
AcDbScale
 70
     0
300
6" = 1'-0"
140
6.0
141
12.0
290
     0
  0
SCALE
  5
68
102
{ACAD_REACTORS
330
47
102
}
330
47
100
AcDbScale
 70
     0
300
1'-0" = 1'-0"
140
12.0
141
12.0
290
     0
  0
ENDSEC
  0
EOF
