  0
SECTION
  2
HEADER
  9
$ACADVER
  1
AC1015
  9
$ACADMAINTVER
 70
     6
  9
$DWGCODEPAGE
  3
ANSI_1252
  9
$INSBASE
 10
0.0
 20
0.0
 30
0.0
  9
$EXTMIN
 10
-20.0
 20
-10.0
 30
0.0
  9
$EXTMAX
 10
20.0
 20
660.0
 30
0.0
  9
$LIMMIN
 10
0.0
 20
0.0
  9
$LIMMAX
 10
420.0
 20
297.0
  9
$ORTHOMODE
 70
     0
  9
$REGENMODE
 70
     1
  9
$FILLMODE
 70
     1
  9
$QTEXTMODE
 70
     0
  9
$MIRRTEXT
 70
     1
  9
$LTSCALE
 40
1.0
  9
$ATTMODE
 70
     1
  9
$TEXTSIZE
 40
3.5
  9
$TRACEWID
 40
1.0
  9
$TEXTSTYLE
  7
Standard
  9
$CLAYER
  8
0
  9
$CELTYPE
  6
ByLayer
  9
$CECOLOR
 62
   256
  9
$CELTSCALE
 40
1.0
  9
$DISPSILH
 70
     0
  9
$DIMSCALE
 40
1.0
  9
$DIMASZ
 40
3.302
  9
$DIMEXO
 40
1.0
  9
$DIMDLI
 40
3.75
  9
$DIMRND
 40
0.0
  9
$DIMDLE
 40
0.0
  9
$DIMEXE
 40
1.0
  9
$DIMTP
 40
0.0
  9
$DIMTM
 40
0.0
  9
$DIMTXT
 40
3.5
  9
$DIMCEN
 40
2.5
  9
$DIMTSZ
 40
0.0
  9
$DIMTOL
 70
     0
  9
$DIMLIM
 70
     0
  9
$DIMTIH
 70
     1
  9
$DIMTOH
 70
     1
  9
$DIMSE1
 70
     0
  9
$DIMSE2
 70
     0
  9
$DIMTAD
 70
     1
  9
$DIMZIN
 70
     1
  9
$DIMBLK
  1

  9
$DIMASO
 70
     1
  9
$DIMSHO
 70
     1
  9
$DIMPOST
  1

  9
$DIMAPOST
  1

  9
$DIMALT
 70
     0
  9
$DIMALTD
 70
     3
  9
$DIMALTF
 40
0.0393700787
  9
$DIMLFAC
 40
1.0
  9
$DIMTOFL
 70
     1
  9
$DIMTVP
 40
0.0
  9
$DIMTIX
 70
     0
  9
$DIMSOXD
 70
     0
  9
$DIMSAH
 70
     0
  9
$DIMBLK1
  1

  9
$DIMBLK2
  1

  9
$DIMSTYLE
  2
ISO-25
  9
$DIMCLRD
 70
     0
  9
$DIMCLRE
 70
     0
  9
$DIMCLRT
 70
     0
  9
$DIMTFAC
 40
1.0
  9
$DIMGAP
 40
1.524
  9
$DIMJUST
 70
     0
  9
$DIMSD1
 70
     0
  9
$DIMSD2
 70
     0
  9
$DIMTOLJ
 70
     0
  9
$DIMTZIN
 70
     1
  9
$DIMALTZ
 70
     0
  9
$DIMALTTZ
 70
     0
  9
$DIMUPT
 70
     0
  9
$DIMDEC
 70
     2
  9
$DIMTDEC
 70
     2
  9
$DIMALTU
 70
     2
  9
$DIMALTTD
 70
     3
  9
$DIMTXSTY
  7
Standard
  9
$DIMAUNIT
 70
     0
  9
$DIMADEC
 70
     2
  9
$DIMALTRND
 40
0.0
  9
$DIMAZIN
 70
     0
  9
$DIMDSEP
 70
    44
  9
$DIMATFIT
 70
     3
  9
$DIMFRAC
 70
     0
  9
$DIMLDRBLK
  1

  9
$DIMLUNIT
 70
     2
  9
$DIMLWD
 70
    -2
  9
$DIMLWE
 70
    -2
  9
$DIMTMOVE
 70
     0
  9
$LUNITS
 70
     2
  9
$LUPREC
 70
     2
  9
$SKETCHINC
 40
1.0
  9
$FILLETRAD
 40
10.0
  9
$AUNITS
 70
     0
  9
$AUPREC
 70
     2
  9
$MENU
  1
.
  9
$ELEVATION
 40
0.0
  9
$PELEVATION
 40
0.0
  9
$THICKNESS
 40
0.0
  9
$LIMCHECK
 70
     0
  9
$CHAMFERA
 40
0.0
  9
$CHAMFERB
 40
0.0
  9
$CHAMFERC
 40
0.0
  9
$CHAMFERD
 40
0.0
  9
$SKPOLY
 70
     0
  9
$TDCREATE
 40
2459663.502980614
  9
$TDUCREATE
 40
2459663.502980614
  9
$TDUPDATE
 40
2459663.503095579
  9
$TDUUPDATE
 40
2459663.503095579
  9
$TDINDWG
 40
0.0000000116
  9
$TDUSRTIMER
 40
0.0000000116
  9
$USRTIMER
 70
     1
  9
$ANGBASE
 50
0.0
  9
$ANGDIR
 70
     0
  9
$PDMODE
 70
     0
  9
$PDSIZE
 40
-1.0
  9
$PLINEWID
 40
0.0
  9
$SPLFRAME
 70
     0
  9
$SPLINETYPE
 70
     6
  9
$SPLINESEGS
 70
     8
  9
$HANDSEED
  5
120
  9
$SURFTAB1
 70
     6
  9
$SURFTAB2
 70
     6
  9
$SURFTYPE
 70
     6
  9
$SURFU
 70
     6
  9
$SURFV
 70
     6
  9
$UCSBASE
  2

  9
$UCSNAME
  2

  9
$UCSORG
 10
0.0
 20
0.0
 30
0.0
  9
$UCSXDIR
 10
1.0
 20
0.0
 30
0.0
  9
$UCSYDIR
 10
0.0
 20
1.0
 30
0.0
  9
$UCSORTHOREF
  2

  9
$UCSORTHOVIEW
 70
     0
  9
$UCSORGTOP
 10
0.0
 20
0.0
 30
0.0
  9
$UCSORGBOTTOM
 10
0.0
 20
0.0
 30
0.0
  9
$UCSORGLEFT
 10
0.0
 20
0.0
 30
0.0
  9
$UCSORGRIGHT
 10
0.0
 20
0.0
 30
0.0
  9
$UCSORGFRONT
 10
0.0
 20
0.0
 30
0.0
  9
$UCSORGBACK
 10
0.0
 20
0.0
 30
0.0
  9
$PUCSBASE
  2

  9
$PUCSNAME
  2

  9
$PUCSORG
 10
0.0
 20
0.0
 30
0.0
  9
$PUCSXDIR
 10
1.0
 20
0.0
 30
0.0
  9
$PUCSYDIR
 10
0.0
 20
1.0
 30
0.0
  9
$PUCSORTHOREF
  2

  9
$PUCSORTHOVIEW
 70
     0
  9
$PUCSORGTOP
 10
0.0
 20
0.0
 30
0.0
  9
$PUCSORGBOTTOM
 10
0.0
 20
0.0
 30
0.0
  9
$PUCSORGLEFT
 10
0.0
 20
0.0
 30
0.0
  9
$PUCSORGRIGHT
 10
0.0
 20
0.0
 30
0.0
  9
$PUCSORGFRONT
 10
0.0
 20
0.0
 30
0.0
  9
$PUCSORGBACK
 10
0.0
 20
0.0
 30
0.0
  9
$USERI1
 70
     0
  9
$USERI2
 70
     0
  9
$USERI3
 70
     0
  9
$USERI4
 70
     0
  9
$USERI5
 70
     0
  9
$USERR1
 40
0.0
  9
$USERR2
 40
0.0
  9
$USERR3
 40
0.0
  9
$USERR4
 40
0.0
  9
$USERR5
 40
0.0
  9
$WORLDVIEW
 70
     1
  9
$SHADEDGE
 70
     3
  9
$SHADEDIF
 70
    70
  9
$TILEMODE
 70
     1
  9
$MAXACTVP
 70
    64
  9
$PINSBASE
 10
0.0
 20
0.0
 30
0.0
  9
$PLIMCHECK
 70
     0
  9
$PEXTMIN
 10
-45.0
 20
-10.0
 30
0.0
  9
$PEXTMAX
 10
66.0
 20
660.0
 30
0.0
  9
$PLIMMIN
 10
-113.7179487179
 20
-35.7692307692
  9
$PLIMMAX
 10
906.7435897436
 20
685.7692307692
  9
$UNITMODE
 70
     0
  9
$VISRETAIN
 70
     1
  9
$PLINEGEN
 70
     0
  9
$PSLTSCALE
 70
     1
  9
$TREEDEPTH
 70
  3020
  9
$CMLSTYLE
  2
Standard
  9
$CMLJUST
 70
     0
  9
$CMLSCALE
 40
20.0
  9
$PROXYGRAPHICS
 70
     1
  9
$MEASUREMENT
 70
     1
  9
$CELWEIGHT
370
    -1
  9
$ENDCAPS
280
     0
  9
$JOINSTYLE
280
     0
  9
$LWDISPLAY
290
     1
  9
$INSUNITS
 70
     4
  9
$HYPERLINKBASE
  1

  9
$STYLESHEET
  1

  9
$XEDIT
290
     1
  9
$CEPSNTYPE
380
     0
  9
$PSTYLEMODE
290
     1
  9
$FINGERPRINTGUID
  2
{d7c41bc5-726c-41c3-a1dd-2e34b4d54d8a}
  9
$VERSIONGUID
  2
{FAEB1C32-E019-11D5-929B-00C0DF256EC4}
  9
$EXTNAMES
290
     1
  9
$PSVPSCALE
 40
0.0
  9
$OLESTARTUP
290
     0
  0
ENDSEC
  0
SECTION
  2
CLASSES
  0
CLASS
  1
ACDBDICTIONARYWDFLT
  2
AcDbDictionaryWithDefault
  3
ObjectDBX Classes
 90
        0
280
     0
281
     0
  0
CLASS
  1
VISUALSTYLE
  2
AcDbVisualStyle
  3
ObjectDBX Classes
 90
     4095
280
     0
281
     0
  0
CLASS
  1
MATERIAL
  2
AcDbMaterial
  3
ObjectDBX Classes
 90
     1153
280
     0
281
     0
  0
CLASS
  1
SCALE
  2
AcDbScale
  3
ObjectDBX Classes
 90
     1153
280
     0
281
     0
  0
CLASS
  1
TABLESTYLE
  2
AcDbTableStyle
  3
ObjectDBX Classes
 90
     4095
280
     0
281
     0
  0
CLASS
  1
MLEADERSTYLE
  2
AcDbMLeaderStyle
  3
ACDB_MLEADERSTYLE_CLASS
 90
     4095
280
     0
281
     0
  0
CLASS
  1
SUN
  2
AcDbSun
  3
SCENEOE
 90
     1153
280
     0
281
     0
  0
CLASS
  1
ACDBPLACEHOLDER
  2
AcDbPlaceHolder
  3
ObjectDBX Classes
 90
        0
280
     0
281
     0
  0
CLASS
  1
LAYOUT
  2
AcDbLayout
  3
ObjectDBX Classes
 90
        0
280
     0
281
     0
  0
ENDSEC
  0
SECTION
  2
TABLES
  0
TABLE
  2
VPORT
  5
8
330
0
100
AcDbSymbolTable
 70
     1
  0
VPORT
  5
29
330
8
100
AcDbSymbolTableRecord
100
AcDbViewportTableRecord
  2
*Active
 70
     0
 10
0.0
 20
0.0
 11
1.0
 21
1.0
 12
0.0
 22
325.0
 13
0.0
 23
0.0
 14
10.0
 24
10.0
 15
10.0
 25
10.0
 16
0.0
 26
0.0
 36
1.0
 17
0.0
 27
0.0
 37
0.0
 40
683.4
 41
0.0597014925
 42
50.0
 43
0.0
 44
0.0
 50
0.0
 51
0.0
 71
     0
 72
   100
 73
     1
 74
     3
 75
     0
 76
     0
 77
     0
 78
     0
281
     0
 65
     1
110
0.0
120
0.0
130
0.0
111
1.0
121
0.0
131
0.0
112
0.0
122
1.0
132
0.0
 79
     0
146
0.0
  0
ENDTAB
  0
TABLE
  2
LTYPE
  5
5
330
0
100
AcDbSymbolTable
 70
     6
  0
LTYPE
  5
14
330
5
100
AcDbSymbolTableRecord
100
AcDbLinetypeTableRecord
  2
ByBlock
 70
     0
  3

 72
    65
 73
     0
 40
0.0
  0
LTYPE
  5
15
330
5
100
AcDbSymbolTableRecord
100
AcDbLinetypeTableRecord
  2
ByLayer
 70
     0
  3

 72
    65
 73
     0
 40
0.0
  0
LTYPE
  5
16
330
5
100
AcDbSymbolTableRecord
100
AcDbLinetypeTableRecord
  2
Continuous
 70
     0
  3
Solid line
 72
    65
 73
     0
 40
0.0
  0
LTYPE
  5
6E
330
5
100
AcDbSymbolTableRecord
100
AcDbLinetypeTableRecord
  2
HIDDEN
 70
     0
  3
Hidden __ __ __ __ __ __ __ __ __ __ __ __ __ __
 72
    65
 73
     2
 40
1.905
 49
1.27
 74
     0
 49
-0.635
 74
     0
  0
LTYPE
  5
6F
330
5
100
AcDbSymbolTableRecord
100
AcDbLinetypeTableRecord
  2
PHANTOM
 70
     0
  3
Phantom ______  __  __  ______  __  __  ______
 72
    65
 73
     6
 40
12.7
 49
6.35
 74
     0
 49
-1.27
 74
     0
 49
1.27
 74
     0
 49
-1.27
 74
     0
 49
1.27
 74
     0
 49
-1.27
 74
     0
  0
LTYPE
  5
70
330
5
100
AcDbSymbolTableRecord
100
AcDbLinetypeTableRecord
  2
CENTER
 70
     0
  3
Center ____ _ ____ _ ____ _ ____ _ ____ _ ____
 72
    65
 73
     4
 40
10.16
 49
6.35
 74
     0
 49
-1.27
 74
     0
 49
1.27
 74
     0
 49
-1.27
 74
     0
  0
LTYPE
  5
71
330
5
100
AcDbSymbolTableRecord
100
AcDbLinetypeTableRecord
  2
CENTERX2
 70
     0
  3
Center (2x) ________  __  ________  __  _____
 72
    65
 73
     4
 40
20.32
 49
12.7
 74
     0
 49
-2.54
 74
     0
 49
2.54
 74
     0
 49
-2.54
 74
     0
  0
LTYPE
  5
72
330
5
100
AcDbSymbolTableRecord
100
AcDbLinetypeTableRecord
  2
DOT2
 70
     0
  3
Dot (.5x) ........................................
 72
    65
 73
     2
 40
0.635
 49
0.0
 74
     0
 49
-0.635
 74
     0
  0
ENDTAB
  0
TABLE
  2
LAYER
  5
2
330
0
100
AcDbSymbolTable
 70
     1
  0
LAYER
  5
10
330
2
100
AcDbSymbolTableRecord
100
AcDbLayerTableRecord
  2
0
 70
     0
 62
     7
  6
Continuous
370
    -3
390
F
  0
ENDTAB
  0
TABLE
  2
STYLE
  5
3
330
0
100
AcDbSymbolTable
 70
     1
  0
STYLE
  5
11
330
3
100
AcDbSymbolTableRecord
100
AcDbTextStyleTableRecord
  2
Standard
 70
     0
 40
0.0
 41
1.0
 50
0.0
 71
     0
 42
3.5
  3
txt
  4

  0
ENDTAB
  0
TABLE
  2
VIEW
  5
6
330
0
100
AcDbSymbolTable
 70
     0
  0
ENDTAB
  0
TABLE
  2
UCS
  5
7
330
0
100
AcDbSymbolTable
 70
     0
  0
ENDTAB
  0
TABLE
  2
APPID
  5
9
330
0
100
AcDbSymbolTable
 70
     1
  0
APPID
  5
12
330
9
100
AcDbSymbolTableRecord
100
AcDbRegAppTableRecord
  2
ACAD
 70
     0
  0
ENDTAB
  0
TABLE
  2
DIMSTYLE
  5
A
330
0
100
AcDbSymbolTable
 70
     1
100
AcDbDimStyleTable
  0
DIMSTYLE
105
27
330
A
100
AcDbSymbolTableRecord
100
AcDbDimStyleTableRecord
  2
ISO-25
 70
     0
 41
2.5
 42
0.625
 43
3.75
 44
1.25
 73
     0
 74
     0
 77
     1
 78
     8
140
2.5
141
2.5
143
0.0393700787
147
0.625
171
     3
172
     1
178
     0
271
     2
272
     2
274
     3
278
    44
283
     0
284
     8
340
11
  0
ENDTAB
  0
TABLE
  2
BLOCK_RECORD
  5
1
330
0
100
AcDbSymbolTable
 70
     1
  0
BLOCK_RECORD
  5
1F
330
1
100
AcDbSymbolTableRecord
100
AcDbBlockTableRecord
  2
*Model_Space
340
22
  0
BLOCK_RECORD
  5
1B
330
1
100
AcDbSymbolTableRecord
100
AcDbBlockTableRecord
  2
*Paper_Space
340
1E
  0
BLOCK_RECORD
  5
23
330
1
100
AcDbSymbolTableRecord
100
AcDbBlockTableRecord
  2
*Paper_Space0
340
26
  0
ENDTAB
  0
ENDSEC
  0
SECTION
  2
BLOCKS
  0
BLOCK
  5
20
330
1F
100
AcDbEntity
  8
0
100
AcDbBlockBegin
  2
*Model_Space
 70
     0
 10
0.0
 20
0.0
 30
0.0
  3
*Model_Space
  1

  0
ENDBLK
  5
21
330
1F
100
AcDbEntity
  8
0
100
AcDbBlockEnd
  0
BLOCK
  5
1C
330
1B
100
AcDbEntity
 67
     1
  8
0
100
AcDbBlockBegin
  2
*Paper_Space
 70
     0
 10
0.0
 20
0.0
 30
0.0
  3
*Paper_Space
  1

  0
ENDBLK
  5
1D
330
1B
100
AcDbEntity
 67
     1
  8
0
100
AcDbBlockEnd
  0
BLOCK
  5
24
330
23
100
AcDbEntity
  8
0
100
AcDbBlockBegin
  2
*Paper_Space0
 70
     0
 10
0.0
 20
0.0
 30
0.0
  3
*Paper_Space0
  1

  0
ENDBLK
  5
25
330
23
100
AcDbEntity
  8
0
100
AcDbBlockEnd
  0
ENDSEC
  0
SECTION
  2
ENTITIES
  0
SPLINE
  5
77
330
1F
100
AcDbEntity
  8
0
  6
Continuous
 62
     7
370
    25
100
AcDbSpline
210
0.0
220
0.0
230
1.0
 70
     8
 71
     3
 72
     9
 73
     5
 74
     0
 42
0.000000001
 43
0.00000001
 40
0.0
 40
0.0
 40
0.0
 40
0.0
 40
0.2336686539668889
 40
1.0
 40
1.0
 40
1.0
 40
1.0
 10
10.73963750768257
 20
335.3634810624065
 30
0.0
 10
10.74321951028556
 20
335.365762768476
 30
0.0
 10
10.7585489202949
 20
335.3755274760256
 30
0.0
 10
10.75774040958312
 20
335.3749840695762
 30
0.0
 10
10.75712082248107
 20
335.3745676401804
 30
0.0
  0
SPLINE
  5
78
330
1F
100
AcDbEntity
  8
0
  6
Continuous
 62
     7
370
    25
100
AcDbSpline
210
0.0
220
0.0
230
1.0
 70
     8
 71
     3
 72
     9
 73
     5
 74
     0
 42
0.000000001
 43
0.00000001
 40
0.0
 40
0.0
 40
0.0
 40
0.0
 40
0.2336686539631224
 40
1.0
 40
1.0
 40
1.0
 40
1.0
 10
-10.73963750768227
 20
369.1072548675353
 30
0.0
 10
-10.74321951028513
 20
369.104973161466
 30
0.0
 10
-10.75854892029415
 20
369.0952084539165
 30
0.0
 10
-10.75774040958312
 20
369.0957518603655
 30
0.0
 10
-10.75712082248164
 20
369.0961682897611
 30
0.0
  0
CIRCLE
  5
79
330
1F
100
AcDbEntity
  8
0
  6
Continuous
 62
     7
370
    25
100
AcDbCircle
 10
0.0
 20
642.0
 30
0.0
 40
17.5
  0
CIRCLE
  5
7A
330
1F
100
AcDbEntity
  8
0
  6
Continuous
 62
     7
370
    25
100
AcDbCircle
 10
0.0
 20
642.0
 30
0.0
 40
18.0
  0
CIRCLE
  5
7B
330
1F
100
AcDbEntity
  8
0
  6
Continuous
 62
     7
370
    25
100
AcDbCircle
 10
0.0
 20
8.0
 30
0.0
 40
17.50000000000001
  0
CIRCLE
  5
7C
330
1F
100
AcDbEntity
  8
0
  6
Continuous
 62
     7
370
    25
100
AcDbCircle
 10
0.0
 20
8.0
 30
0.0
 40
18.0
  0
LWPOLYLINE
  5
7D
330
1F
100
AcDbEntity
  8
0
  6
Continuous
 62
     7
370
    25
100
AcDbPolyline
 90
        3
 70
   128
 43
0.0
 10
-6.3705293034
 20
371.1936473277
 10
-7.1881554568
 20
370.8989801858
 10
-9.2307692308
 20
369.9777719568
  0
SPLINE
  5
8C
330
1F
100
AcDbEntity
  8
0
  6
Continuous
 62
     7
370
    25
100
AcDbSpline
210
0.0
220
0.0
230
1.0
 70
     8
 71
     3
 72
    16
 73
    12
 74
     0
 42
0.000000001
 43
0.00000001
 40
0.0
 40
0.0
 40
0.0
 40
0.0
 40
0.1382731670950948
 40
0.2249191580649761
 40
0.3115209733107729
 40
0.3951153946585039
 40
0.4786708731369148
 40
0.5518050404982177
 40
0.7062183692899046
 40
0.8593070660822921
 40
1.0
 40
1.0
 40
1.0
 40
1.0
 10
9.15901695529864
 20
334.4688138429258
 30
0.0
 10
8.580309171582524
 20
334.1803154067226
 30
0.0
 10
7.638966247184471
 20
333.7110354535901
 30
0.0
 10
5.810808282037107
 20
333.0757083862307
 30
0.0
 10
4.145865012344977
 20
332.6418208363215
 30
0.0
 10
2.346626471327399
 20
332.3473139801408
 30
0.0
 10
0.5648518028101016
 20
332.2170614505787
 30
0.0
 10
-1.76479228095404
 20
332.2566346128848
 30
0.0
 10
-4.520468414320527
 20
332.6642171176241
 30
0.0
 10
-7.338234174297224
 20
333.5631554349099
 30
0.0
 10
-8.557679225911857
 20
334.1745867321274
 30
0.0
 10
-9.141675242437467
 20
334.4674030763172
 30
0.0
  0
SPLINE
  5
8D
330
1F
100
AcDbEntity
  8
0
  6
Continuous
 62
     7
370
    25
100
AcDbSpline
210
0.0
220
0.0
230
1.0
 70
     8
 71
     3
 72
    16
 73
    12
 74
     0
 42
0.000000001
 43
0.00000001
 40
0.0
 40
0.0
 40
0.0
 40
0.0
 40
0.1382731670950949
 40
0.2249191580649768
 40
0.3115209733107732
 40
0.3951153946585042
 40
0.4786708731369151
 40
0.551805040498218
 40
0.7062183692899049
 40
0.8593070660822926
 40
1.0
 40
1.0
 40
1.0
 40
1.0
 10
-9.15901695529864
 20
370.0019220870161
 30
0.0
 10
-8.58030917158252
 20
370.2904205232193
 30
0.0
 10
-7.638966247184456
 20
370.7597004763519
 30
0.0
 10
-5.810808282037122
 20
371.3950275437112
 30
0.0
 10
-4.145865012344967
 20
371.8289150936202
 30
0.0
 10
-2.346626471327401
 20
372.1234219498011
 30
0.0
 10
-0.564851802810102
 20
372.253674479363
 30
0.0
 10
1.764792280954039
 20
372.2141013170571
 30
0.0
 10
4.520468414320527
 20
371.8065188123176
 30
0.0
 10
7.338234174297222
 20
370.9075804950319
 30
0.0
 10
8.557679225911853
 20
370.2961491978145
 30
0.0
 10
9.141675242437458
 20
370.0033328536246
 30
0.0
  0
SPLINE
  5
8E
330
1F
100
AcDbEntity
  8
0
  6
Continuous
 62
     8
370
    25
100
AcDbSpline
210
0.0
220
0.0
230
1.0
 70
     8
 71
     3
 72
    16
 73
    12
 74
     0
 42
0.000000001
 43
0.00000001
 40
0.0
 40
0.0
 40
0.0
 40
0.0
 40
0.1437814966910149
 40
0.2964945459611143
 40
0.4493668427171952
 40
0.5215836165960074
 40
0.6027108177038032
 40
0.6869816135413525
 40
0.7719818855197783
 40
0.8597494127013561
 40
1.0
 40
1.0
 40
1.0
 40
1.0
 10
-8.517488492373593
 20
334.9255275390083
 30
0.0
 10
-7.968011421443863
 20
334.6358452921622
 30
0.0
 10
-6.834924352448747
 20
334.0384860475567
 30
0.0
 10
-4.209870745935168
 20
333.1563129779399
 30
0.0
 10
-1.641906751319294
 20
332.7558756719786
 30
0.0
 10
0.5148215467559516
 20
332.7181650839492
 30
0.0
 10
2.172040978646287
 20
332.8413772407969
 30
0.0
 10
3.836215576767361
 20
333.1295172663443
 30
0.0
 10
5.393656858994432
 20
333.5523892749354
 30
0.0
 10
7.099665875478564
 20
334.176928950061
 30
0.0
 10
7.979274615466223
 20
334.6372844850145
 30
0.0
 10
8.520309009411225
 20
334.9204424011764
 30
0.0
  0
SPLINE
  5
8F
330
1F
100
AcDbEntity
  8
0
  6
Continuous
 62
     8
370
    25
100
AcDbSpline
210
0.0
220
0.0
230
1.0
 70
     8
 71
     3
 72
    16
 73
    12
 74
     0
 42
0.000000001
 43
0.00000001
 40
0.0
 40
0.0
 40
0.0
 40
0.0
 40
0.1437814966910155
 40
0.2964945459611148
 40
0.4493668427171956
 40
0.5215836165960077
 40
0.6027108177038035
 40
0.6869816135413527
 40
0.7719818855197785
 40
0.8597494127013563
 40
1.0
 40
1.0
 40
1.0
 40
1.0
 10
8.517488492373593
 20
369.5452083909335
 30
0.0
 10
7.968011421443866
 20
369.8348906377796
 30
0.0
 10
6.834924352448755
 20
370.4322498823851
 30
0.0
 10
4.209870745935167
 20
371.314422952002
 30
0.0
 10
1.641906751319294
 20
371.7148602579632
 30
0.0
 10
-0.5148215467559527
 20
371.7525708459927
 30
0.0
 10
-2.172040978646284
 20
371.629358689145
 30
0.0
 10
-3.836215576767364
 20
371.3412186635977
 30
0.0
 10
-5.39365685899443
 20
370.9183466550063
 30
0.0
 10
-7.099665875478562
 20
370.2938069798808
 30
0.0
 10
-7.979274615466221
 20
369.8334514449273
 30
0.0
 10
-8.520309009411225
 20
369.5502935287654
 30
0.0
  0
LINE
  5
90
330
1F
100
AcDbEntity
  8
0
  6
Continuous
 62
     7
370
    25
100
AcDbLine
 10
12.5
 20
20.951833847
 30
0.0
 11
12.5
 21
336.622872969
 31
0.0
  0
LINE
  5
91
330
1F
100
AcDbEntity
  8
0
  6
Continuous
 62
     7
370
    25
100
AcDbLine
 10
12.5
 20
367.847862961
 30
0.0
 11
12.5
 21
629.048166153
 31
0.0
  0
LINE
  5
92
330
1F
100
AcDbEntity
  8
0
  6
Continuous
 62
     7
370
    25
100
AcDbLine
 10
-12.5
 20
629.048166153
 30
0.0
 11
-12.5
 21
367.847862961
 31
0.0
  0
LINE
  5
93
330
1F
100
AcDbEntity
  8
0
  6
Continuous
 62
     7
370
    25
100
AcDbLine
 10
-12.5
 20
336.622872969
 30
0.0
 11
-12.5
 21
20.951833847
 31
0.0
  0
LINE
  5
94
330
1F
100
AcDbEntity
  8
0
  6
Continuous
 62
     7
370
    25
100
AcDbLine
 10
-8.5
 20
369.534211857
 30
0.0
 11
-8.5
 21
334.936524073
 31
0.0
  0
LINE
  5
95
330
1F
100
AcDbEntity
  8
0
  6
Continuous
 62
     7
370
    25
100
AcDbLine
 10
-9.0
 20
334.436524073
 30
0.0
 11
-9.0
 21
370.034211857
 31
0.0
  0
LINE
  5
96
330
1F
100
AcDbEntity
  8
0
  6
Continuous
 62
     7
370
    25
100
AcDbLine
 10
9.0
 20
370.034211857
 30
0.0
 11
9.0
 21
334.436524073
 31
0.0
  0
LINE
  5
97
330
1F
100
AcDbEntity
  8
0
  6
Continuous
 62
     7
370
    25
100
AcDbLine
 10
8.5
 20
334.936524073
 30
0.0
 11
8.5
 21
369.534211857
 31
0.0
  0
ARC
  5
98
330
1F
100
AcDbEntity
  8
0
  6
Continuous
 62
     7
370
    25
100
AcDbCircle
 10
-9.0
 20
334.936524073
 30
0.0
 40
0.5000000000000391
100
AcDbArc
 50
242.5135737496
 51
0.0
  0
ARC
  5
99
330
1F
100
AcDbEntity
  8
0
  6
Continuous
 62
     7
370
    25
100
AcDbCircle
 10
-9.0
 20
369.534211857
 30
0.0
 40
0.5000000000004
100
AcDbArc
 50
360.0
 51
117.4864262504
  0
ARC
  5
9A
330
1F
100
AcDbEntity
  8
0
  6
Continuous
 62
     7
370
    25
100
AcDbCircle
 10
9.0
 20
369.534211857
 30
0.0
 40
0.5000000000005578
100
AcDbArc
 50
62.5135737496
 51
180.0
  0
ARC
  5
9B
330
1F
100
AcDbEntity
  8
0
  6
Continuous
 62
     7
370
    25
100
AcDbCircle
 10
0.0
 20
352.235367965
 30
0.0
 40
19.99999999999999
100
AcDbArc
 50
297.4864262504
 51
62.5135737496
  0
ARC
  5
9C
330
1F
100
AcDbEntity
  8
0
  6
Continuous
 62
     7
370
    25
100
AcDbCircle
 10
9.0
 20
334.936524073
 30
0.0
 40
0.5000000000000213
100
AcDbArc
 50
180.0
 51
297.4864262504
  0
ARC
  5
9D
330
1F
100
AcDbEntity
  8
0
  6
Continuous
 62
     7
370
    25
100
AcDbCircle
 10
0.0
 20
352.235367965
 30
0.0
 40
19.99999999999999
100
AcDbArc
 50
117.4864262504
 51
242.5135737496
  0
SPLINE
  5
C7
330
1B
100
AcDbEntity
 67
     1
  8
0
  6
Continuous
 62
     7
370
    25
100
AcDbSpline
210
0.0
220
0.0
230
1.0
 70
     8
 71
     3
 72
    24
 73
    20
 74
     0
 42
0.000000001
 43
0.00000001
 40
0.0
 40
0.0
 40
0.0
 40
0.0
 40
0.0687030398890831
 40
0.1528416487512403
 40
0.2464058660786834
 40
0.3014450208670132
 40
0.3578460371625266
 40
0.4443472561624481
 40
0.5171718397259855
 40
0.5899472442241118
 40
0.6407452957795523
 40
0.6929765345833645
 40
0.745402949853675
 40
0.7989981278208593
 40
0.8482412959589667
 40
0.8988054451908417
 40
0.9481165853035542
 40
0.999345955947225
 40
1.0
 40
1.0
 40
1.0
 40
1.0
 10
-12.91523933238672
 20
624.0609132567063
 30
0.0
 10
-12.88433279290323
 20
624.0836322547807
 30
0.0
 10
-12.81557591606812
 20
624.1341745470763
 30
0.0
 10
-11.50195481426111
 20
625.0656507163798
 30
0.0
 10
-9.662136845537365
 20
626.2705399321513
 30
0.0
 10
-7.622236212833658
 20
627.4280017258736
 30
0.0
 10
-5.390895085071446
 20
628.4980580344827
 30
0.0
 10
-2.574082865852884
 20
629.4309242868176
 30
0.0
 10
0.7685676541318177
 20
629.6608761844413
 30
0.0
 10
3.508739133816801
 20
629.1352618340405
 30
0.0
 10
5.714666270037168
 20
628.335209176088
 30
0.0
 10
7.480769890118098
 20
627.4992229898708
 30
0.0
 10
9.076228915741527
 20
626.6086242930982
 30
0.0
 10
10.42957006747229
 20
625.7676020356502
 30
0.0
 10
11.52820357605097
 20
625.0372551698812
 30
0.0
 10
12.36043134382563
 20
624.4582840870762
 30
0.0
 10
12.83023254111495
 20
624.1226062869762
 30
0.0
 10
13.09971247614983
 20
623.9286665585038
 30
0.0
 10
12.99742996658056
 20
624.0018386896318
 30
0.0
 10
12.99614058986012
 20
624.0027610999525
 30
0.0
  0
SPLINE
  5
CB
330
1B
100
AcDbEntity
 67
     1
  8
0
  6
Continuous
 62
     7
370
    25
100
AcDbSpline
210
0.0
220
0.0
230
1.0
 70
     8
 71
     3
 72
    15
 73
    11
 74
     0
 42
0.000000001
 43
0.00000001
 40
0.0
 40
0.0
 40
0.0
 40
0.0
 40
0.0853075402152987
 40
0.1739470444195071
 40
0.3455751125416976
 40
0.5498467208216489
 40
0.6686557833239805
 40
0.7919102136387942
 40
0.9645169267506929
 40
1.0
 40
1.0
 40
1.0
 40
1.0
 10
0.0
 20
20.44989959798871
 30
0.0
 10
-0.6055856249609168
 20
20.4760621636268
 30
0.0
 10
-1.840409994987712
 20
20.52940915916412
 30
0.0
 10
-4.195077370540211
 20
21.06204913634485
 30
0.0
 10
-7.053290983219652
 20
22.21641590734175
 30
0.0
 10
-9.531245955468206
 20
23.65294671075441
 30
0.0
 10
-11.28343079607779
 20
24.79401525871844
 30
0.0
 10
-12.44197746568529
 20
25.59584760706435
 30
0.0
 10
-13.09676612627181
 20
26.06950369707162
 30
0.0
 10
-12.94168369295476
 20
25.95808555264895
 30
0.0
 10
-12.91523933238668
 20
25.9390867432937
 30
0.0
  0
SPLINE
  5
CC
330
1B
100
AcDbEntity
 67
     1
  8
0
  6
Continuous
 62
     7
370
    25
100
AcDbSpline
210
0.0
220
0.0
230
1.0
 70
     8
 71
     3
 72
    14
 73
    10
 74
     0
 42
0.000000001
 43
0.00000001
 40
0.0
 40
0.0
 40
0.0
 40
0.0
 40
0.1713720421908932
 40
0.3416348328788077
 40
0.5351009871263381
 40
0.6486523210979794
 40
0.7653426778927456
 40
0.9264212266814897
 40
1.0
 40
1.0
 40
1.0
 40
1.0
 10
12.99614058986016
 20
25.99723890004735
 30
0.0
 10
12.89638756455045
 20
25.92448702112532
 30
0.0
 10
12.69752719213988
 20
25.77945416932875
 30
0.0
 10
11.12712575036745
 20
24.6776838667529
 30
0.0
 10
9.100492442507386
 20
23.38345701801942
 30
0.0
 10
6.880056378779289
 20
22.19073439892117
 30
0.0
 10
4.566235020841648
 20
21.19149939380249
 30
0.0
 10
2.185754391635097
 20
20.53399825218538
 30
0.0
 10
0.5217595515214085
 20
20.46997471542422
 30
0.0
 10
0.0
 20
20.44989959798871
 30
0.0
  0
SPLINE
  5
D4
330
1B
100
AcDbEntity
 67
     1
  8
0
  6
Continuous
 62
     7
370
    25
100
AcDbSpline
210
0.0
220
0.0
230
1.0
 70
     8
 71
     3
 72
    22
 73
    18
 74
     0
 42
0.000000001
 43
0.00000001
 40
0.0
 40
0.0
 40
0.0
 40
0.0
 40
0.0091980098393336
 40
0.0995536618308909
 40
0.1902230808333397
 40
0.2922635682112135
 40
0.3491696232777158
 40
0.4079264023113936
 40
0.4927331607426531
 40
0.5776967254278278
 40
0.6614095332041768
 40
0.7611148400477201
 40
0.8182022723749749
 40
0.8771380288503459
 40
0.9305704594934416
 40
0.9861276564761067
 40
1.0
 40
1.0
 40
1.0
 40
1.0
 10
-12.47356264938855
 20
332.2518484051795
 30
0.0
 10
-12.48166526346896
 20
332.2467949860803
 30
0.0
 10
-12.56936302811551
 20
332.1920998525802
 30
0.0
 10
-11.98286663325156
 20
332.5611870317125
 30
0.0
 10
-10.35350293525251
 20
333.5273951243743
 30
0.0
 10
-8.121148545103894
 20
334.6844748683233
 30
0.0
 10
-5.774541192981958
 20
335.6232930684735
 30
0.0
 10
-3.356494156988186
 20
336.3403596133228
 30
0.0
 10
-0.2904602183686506
 20
336.7529946104479
 30
0.0
 10
3.148860584606256
 20
336.4181243040904
 30
0.0
 10
6.407650489565695
 20
335.4406830207769
 30
0.0
 10
8.834555926813083
 20
334.3241803252561
 30
0.0
 10
10.53759952169394
 20
333.408737536592
 30
0.0
 10
11.58570466470978
 20
332.7972868831231
 30
0.0
 10
12.22173592147759
 20
332.4093187674981
 30
0.0
 10
12.5712689836721
 20
332.1912692564548
 30
0.0
 10
12.45281349544456
 20
332.2646205905905
 30
0.0
 10
12.42914554066633
 20
332.2792765266323
 30
0.0
  0
LWPOLYLINE
  5
D5
330
1B
100
AcDbEntity
 67
     1
  8
0
  6
Continuous
 62
     7
370
    25
100
AcDbPolyline
 90
       16
 70
   128
 43
0.0
 10
12.4174655445
 20
372.1841819063
 10
12.1228238888
 20
372.0018258935
 10
10.7961102558
 20
371.2170959331
 10
8.4283819836
 20
369.9776232574
 10
6.7454341931
 20
369.2427452599
 10
4.7885019852
 20
368.5657002109
 10
1.3762750542
 20
367.9084063757
 10
-2.2195891268
 20
368.0048503881
 10
-5.303874222
 20
368.7241848347
 10
-8.3135452884
 20
369.9233592376
 10
-9.7766107154
 20
370.6563374585
 10
-10.9976442145
 20
371.3324404702
 10
-11.8627226766
 20
371.8433813601
 10
-12.3846470642
 20
372.1634758256
 10
-12.5
 20
372.235367965
 10
-12.5
 20
372.235367965
  0
SPLINE
  5
D6
330
1B
100
AcDbEntity
 67
     1
  8
0
  6
Continuous
 62
     7
370
    25
100
AcDbSpline
210
0.0
220
0.0
230
1.0
 70
     8
 71
     3
 72
    18
 73
    14
 74
     0
 42
0.000000001
 43
0.00000001
 40
0.0
 40
0.0
 40
0.0
 40
0.0
 40
0.0404938944039408
 40
0.1434053358838459
 40
0.2476080757722472
 40
0.3538728483395042
 40
0.4570665457771345
 40
0.5550531819768982
 40
0.6557905771961834
 40
0.7671320319472583
 40
0.88470290809981
 40
0.9785789639959064
 40
1.0
 40
1.0
 40
1.0
 40
1.0
 10
-33.10695655306723
 20
332.2777751702401
 30
0.0
 10
-33.13293653923395
 20
332.2668806211636
 30
0.0
 10
-33.22494222792693
 20
332.228298595586
 30
0.0
 10
-32.51397514867045
 20
332.5278272775434
 30
0.0
 10
-31.05333028379368
 20
333.0566012017236
 30
0.0
 10
-28.88665554312066
 20
333.6267359301812
 30
0.0
 10
-26.34020538502271
 20
333.9419376790518
 30
0.0
 10
-23.73098187146051
 20
333.8877486333508
 30
0.0
 10
-21.23598284024951
 20
333.5150272011582
 30
0.0
 10
-19.00227756321887
 20
332.9399072281409
 30
0.0
 10
-17.47562985457685
 20
332.42583097917
 30
0.0
 10
-16.98800126491887
 20
332.2452411040094
 30
0.0
 10
-16.96527438922697
 20
332.2369148912641
 30
0.0
 10
-16.96105196510132
 20
332.2353679649709
 30
0.0
  0
SPLINE
  5
DC
330
1B
100
AcDbEntity
 67
     1
  8
0
  6
Continuous
 62
     7
370
    25
100
AcDbSpline
210
0.0
220
0.0
230
1.0
 70
     8
 71
     3
 72
    18
 73
    14
 74
     0
 42
0.000000001
 43
0.00000001
 40
0.0
 40
0.0
 40
0.0
 40
0.0
 40
0.0553379614921179
 40
0.1904462619497011
 40
0.2204547188069825
 40
0.3612605823933397
 40
0.494094875738157
 40
0.6445215618576692
 40
0.7282846625444797
 40
0.8146187922770858
 40
0.895244012541617
 40
0.9787364126116874
 40
1.0
 40
1.0
 40
1.0
 40
1.0
 10
60.14050003676966
 20
369.9777719567721
 30
0.0
 10
59.78740231324859
 20
369.8702060265298
 30
0.0
 10
58.57221223876211
 20
369.5000165801644
 30
0.0
 10
56.94743937839595
 20
369.2008125033914
 30
0.0
 10
54.64389815577941
 20
369.0437328641455
 30
0.0
 10
52.28792297915057
 20
369.1787157145472
 30
0.0
 10
49.34400000507178
 20
369.9053993571883
 30
0.0
 10
47.24883922114833
 20
370.7319736828591
 30
0.0
 10
45.83791180607411
 20
371.3918431138231
 30
0.0
 10
44.98694170985873
 20
371.8263869010228
 30
0.0
 10
44.44635117612281
 20
372.1169340814495
 30
0.0
 10
44.2149994410252
 20
372.244839663765
 30
0.0
 10
44.25027901391538
 20
372.2253843489079
 30
0.0
 10
44.25744013471977
 20
372.2214352687869
 30
0.0
  0
SPLINE
  5
DF
330
1B
100
AcDbEntity
 67
     1
  8
0
  6
Continuous
 62
     7
370
    25
100
AcDbSpline
210
0.0
220
0.0
230
1.0
 70
     8
 71
     3
 72
    16
 73
    12
 74
     0
 42
0.000000001
 43
0.00000001
 40
0.0
 40
0.0
 40
0.0
 40
0.0
 40
0.0505813871303453
 40
0.202311944792306
 40
0.3527408845594689
 40
0.5141257521610546
 40
0.5965585197546327
 40
0.6821719795904623
 40
0.8280721467159994
 40
0.960122452383189
 40
1.0
 40
1.0
 40
1.0
 40
1.0
 10
44.25744013471977
 20
332.249300661155
 30
0.0
 10
44.26019548395439
 20
332.2508062141102
 30
0.0
 10
44.27121613984906
 20
332.2568280210169
 30
0.0
 10
45.03062524290157
 20
332.6761798176814
 30
0.0
 10
46.87928310030509
 20
333.594721188674
 30
0.0
 10
49.15033641792125
 20
334.490210414044
 30
0.0
 10
51.37954528096827
 20
335.065841665256
 30
0.0
 10
53.68322015171426
 20
335.4217455369259
 30
0.0
 10
56.51211514671736
 20
335.3859347290654
 30
0.0
 10
58.79794914198233
 20
334.9071160330946
 30
0.0
 10
59.88773199116186
 20
334.570938228878
 30
0.0
 10
60.14050003676966
 20
334.4929639731697
 30
0.0
  0
LINE
  5
EC
330
1B
100
AcDbEntity
 67
     1
  8
0
  6
Continuous
 62
     7
370
    25
100
AcDbLine
 10
12.5
 20
25.6423158866
 30
0.0
 11
12.5
 21
332.235367965
 31
0.0
  0
LINE
  5
ED
330
1B
100
AcDbEntity
 67
     1
  8
0
  6
Continuous
 62
     7
370
    25
100
AcDbLine
 10
12.5
 20
372.235367965
 30
0.0
 11
12.5
 21
624.3568587313
 31
0.0
  0
LINE
  5
EE
330
1B
100
AcDbEntity
 67
     1
  8
0
  6
Continuous
 62
     7
370
    25
100
AcDbLine
 10
-12.5
 20
624.3550820283
 30
0.0
 11
-12.5
 21
372.235367965
 31
0.0
  0
LINE
  5
EF
330
1B
100
AcDbEntity
 67
     1
  8
0
  6
Continuous
 62
     7
370
    25
100
AcDbLine
 10
-12.5
 20
332.235367965
 30
0.0
 11
-12.5
 21
25.6438688887
 31
0.0
  0
LINE
  5
F0
330
1B
100
AcDbEntity
 67
     1
  8
0
  6
Continuous
 62
     7
370
    25
100
AcDbLine
 10
12.9961405899
 20
624.0
 30
0.0
 11
19.5
 21
624.0
 31
0.0
  0
LINE
  5
F1
330
1B
100
AcDbEntity
 67
     1
  8
0
  6
Continuous
 62
     7
370
    25
100
AcDbLine
 10
19.5
 20
660.0
 30
0.0
 11
-45.0
 21
660.0
 31
0.0
  0
LINE
  5
F2
330
1B
100
AcDbEntity
 67
     1
  8
0
  6
Continuous
 62
     7
370
    25
100
AcDbLine
 10
-45.0
 20
624.0
 30
0.0
 11
-12.9152393324
 21
624.0
 31
0.0
  0
LINE
  5
F3
330
1B
100
AcDbEntity
 67
     1
  8
0
  6
Continuous
 62
     7
370
    25
100
AcDbLine
 10
-45.0
 20
-10.0
 30
0.0
 11
19.5
 21
-10.0
 31
0.0
  0
LINE
  5
F4
330
1B
100
AcDbEntity
 67
     1
  8
0
  6
Continuous
 62
     7
370
    25
100
AcDbLine
 10
19.5
 20
26.0
 30
0.0
 11
12.9961405899
 21
26.0
 31
0.0
  0
LINE
  5
F5
330
1B
100
AcDbEntity
 67
     1
  8
0
  6
Continuous
 62
     7
370
    25
100
AcDbLine
 10
-12.9152393324
 20
26.0
 30
0.0
 11
-45.0
 21
26.0
 31
0.0
  0
LINE
  5
F6
330
1B
100
AcDbEntity
 67
     1
  8
0
  6
Continuous
 62
     7
370
    25
100
AcDbLine
 10
12.5
 20
332.235367965
 30
0.0
 11
44.2574401347
 21
332.235367965
 31
0.0
  0
LINE
  5
F7
330
1B
100
AcDbEntity
 67
     1
  8
0
  6
Continuous
 62
     7
370
    25
100
AcDbLine
 10
44.2574401347
 20
372.235367965
 30
0.0
 11
12.5
 21
372.235367965
 31
0.0
  0
LINE
  5
F8
330
1B
100
AcDbEntity
 67
     1
  8
0
  6
Continuous
 62
     7
370
    25
100
AcDbLine
 10
-16.9610519651
 20
332.235367965
 30
0.0
 11
-12.5
 21
332.235367965
 31
0.0
  0
LINE
  5
F9
330
1B
100
AcDbEntity
 67
     1
  8
0
  6
Continuous
 62
     7
370
    25
100
AcDbLine
 10
-44.0
 20
332.235367965
 30
0.0
 11
-33.1069565531
 21
332.235367965
 31
0.0
  0
LINE
  5
FA
330
1B
100
AcDbEntity
 67
     1
  8
0
  6
Continuous
 62
     7
370
    25
100
AcDbLine
 10
-12.5
 20
372.235367965
 30
0.0
 11
-44.0
 21
372.235367965
 31
0.0
  0
LINE
  5
FB
330
1B
100
AcDbEntity
 67
     1
  8
0
  6
Continuous
 62
     7
370
    25
100
AcDbLine
 10
-32.2582433862
 20
332.6084943154
 30
0.0
 11
-31.3791594369
 21
327.6229614957
 31
0.0
  0
LINE
  5
FC
330
1B
100
AcDbEntity
 67
     1
  8
0
  6
Continuous
 62
     7
370
    25
100
AcDbLine
 10
-17.2244245882
 20
327.9702578511
 30
0.0
 11
-18.0413068695
 21
332.6030274818
 31
0.0
  0
LINE
  5
FD
330
1B
100
AcDbEntity
 67
     1
  8
0
  6
Continuous
 62
     7
370
    25
100
AcDbLine
 10
60.1405000368
 20
334.436524073
 30
0.0
 11
66.0
 21
334.436524073
 31
0.0
  0
LINE
  5
FE
330
1B
100
AcDbEntity
 67
     1
  8
0
  6
Continuous
 62
     7
370
    25
100
AcDbLine
 10
66.0
 20
370.034211857
 30
0.0
 11
60.1405000368
 21
370.034211857
 31
0.0
  0
LINE
  5
FF
330
1B
100
AcDbEntity
 67
     1
  8
0
  6
Continuous
 62
     7
370
    25
100
AcDbLine
 10
18.0
 20
660.0
 30
0.0
 11
18.0
 21
624.0
 31
0.0
  0
LINE
  5
100
330
1B
100
AcDbEntity
 67
     1
  8
0
  6
Continuous
 62
     7
370
    25
100
AcDbLine
 10
20.0
 20
624.5
 30
0.0
 11
20.0
 21
659.5
 31
0.0
  0
LINE
  5
101
330
1B
100
AcDbEntity
 67
     1
  8
0
  6
Continuous
 62
     7
370
    25
100
AcDbLine
 10
-45.0
 20
660.0
 30
0.0
 11
-45.0
 21
624.0
 31
0.0
  0
LINE
  5
102
330
1B
100
AcDbEntity
 67
     1
  8
0
  6
Continuous
 62
     7
370
    25
100
AcDbLine
 10
18.0
 20
26.0
 30
0.0
 11
18.0
 21
-10.0
 31
0.0
  0
LINE
  5
103
330
1B
100
AcDbEntity
 67
     1
  8
0
  6
Continuous
 62
     7
370
    25
100
AcDbLine
 10
20.0
 20
25.5
 30
0.0
 11
20.0
 21
-9.4999998417
 31
0.0
  0
LINE
  5
104
330
1B
100
AcDbEntity
 67
     1
  8
0
  6
Continuous
 62
     7
370
    25
100
AcDbLine
 10
-45.0
 20
26.0
 30
0.0
 11
-45.0
 21
-10.0
 31
0.0
  0
LINE
  5
105
330
1B
100
AcDbEntity
 67
     1
  8
0
  6
Continuous
 62
     7
370
    25
100
AcDbLine
 10
24.0
 20
372.235367965
 30
0.0
 11
24.0
 21
332.235367965
 31
0.0
  0
LINE
  5
106
330
1B
100
AcDbEntity
 67
     1
  8
0
  6
Continuous
 62
     7
370
    25
100
AcDbLine
 10
26.0
 20
372.235367965
 30
0.0
 11
26.0
 21
332.235367965
 31
0.0
  0
LINE
  5
107
330
1B
100
AcDbEntity
 67
     1
  8
0
  6
Continuous
 62
     7
370
    25
100
AcDbLine
 10
-45.0
 20
333.235367965
 30
0.0
 11
-45.0
 21
371.235367965
 31
0.0
  0
LINE
  5
108
330
1B
100
AcDbEntity
 67
     1
  8
0
  6
Continuous
 62
     7
370
    25
100
AcDbLine
 10
-18.2092324534
 20
326.7966096734
 30
0.0
 11
-30.3943516839
 21
326.7966096734
 31
0.0
  0
LINE
  5
109
330
1B
100
AcDbEntity
 67
     1
  8
0
  6
Continuous
 62
     7
370
    25
100
AcDbLine
 10
66.0
 20
369.9777719568
 30
0.0
 11
60.1405000368
 21
369.9777719568
 31
0.0
  0
LINE
  5
10A
330
1B
100
AcDbEntity
 67
     1
  8
0
  6
Continuous
 62
     7
370
    25
100
AcDbLine
 10
60.1405000368
 20
334.4929639732
 30
0.0
 11
66.0
 21
334.4929639732
 31
0.0
  0
LINE
  5
10B
330
1B
100
AcDbEntity
 67
     1
  8
0
  6
Continuous
 62
     7
370
    25
100
AcDbLine
 10
66.0
 20
370.034211857
 30
0.0
 11
66.0
 21
334.436524073
 31
0.0
  0
LINE
  5
10C
330
1B
100
AcDbEntity
 67
     1
  8
0
  6
Continuous
 62
     8
370
    25
100
AcDbLine
 10
19.5
 20
624.0
 30
0.0
 11
19.5
 21
660.0
 31
0.0
  0
LINE
  5
10D
330
1B
100
AcDbEntity
 67
     1
  8
0
  6
Continuous
 62
     8
370
    25
100
AcDbLine
 10
19.5
 20
-10.0
 30
0.0
 11
19.5
 21
26.0
 31
0.0
  0
LINE
  5
10E
330
1B
100
AcDbEntity
 67
     1
  8
0
  6
Continuous
 62
     8
370
    25
100
AcDbLine
 10
-44.0
 20
372.235367965
 30
0.0
 11
-44.0
 21
332.235367965
 31
0.0
  0
LINE
  5
10F
330
1B
100
AcDbEntity
 67
     1
  8
0
  6
Continuous
 62
     8
370
    25
100
AcDbLine
 10
-31.3791594369
 20
327.6229614957
 30
0.0
 11
-17.2244245882
 21
327.9702578511
 31
0.0
  0
LINE
  5
110
330
1B
100
AcDbEntity
 67
     1
  8
0
  6
Continuous
 62
     8
370
    25
100
AcDbLine
 10
60.1405000368
 20
334.436524073
 30
0.0
 11
60.1405000368
 21
334.4929639732
 31
0.0
  0
LINE
  5
111
330
1B
100
AcDbEntity
 67
     1
  8
0
  6
Continuous
 62
     8
370
    25
100
AcDbLine
 10
60.1405000368
 20
369.9777719568
 30
0.0
 11
60.1405000368
 21
370.034211857
 31
0.0
  0
ARC
  5
112
330
1B
100
AcDbEntity
 67
     1
  8
0
  6
Continuous
 62
     7
370
    25
100
AcDbCircle
 10
19.5
 20
659.5
 30
0.0
 40
0.4999999999998863
100
AcDbArc
 50
0.0
 51
90.0
  0
ARC
  5
113
330
1B
100
AcDbEntity
 67
     1
  8
0
  6
Continuous
 62
     7
370
    25
100
AcDbCircle
 10
19.5
 20
624.5
 30
0.0
 40
0.5
100
AcDbArc
 50
270.0
 51
360.0
  0
ARC
  5
114
330
1B
100
AcDbEntity
 67
     1
  8
0
  6
Continuous
 62
     7
370
    25
100
AcDbCircle
 10
19.5
 20
25.5
 30
0.0
 40
0.5000000000000426
100
AcDbArc
 50
0.0
 51
90.0
  0
ARC
  5
115
330
1B
100
AcDbEntity
 67
     1
  8
0
  6
Continuous
 62
     7
370
    25
100
AcDbCircle
 10
19.5
 20
-9.5
 30
0.0
 40
0.5000000000000142
100
AcDbArc
 50
270.0
 51
0.0
  0
ARC
  5
116
330
1B
100
AcDbEntity
 67
     1
  8
0
  6
Continuous
 62
     7
370
    25
100
AcDbCircle
 10
-44.0
 20
371.235367965
 30
0.0
 40
1.000000000000057
100
AcDbArc
 50
90.0
 51
180.0
  0
ARC
  5
117
330
1B
100
AcDbEntity
 67
     1
  8
0
  6
Continuous
 62
     7
370
    25
100
AcDbCircle
 10
-44.0
 20
333.235367965
 30
0.0
 40
1.000000000000057
100
AcDbArc
 50
180.0
 51
270.0
  0
ARC
  5
118
330
1B
100
AcDbEntity
 67
     1
  8
0
  6
Continuous
 62
     7
370
    25
100
AcDbCircle
 10
-18.2092323412
 20
327.7966096734
 30
0.0
 40
1.000000000000004
100
AcDbArc
 50
270.0
 51
10.2775536665
  0
ARC
  5
119
330
1B
100
AcDbEntity
 67
     1
  8
0
  6
Continuous
 62
     7
370
    25
100
AcDbCircle
 10
-30.3943516839
 20
327.7966096734
 30
0.0
 40
0.999999999999837
100
AcDbArc
 50
189.9903020529
 51
270.0
  0
ARC
  5
11A
330
1B
100
AcDbEntity
 67
     1
  8
0
  6
Continuous
 62
     7
370
    25
100
AcDbCircle
 10
60.1405000368
 20
334.936524073
 30
0.0
 40
0.4999999999995453
100
AcDbArc
 50
252.6386185366
 51
270.0
  0
ARC
  5
11B
330
1B
100
AcDbEntity
 67
     1
  8
0
  6
Continuous
 62
     7
370
    25
100
AcDbCircle
 10
60.1405000368
 20
369.534211857
 30
0.0
 40
0.5000000000002842
100
AcDbArc
 50
90.0
 51
107.3613814634
  0
ARC
  5
11C
330
1B
100
AcDbEntity
 67
     1
  8
0
  6
Continuous
 62
     7
370
    25
100
AcDbCircle
 10
60.0333211742
 20
369.8501961581
 30
0.0
 40
0.1666220062867874
100
AcDbArc
 50
49.9657407483
 51
104.606967856
  0
ARC
  5
11D
330
1B
100
AcDbEntity
 67
     1
  8
0
  6
Continuous
 62
     7
370
    25
100
AcDbCircle
 10
60.0333211742
 20
334.6205397718
 30
0.0
 40
0.1666220062860066
100
AcDbArc
 50
255.3930321438
 51
310.0342592518
  0
VIEWPORT
  5
11E
330
1B
100
AcDbEntity
 67
     1
  8
0
100
AcDbViewport
 10
0.0
 20
0.0
 30
0.0
 40
205.6
 41
156.0
 68
     1
 69
     1
 12
0.0
 22
325.0
 13
0.0
 23
0.0
 14
10.0
 24
10.0
 15
10.0
 25
10.0
 16
0.0
 26
0.0
 36
1.0
 17
0.0
 27
0.0
 37
0.0
 42
50.0
 43
0.0
 44
0.0
 45
683.4
 50
0.0
 51
0.0
 72
   100
 90
   557152
  1

281
     0
 71
     1
 74
     0
110
0.0
120
0.0
130
0.0
111
1.0
121
0.0
131
0.0
112
0.0
122
1.0
132
0.0
 79
     0
146
0.0
  0
ENDSEC
  0
SECTION
  2
OBJECTS
  0
DICTIONARY
  5
C
330
0
100
AcDbDictionary
281
     1
  3
ACAD_GROUP
350
D
  3
ACAD_LAYOUT
350
1A
  3
ACAD_MLINESTYLE
350
17
  3
ACAD_PLOTSETTINGS
350
19
  3
ACAD_PLOTSTYLENAME
350
E
  3
ACAD_SCALELIST
350
47
  0
DICTIONARY
  5
D
102
{ACAD_REACTORS
330
C
102
}
330
C
100
AcDbDictionary
281
     1
  0
DICTIONARY
  5
1A
102
{ACAD_REACTORS
330
C
102
}
330
C
100
AcDbDictionary
281
     1
  3
_Left
350
1E
  3
Layout2
350
26
  3
Model
350
22
  0
DICTIONARY
  5
17
102
{ACAD_REACTORS
330
C
102
}
330
C
100
AcDbDictionary
281
     1
  3
Standard
350
18
  0
DICTIONARY
  5
19
102
{ACAD_REACTORS
330
C
102
}
330
C
100
AcDbDictionary
281
     1
  0
ACDBDICTIONARYWDFLT
  5
E
102
{ACAD_REACTORS
330
C
102
}
330
C
100
AcDbDictionary
281
     1
  3
Normal
350
F
100
AcDbDictionaryWithDefault
340
F
  0
DICTIONARY
  5
47
102
{ACAD_REACTORS
330
C
102
}
330
C
100
AcDbDictionary
281
     1
  3
A0
350
48
  3
A1
350
49
  3
A2
350
4A
  3
A3
350
4B
  3
A4
350
4C
  3
A5
350
4D
  3
A6
350
4E
  3
A7
350
4F
  3
A8
350
50
  3
A9
350
51
  3
B0
350
52
  3
B1
350
53
  3
B2
350
54
  3
B3
350
55
  3
B4
350
56
  3
B5
350
57
  3
B6
350
58
  3
B7
350
59
  3
B8
350
5A
  3
B9
350
5B
  3
C0
350
5C
  3
C1
350
5D
  3
C2
350
5E
  3
C3
350
5F
  3
C4
350
60
  3
C5
350
61
  3
C6
350
62
  3
C7
350
63
  3
C8
350
64
  3
C9
350
65
  3
D0
350
66
  3
D1
350
67
  3
D2
350
68
  0
LAYOUT
  5
1E
102
{ACAD_REACTORS
330
1A
102
}
330
1A
100
AcDbPlotSettings
  1

  2
none_device
  4
ISO_A4_(210.00_x_297.00_MM)
  6

 40
7.5
 41
20.0
 42
7.5
 43
20.0
 44
210.0
 45
297.0
 46
0.0
 47
0.0
 48
0.0
 49
0.0
140
0.0
141
0.0
142
1.0
143
3.4358974359
 70
   688
 72
     1
 73
     1
 74
     1
  7

 75
     0
147
0.2910447761
148
45.0
149
10.0
100
AcDbLayout
  1
_Left
 70
     1
 71
     1
 10
-113.7179487179
 20
-35.7692307692
 11
906.7435897436
 21
685.7692307692
 12
0.0
 22
0.0
 32
0.0
 14
-45.0
 24
-10.0
 34
0.0
 15
66.0
 25
660.0
 35
0.0
146
0.0
 13
0.0
 23
0.0
 33
0.0
 16
1.0
 26
0.0
 36
0.0
 17
0.0
 27
1.0
 37
0.0
 76
     0
330
1B
331
11E
  0
LAYOUT
  5
26
102
{ACAD_REACTORS
330
1A
102
}
330
1A
100
AcDbPlotSettings
  1

  2
none_device
  4

  6

 40
0.0
 41
0.0
 42
0.0
 43
0.0
 44
0.0
 45
0.0
 46
0.0
 47
0.0
 48
0.0
 49
0.0
140
0.0
141
0.0
142
1.0
143
1.0
 70
   688
 72
     1
 73
     0
 74
     5
  7

 75
    16
147
1.0
148
0.0
149
0.0
100
AcDbLayout
  1
Layout2
 70
     1
 71
     2
 10
0.0
 20
0.0
 11
0.0
 21
0.0
 12
0.0
 22
0.0
 32
0.0
 14
0.0
 24
0.0
 34
0.0
 15
0.0
 25
0.0
 35
0.0
146
0.0
 13
0.0
 23
0.0
 33
0.0
 16
1.0
 26
0.0
 36
0.0
 17
0.0
 27
1.0
 37
0.0
 76
     0
330
23
  0
LAYOUT
  5
22
102
{ACAD_REACTORS
330
1A
102
}
330
1A
100
AcDbPlotSettings
  1

  2
none_device
  4
ANSI_A_(11.00_x_8.50_Inches)
  6

 40
6.35
 41
19.05
 42
6.35000508
 43
19.05000254
 44
279.4
 45
215.9
 46
133.34999746
 47
-14.7803370909
 48
0.0
 49
0.0
140
0.0
141
0.0
142
0.0125597015
143
1.0
 70
  1696
 72
     0
 73
     0
 74
     0
  7

 75
     0
147
0.0179189148
148
-1300.4909072572
149
0.0
100
AcDbLayout
  1
Model
 70
     1
 71
     0
 10
0.0
 20
0.0
 11
420.0
 21
297.0
 12
0.0
 22
0.0
 32
0.0
 14
-20.0
 24
-10.0
 34
0.0
 15
20.0
 25
660.0
 35
0.0
146
0.0
 13
0.0
 23
0.0
 33
0.0
 16
1.0
 26
0.0
 36
0.0
 17
0.0
 27
1.0
 37
0.0
 76
     0
330
1F
331
29
  0
MLINESTYLE
  5
18
102
{ACAD_REACTORS
330
17
102
}
330
17
100
AcDbMlineStyle
  2
Standard
 70
     0
  3

 62
   256
 51
90.0
 52
90.0
 71
     2
 49
0.5
 62
   256
  6
BYLAYER
 49
-0.5
 62
   256
  6
BYLAYER
  0
ACDBPLACEHOLDER
  5
F
102
{ACAD_REACTORS
330
E
102
}
330
E
  0
SCALE
  5
48
102
{ACAD_REACTORS
330
47
102
}
330
47
100
AcDbScale
 70
     0
300
1:1
140
1.0
141
1.0
290
     1
  0
SCALE
  5
49
102
{ACAD_REACTORS
330
47
102
}
330
47
100
AcDbScale
 70
     0
300
1:2
140
1.0
141
2.0
290
     0
  0
SCALE
  5
4A
102
{ACAD_REACTORS
330
47
102
}
330
47
100
AcDbScale
 70
     0
300
1:4
140
1.0
141
4.0
290
     0
  0
SCALE
  5
4B
102
{ACAD_REACTORS
330
47
102
}
330
47
100
AcDbScale
 70
     0
300
1:5
140
1.0
141
5.0
290
     0
  0
SCALE
  5
4C
102
{ACAD_REACTORS
330
47
102
}
330
47
100
AcDbScale
 70
     0
300
1:8
140
1.0
141
8.0
290
     0
  0
SCALE
  5
4D
102
{ACAD_REACTORS
330
47
102
}
330
47
100
AcDbScale
 70
     0
300
1:10
140
1.0
141
10.0
290
     0
  0
SCALE
  5
4E
102
{ACAD_REACTORS
330
47
102
}
330
47
100
AcDbScale
 70
     0
300
1:16
140
1.0
141
16.0
290
     0
  0
SCALE
  5
4F
102
{ACAD_REACTORS
330
47
102
}
330
47
100
AcDbScale
 70
     0
300
1:20
140
1.0
141
20.0
290
     0
  0
SCALE
  5
50
102
{ACAD_REACTORS
330
47
102
}
330
47
100
AcDbScale
 70
     0
300
1:30
140
1.0
141
30.0
290
     0
  0
SCALE
  5
51
102
{ACAD_REACTORS
330
47
102
}
330
47
100
AcDbScale
 70
     0
300
1:40
140
1.0
141
40.0
290
     0
  0
SCALE
  5
52
102
{ACAD_REACTORS
330
47
102
}
330
47
100
AcDbScale
 70
     0
300
1:50
140
1.0
141
50.0
290
     0
  0
SCALE
  5
53
102
{ACAD_REACTORS
330
47
102
}
330
47
100
AcDbScale
 70
     0
300
1:100
140
1.0
141
100.0
290
     0
  0
SCALE
  5
54
102
{ACAD_REACTORS
330
47
102
}
330
47
100
AcDbScale
 70
     0
300
2:1
140
2.0
141
1.0
290
     0
  0
SCALE
  5
55
102
{ACAD_REACTORS
330
47
102
}
330
47
100
AcDbScale
 70
     0
300
4:1
140
4.0
141
1.0
290
     0
  0
SCALE
  5
56
102
{ACAD_REACTORS
330
47
102
}
330
47
100
AcDbScale
 70
     0
300
8:1
140
8.0
141
1.0
290
     0
  0
SCALE
  5
57
102
{ACAD_REACTORS
330
47
102
}
330
47
100
AcDbScale
 70
     0
300
10:1
140
10.0
141
1.0
290
     0
  0
SCALE
  5
58
102
{ACAD_REACTORS
330
47
102
}
330
47
100
AcDbScale
 70
     0
300
100:1
140
100.0
141
1.0
290
     0
  0
SCALE
  5
59
102
{ACAD_REACTORS
330
47
102
}
330
47
100
AcDbScale
 70
     0
300
1/128" = 1'-0"
140
0.0078125
141
12.0
290
     0
  0
SCALE
  5
5A
102
{ACAD_REACTORS
330
47
102
}
330
47
100
AcDbScale
 70
     0
300
1/64" = 1'-0"
140
0.015625
141
12.0
290
     0
  0
SCALE
  5
5B
102
{ACAD_REACTORS
330
47
102
}
330
47
100
AcDbScale
 70
     0
300
1/32" = 1'-0"
140
0.03125
141
12.0
290
     0
  0
SCALE
  5
5C
102
{ACAD_REACTORS
330
47
102
}
330
47
100
AcDbScale
 70
     0
300
1/16" = 1'-0"
140
0.0625
141
12.0
290
     0
  0
SCALE
  5
5D
102
{ACAD_REACTORS
330
47
102
}
330
47
100
AcDbScale
 70
     0
300
3/32" = 1'-0"
140
0.09375
141
12.0
290
     0
  0
SCALE
  5
5E
102
{ACAD_REACTORS
330
47
102
}
330
47
100
AcDbScale
 70
     0
300
1/8" = 1'-0"
140
0.125
141
12.0
290
     0
  0
SCALE
  5
5F
102
{ACAD_REACTORS
330
47
102
}
330
47
100
AcDbScale
 70
     0
300
3/16" = 1'-0"
140
0.1875
141
12.0
290
     0
  0
SCALE
  5
60
102
{ACAD_REACTORS
330
47
102
}
330
47
100
AcDbScale
 70
     0
300
1/4" = 1'-0"
140
0.25
141
12.0
290
     0
  0
SCALE
  5
61
102
{ACAD_REACTORS
330
47
102
}
330
47
100
AcDbScale
 70
     0
300
3/8" = 1'-0"
140
0.375
141
12.0
290
     0
  0
SCALE
  5
62
102
{ACAD_REACTORS
330
47
102
}
330
47
100
AcDbScale
 70
     0
300
1/2" = 1'-0"
140
0.5
141
12.0
290
     0
  0
SCALE
  5
63
102
{ACAD_REACTORS
330
47
102
}
330
47
100
AcDbScale
 70
     0
300
3/4" = 1'-0"
140
0.75
141
12.0
290
     0
  0
SCALE
  5
64
102
{ACAD_REACTORS
330
47
102
}
330
47
100
AcDbScale
 70
     0
300
1" = 1'-0"
140
1.0
141
12.0
290
     0
  0
SCALE
  5
65
102
{ACAD_REACTORS
330
47
102
}
330
47
100
AcDbScale
 70
     0
300
1-1/2" = 1'-0"
140
1.5
141
12.0
290
     0
  0
SCALE
  5
66
102
{ACAD_REACTORS
330
47
102
}
330
47
100
AcDbScale
 70
     0
300
3" = 1'-0"
140
3.0
141
12.0
290
     0
  0
SCALE
  5
67
102
{ACAD_REACTORS
330
47
102
}
330
47
100
AcDbScale
 70
     0
300
6" = 1'-0"
140
6.0
141
12.0
290
     0
  0
SCALE
  5
68
102
{ACAD_REACTORS
330
47
102
}
330
47
100
AcDbScale
 70
     0
300
1'-0" = 1'-0"
140
12.0
141
12.0
290
     0
  0
ENDSEC
  0
EOF
