  0
SECTION
  2
HEADER
  9
$ACADVER
  1
AC1015
  9
$ACADMAINTVER
 70
     6
  9
$DWGCODEPAGE
  3
ANSI_1252
  9
$INSBASE
 10
0.0
 20
0.0
 30
0.0
  9
$EXTMIN
 10
-19.5866141732
 20
0.0
 30
0.0
  9
$EXTMAX
 10
11.7125984252
 20
15.7480314961
 30
0.0
  9
$LIMMIN
 10
0.0
 20
0.0
  9
$LIMMAX
 10
12.0
 20
9.0
  9
$ORTHOMODE
 70
     0
  9
$REGENMODE
 70
     1
  9
$FILLMODE
 70
     1
  9
$QTEXTMODE
 70
     0
  9
$MIRRTEXT
 70
     1
  9
$LTSCALE
 40
1.0
  9
$ATTMODE
 70
     1
  9
$TEXTSIZE
 40
0.1377952756
  9
$TRACEWID
 40
0.05
  9
$TEXTSTYLE
  7
Standard
  9
$CLAYER
  8
0
  9
$CELTYPE
  6
ByLayer
  9
$CECOLOR
 62
   256
  9
$CELTSCALE
 40
1.0
  9
$DISPSILH
 70
     0
  9
$DIMSCALE
 40
1.0
  9
$DIMASZ
 40
0.13
  9
$DIMEXO
 40
0.0393700787
  9
$DIMDLI
 40
0.38
  9
$DIMRND
 40
0.0
  9
$DIMDLE
 40
0.0
  9
$DIMEXE
 40
0.0393700787
  9
$DIMTP
 40
0.0
  9
$DIMTM
 40
0.0
  9
$DIMTXT
 40
0.1377952756
  9
$DIMCEN
 40
0.09
  9
$DIMTSZ
 40
0.0
  9
$DIMTOL
 70
     0
  9
$DIMLIM
 70
     0
  9
$DIMTIH
 70
     1
  9
$DIMTOH
 70
     1
  9
$DIMSE1
 70
     0
  9
$DIMSE2
 70
     0
  9
$DIMTAD
 70
     1
  9
$DIMZIN
 70
     1
  9
$DIMBLK
  1

  9
$DIMASO
 70
     1
  9
$DIMSHO
 70
     1
  9
$DIMPOST
  1

  9
$DIMAPOST
  1

  9
$DIMALT
 70
     0
  9
$DIMALTD
 70
     2
  9
$DIMALTF
 40
25.4
  9
$DIMLFAC
 40
1.0
  9
$DIMTOFL
 70
     0
  9
$DIMTVP
 40
0.0
  9
$DIMTIX
 70
     0
  9
$DIMSOXD
 70
     0
  9
$DIMSAH
 70
     0
  9
$DIMBLK1
  1

  9
$DIMBLK2
  1

  9
$DIMSTYLE
  2
Standard
  9
$DIMCLRD
 70
     0
  9
$DIMCLRE
 70
     0
  9
$DIMCLRT
 70
     0
  9
$DIMTFAC
 40
1.0
  9
$DIMGAP
 40
0.06
  9
$DIMJUST
 70
     0
  9
$DIMSD1
 70
     0
  9
$DIMSD2
 70
     0
  9
$DIMTOLJ
 70
     1
  9
$DIMTZIN
 70
     1
  9
$DIMALTZ
 70
     0
  9
$DIMALTTZ
 70
     0
  9
$DIMUPT
 70
     0
  9
$DIMDEC
 70
     2
  9
$DIMTDEC
 70
     2
  9
$DIMALTU
 70
     2
  9
$DIMALTTD
 70
     2
  9
$DIMTXSTY
  7
Standard
  9
$DIMAUNIT
 70
     0
  9
$DIMADEC
 70
     2
  9
$DIMALTRND
 40
0.0
  9
$DIMAZIN
 70
     0
  9
$DIMDSEP
 70
    46
  9
$DIMATFIT
 70
     3
  9
$DIMFRAC
 70
     0
  9
$DIMLDRBLK
  1

  9
$DIMLUNIT
 70
     2
  9
$DIMLWD
 70
    -2
  9
$DIMLWE
 70
    -2
  9
$DIMTMOVE
 70
     0
  9
$LUNITS
 70
     2
  9
$LUPREC
 70
     2
  9
$SKETCHINC
 40
0.1
  9
$FILLETRAD
 40
0.5
  9
$AUNITS
 70
     0
  9
$AUPREC
 70
     2
  9
$MENU
  1
.
  9
$ELEVATION
 40
0.0
  9
$PELEVATION
 40
0.0
  9
$THICKNESS
 40
0.0
  9
$LIMCHECK
 70
     0
  9
$CHAMFERA
 40
0.0
  9
$CHAMFERB
 40
0.0
  9
$CHAMFERC
 40
0.0
  9
$CHAMFERD
 40
0.0
  9
$SKPOLY
 70
     0
  9
$TDCREATE
 40
2460405.667744143
  9
$TDUCREATE
 40
2460405.626077477
  9
$TDUPDATE
 40
2460405.667776215
  9
$TDUUPDATE
 40
2460405.626109548
  9
$TDINDWG
 40
0.0000000116
  9
$TDUSRTIMER
 40
0.0000000116
  9
$USRTIMER
 70
     1
  9
$ANGBASE
 50
0.0
  9
$ANGDIR
 70
     0
  9
$PDMODE
 70
     0
  9
$PDSIZE
 40
-1.0
  9
$PLINEWID
 40
0.0
  9
$SPLFRAME
 70
     0
  9
$SPLINETYPE
 70
     6
  9
$SPLINESEGS
 70
     8
  9
$HANDSEED
  5
86C
  9
$SURFTAB1
 70
     6
  9
$SURFTAB2
 70
     6
  9
$SURFTYPE
 70
     6
  9
$SURFU
 70
     6
  9
$SURFV
 70
     6
  9
$UCSBASE
  2

  9
$UCSNAME
  2

  9
$UCSORG
 10
0.0
 20
0.0
 30
0.0
  9
$UCSXDIR
 10
1.0
 20
0.0
 30
0.0
  9
$UCSYDIR
 10
0.0
 20
1.0
 30
0.0
  9
$UCSORTHOREF
  2

  9
$UCSORTHOVIEW
 70
     0
  9
$UCSORGTOP
 10
0.0
 20
0.0
 30
0.0
  9
$UCSORGBOTTOM
 10
0.0
 20
0.0
 30
0.0
  9
$UCSORGLEFT
 10
0.0
 20
0.0
 30
0.0
  9
$UCSORGRIGHT
 10
0.0
 20
0.0
 30
0.0
  9
$UCSORGFRONT
 10
0.0
 20
0.0
 30
0.0
  9
$UCSORGBACK
 10
0.0
 20
0.0
 30
0.0
  9
$PUCSBASE
  2

  9
$PUCSNAME
  2

  9
$PUCSORG
 10
0.0
 20
0.0
 30
0.0
  9
$PUCSXDIR
 10
1.0
 20
0.0
 30
0.0
  9
$PUCSYDIR
 10
0.0
 20
1.0
 30
0.0
  9
$PUCSORTHOREF
  2

  9
$PUCSORTHOVIEW
 70
     0
  9
$PUCSORGTOP
 10
0.0
 20
0.0
 30
0.0
  9
$PUCSORGBOTTOM
 10
0.0
 20
0.0
 30
0.0
  9
$PUCSORGLEFT
 10
0.0
 20
0.0
 30
0.0
  9
$PUCSORGRIGHT
 10
0.0
 20
0.0
 30
0.0
  9
$PUCSORGFRONT
 10
0.0
 20
0.0
 30
0.0
  9
$PUCSORGBACK
 10
0.0
 20
0.0
 30
0.0
  9
$USERI1
 70
     0
  9
$USERI2
 70
     0
  9
$USERI3
 70
     0
  9
$USERI4
 70
     0
  9
$USERI5
 70
     0
  9
$USERR1
 40
0.0
  9
$USERR2
 40
0.0
  9
$USERR3
 40
0.0
  9
$USERR4
 40
0.0
  9
$USERR5
 40
0.0
  9
$WORLDVIEW
 70
     1
  9
$SHADEDGE
 70
     3
  9
$SHADEDIF
 70
    70
  9
$TILEMODE
 70
     1
  9
$MAXACTVP
 70
    64
  9
$PINSBASE
 10
0.0
 20
0.0
 30
0.0
  9
$PLIMCHECK
 70
     0
  9
$PEXTMIN
 10
-8.9960629921
 20
0.0
 30
0.0
  9
$PEXTMAX
 10
8.9173228346
 20
15.7480314961
 30
0.0
  9
$PLIMMIN
 10
-9.4881897756
 20
-0.4921260085
  9
$PLIMMAX
 10
12.1653545971
 20
16.2401582795
  9
$UNITMODE
 70
     0
  9
$VISRETAIN
 70
     1
  9
$PLINEGEN
 70
     0
  9
$PSLTSCALE
 70
     1
  9
$TREEDEPTH
 70
  3020
  9
$CMLSTYLE
  2
Standard
  9
$CMLJUST
 70
     0
  9
$CMLSCALE
 40
1.0
  9
$PROXYGRAPHICS
 70
     1
  9
$MEASUREMENT
 70
     0
  9
$CELWEIGHT
370
    -1
  9
$ENDCAPS
280
     0
  9
$JOINSTYLE
280
     0
  9
$LWDISPLAY
290
     1
  9
$INSUNITS
 70
     1
  9
$HYPERLINKBASE
  1

  9
$STYLESHEET
  1

  9
$XEDIT
290
     1
  9
$CEPSNTYPE
380
     0
  9
$PSTYLEMODE
290
     1
  9
$FINGERPRINTGUID
  2
{af50ec82-088a-4988-8e42-00d799de537a}
  9
$VERSIONGUID
  2
{FAEB1C32-E019-11D5-929B-00C0DF256EC4}
  9
$EXTNAMES
290
     1
  9
$PSVPSCALE
 40
0.0
  9
$OLESTARTUP
290
     0
  0
ENDSEC
  0
SECTION
  2
CLASSES
  0
CLASS
  1
ACDBDICTIONARYWDFLT
  2
AcDbDictionaryWithDefault
  3
ObjectDBX Classes
 90
        0
280
     0
281
     0
  0
CLASS
  1
VISUALSTYLE
  2
AcDbVisualStyle
  3
ObjectDBX Classes
 90
     4095
280
     0
281
     0
  0
CLASS
  1
MATERIAL
  2
AcDbMaterial
  3
ObjectDBX Classes
 90
     1153
280
     0
281
     0
  0
CLASS
  1
SCALE
  2
AcDbScale
  3
ObjectDBX Classes
 90
     1153
280
     0
281
     0
  0
CLASS
  1
TABLESTYLE
  2
AcDbTableStyle
  3
ObjectDBX Classes
 90
     4095
280
     0
281
     0
  0
CLASS
  1
MLEADERSTYLE
  2
AcDbMLeaderStyle
  3
ACDB_MLEADERSTYLE_CLASS
 90
     4095
280
     0
281
     0
  0
CLASS
  1
SUN
  2
AcDbSun
  3
SCENEOE
 90
     1153
280
     0
281
     0
  0
CLASS
  1
ACDBPLACEHOLDER
  2
AcDbPlaceHolder
  3
ObjectDBX Classes
 90
        0
280
     0
281
     0
  0
CLASS
  1
LAYOUT
  2
AcDbLayout
  3
ObjectDBX Classes
 90
        0
280
     0
281
     0
  0
ENDSEC
  0
SECTION
  2
TABLES
  0
TABLE
  2
VPORT
  5
8
330
0
100
AcDbSymbolTable
 70
     1
  0
VPORT
  5
29
330
8
100
AcDbSymbolTableRecord
100
AcDbViewportTableRecord
  2
*Active
 70
     0
 10
0.0
 20
0.0
 11
1.0
 21
1.0
 12
-3.937007874
 22
7.874015748
 13
0.0
 23
0.0
 14
0.5
 24
0.5
 15
0.5
 25
0.5
 16
0.0
 26
0.0
 36
1.0
 17
0.0
 27
0.0
 37
0.0
 40
16.062992126
 41
1.9875
 42
50.0
 43
0.0
 44
0.0
 50
0.0
 51
0.0
 71
     0
 72
   100
 73
     1
 74
     3
 75
     0
 76
     0
 77
     0
 78
     0
281
     0
 65
     1
110
0.0
120
0.0
130
0.0
111
1.0
121
0.0
131
0.0
112
0.0
122
1.0
132
0.0
 79
     0
146
0.0
  0
ENDTAB
  0
TABLE
  2
LTYPE
  5
5
330
0
100
AcDbSymbolTable
 70
     6
  0
LTYPE
  5
14
330
5
100
AcDbSymbolTableRecord
100
AcDbLinetypeTableRecord
  2
ByBlock
 70
     0
  3

 72
    65
 73
     0
 40
0.0
  0
LTYPE
  5
15
330
5
100
AcDbSymbolTableRecord
100
AcDbLinetypeTableRecord
  2
ByLayer
 70
     0
  3

 72
    65
 73
     0
 40
0.0
  0
LTYPE
  5
16
330
5
100
AcDbSymbolTableRecord
100
AcDbLinetypeTableRecord
  2
Continuous
 70
     0
  3
Solid line
 72
    65
 73
     0
 40
0.0
  0
LTYPE
  5
6E
330
5
100
AcDbSymbolTableRecord
100
AcDbLinetypeTableRecord
  2
HIDDEN
 70
     0
  3
Hidden __ __ __ __ __ __ __ __ __ __ __ __ __ __
 72
    65
 73
     2
 40
0.075
 49
0.05
 74
     0
 49
-0.025
 74
     0
  0
LTYPE
  5
6F
330
5
100
AcDbSymbolTableRecord
100
AcDbLinetypeTableRecord
  2
PHANTOM
 70
     0
  3
Phantom ______  __  __  ______  __  __  ______
 72
    65
 73
     6
 40
0.5
 49
0.25
 74
     0
 49
-0.05
 74
     0
 49
0.05
 74
     0
 49
-0.05
 74
     0
 49
0.05
 74
     0
 49
-0.05
 74
     0
  0
LTYPE
  5
70
330
5
100
AcDbSymbolTableRecord
100
AcDbLinetypeTableRecord
  2
CENTER
 70
     0
  3
Center ____ _ ____ _ ____ _ ____ _ ____ _ ____
 72
    65
 73
     4
 40
0.4
 49
0.25
 74
     0
 49
-0.05
 74
     0
 49
0.05
 74
     0
 49
-0.05
 74
     0
  0
LTYPE
  5
71
330
5
100
AcDbSymbolTableRecord
100
AcDbLinetypeTableRecord
  2
CENTERX2
 70
     0
  3
Center (2x) ________  __  ________  __  _____
 72
    65
 73
     4
 40
0.8
 49
0.5
 74
     0
 49
-0.1
 74
     0
 49
0.1
 74
     0
 49
-0.1
 74
     0
  0
LTYPE
  5
72
330
5
100
AcDbSymbolTableRecord
100
AcDbLinetypeTableRecord
  2
DOT2
 70
     0
  3
Dot (.5x) ........................................
 72
    65
 73
     2
 40
0.025
 49
0.0
 74
     0
 49
-0.025
 74
     0
  0
ENDTAB
  0
TABLE
  2
LAYER
  5
2
330
0
100
AcDbSymbolTable
 70
     1
  0
LAYER
  5
10
330
2
100
AcDbSymbolTableRecord
100
AcDbLayerTableRecord
  2
0
 70
     0
 62
     7
  6
Continuous
370
    -3
390
F
  0
ENDTAB
  0
TABLE
  2
STYLE
  5
3
330
0
100
AcDbSymbolTable
 70
     1
  0
STYLE
  5
11
330
3
100
AcDbSymbolTableRecord
100
AcDbTextStyleTableRecord
  2
Standard
 70
     0
 40
0.0
 41
1.0
 50
0.0
 71
     0
 42
0.1377952756
  3
txt
  4

  0
ENDTAB
  0
TABLE
  2
VIEW
  5
6
330
0
100
AcDbSymbolTable
 70
     0
  0
ENDTAB
  0
TABLE
  2
UCS
  5
7
330
0
100
AcDbSymbolTable
 70
     0
  0
ENDTAB
  0
TABLE
  2
APPID
  5
9
330
0
100
AcDbSymbolTable
 70
     1
  0
APPID
  5
12
330
9
100
AcDbSymbolTableRecord
100
AcDbRegAppTableRecord
  2
ACAD
 70
     0
  0
ENDTAB
  0
TABLE
  2
DIMSTYLE
  5
A
330
0
100
AcDbSymbolTable
 70
     1
100
AcDbDimStyleTable
  0
DIMSTYLE
105
27
330
A
100
AcDbSymbolTableRecord
100
AcDbDimStyleTableRecord
  2
Standard
 70
     0
178
     0
340
11
  0
ENDTAB
  0
TABLE
  2
BLOCK_RECORD
  5
1
330
0
100
AcDbSymbolTable
 70
     3
  0
BLOCK_RECORD
  5
1F
330
1
100
AcDbSymbolTableRecord
100
AcDbBlockTableRecord
  2
*Model_Space
340
22
  0
BLOCK_RECORD
  5
1B
330
1
100
AcDbSymbolTableRecord
100
AcDbBlockTableRecord
  2
*Paper_Space
340
1E
  0
BLOCK_RECORD
  5
23
330
1
100
AcDbSymbolTableRecord
100
AcDbBlockTableRecord
  2
*Paper_Space0
340
26
  0
BLOCK_RECORD
  5
37E
330
1
100
AcDbSymbolTableRecord
100
AcDbBlockTableRecord
  2
*Paper_Space1
340
37F
  0
BLOCK_RECORD
  5
402
330
1
100
AcDbSymbolTableRecord
100
AcDbBlockTableRecord
  2
*Paper_Space2
340
403
  0
ENDTAB
  0
ENDSEC
  0
SECTION
  2
BLOCKS
  0
BLOCK
  5
20
330
1F
100
AcDbEntity
  8
0
100
AcDbBlockBegin
  2
*Model_Space
 70
     0
 10
0.0
 20
0.0
 30
0.0
  3
*Model_Space
  1

  0
ENDBLK
  5
21
330
1F
100
AcDbEntity
  8
0
100
AcDbBlockEnd
  0
BLOCK
  5
1C
330
1B
100
AcDbEntity
 67
     1
  8
0
100
AcDbBlockBegin
  2
*Paper_Space
 70
     0
 10
0.0
 20
0.0
 30
0.0
  3
*Paper_Space
  1

  0
ENDBLK
  5
1D
330
1B
100
AcDbEntity
 67
     1
  8
0
100
AcDbBlockEnd
  0
BLOCK
  5
24
330
23
100
AcDbEntity
  8
0
100
AcDbBlockBegin
  2
*Paper_Space0
 70
     0
 10
0.0
 20
0.0
 30
0.0
  3
*Paper_Space0
  1

  0
LINE
  5
36E
330
23
100
AcDbEntity
  8
0
  6
Continuous
 62
     7
370
    25
100
AcDbLine
 10
-8.8616451353
 20
15.7086614173
 30
0.0
 11
-8.8616451353
 21
0.0393700787
 31
0.0
  0
LINE
  5
36F
330
23
100
AcDbEntity
  8
0
  6
Continuous
 62
     7
370
    25
100
AcDbLine
 10
-8.9173228346
 20
15.7480314961
 30
0.0
 11
8.9960629921
 21
15.7480314961
 31
0.0
  0
LINE
  5
370
330
23
100
AcDbEntity
  8
0
  6
Continuous
 62
     7
370
    25
100
AcDbLine
 10
8.9566929134
 20
0.0
 30
0.0
 11
8.9566929134
 21
15.7480314961
 31
0.0
  0
LINE
  5
371
330
23
100
AcDbEntity
  8
0
  6
Continuous
 62
     7
370
    25
100
AcDbLine
 10
8.9960629921
 20
15.7086614173
 30
0.0
 11
-8.8616451353
 21
15.7086614173
 31
0.0
  0
LINE
  5
372
330
23
100
AcDbEntity
  8
0
  6
Continuous
 62
     7
370
    25
100
AcDbLine
 10
-8.8222750566
 20
15.7480314961
 30
0.0
 11
-8.8222750566
 21
0.0
 31
0.0
  0
LINE
  5
373
330
23
100
AcDbEntity
  8
0
  6
Continuous
 62
     7
370
    25
100
AcDbLine
 10
-8.8616451353
 20
0.0393700787
 30
0.0
 11
8.9960629921
 21
0.0393700787
 31
0.0
  0
LINE
  5
374
330
23
100
AcDbEntity
  8
0
  6
Continuous
 62
     7
370
    25
100
AcDbLine
 10
8.9960629921
 20
15.7480314961
 30
0.0
 11
8.9960629921
 21
0.0
 31
0.0
  0
LINE
  5
375
330
23
100
AcDbEntity
  8
0
  6
Continuous
 62
     7
370
    25
100
AcDbLine
 10
-8.9173228346
 20
0.0
 30
0.0
 11
-8.9173228346
 21
15.7480314961
 31
0.0
  0
LINE
  5
376
330
23
100
AcDbEntity
  8
0
  6
Continuous
 62
     7
370
    25
100
AcDbLine
 10
8.9960629921
 20
0.0
 30
0.0
 11
-8.8779527559
 21
0.0
 31
0.0
  0
LINE
  5
377
330
23
100
AcDbEntity
  8
0
  6
Continuous
 62
     8
370
    25
100
AcDbLine
 10
-8.8501139063
 20
0.0115312291
 30
0.0
 11
-8.8501139063
 21
0.0
 31
0.0
  0
ARC
  5
378
330
23
100
AcDbEntity
  8
0
  6
Continuous
 62
     7
370
    25
100
AcDbCircle
 10
-8.8222750566
 20
0.0393700787
 30
0.0
 40
0.0393700787401574
100
AcDbArc
 50
180.0
 51
270.0
  0
ARC
  5
379
330
23
100
AcDbEntity
  8
0
  6
Continuous
 62
     7
370
    25
100
AcDbCircle
 10
-8.8222750566
 20
15.7086614173
 30
0.0
 40
0.0393700787401574
100
AcDbArc
 50
90.0
 51
180.0
  0
ARC
  5
37A
330
23
100
AcDbEntity
  8
0
  6
Continuous
 62
     7
370
    25
100
AcDbCircle
 10
8.9566929134
 20
15.7086614173
 30
0.0
 40
0.0393700787401574
100
AcDbArc
 50
0.0
 51
90.0
  0
ARC
  5
37B
330
23
100
AcDbEntity
  8
0
  6
Continuous
 62
     7
370
    25
100
AcDbCircle
 10
8.9566929134
 20
0.0393700787
 30
0.0
 40
0.0393700787401576
100
AcDbArc
 50
270.0
 51
0.0
  0
ARC
  5
37C
330
23
100
AcDbEntity
  8
0
  6
Continuous
 62
     7
370
    25
100
AcDbCircle
 10
-8.8779527559
 20
0.0393700787
 30
0.0
 40
0.0393700787401574
100
AcDbArc
 50
180.0
 51
270.0
  0
ARC
  5
37D
330
23
100
AcDbEntity
  8
0
  6
Continuous
 62
     7
370
    25
100
AcDbCircle
 10
-8.8779527559
 20
13.9207002534
 30
0.0
 40
0.0393700787401581
100
AcDbArc
 50
65.5301994793
 51
180.0
  0
VIEWPORT
  5
866
330
23
100
AcDbEntity
  8
0
100
AcDbViewport
 10
0.0
 20
0.0
 30
0.0
 40
8.4
 41
6.4
 68
     1
 69
     1
 12
-3.937007874
 22
7.874015748
 13
0.0
 23
0.0
 14
0.5
 24
0.5
 15
0.5
 25
0.5
 16
0.0
 26
0.0
 36
1.0
 17
0.0
 27
0.0
 37
0.0
 42
50.0
 43
0.0
 44
0.0
 45
24.3239595051
 50
0.0
 51
0.0
 72
   100
 90
   557152
  1

281
     0
 71
     1
 74
     0
110
0.0
120
0.0
130
0.0
111
1.0
121
0.0
131
0.0
112
0.0
122
1.0
132
0.0
 79
     0
146
0.0
  0
ENDBLK
  5
25
330
23
100
AcDbEntity
  8
0
100
AcDbBlockEnd
  0
BLOCK
  5
380
330
37E
100
AcDbEntity
  8
0
100
AcDbBlockBegin
  2
*Paper_Space1
 70
     0
 10
0.0
 20
0.0
 30
0.0
  3
*Paper_Space1
  1

  0
LINE
  5
3CC
330
37E
100
AcDbEntity
  8
0
  6
Continuous
 62
     7
370
    25
100
AcDbLine
 10
11.0433070866
 20
-8.1923537968
 30
0.0
 11
11.0039370079
 21
-8.1923537968
 31
0.0
  0
LINE
  5
3CD
330
37E
100
AcDbEntity
  8
0
  6
Continuous
 62
     7
370
    25
100
AcDbLine
 10
11.015468237
 20
-8.2201926464
 30
0.0
 11
11.0433070866
 21
-8.1923537968
 31
0.0
  0
LINE
  5
3CE
330
37E
100
AcDbEntity
  8
0
  6
Continuous
 62
     7
370
    25
100
AcDbLine
 10
11.6732283465
 20
-8.8222750566
 30
0.0
 11
11.6732283465
 21
8.9960629921
 31
0.0
  0
LINE
  5
3CF
330
37E
100
AcDbEntity
  8
0
  6
Continuous
 62
     7
370
    25
100
AcDbLine
 10
11.0433070866
 20
-8.1923537968
 30
0.0
 11
11.6732283465
 21
-8.8222750566
 31
0.0
  0
LINE
  5
3D0
330
37E
100
AcDbEntity
  8
0
  6
Continuous
 62
     7
370
    25
100
AcDbLine
 10
11.0433070866
 20
8.9960629921
 30
0.0
 11
11.0433070866
 21
-8.1923537968
 31
0.0
  0
LINE
  5
3D1
330
37E
100
AcDbEntity
  8
0
  6
Continuous
 62
     7
370
    25
100
AcDbLine
 10
11.7125984252
 20
8.9566929134
 30
0.0
 11
11.0039370079
 21
8.9566929134
 31
0.0
  0
LINE
  5
3D2
330
37E
100
AcDbEntity
  8
0
  6
Continuous
 62
     7
370
    25
100
AcDbLine
 10
11.7125984252
 20
8.9566929134
 30
0.0
 11
11.7125984252
 21
-8.8222750566
 31
0.0
  0
LINE
  5
3D3
330
37E
100
AcDbEntity
  8
0
  6
Continuous
 62
     7
370
    25
100
AcDbLine
 10
11.7125984252
 20
-8.8222750566
 30
0.0
 11
11.6732283465
 21
-8.8222750566
 31
0.0
  0
LINE
  5
3D4
330
37E
100
AcDbEntity
  8
0
  6
Continuous
 62
     7
370
    25
100
AcDbLine
 10
11.6453894968
 20
-8.8501139063
 30
0.0
 11
11.6732283465
 21
-8.8222750566
 31
0.0
  0
LINE
  5
3D5
330
37E
100
AcDbEntity
  8
0
  6
Continuous
 62
     7
370
    25
100
AcDbLine
 10
11.6453894968
 20
-8.8501139063
 30
0.0
 11
11.015468237
 21
-8.2201926464
 31
0.0
  0
LINE
  5
3D6
330
37E
100
AcDbEntity
  8
0
  6
Continuous
 62
     7
370
    25
100
AcDbLine
 10
11.0433070866
 20
8.9960629921
 30
0.0
 11
11.6732283465
 21
8.9960629921
 31
0.0
  0
LINE
  5
3D7
330
37E
100
AcDbEntity
  8
0
  6
Continuous
 62
     7
370
    25
100
AcDbLine
 10
11.0039370079
 20
-8.2086614173
 30
0.0
 11
-11.0039370079
 21
-8.2086614173
 31
0.0
  0
LINE
  5
3D8
330
37E
100
AcDbEntity
  8
0
  6
Continuous
 62
     7
370
    25
100
AcDbLine
 10
-11.0039370079
 20
8.9960629921
 30
0.0
 11
-11.0039370079
 21
-8.2086614173
 31
0.0
  0
LINE
  5
3D9
330
37E
100
AcDbEntity
  8
0
  6
Continuous
 62
     7
370
    25
100
AcDbLine
 10
11.0039370079
 20
-8.0905511811
 30
0.0
 11
-11.0039370079
 21
-8.0905511811
 31
0.0
  0
LINE
  5
3DA
330
37E
100
AcDbEntity
  8
0
  6
Continuous
 62
     7
370
    25
100
AcDbLine
 10
11.0039370079
 20
-8.2086614173
 30
0.0
 11
11.0039370079
 21
8.9960629921
 31
0.0
  0
LINE
  5
3DB
330
37E
100
AcDbEntity
  8
0
  6
Continuous
 62
     7
370
    25
100
AcDbLine
 10
-11.0039370079
 20
-7.5
 30
0.0
 11
11.0039370079
 21
-7.5
 31
0.0
  0
LINE
  5
3DC
330
37E
100
AcDbEntity
  8
0
  6
Continuous
 62
     7
370
    25
100
AcDbLine
 10
-11.0433070866
 20
-8.1923537968
 30
0.0
 11
-11.0433070866
 21
8.9960629921
 31
0.0
  0
LINE
  5
3DD
330
37E
100
AcDbEntity
  8
0
  6
Continuous
 62
     7
370
    25
100
AcDbLine
 10
-11.6732283465
 20
-8.8222750566
 30
0.0
 11
-11.0433070866
 21
-8.1923537968
 31
0.0
  0
LINE
  5
3DE
330
37E
100
AcDbEntity
  8
0
  6
Continuous
 62
     7
370
    25
100
AcDbLine
 10
-11.6732283465
 20
8.9960629921
 30
0.0
 11
-11.6732283465
 21
-8.8222750566
 31
0.0
  0
LINE
  5
3DF
330
37E
100
AcDbEntity
  8
0
  6
Continuous
 62
     7
370
    25
100
AcDbLine
 10
-11.0039370079
 20
8.9566929134
 30
0.0
 11
-11.7125984252
 21
8.9566929134
 31
0.0
  0
LINE
  5
3E0
330
37E
100
AcDbEntity
  8
0
  6
Continuous
 62
     7
370
    25
100
AcDbLine
 10
-11.0433070866
 20
-8.1923537968
 30
0.0
 11
-11.015468237
 21
-8.2201926464
 31
0.0
  0
LINE
  5
3E1
330
37E
100
AcDbEntity
  8
0
  6
Continuous
 62
     7
370
    25
100
AcDbLine
 10
-11.0039370079
 20
-8.1923537968
 30
0.0
 11
-11.0433070866
 21
-8.1923537968
 31
0.0
  0
LINE
  5
3E2
330
37E
100
AcDbEntity
  8
0
  6
Continuous
 62
     7
370
    25
100
AcDbLine
 10
-11.6732283465
 20
-8.8222750566
 30
0.0
 11
-11.7125984252
 21
-8.8222750566
 31
0.0
  0
LINE
  5
3E3
330
37E
100
AcDbEntity
  8
0
  6
Continuous
 62
     7
370
    25
100
AcDbLine
 10
-11.6732283465
 20
-8.8222750566
 30
0.0
 11
-11.6453894968
 21
-8.8501139063
 31
0.0
  0
LINE
  5
3E4
330
37E
100
AcDbEntity
  8
0
  6
Continuous
 62
     7
370
    25
100
AcDbLine
 10
-11.6732283465
 20
8.9960629921
 30
0.0
 11
-11.0433070866
 21
8.9960629921
 31
0.0
  0
LINE
  5
3E5
330
37E
100
AcDbEntity
  8
0
  6
Continuous
 62
     7
370
    25
100
AcDbLine
 10
-11.015468237
 20
-8.2201926464
 30
0.0
 11
-11.6453894968
 21
-8.8501139063
 31
0.0
  0
LINE
  5
3E6
330
37E
100
AcDbEntity
  8
0
  6
Continuous
 62
     7
370
    25
100
AcDbLine
 10
-11.7125984252
 20
-8.9173228346
 30
0.0
 11
-11.7125984252
 21
8.9960629921
 31
0.0
  0
LINE
  5
3E7
330
37E
100
AcDbEntity
  8
0
  6
Continuous
 62
     7
370
    25
100
AcDbLine
 10
-19.5866141732
 20
-8.9173228346
 30
0.0
 11
-19.5866141732
 21
8.9960629921
 31
0.0
  0
LINE
  5
3E8
330
37E
100
AcDbEntity
  8
0
  6
Continuous
 62
     7
370
    25
100
AcDbLine
 10
-11.7125984252
 20
8.9960629921
 30
0.0
 11
-19.5866141732
 21
8.9960629921
 31
0.0
  0
LINE
  5
3E9
330
37E
100
AcDbEntity
  8
0
  6
Continuous
 62
     7
370
    25
100
AcDbLine
 10
-11.7125984252
 20
-8.9173228346
 30
0.0
 11
-19.5866141732
 21
-8.9173228346
 31
0.0
  0
LINE
  5
3EA
330
37E
100
AcDbEntity
  8
0
  6
Continuous
 62
     7
370
    25
100
AcDbLine
 10
-11.0039370079
 20
8.2874015748
 30
0.0
 11
11.0039370079
 21
8.2874015748
 31
0.0
  0
LINE
  5
3EB
330
37E
100
AcDbEntity
  8
0
  6
Continuous
 62
     7
370
    25
100
AcDbLine
 10
-11.0039370079
 20
8.9960629921
 30
0.0
 11
11.0039370079
 21
8.9960629921
 31
0.0
  0
LINE
  5
3EC
330
37E
100
AcDbEntity
  8
0
  6
Continuous
 62
     7
370
    25
100
AcDbLine
 10
-2.9527559055
 20
7.5393700787
 30
0.0
 11
-2.9527559055
 21
6.8307086614
 31
0.0
  0
LINE
  5
3ED
330
37E
100
AcDbEntity
  8
0
  6
Continuous
 62
     7
370
    25
100
AcDbLine
 10
2.9527559055
 20
6.8307086614
 30
0.0
 11
2.9527559055
 21
7.5393700787
 31
0.0
  0
LINE
  5
3EE
330
37E
100
AcDbEntity
  8
0
  6
Continuous
 62
     7
370
    25
100
AcDbLine
 10
-10.1181102362
 20
6.8307086614
 30
0.0
 11
10.1181102362
 21
6.8307086614
 31
0.0
  0
LINE
  5
3EF
330
37E
100
AcDbEntity
  8
0
  6
Continuous
 62
     7
370
    25
100
AcDbLine
 10
10.8267716535
 20
7.5393700787
 30
0.0
 11
-10.8267716535
 21
7.5393700787
 31
0.0
  0
LINE
  5
3F0
330
37E
100
AcDbEntity
  8
0
  6
Continuous
 62
     7
370
    25
100
AcDbLine
 10
11.5388104897
 20
-8.9173228346
 30
0.0
 11
-11.5388104897
 21
-8.9173228346
 31
0.0
  0
LINE
  5
3F1
330
37E
100
AcDbEntity
  8
0
  6
Continuous
 62
     7
370
    25
100
AcDbLine
 10
-11.5666493393
 20
-8.8501139063
 30
0.0
 11
11.5666493393
 21
-8.8501139063
 31
0.0
  0
LINE
  5
3F2
330
37E
100
AcDbEntity
  8
0
  6
Continuous
 62
     7
370
    25
100
AcDbLine
 10
10.9251968504
 20
-8.2086614173
 30
0.0
 11
11.5666493393
 21
-8.8501139063
 31
0.0
  0
LINE
  5
3F3
330
37E
100
AcDbEntity
  8
0
  6
Continuous
 62
     7
370
    25
100
AcDbLine
 10
-10.9251968504
 20
-8.2086614173
 30
0.0
 11
-11.5666493393
 21
-8.8501139063
 31
0.0
  0
LINE
  5
3F4
330
37E
100
AcDbEntity
  8
0
  6
Continuous
 62
     7
370
    25
100
AcDbLine
 10
-10.8267716535
 20
7.5393700787
 30
0.0
 11
-10.8267716535
 21
-7.5
 31
0.0
  0
LINE
  5
3F5
330
37E
100
AcDbEntity
  8
0
  6
Continuous
 62
     7
370
    25
100
AcDbLine
 10
-10.1181102362
 20
-7.5
 30
0.0
 11
-10.1181102362
 21
7.5393700787
 31
0.0
  0
LINE
  5
3F6
330
37E
100
AcDbEntity
  8
0
  6
Continuous
 62
     7
370
    25
100
AcDbLine
 10
10.8267716535
 20
-7.5
 30
0.0
 11
10.8267716535
 21
7.5393700787
 31
0.0
  0
LINE
  5
3F7
330
37E
100
AcDbEntity
  8
0
  6
Continuous
 62
     7
370
    25
100
AcDbLine
 10
10.1181102362
 20
7.5393700787
 30
0.0
 11
10.1181102362
 21
-7.5
 31
0.0
  0
ARC
  5
3F8
330
37E
100
AcDbEntity
  8
0
  6
Continuous
 62
     7
370
    25
100
AcDbCircle
 10
11.0433070866
 20
-8.1923537968
 30
0.0
 40
0.0393700787401902
100
AcDbArc
 50
180.0
 51
225.0
  0
ARC
  5
3F9
330
37E
100
AcDbEntity
  8
0
  6
Continuous
 62
     7
370
    25
100
AcDbCircle
 10
11.6732283465
 20
-8.8222750566
 30
0.0
 40
0.0393700787401576
100
AcDbArc
 50
225.0
 51
0.0
  0
ARC
  5
3FA
330
37E
100
AcDbEntity
  8
0
  6
Continuous
 62
     7
370
    25
100
AcDbCircle
 10
11.6732283465
 20
8.9566929134
 30
0.0
 40
0.0393700787401592
100
AcDbArc
 50
0.0
 51
90.0
  0
ARC
  5
3FB
330
37E
100
AcDbEntity
  8
0
  6
Continuous
 62
     7
370
    25
100
AcDbCircle
 10
11.0433070866
 20
8.9566929134
 30
0.0
 40
0.039370078740161
100
AcDbArc
 50
90.0
 51
180.0
  0
ARC
  5
3FC
330
37E
100
AcDbEntity
  8
0
  6
Continuous
 62
     7
370
    25
100
AcDbCircle
 10
-11.0433070866
 20
-8.1923537968
 30
0.0
 40
0.0393700787401827
100
AcDbArc
 50
315.0
 51
360.0
  0
ARC
  5
3FD
330
37E
100
AcDbEntity
  8
0
  6
Continuous
 62
     7
370
    25
100
AcDbCircle
 10
-11.6732283465
 20
-8.8222750566
 30
0.0
 40
0.0393700787401588
100
AcDbArc
 50
180.0
 51
315.0
  0
ARC
  5
3FE
330
37E
100
AcDbEntity
  8
0
  6
Continuous
 62
     7
370
    25
100
AcDbCircle
 10
-11.0433070866
 20
8.9566929134
 30
0.0
 40
0.0393700787401592
100
AcDbArc
 50
0.0
 51
90.0
  0
ARC
  5
3FF
330
37E
100
AcDbEntity
  8
0
  6
Continuous
 62
     7
370
    25
100
AcDbCircle
 10
-11.6732283465
 20
8.9566929134
 30
0.0
 40
0.0393700787401574
100
AcDbArc
 50
90.0
 51
180.0
  0
ARC
  5
400
330
37E
100
AcDbEntity
  8
0
  6
Continuous
 62
     7
370
    25
100
AcDbCircle
 10
-11.5388104897
 20
-8.8779527559
 30
0.0
 40
0.0393700787401592
100
AcDbArc
 50
135.0
 51
270.0
  0
ARC
  5
401
330
37E
100
AcDbEntity
  8
0
  6
Continuous
 62
     7
370
    25
100
AcDbCircle
 10
11.5388104897
 20
-8.8779527559
 30
0.0
 40
0.0393700787401574
100
AcDbArc
 50
270.0
 51
45.0
  0
VIEWPORT
  5
868
330
37E
100
AcDbEntity
  8
0
100
AcDbViewport
 10
0.0
 20
0.0
 30
0.0
 40
8.4
 41
6.4
 68
     1
 69
     1
 12
-3.937007874
 22
7.874015748
 13
0.0
 23
0.0
 14
0.5
 24
0.5
 15
0.5
 25
0.5
 16
0.0
 26
0.0
 36
1.0
 17
0.0
 27
0.0
 37
0.0
 42
50.0
 43
0.0
 44
0.0
 45
24.3239595051
 50
0.0
 51
0.0
 72
   100
 90
   557152
  1

281
     0
 71
     1
 74
     0
110
0.0
120
0.0
130
0.0
111
1.0
121
0.0
131
0.0
112
0.0
122
1.0
132
0.0
 79
     0
146
0.0
  0
ENDBLK
  5
381
330
37E
100
AcDbEntity
  8
0
100
AcDbBlockEnd
  0
BLOCK
  5
404
330
402
100
AcDbEntity
  8
0
100
AcDbBlockBegin
  2
*Paper_Space2
 70
     0
 10
0.0
 20
0.0
 30
0.0
  3
*Paper_Space2
  1

  0
LWPOLYLINE
  5
41C
330
402
100
AcDbEntity
  8
0
  6
Continuous
 62
     7
370
    25
100
AcDbPolyline
 90
        9
 70
   128
 43
0.0
 10
2.0437672538
 20
4.4443445044
 10
2.0344873308
 20
4.4403713449
 10
2.0236091254
 20
4.4381243771
 10
2.0120694616
 20
4.4377971085
 10
2.0008621272
 20
4.4394177231
 10
1.9909522906
 20
4.4428466548
 10
1.98319338
 20
4.4477886063
 10
1.9782535877
 20
4.45381798
 10
1.9765583254
 20
4.4604155303
  0
LWPOLYLINE
  5
41E
330
402
100
AcDbEntity
  8
0
  6
Continuous
 62
     7
370
    25
100
AcDbPolyline
 90
        9
 70
   128
 43
0.0
 10
2.0437672538
 20
-8.3502713668
 10
2.0344873308
 20
-8.3542445264
 10
2.0236091254
 20
-8.3564914942
 10
2.0120694616
 20
-8.3568187628
 10
2.0008621272
 20
-8.3551981482
 10
1.9909522906
 20
-8.3517692164
 10
1.98319338
 20
-8.346827265
 10
1.9782535877
 20
-8.3407978913
 10
1.9765583254
 20
-8.334200341
  0
LWPOLYLINE
  5
456
330
402
100
AcDbEntity
  8
0
  6
Continuous
 62
     7
370
    25
100
AcDbPolyline
 90
       14
 70
   128
 43
0.0
 10
2.7421266908
 20
8.1085012526
 10
2.7472127437
 20
7.9373790904
 10
2.7624461237
 20
7.7612183864
 10
2.7877526152
 20
7.5808773781
 10
2.8230089275
 20
7.3972346685
 10
2.8680432955
 20
7.2111849465
 10
2.9226363163
 20
7.0236346278
 10
2.9865220181
 20
6.8354974384
 10
3.0593891562
 20
6.6476899641
 10
3.1408827293
 20
6.4611271838
 10
3.2306057088
 20
6.2767180127
 10
3.3281209735
 20
6.0953608737
 10
3.4329534386
 20
5.9179393207
 10
3.4697081182
 20
5.8593969414
  0
LWPOLYLINE
  5
458
330
402
100
AcDbEntity
  8
0
  6
Continuous
 62
     7
370
    25
100
AcDbPolyline
 90
       14
 70
   128
 43
0.0
 10
3.9708074119
 20
6.1486754062
 10
3.9340527324
 20
6.2072177855
 10
3.8292202672
 20
6.3846393386
 10
3.7317050026
 20
6.5659964775
 10
3.6419820231
 20
6.7504056486
 10
3.56048845
 20
6.9369684289
 10
3.4876213119
 20
7.1247759033
 10
3.4237356101
 20
7.3129130926
 10
3.3691425893
 20
7.5004634114
 10
3.3241082213
 20
7.6865131333
 10
3.2888519089
 20
7.8701558429
 10
3.2635454174
 20
8.0504968513
 10
3.2483120375
 20
8.2266575552
 10
3.2432259846
 20
8.3977797174
  0
LWPOLYLINE
  5
45C
330
402
100
AcDbEntity
  8
0
  6
Continuous
 62
     7
370
    25
100
AcDbPolyline
 90
       14
 70
   128
 43
0.0
 10
-14.4368317408
 20
12.4984522257
 10
-14.4439283959
 20
12.5018050738
 10
-14.4507925632
 20
12.503558823
 10
-14.4571993713
 20
12.50365602
 10
-14.4629389321
 20
12.5020934807
 10
-14.4678232164
 20
12.4989223942
 10
-14.4716922143
 20
12.4942466458
 10
-14.4744191765
 20
12.4882194139
 10
-14.4759147674
 20
12.4810381519
 10
-14.476129991
 20
12.4729381191
 10
-14.4750577966
 20
12.4641846741
 10
-14.4727333096
 20
12.4550645814
 10
-14.4692326804
 20
12.445876617
 10
-14.4646705905
 20
12.4369217803
  0
LWPOLYLINE
  5
45E
330
402
100
AcDbEntity
  8
0
  6
Continuous
 62
     7
370
    25
100
AcDbPolyline
 90
       14
 70
   128
 43
0.0
 10
1.8536716977
 20
3.0165432957
 10
1.8591457935
 20
3.0197043657
 10
1.8653525629
 20
3.0232883683
 10
1.8720886708
 20
3.0271778908
 10
1.8791334411
 20
3.0312455118
 10
1.8862560859
 20
3.0353579752
 10
1.893223266
 20
3.0393805561
 10
1.8998067352
 20
3.0431814738
 10
1.9057908179
 20
3.0466362097
 10
1.9109794744
 20
3.0496315859
 10
1.9152027234
 20
3.0520694734
 10
1.9183222104
 20
3.0538700065
 10
1.9202357405
 20
3.0549741993
 10
1.9208806261
 20
3.0553458784
  0
LWPOLYLINE
  5
45F
330
402
100
AcDbEntity
  8
0
  6
Continuous
 62
     7
370
    25
100
AcDbPolyline
 90
        9
 70
   128
 43
0.0
 10
1.8536716977
 20
-8.3181293152
 10
1.8596377035
 20
-8.327227439
 10
1.8664442705
 20
-8.3353583265
 10
1.873829826
 20
-8.3422095122
 10
1.8815105473
 20
-8.3475177089
 10
1.8891912687
 20
-8.3510789257
 10
1.8965768242
 20
-8.3527563069
 10
1.9033833911
 20
-8.3524853917
 10
1.909349397
 20
-8.3502765912
  0
LWPOLYLINE
  5
466
330
402
100
AcDbEntity
  8
0
  6
Continuous
 62
     7
370
    25
100
AcDbPolyline
 90
        9
 70
   128
 43
0.0
 10
1.1413928358
 20
-7.4086567017
 10
1.1466906014
 20
-7.4424706116
 10
1.1617773615
 20
-7.4772533302
 10
1.1843562936
 20
-7.5077095039
 10
1.2109899599
 20
-7.5292024564
 10
1.2376236263
 20
-7.5384600805
 10
1.2602025583
 20
-7.5340729869
 10
1.2752893184
 20
-7.5167090707
 10
1.280587084
 20
-7.4890118309
  0
LWPOLYLINE
  5
468
330
402
100
AcDbEntity
  8
0
  6
Continuous
 62
     7
370
    25
100
AcDbPolyline
 90
        9
 70
   128
 43
0.0
 10
1.280587084
 20
2.8490952222
 10
1.2752893184
 20
2.8829091321
 10
1.2602025583
 20
2.9176918507
 10
1.2376236263
 20
2.9481480244
 10
1.2109899599
 20
2.969640977
 10
1.1843562936
 20
2.9788986011
 10
1.1617773615
 20
2.9745115074
 10
1.1466906014
 20
2.9571475912
 10
1.1413928358
 20
2.9294503514
  0
LWPOLYLINE
  5
469
330
402
100
AcDbEntity
  8
0
  6
Continuous
 62
     7
370
    25
100
AcDbPolyline
 90
        9
 70
   128
 43
0.0
 10
-6.2359023223
 20
7.1882721945
 10
-6.2412000879
 20
7.2220861044
 10
-6.256286848
 20
7.256868823
 10
-6.2788657801
 20
7.2873249967
 10
-6.3054994464
 20
7.3088179492
 10
-6.3321331128
 20
7.3180755733
 10
-6.3547120448
 20
7.3136884797
 10
-6.3697988049
 20
7.2963245635
 10
-6.3750965705
 20
7.2686273236
  0
LWPOLYLINE
  5
46B
330
402
100
AcDbEntity
  8
0
  6
Continuous
 62
     7
370
    25
100
AcDbPolyline
 90
        9
 70
   128
 43
0.0
 10
-6.3750965705
 20
-3.0694797294
 10
-6.3697988049
 20
-3.1032936393
 10
-6.3547120448
 20
-3.1380763579
 10
-6.3321331128
 20
-3.1685325316
 10
-6.3054994464
 20
-3.1900254842
 10
-6.2788657801
 20
-3.1992831083
 10
-6.256286848
 20
-3.1948960146
 10
-6.2412000879
 20
-3.1775320984
 10
-6.2359023223
 20
-3.1498348586
  0
LWPOLYLINE
  5
46D
330
402
100
AcDbEntity
  8
0
  6
Continuous
 62
     7
370
    25
100
AcDbPolyline
 90
        9
 70
   128
 43
0.0
 10
-6.6534850671
 20
-2.9087694712
 10
-6.6481873014
 20
-2.9425833811
 10
-6.6331005414
 20
-2.9773660997
 10
-6.6105216093
 20
-3.0078222734
 10
-6.5838879429
 20
-3.0293152259
 10
-6.5572542766
 20
-3.03857285
 10
-6.5346753445
 20
-3.0341857564
 10
-6.5195885844
 20
-3.0168218402
 10
-6.5142908188
 20
-2.9891246003
  0
LWPOLYLINE
  5
46F
330
402
100
AcDbEntity
  8
0
  6
Continuous
 62
     7
370
    25
100
AcDbPolyline
 90
        9
 70
   128
 43
0.0
 10
-6.5142908188
 20
7.3489824528
 10
-6.5195885844
 20
7.3827963626
 10
-6.5346753445
 20
7.4175790812
 10
-6.5572542766
 20
7.448035255
 10
-6.5838879429
 20
7.4695282075
 10
-6.6105216093
 20
7.4787858316
 10
-6.6331005414
 20
7.4743987379
 10
-6.6481873014
 20
7.4570348217
 10
-6.6534850671
 20
7.4293375819
  0
LWPOLYLINE
  5
471
330
402
100
AcDbEntity
  8
0
  6
Continuous
 62
     7
370
    25
100
AcDbPolyline
 90
        9
 70
   128
 43
0.0
 10
-5.6791253292
 20
6.8668516781
 10
-5.6844230948
 20
6.9006655879
 10
-5.6995098549
 20
6.9354483065
 10
-5.722088787
 20
6.9659044803
 10
-5.7487224533
 20
6.9873974328
 10
-5.7753561197
 20
6.9966550569
 10
-5.7979350518
 20
6.9922679632
 10
-5.8130218119
 20
6.974904047
 10
-5.8183195775
 20
6.9472068072
  0
LWPOLYLINE
  5
473
330
402
100
AcDbEntity
  8
0
  6
Continuous
 62
     7
370
    25
100
AcDbPolyline
 90
        9
 70
   128
 43
0.0
 10
-5.8183195775
 20
-3.3909002459
 10
-5.8130218119
 20
-3.4247141558
 10
-5.7979350518
 20
-3.4594968744
 10
-5.7753561197
 20
-3.4899530481
 10
-5.7487224533
 20
-3.5114460006
 10
-5.722088787
 20
-3.5207036247
 10
-5.6995098549
 20
-3.5163165311
 10
-5.6844230948
 20
-3.4989526149
 10
-5.6791253292
 20
-3.471255375
  0
LWPOLYLINE
  5
475
330
402
100
AcDbEntity
  8
0
  6
Continuous
 62
     7
370
    25
100
AcDbPolyline
 90
        9
 70
   128
 43
0.0
 10
-5.9575138257
 20
7.0275619363
 10
-5.9628115914
 20
7.0613758462
 10
-5.9778983515
 20
7.0961585648
 10
-6.0004772835
 20
7.1266147385
 10
-6.0271109499
 20
7.148107691
 10
-6.0537446162
 20
7.1573653151
 10
-6.0763235483
 20
7.1529782215
 10
-6.0914103084
 20
7.1356143053
 10
-6.096708074
 20
7.1079170654
  0
LWPOLYLINE
  5
477
330
402
100
AcDbEntity
  8
0
  6
Continuous
 62
     7
370
    25
100
AcDbPolyline
 90
        9
 70
   128
 43
0.0
 10
-6.096708074
 20
-3.2301899877
 10
-6.0914103084
 20
-3.2640038975
 10
-6.0763235483
 20
-3.2987866161
 10
-6.0537446162
 20
-3.3292427899
 10
-6.0271109499
 20
-3.3507357424
 10
-6.0004772835
 20
-3.3599933665
 10
-5.9778983515
 20
-3.3556062728
 10
-5.9628115914
 20
-3.3382423567
 10
-5.9575138257
 20
-3.3105451168
  0
LWPOLYLINE
  5
479
330
402
100
AcDbEntity
  8
0
  6
Continuous
 62
     7
370
    25
100
AcDbPolyline
 90
        9
 70
   128
 43
0.0
 10
-7.4886505567
 20
-2.4266386965
 10
-7.483352791
 20
-2.4604526064
 10
-7.468266031
 20
-2.495235325
 10
-7.4456870989
 20
-2.5256914987
 10
-7.4190534325
 20
-2.5471844512
 10
-7.3924197662
 20
-2.5564420753
 10
-7.3698408341
 20
-2.5520549817
 10
-7.354754074
 20
-2.5346910655
 10
-7.3494563084
 20
-2.5069938256
  0
LWPOLYLINE
  5
47B
330
402
100
AcDbEntity
  8
0
  6
Continuous
 62
     7
370
    25
100
AcDbPolyline
 90
        9
 70
   128
 43
0.0
 10
-7.3494563084
 20
7.8311132275
 10
-7.354754074
 20
7.8649271373
 10
-7.3698408341
 20
7.8997098559
 10
-7.3924197662
 20
7.9301660297
 10
-7.4190534325
 20
7.9516589822
 10
-7.4456870989
 20
7.9609166063
 10
-7.468266031
 20
7.9565295126
 10
-7.483352791
 20
7.9391655964
 10
-7.4886505567
 20
7.9114683566
  0
LWPOLYLINE
  5
47D
330
402
100
AcDbEntity
  8
0
  6
Continuous
 62
     7
370
    25
100
AcDbPolyline
 90
        9
 70
   128
 43
0.0
 10
-7.6278448049
 20
7.9918234857
 10
-7.6331425706
 20
8.0256373956
 10
-7.6482293306
 20
8.0604201141
 10
-7.6708082627
 20
8.0908762879
 10
-7.6974419291
 20
8.1123692404
 10
-7.7240755954
 20
8.1216268645
 10
-7.7466545275
 20
8.1172397708
 10
-7.7617412876
 20
8.0998758547
 10
-7.7670390532
 20
8.0721786148
  0
LWPOLYLINE
  5
47F
330
402
100
AcDbEntity
  8
0
  6
Continuous
 62
     7
370
    25
100
AcDbPolyline
 90
        9
 70
   128
 43
0.0
 10
-7.7670390532
 20
-2.2659284383
 10
-7.7617412876
 20
-2.2997423481
 10
-7.7466545275
 20
-2.3345250667
 10
-7.7240755954
 20
-2.3649812405
 10
-7.6974419291
 20
-2.386474193
 10
-7.6708082627
 20
-2.3957318171
 10
-7.6482293306
 20
-2.3913447234
 10
-7.6331425706
 20
-2.3739808073
 10
-7.6278448049
 20
-2.3462835674
  0
LWPOLYLINE
  5
481
330
402
100
AcDbEntity
  8
0
  6
Continuous
 62
     7
370
    25
100
AcDbPolyline
 90
        9
 70
   128
 43
0.0
 10
-6.9318735636
 20
-2.748059213
 10
-6.926575798
 20
-2.7818731228
 10
-6.9114890379
 20
-2.8166558414
 10
-6.8889101058
 20
-2.8471120152
 10
-6.8622764395
 20
-2.8686049677
 10
-6.8356427731
 20
-2.8778625918
 10
-6.813063841
 20
-2.8734754981
 10
-6.797977081
 20
-2.856111582
 10
-6.7926793153
 20
-2.8284143421
  0
LWPOLYLINE
  5
483
330
402
100
AcDbEntity
  8
0
  6
Continuous
 62
     7
370
    25
100
AcDbPolyline
 90
        9
 70
   128
 43
0.0
 10
-6.7926793153
 20
7.509692711
 10
-6.797977081
 20
7.5435066209
 10
-6.813063841
 20
7.5782893394
 10
-6.8356427731
 20
7.6087455132
 10
-6.8622764395
 20
7.6302384657
 10
-6.8889101058
 20
7.6394960898
 10
-6.9114890379
 20
7.6351089962
 10
-6.926575798
 20
7.61774508
 10
-6.9318735636
 20
7.5900478401
  0
LWPOLYLINE
  5
485
330
402
100
AcDbEntity
  8
0
  6
Continuous
 62
     7
370
    25
100
AcDbPolyline
 90
        9
 70
   128
 43
0.0
 10
-7.2102620601
 20
-2.5873489548
 10
-7.2049642945
 20
-2.6211628646
 10
-7.1898775344
 20
-2.6559455832
 10
-7.1672986023
 20
-2.6864017569
 10
-7.140664936
 20
-2.7078947095
 10
-7.1140312697
 20
-2.7171523336
 10
-7.0914523376
 20
-2.7127652399
 10
-7.0763655775
 20
-2.6954013237
 10
-7.0710678119
 20
-2.6677040839
  0
LWPOLYLINE
  5
487
330
402
100
AcDbEntity
  8
0
  6
Continuous
 62
     7
370
    25
100
AcDbPolyline
 90
        9
 70
   128
 43
0.0
 10
-7.0710678119
 20
7.6704029692
 10
-7.0763655775
 20
7.7042168791
 10
-7.0914523376
 20
7.7389995977
 10
-7.1140312697
 20
7.7694557714
 10
-7.140664936
 20
7.7909487239
 10
-7.1672986023
 20
7.800206348
 10
-7.1898775344
 20
7.7958192544
 10
-7.2049642945
 20
7.7784553382
 10
-7.2102620601
 20
7.7507580983
  0
LWPOLYLINE
  5
489
330
402
100
AcDbEntity
  8
0
  6
Continuous
 62
     7
370
    25
100
AcDbPolyline
 90
        9
 70
   128
 43
0.0
 10
-14.1699744734
 20
1.4304075011
 10
-14.1646767078
 20
1.3965935912
 10
-14.1495899477
 20
1.3618108726
 10
-14.1270110156
 20
1.3313546989
 10
-14.1003773493
 20
1.3098617464
 10
-14.0737436829
 20
1.3006041223
 10
-14.0511647508
 20
1.3049912159
 10
-14.0360779907
 20
1.3223551321
 10
-14.0307802251
 20
1.350052372
  0
LWPOLYLINE
  5
48B
330
402
100
AcDbEntity
  8
0
  6
Continuous
 62
     7
370
    25
100
AcDbPolyline
 90
        9
 70
   128
 43
0.0
 10
-14.0307802251
 20
11.6881594251
 10
-14.0360779907
 20
11.7219733349
 10
-14.0511647508
 20
11.7567560535
 10
-14.0737436829
 20
11.7872122272
 10
-14.1003773493
 20
11.8087051798
 10
-14.1270110156
 20
11.8179628039
 10
-14.1495899477
 20
11.8135757102
 10
-14.1646767078
 20
11.796211794
 10
-14.1699744734
 20
11.7685145542
  0
LWPOLYLINE
  5
48D
330
402
100
AcDbEntity
  8
0
  6
Continuous
 62
     7
370
    25
100
AcDbPolyline
 90
        9
 70
   128
 43
0.0
 10
1.5589755806
 20
2.688384964
 10
1.5536778149
 20
2.7221988739
 10
1.5385910549
 20
2.7569815925
 10
1.5160121228
 20
2.7874377662
 10
1.4893784564
 20
2.8089307187
 10
1.4627447901
 20
2.8181883428
 10
1.440165858
 20
2.8138012492
 10
1.4250790979
 20
2.796437333
 10
1.4197813323
 20
2.7687400931
  0
LWPOLYLINE
  5
48F
330
402
100
AcDbEntity
  8
0
  6
Continuous
 62
     7
370
    25
100
AcDbPolyline
 90
        9
 70
   128
 43
0.0
 10
1.4197813323
 20
-7.56936696
 10
1.4250790979
 20
-7.6031808698
 10
1.440165858
 20
-7.6379635884
 10
1.4627447901
 20
-7.6684197622
 10
1.4893784564
 20
-7.6899127147
 10
1.5160121228
 20
-7.6991703388
 10
1.5385910549
 20
-7.6947832451
 10
1.5536778149
 20
-7.6774193289
 10
1.5589755806
 20
-7.6497220891
  0
LWPOLYLINE
  5
491
330
402
100
AcDbEntity
  8
0
  6
Continuous
 62
     7
370
    25
100
AcDbPolyline
 90
        9
 70
   128
 43
0.0
 10
-8.4630102945
 20
8.4739542604
 10
-8.4683080601
 20
8.5077681702
 10
-8.4833948202
 20
8.5425508888
 10
-8.5059737523
 20
8.5730070626
 10
-8.5326074186
 20
8.5945000151
 10
-8.559241085
 20
8.6037576392
 10
-8.5818200171
 20
8.5993705455
 10
-8.5969067772
 20
8.5820066294
 10
-8.6022045428
 20
8.5543093895
  0
LWPOLYLINE
  5
493
330
402
100
AcDbEntity
  8
0
  6
Continuous
 62
     7
370
    25
100
AcDbPolyline
 90
        9
 70
   128
 43
0.0
 10
-8.6022045428
 20
-1.7837976636
 10
-8.5969067772
 20
-1.8176115734
 10
-8.5818200171
 20
-1.852394292
 10
-8.559241085
 20
-1.8828504658
 10
-8.5326074186
 20
-1.9043434183
 10
-8.5059737523
 20
-1.9136010424
 10
-8.4833948202
 20
-1.9092139487
 10
-8.4683080601
 20
-1.8918500326
 10
-8.4630102945
 20
-1.8641527927
  0
LWPOLYLINE
  5
495
330
402
100
AcDbEntity
  8
0
  6
Continuous
 62
     7
370
    25
100
AcDbPolyline
 90
        9
 70
   128
 43
0.0
 10
-8.8805930393
 20
-1.6230874054
 10
-8.8752952737
 20
-1.6569013152
 10
-8.8602085136
 20
-1.6916840338
 10
-8.8376295815
 20
-1.7221402075
 10
-8.8109959152
 20
-1.7436331601
 10
-8.7843622488
 20
-1.7528907842
 10
-8.7617833168
 20
-1.7485036905
 10
-8.7466965567
 20
-1.7311397743
 10
-8.741398791
 20
-1.7034425345
  0
LWPOLYLINE
  5
497
330
402
100
AcDbEntity
  8
0
  6
Continuous
 62
     7
370
    25
100
AcDbPolyline
 90
        9
 70
   128
 43
0.0
 10
-8.741398791
 20
8.6346645186
 10
-8.7466965567
 20
8.6684784285
 10
-8.7617833168
 20
8.7032611471
 10
-8.7843622488
 20
8.7337173208
 10
-8.8109959152
 20
8.7552102733
 10
-8.8376295815
 20
8.7644678974
 10
-8.8602085136
 20
8.7600808038
 10
-8.8752952737
 20
8.7427168876
 10
-8.8805930393
 20
8.7150196477
  0
LWPOLYLINE
  5
499
330
402
100
AcDbEntity
  8
0
  6
Continuous
 62
     7
370
    25
100
AcDbPolyline
 90
        9
 70
   128
 43
0.0
 10
-13.1956147355
 20
11.2060286504
 10
-13.2009125012
 20
11.2398425602
 10
-13.2159992612
 20
11.2746252788
 10
-13.2385781933
 20
11.3050814525
 10
-13.2652118597
 20
11.3265744051
 10
-13.291845526
 20
11.3358320292
 10
-13.3144244581
 20
11.3314449355
 10
-13.3295112182
 20
11.3140810193
 10
-13.3348089838
 20
11.2863837795
  0
LWPOLYLINE
  5
49B
330
402
100
AcDbEntity
  8
0
  6
Continuous
 62
     7
370
    25
100
AcDbPolyline
 90
        9
 70
   128
 43
0.0
 10
-13.3348089838
 20
0.9482767264
 10
-13.3295112182
 20
0.9144628165
 10
-13.3144244581
 20
0.8796800979
 10
-13.291845526
 20
0.8492239242
 10
-13.2652118597
 20
0.8277309717
 10
-13.2385781933
 20
0.8184733476
 10
-13.2159992612
 20
0.8228604412
 10
-13.2009125012
 20
0.8402243574
 10
-13.1956147355
 20
0.8679215973
  0
LWPOLYLINE
  5
49D
330
402
100
AcDbEntity
  8
0
  6
Continuous
 62
     7
370
    25
100
AcDbPolyline
 90
        9
 70
   128
 43
0.0
 10
-13.0564204873
 20
0.7875664681
 10
-13.0511227216
 20
0.7537525583
 10
-13.0360359616
 20
0.7189698397
 10
-13.0134570295
 20
0.6885136659
 10
-12.9868233631
 20
0.6670207134
 10
-12.9601896968
 20
0.6577630893
 10
-12.9376107647
 20
0.662150183
 10
-12.9225240046
 20
0.6795140992
 10
-12.917226239
 20
0.707211339
  0
LWPOLYLINE
  5
49F
330
402
100
AcDbEntity
  8
0
  6
Continuous
 62
     7
370
    25
100
AcDbPolyline
 90
        9
 70
   128
 43
0.0
 10
-12.917226239
 20
11.0453183921
 10
-12.9225240046
 20
11.079132302
 10
-12.9376107647
 20
11.1139150206
 10
-12.9601896968
 20
11.1443711943
 10
-12.9868233631
 20
11.1658641468
 10
-13.0134570295
 20
11.1751217709
 10
-13.0360359616
 20
11.1707346773
 10
-13.0511227216
 20
11.1533707611
 10
-13.0564204873
 20
11.1256735212
  0
LWPOLYLINE
  5
4A1
330
402
100
AcDbEntity
  8
0
  6
Continuous
 62
     7
370
    25
100
AcDbPolyline
 90
        9
 70
   128
 43
0.0
 10
-13.8915859769
 20
1.2696972428
 10
-13.8862882112
 20
1.235883333
 10
-13.8712014511
 20
1.2011006144
 10
-13.8486225191
 20
1.1706444406
 10
-13.8219888527
 20
1.1491514881
 10
-13.7953551864
 20
1.139893864
 10
-13.7727762543
 20
1.1442809577
 10
-13.7576894942
 20
1.1616448739
 10
-13.7523917286
 20
1.1893421137
  0
LWPOLYLINE
  5
4A3
330
402
100
AcDbEntity
  8
0
  6
Continuous
 62
     7
370
    25
100
AcDbPolyline
 90
        9
 70
   128
 43
0.0
 10
-13.7523917286
 20
11.5274491668
 10
-13.7576894942
 20
11.5612630767
 10
-13.7727762543
 20
11.5960457953
 10
-13.7953551864
 20
11.626501969
 10
-13.8219888527
 20
11.6479949215
 10
-13.8486225191
 20
11.6572525456
 10
-13.8712014511
 20
11.652865452
 10
-13.8862882112
 20
11.6355015358
 10
-13.8915859769
 20
11.6078042959
  0
LWPOLYLINE
  5
4A5
330
402
100
AcDbEntity
  8
0
  6
Continuous
 62
     7
370
    25
100
AcDbPolyline
 90
        9
 70
   128
 43
0.0
 10
-13.6131974803
 20
1.1089869846
 10
-13.6078997147
 20
1.0751730747
 10
-13.5928129546
 20
1.0403903562
 10
-13.5702340225
 20
1.0099341824
 10
-13.5436003562
 20
0.9884412299
 10
-13.5169666898
 20
0.9791836058
 10
-13.4943877578
 20
0.9835706995
 10
-13.4793009977
 20
1.0009346156
 10
-13.4740032321
 20
1.0286318555
  0
LWPOLYLINE
  5
4A7
330
402
100
AcDbEntity
  8
0
  6
Continuous
 62
     7
370
    25
100
AcDbPolyline
 90
        9
 70
   128
 43
0.0
 10
-13.4740032321
 20
11.3667389086
 10
-13.4793009977
 20
11.4005528184
 10
-13.4943877578
 20
11.435335537
 10
-13.5169666898
 20
11.4657917108
 10
-13.5436003562
 20
11.4872846633
 10
-13.5702340225
 20
11.4965422874
 10
-13.5928129546
 20
11.4921551937
 10
-13.6078997147
 20
11.4747912776
 10
-13.6131974803
 20
11.4470940377
  0
LWPOLYLINE
  5
4A9
330
402
100
AcDbEntity
  8
0
  6
Continuous
 62
     7
370
    25
100
AcDbPolyline
 90
        9
 70
   128
 43
0.0
 10
-9.8549527772
 20
9.2775055516
 10
-9.8602505428
 20
9.3113194614
 10
-9.8753373029
 20
9.34610218
 10
-9.897916235
 20
9.3765583537
 10
-9.9245499013
 20
9.3980513063
 10
-9.9511835676
 20
9.4073089304
 10
-9.9737624997
 20
9.4029218367
 10
-9.9888492598
 20
9.3855579205
 10
-9.9941470254
 20
9.3578606807
  0
LWPOLYLINE
  5
4AB
330
402
100
AcDbEntity
  8
0
  6
Continuous
 62
     7
370
    25
100
AcDbPolyline
 90
        9
 70
   128
 43
0.0
 10
-9.9941470254
 20
-0.9802463724
 10
-9.9888492598
 20
-1.0140602823
 10
-9.9737624997
 20
-1.0488430009
 10
-9.9511835676
 20
-1.0792991746
 10
-9.9245499013
 20
-1.1007921271
 10
-9.897916235
 20
-1.1100497512
 10
-9.8753373029
 20
-1.1056626576
 10
-9.8602505428
 20
-1.0882987414
 10
-9.8549527772
 20
-1.0606015015
  0
LWPOLYLINE
  5
4AD
330
402
100
AcDbEntity
  8
0
  6
Continuous
 62
     7
370
    25
100
AcDbPolyline
 90
        9
 70
   128
 43
0.0
 10
-9.5765642806
 20
9.1167952933
 10
-9.5818620463
 20
9.1506092032
 10
-9.5969488063
 20
9.1853919218
 10
-9.6195277384
 20
9.2158480955
 10
-9.6461614048
 20
9.237341048
 10
-9.6727950711
 20
9.2465986721
 10
-9.6953740032
 20
9.2422115785
 10
-9.7104607633
 20
9.2248476623
 10
-9.7157585289
 20
9.1971504224
  0
LWPOLYLINE
  5
4AF
330
402
100
AcDbEntity
  8
0
  6
Continuous
 62
     7
370
    25
100
AcDbPolyline
 90
        9
 70
   128
 43
0.0
 10
-9.7157585289
 20
-1.1409566307
 10
-9.7104607633
 20
-1.1747705405
 10
-9.6953740032
 20
-1.2095532591
 10
-9.6727950711
 20
-1.2400094328
 10
-9.6461614048
 20
-1.2615023854
 10
-9.6195277384
 20
-1.2707600095
 10
-9.5969488063
 20
-1.2663729158
 10
-9.5818620463
 20
-1.2490089996
 10
-9.5765642806
 20
-1.2213117598
  0
LWPOLYLINE
  5
4B1
330
402
100
AcDbEntity
  8
0
  6
Continuous
 62
     7
370
    25
100
AcDbPolyline
 90
        9
 70
   128
 43
0.0
 10
-10.4117297702
 20
9.598926068
 10
-10.4170275359
 20
9.6327399779
 10
-10.4321142959
 20
9.6675226965
 10
-10.454693228
 20
9.6979788702
 10
-10.4813268944
 20
9.7194718227
 10
-10.5079605607
 20
9.7287294468
 10
-10.5305394928
 20
9.7243423532
 10
-10.5456262529
 20
9.706978437
 10
-10.5509240185
 20
9.6792811971
  0
LWPOLYLINE
  5
4B3
330
402
100
AcDbEntity
  8
0
  6
Continuous
 62
     7
370
    25
100
AcDbPolyline
 90
        9
 70
   128
 43
0.0
 10
-10.5509240185
 20
-0.658825856
 10
-10.5456262529
 20
-0.6926397658
 10
-10.5305394928
 20
-0.7274224844
 10
-10.5079605607
 20
-0.7578786581
 10
-10.4813268944
 20
-0.7793716107
 10
-10.454693228
 20
-0.7886292348
 10
-10.4321142959
 20
-0.7842421411
 10
-10.4170275359
 20
-0.7668782249
 10
-10.4117297702
 20
-0.7391809851
  0
LWPOLYLINE
  5
4B5
330
402
100
AcDbEntity
  8
0
  6
Continuous
 62
     7
370
    25
100
AcDbPolyline
 90
        9
 70
   128
 43
0.0
 10
-10.1333412737
 20
9.4382158098
 10
-10.1386390393
 20
9.4720297196
 10
-10.1537257994
 20
9.5068124382
 10
-10.1763047315
 20
9.537268612
 10
-10.2029383978
 20
9.5587615645
 10
-10.2295720642
 20
9.5680191886
 10
-10.2521509963
 20
9.5636320949
 10
-10.2672377563
 20
9.5462681788
 10
-10.272535522
 20
9.5185709389
  0
LWPOLYLINE
  5
4B7
330
402
100
AcDbEntity
  8
0
  6
Continuous
 62
     7
370
    25
100
AcDbPolyline
 90
        9
 70
   128
 43
0.0
 10
-10.272535522
 20
-0.8195361142
 10
-10.2672377563
 20
-0.853350024
 10
-10.2521509963
 20
-0.8881327426
 10
-10.2295720642
 20
-0.9185889164
 10
-10.2029383978
 20
-0.9400818689
 10
-10.1763047315
 20
-0.949339493
 10
-10.1537257994
 20
-0.9449523993
 10
-10.1386390393
 20
-0.9275884832
 10
-10.1333412737
 20
-0.8998912433
  0
LWPOLYLINE
  5
4B9
330
402
100
AcDbEntity
  8
0
  6
Continuous
 62
     7
370
    25
100
AcDbPolyline
 90
        9
 70
   128
 43
0.0
 10
-8.184621798
 20
8.3132440022
 10
-8.1899195636
 20
8.347057912
 10
-8.2050063237
 20
8.3818406306
 10
-8.2275852558
 20
8.4122968044
 10
-8.2542189221
 20
8.4337897569
 10
-8.2808525885
 20
8.443047381
 10
-8.3034315205
 20
8.4386602873
 10
-8.3185182806
 20
8.4212963711
 10
-8.3238160463
 20
8.3935991313
  0
LWPOLYLINE
  5
4BB
330
402
100
AcDbEntity
  8
0
  6
Continuous
 62
     7
370
    25
100
AcDbPolyline
 90
        9
 70
   128
 43
0.0
 10
-8.3238160463
 20
-1.9445079218
 10
-8.3185182806
 20
-1.9783218317
 10
-8.3034315205
 20
-2.0131045503
 10
-8.2808525885
 20
-2.043560724
 10
-8.2542189221
 20
-2.0650536765
 10
-8.2275852558
 20
-2.0743113006
 10
-8.2050063237
 20
-2.069924207
 10
-8.1899195636
 20
-2.0525602908
 10
-8.184621798
 20
-2.0248630509
  0
LWPOLYLINE
  5
4BD
330
402
100
AcDbEntity
  8
0
  6
Continuous
 62
     7
370
    25
100
AcDbPolyline
 90
        9
 70
   128
 43
0.0
 10
-7.9062333015
 20
8.1525337439
 10
-7.9115310671
 20
8.1863476538
 10
-7.9266178272
 20
8.2211303724
 10
-7.9491967592
 20
8.2515865461
 10
-7.9758304256
 20
8.2730794986
 10
-8.0024640919
 20
8.2823371227
 10
-8.025043024
 20
8.2779500291
 10
-8.0401297841
 20
8.2605861129
 10
-8.0454275497
 20
8.232888873
  0
LWPOLYLINE
  5
4BF
330
402
100
AcDbEntity
  8
0
  6
Continuous
 62
     7
370
    25
100
AcDbPolyline
 90
        9
 70
   128
 43
0.0
 10
-8.0454275497
 20
-2.1052181801
 10
-8.0401297841
 20
-2.1390320899
 10
-8.025043024
 20
-2.1738148085
 10
-8.0024640919
 20
-2.2042709822
 10
-7.9758304256
 20
-2.2257639348
 10
-7.9491967592
 20
-2.2350215589
 10
-7.9266178272
 20
-2.2306344652
 10
-7.9115310671
 20
-2.213270549
 10
-7.9062333015
 20
-2.1855733092
  0
LWPOLYLINE
  5
4C1
330
402
100
AcDbEntity
  8
0
  6
Continuous
 62
     7
370
    25
100
AcDbPolyline
 90
        9
 70
   128
 43
0.0
 10
-9.2981757841
 20
8.9560850351
 10
-9.3034735497
 20
8.9898989449
 10
-9.3185603098
 20
9.0246816635
 10
-9.3411392419
 20
9.0551378373
 10
-9.3677729082
 20
9.0766307898
 10
-9.3944065746
 20
9.0858884139
 10
-9.4169855067
 20
9.0815013202
 10
-9.4320722667
 20
9.0641374041
 10
-9.4373700324
 20
9.0364401642
  0
LWPOLYLINE
  5
4C3
330
402
100
AcDbEntity
  8
0
  6
Continuous
 62
     7
370
    25
100
AcDbPolyline
 90
        9
 70
   128
 43
0.0
 10
-9.4373700324
 20
-1.3016668889
 10
-9.4320722667
 20
-1.3354807987
 10
-9.4169855067
 20
-1.3702635173
 10
-9.3944065746
 20
-1.4007196911
 10
-9.3677729082
 20
-1.4222126436
 10
-9.3411392419
 20
-1.4314702677
 10
-9.3185603098
 20
-1.427083174
 10
-9.3034735497
 20
-1.4097192579
 10
-9.2981757841
 20
-1.382022018
  0
LWPOLYLINE
  5
4C5
330
402
100
AcDbEntity
  8
0
  6
Continuous
 62
     7
370
    25
100
AcDbPolyline
 90
        9
 70
   128
 43
0.0
 10
-9.0197872876
 20
8.7953747769
 10
-9.0250850532
 20
8.8291886867
 10
-9.0401718133
 20
8.8639714053
 10
-9.0627507454
 20
8.8944275791
 10
-9.0893844117
 20
8.9159205316
 10
-9.1160180781
 20
8.9251781557
 10
-9.1385970101
 20
8.920791062
 10
-9.1536837702
 20
8.9034271458
 10
-9.1589815358
 20
8.875729906
  0
LWPOLYLINE
  5
4C7
330
402
100
AcDbEntity
  8
0
  6
Continuous
 62
     7
370
    25
100
AcDbPolyline
 90
        9
 70
   128
 43
0.0
 10
-9.1589815358
 20
-1.4623771471
 10
-9.1536837702
 20
-1.496191057
 10
-9.1385970101
 20
-1.5309737756
 10
-9.1160180781
 20
-1.5614299493
 10
-9.0893844117
 20
-1.5829229018
 10
-9.0627507454
 20
-1.5921805259
 10
-9.0401718133
 20
-1.5877934323
 10
-9.0250850532
 20
-1.5704295161
 10
-9.0197872876
 20
-1.5427322762
  0
LWPOLYLINE
  5
4C9
330
402
100
AcDbEntity
  8
0
  6
Continuous
 62
     7
370
    25
100
AcDbPolyline
 90
        9
 70
   128
 43
0.0
 10
-1.0857151365
 20
-6.1229746359
 10
-1.0804173708
 20
-6.1567885457
 10
-1.0653306108
 20
-6.1915712643
 10
-1.0427516787
 20
-6.2220274381
 10
-1.0161180123
 20
-6.2435203906
 10
-0.989484346
 20
-6.2527780147
 10
-0.9669054139
 20
-6.248390921
 10
-0.9518186538
 20
-6.2310270049
 10
-0.9465208882
 20
-6.203329765
  0
LWPOLYLINE
  5
4CB
330
402
100
AcDbEntity
  8
0
  6
Continuous
 62
     7
370
    25
100
AcDbPolyline
 90
        9
 70
   128
 43
0.0
 10
-0.9465208882
 20
4.1347772881
 10
-0.9518186538
 20
4.168591198
 10
-0.9669054139
 20
4.2033739166
 10
-0.989484346
 20
4.2338300903
 10
-1.0161180123
 20
4.2553230428
 10
-1.0427516787
 20
4.2645806669
 10
-1.0653306108
 20
4.2601935733
 10
-1.0804173708
 20
4.2428296571
 10
-1.0857151365
 20
4.2151324172
  0
LWPOLYLINE
  5
4CD
330
402
100
AcDbEntity
  8
0
  6
Continuous
 62
     7
370
    25
100
AcDbPolyline
 90
        9
 70
   128
 43
0.0
 10
-5.2615425844
 20
-3.7123207624
 10
-5.2562448188
 20
-3.7461346722
 10
-5.2411580587
 20
-3.7809173908
 10
-5.2185791266
 20
-3.8113735646
 10
-5.1919454603
 20
-3.8328665171
 10
-5.1653117939
 20
-3.8421241412
 10
-5.1427328619
 20
-3.8377370475
 10
-5.1276461018
 20
-3.8203731314
 10
-5.1223483362
 20
-3.7926758915
  0
LWPOLYLINE
  5
4CF
330
402
100
AcDbEntity
  8
0
  6
Continuous
 62
     7
370
    25
100
AcDbPolyline
 90
        9
 70
   128
 43
0.0
 10
-5.1223483362
 20
6.5454311616
 10
-5.1276461018
 20
6.5792450715
 10
-5.1427328619
 20
6.6140277901
 10
-5.1653117939
 20
6.6444839638
 10
-5.1919454603
 20
6.6659769163
 10
-5.2185791266
 20
6.6752345404
 10
-5.2411580587
 20
6.6708474468
 10
-5.2562448188
 20
6.6534835306
 10
-5.2615425844
 20
6.6257862907
  0
LWPOLYLINE
  5
4D1
330
402
100
AcDbEntity
  8
0
  6
Continuous
 62
     7
370
    25
100
AcDbPolyline
 90
        9
 70
   128
 43
0.0
 10
-5.4007368327
 20
6.7061414198
 10
-5.4060345983
 20
6.7399553297
 10
-5.4211213584
 20
6.7747380483
 10
-5.4437002905
 20
6.805194222
 10
-5.4703339568
 20
6.8266871745
 10
-5.4969676232
 20
6.8359447986
 10
-5.5195465552
 20
6.831557705
 10
-5.5346333153
 20
6.8141937888
 10
-5.5399310809
 20
6.7864965489
  0
LWPOLYLINE
  5
4D3
330
402
100
AcDbEntity
  8
0
  6
Continuous
 62
     7
370
    25
100
AcDbPolyline
 90
        9
 70
   128
 43
0.0
 10
-5.5399310809
 20
-3.5516105041
 10
-5.5346333153
 20
-3.585424414
 10
-5.5195465552
 20
-3.6202071326
 10
-5.4969676232
 20
-3.6506633063
 10
-5.4703339568
 20
-3.6721562589
 10
-5.4437002905
 20
-3.681413883
 10
-5.4211213584
 20
-3.6770267893
 10
-5.4060345983
 20
-3.6596628731
 10
-5.4007368327
 20
-3.6319656333
  0
LWPOLYLINE
  5
4D5
330
402
100
AcDbEntity
  8
0
  6
Continuous
 62
     7
370
    25
100
AcDbPolyline
 90
        9
 70
   128
 43
0.0
 10
-4.7047655914
 20
-4.0337412788
 10
-4.6994678257
 20
-4.0675551887
 10
-4.6843810657
 20
-4.1023379073
 10
-4.6618021336
 20
-4.132794081
 10
-4.6351684672
 20
-4.1542870336
 10
-4.6085348009
 20
-4.1635446577
 10
-4.5859558688
 20
-4.159157564
 10
-4.5708691087
 20
-4.1417936478
 10
-4.5655713431
 20
-4.114096408
  0
LWPOLYLINE
  5
4D7
330
402
100
AcDbEntity
  8
0
  6
Continuous
 62
     7
370
    25
100
AcDbPolyline
 90
        9
 70
   128
 43
0.0
 10
-4.5655713431
 20
6.2240106451
 10
-4.5708691087
 20
6.257824555
 10
-4.5859558688
 20
6.2926072736
 10
-4.6085348009
 20
6.3230634473
 10
-4.6351684672
 20
6.3445563998
 10
-4.6618021336
 20
6.3538140239
 10
-4.6843810657
 20
6.3494269303
 10
-4.6994678257
 20
6.3320630141
 10
-4.7047655914
 20
6.3043657743
  0
LWPOLYLINE
  5
4DA
330
402
100
AcDbEntity
  8
0
  6
Continuous
 62
     7
370
    25
100
AcDbPolyline
 90
        9
 70
   128
 43
0.0
 10
0.3062273462
 20
-6.926525927
 10
0.3115251118
 20
-6.9603398369
 10
0.3266118719
 20
-6.9951225555
 10
0.349190804
 20
-7.0255787292
 10
0.3758244703
 20
-7.0470716817
 10
0.4024581367
 20
-7.0563293058
 10
0.4250370687
 20
-7.0519422122
 10
0.4401238288
 20
-7.034578296
 10
0.4454215944
 20
-7.0068810562
  0
LWPOLYLINE
  5
4DC
330
402
100
AcDbEntity
  8
0
  6
Continuous
 62
     7
370
    25
100
AcDbPolyline
 90
        9
 70
   128
 43
0.0
 10
0.4454215944
 20
3.3312259969
 10
0.4401238288
 20
3.3650399068
 10
0.4250370687
 20
3.3998226254
 10
0.4024581367
 20
3.4302787991
 10
0.3758244703
 20
3.4517717516
 10
0.349190804
 20
3.4610293758
 10
0.3266118719
 20
3.4566422821
 10
0.3115251118
 20
3.4392783659
 10
0.3062273462
 20
3.4115811261
  0
LWPOLYLINE
  5
4DE
330
402
100
AcDbEntity
  8
0
  6
Continuous
 62
     7
370
    25
100
AcDbPolyline
 90
        9
 70
   128
 43
0.0
 10
0.0278388497
 20
-6.7658156688
 10
0.0331366153
 20
-6.7996295787
 10
0.0482233754
 20
-6.8344122973
 10
0.0708023074
 20
-6.864868471
 10
0.0974359738
 20
-6.8863614235
 10
0.1240696401
 20
-6.8956190476
 10
0.1466485722
 20
-6.891231954
 10
0.1617353323
 20
-6.8738680378
 10
0.1670330979
 20
-6.8461707979
  0
LWPOLYLINE
  5
4E0
330
402
100
AcDbEntity
  8
0
  6
Continuous
 62
     7
370
    25
100
AcDbPolyline
 90
        9
 70
   128
 43
0.0
 10
0.1670330979
 20
3.4919362552
 10
0.1617353323
 20
3.525750165
 10
0.1466485722
 20
3.5605328836
 10
0.1240696401
 20
3.5909890574
 10
0.0974359738
 20
3.6124820099
 10
0.0708023074
 20
3.621739634
 10
0.0482233754
 20
3.6173525403
 10
0.0331366153
 20
3.5999886242
 10
0.0278388497
 20
3.5722913843
  0
LWPOLYLINE
  5
4E2
330
402
100
AcDbEntity
  8
0
  6
Continuous
 62
     7
370
    25
100
AcDbPolyline
 90
        9
 70
   128
 43
0.0
 10
0.8630043392
 20
-7.2479464435
 10
0.8683021049
 20
-7.2817603534
 10
0.883388865
 20
-7.316543072
 10
0.905967797
 20
-7.3469992457
 10
0.9326014634
 20
-7.3684921982
 10
0.9592351297
 20
-7.3777498223
 10
0.9818140618
 20
-7.3733627287
 10
0.9969008219
 20
-7.3559988125
 10
1.0021985875
 20
-7.3283015726
  0
LWPOLYLINE
  5
4E4
330
402
100
AcDbEntity
  8
0
  6
Continuous
 62
     7
370
    25
100
AcDbPolyline
 90
        9
 70
   128
 43
0.0
 10
1.0021985875
 20
3.0098054805
 10
0.9969008219
 20
3.0436193903
 10
0.9818140618
 20
3.0784021089
 10
0.9592351297
 20
3.1088582827
 10
0.9326014634
 20
3.1303512352
 10
0.905967797
 20
3.1396088593
 10
0.883388865
 20
3.1352217656
 10
0.8683021049
 20
3.1178578495
 10
0.8630043392
 20
3.0901606096
  0
LWPOLYLINE
  5
4E5
330
402
100
AcDbEntity
  8
0
  6
Continuous
 62
     7
370
    25
100
AcDbPolyline
 90
        9
 70
   128
 43
0.0
 10
-3.0344346122
 20
-4.9980028282
 10
-3.0291368466
 20
-5.0318167381
 10
-3.0140500865
 20
-5.0665994567
 10
-2.9914711544
 20
-5.0970556304
 10
-2.964837488
 20
-5.1185485829
 10
-2.9382038217
 20
-5.1278062071
 10
-2.9156248896
 20
-5.1234191134
 10
-2.9005381295
 20
-5.1060551972
 10
-2.8952403639
 20
-5.0783579574
  0
LWPOLYLINE
  5
4E7
330
402
100
AcDbEntity
  8
0
  6
Continuous
 62
     7
370
    25
100
AcDbPolyline
 90
        9
 70
   128
 43
0.0
 10
-2.8952403639
 20
5.2597490957
 10
-2.9005381295
 20
5.2935630056
 10
-2.9156248896
 20
5.3283457242
 10
-2.9382038217
 20
5.3588018979
 10
-2.964837488
 20
5.3802948504
 10
-2.9914711544
 20
5.3895524745
 10
-3.0140500865
 20
5.3851653809
 10
-3.0291368466
 20
5.3678014647
 10
-3.0344346122
 20
5.3401042249
  0
LWPOLYLINE
  5
4EA
330
402
100
AcDbEntity
  8
0
  6
Continuous
 62
     7
370
    25
100
AcDbPolyline
 90
        9
 70
   128
 43
0.0
 10
-4.1479885983
 20
-4.3551617953
 10
-4.1426908327
 20
-4.3889757052
 10
-4.1276040726
 20
-4.4237584238
 10
-4.1050251405
 20
-4.4542145975
 10
-4.0783914742
 20
-4.47570755
 10
-4.0517578078
 20
-4.4849651741
 10
-4.0291788757
 20
-4.4805780805
 10
-4.0140921157
 20
-4.4632141643
 10
-4.00879435
 20
-4.4355169244
  0
LWPOLYLINE
  5
4EC
330
402
100
AcDbEntity
  8
0
  6
Continuous
 62
     7
370
    25
100
AcDbPolyline
 90
        9
 70
   128
 43
0.0
 10
-4.00879435
 20
5.9025901287
 10
-4.0140921157
 20
5.9364040385
 10
-4.0291788757
 20
5.9711867571
 10
-4.0517578078
 20
6.0016429309
 10
-4.0783914742
 20
6.0231358834
 10
-4.1050251405
 20
6.0323935075
 10
-4.1276040726
 20
6.0280064138
 10
-4.1426908327
 20
6.0106424976
 10
-4.1479885983
 20
5.9829452578
  0
LWPOLYLINE
  5
4ED
330
402
100
AcDbEntity
  8
0
  6
Continuous
 62
     7
370
    25
100
AcDbPolyline
 90
        9
 70
   128
 43
0.0
 10
0.723810091
 20
3.1705157387
 10
0.7185123254
 20
3.2043296486
 10
0.7034255653
 20
3.2391123672
 10
0.6808466332
 20
3.2695685409
 10
0.6542129668
 20
3.2910614934
 10
0.6275793005
 20
3.3003191175
 10
0.6050003684
 20
3.2959320239
 10
0.5899136083
 20
3.2785681077
 10
0.5846158427
 20
3.2508708678
  0
LWPOLYLINE
  5
4EF
330
402
100
AcDbEntity
  8
0
  6
Continuous
 62
     7
370
    25
100
AcDbPolyline
 90
        9
 70
   128
 43
0.0
 10
0.5846158427
 20
-7.0872361853
 10
0.5899136083
 20
-7.1210500951
 10
0.6050003684
 20
-7.1558328137
 10
0.6275793005
 20
-7.1862889875
 10
0.6542129668
 20
-7.20778194
 10
0.6808466332
 20
-7.2170395641
 10
0.7034255653
 20
-7.2126524704
 10
0.7185123254
 20
-7.1952885542
 10
0.723810091
 20
-7.1675913144
  0
LWPOLYLINE
  5
4F1
330
402
100
AcDbEntity
  8
0
  6
Continuous
 62
     7
370
    25
100
AcDbPolyline
 90
        9
 70
   128
 43
0.0
 10
-2.1992691226
 20
-5.4801336029
 10
-2.193971357
 20
-5.5139475128
 10
-2.1788845969
 20
-5.5487302314
 10
-2.1563056648
 20
-5.5791864051
 10
-2.1296719985
 20
-5.6006793576
 10
-2.1030383321
 20
-5.6099369818
 10
-2.0804594
 20
-5.6055498881
 10
-2.0653726399
 20
-5.5881859719
 10
-2.0600748743
 20
-5.5604887321
  0
LWPOLYLINE
  5
4F3
330
402
100
AcDbEntity
  8
0
  6
Continuous
 62
     7
370
    25
100
AcDbPolyline
 90
        9
 70
   128
 43
0.0
 10
-2.0600748743
 20
4.777618321
 10
-2.0653726399
 20
4.8114322309
 10
-2.0804594
 20
4.8462149495
 10
-2.1030383321
 20
4.8766711232
 10
-2.1296719985
 20
4.8981640757
 10
-2.1563056648
 20
4.9074216998
 10
-2.1788845969
 20
4.9030346062
 10
-2.193971357
 20
4.88567069
 10
-2.1992691226
 20
4.8579734502
  0
LWPOLYLINE
  5
4F5
330
402
100
AcDbEntity
  8
0
  6
Continuous
 62
     7
370
    25
100
AcDbPolyline
 90
        9
 70
   128
 43
0.0
 10
-1.7816863778
 20
4.6169080628
 10
-1.7869841434
 20
4.6507219727
 10
-1.8020709035
 20
4.6855046913
 10
-1.8246498356
 20
4.715960865
 10
-1.8512835019
 20
4.7374538175
 10
-1.8779171683
 20
4.7467114416
 10
-1.9004961004
 20
4.742324348
 10
-1.9155828604
 20
4.7249604318
 10
-1.9208806261
 20
4.6972631919
  0
LWPOLYLINE
  5
4F7
330
402
100
AcDbEntity
  8
0
  6
Continuous
 62
     7
370
    25
100
AcDbPolyline
 90
        9
 70
   128
 43
0.0
 10
-1.9208806261
 20
-5.6408438612
 10
-1.9155828604
 20
-5.674657771
 10
-1.9004961004
 20
-5.7094404896
 10
-1.8779171683
 20
-5.7398966634
 10
-1.8512835019
 20
-5.7613896159
 10
-1.8246498356
 20
-5.77064724
 10
-1.8020709035
 20
-5.7662601463
 10
-1.7869841434
 20
-5.7488962302
 10
-1.7816863778
 20
-5.7211989903
  0
LWPOLYLINE
  5
4F9
330
402
100
AcDbEntity
  8
0
  6
Continuous
 62
     7
370
    25
100
AcDbPolyline
 90
        9
 70
   128
 43
0.0
 10
-4.9831540879
 20
-3.8730310206
 10
-4.9778563223
 20
-3.9068449305
 10
-4.9627695622
 20
-3.9416276491
 10
-4.9401906301
 20
-3.9720838228
 10
-4.9135569638
 20
-3.9935767753
 10
-4.8869232974
 20
-4.0028343994
 10
-4.8643443653
 20
-3.9984473058
 10
-4.8492576052
 20
-3.9810833896
 10
-4.8439598396
 20
-3.9533861497
  0
LWPOLYLINE
  5
4FB
330
402
100
AcDbEntity
  8
0
  6
Continuous
 62
     7
370
    25
100
AcDbPolyline
 90
        9
 70
   128
 43
0.0
 10
-4.8439598396
 20
6.3847209034
 10
-4.8492576052
 20
6.4185348132
 10
-4.8643443653
 20
6.4533175318
 10
-4.8869232974
 20
6.4837737056
 10
-4.9135569638
 20
6.5052666581
 10
-4.9401906301
 20
6.5145242822
 10
-4.9627695622
 20
6.5101371885
 10
-4.9778563223
 20
6.4927732723
 10
-4.9831540879
 20
6.4650760325
  0
LWPOLYLINE
  5
4FE
330
402
100
AcDbEntity
  8
0
  6
Continuous
 62
     7
370
    25
100
AcDbPolyline
 90
        9
 70
   128
 43
0.0
 10
-3.452017357
 20
5.5811696122
 10
-3.4573151226
 20
5.6149835221
 10
-3.4724018827
 20
5.6497662407
 10
-3.4949808148
 20
5.6802224144
 10
-3.5216144811
 20
5.7017153669
 10
-3.5482481475
 20
5.710972991
 10
-3.5708270795
 20
5.7065858974
 10
-3.5859138396
 20
5.6892219812
 10
-3.5912116052
 20
5.6615247413
  0
LWPOLYLINE
  5
500
330
402
100
AcDbEntity
  8
0
  6
Continuous
 62
     7
370
    25
100
AcDbPolyline
 90
        9
 70
   128
 43
0.0
 10
-3.5912116052
 20
-4.6765823118
 10
-3.5859138396
 20
-4.7103962216
 10
-3.5708270795
 20
-4.7451789402
 10
-3.5482481475
 20
-4.775635114
 10
-3.5216144811
 20
-4.7971280665
 10
-3.4949808148
 20
-4.8063856906
 10
-3.4724018827
 20
-4.8019985969
 10
-3.4573151226
 20
-4.7846346808
 10
-3.452017357
 20
-4.7569374409
  0
LWPOLYLINE
  5
502
330
402
100
AcDbEntity
  8
0
  6
Continuous
 62
     7
370
    25
100
AcDbPolyline
 90
        9
 70
   128
 43
0.0
 10
-2.7560461156
 20
-5.1587130865
 10
-2.75074835
 20
-5.1925269963
 10
-2.7356615899
 20
-5.2273097149
 10
-2.7130826579
 20
-5.2577658887
 10
-2.6864489915
 20
-5.2792588412
 10
-2.6598153252
 20
-5.2885164653
 10
-2.6372363931
 20
-5.2841293716
 10
-2.622149633
 20
-5.2667654555
 10
-2.6168518674
 20
-5.2390682156
  0
LWPOLYLINE
  5
504
330
402
100
AcDbEntity
  8
0
  6
Continuous
 62
     7
370
    25
100
AcDbPolyline
 90
        9
 70
   128
 43
0.0
 10
-2.6168518674
 20
5.0990388375
 10
-2.622149633
 20
5.1328527474
 10
-2.6372363931
 20
5.167635466
 10
-2.6598153252
 20
5.1980916397
 10
-2.6864489915
 20
5.2195845922
 10
-2.7130826579
 20
5.2288422163
 10
-2.7356615899
 20
5.2244551227
 10
-2.75074835
 20
5.2070912065
 10
-2.7560461156
 20
5.1793939666
  0
LWPOLYLINE
  5
506
330
402
100
AcDbEntity
  8
0
  6
Continuous
 62
     7
370
    25
100
AcDbPolyline
 90
        9
 70
   128
 43
0.0
 10
-4.2871828466
 20
6.0633003869
 10
-4.2924806122
 20
6.0971142968
 10
-4.3075673723
 20
6.1318970154
 10
-4.3301463044
 20
6.1623531891
 10
-4.3567799707
 20
6.1838461416
 10
-4.383413637
 20
6.1931037657
 10
-4.4059925691
 20
6.1887166721
 10
-4.4210793292
 20
6.1713527559
 10
-4.4263770948
 20
6.143655516
  0
LWPOLYLINE
  5
508
330
402
100
AcDbEntity
  8
0
  6
Continuous
 62
     7
370
    25
100
AcDbPolyline
 90
        9
 70
   128
 43
0.0
 10
-4.4263770948
 20
-4.1944515371
 10
-4.4210793292
 20
-4.2282654469
 10
-4.4059925691
 20
-4.2630481655
 10
-4.383413637
 20
-4.2935043393
 10
-4.3567799707
 20
-4.3149972918
 10
-4.3301463044
 20
-4.3242549159
 10
-4.3075673723
 20
-4.3198678222
 10
-4.2924806122
 20
-4.3025039061
 10
-4.2871828466
 20
-4.2748066662
  0
LWPOLYLINE
  5
50A
330
402
100
AcDbEntity
  8
0
  6
Continuous
 62
     7
370
    25
100
AcDbPolyline
 90
        9
 70
   128
 43
0.0
 10
-2.4776576191
 20
-5.3194233447
 10
-2.4723598535
 20
-5.3532372546
 10
-2.4572730934
 20
-5.3880199732
 10
-2.4346941613
 20
-5.4184761469
 10
-2.408060495
 20
-5.4399690994
 10
-2.3814268286
 20
-5.4492267235
 10
-2.3588478966
 20
-5.4448396299
 10
-2.3437611365
 20
-5.4274757137
 10
-2.3384633709
 20
-5.3997784738
  0
LWPOLYLINE
  5
50C
330
402
100
AcDbEntity
  8
0
  6
Continuous
 62
     7
370
    25
100
AcDbPolyline
 90
        9
 70
   128
 43
0.0
 10
-2.3384633709
 20
4.9383285793
 10
-2.3437611365
 20
4.9721424891
 10
-2.3588478966
 20
5.0069252077
 10
-2.3814268286
 20
5.0373813815
 10
-2.408060495
 20
5.058874334
 10
-2.4346941613
 20
5.0681319581
 10
-2.4572730934
 20
5.0637448644
 10
-2.4723598535
 20
5.0463809483
 10
-2.4776576191
 20
5.0186837084
  0
LWPOLYLINE
  5
50E
330
402
100
AcDbEntity
  8
0
  6
Continuous
 62
     7
370
    25
100
AcDbPolyline
 90
        9
 70
   128
 43
0.0
 10
-1.6424921295
 20
-5.8015541194
 10
-1.6371943639
 20
-5.8353680293
 10
-1.6221076038
 20
-5.8701507479
 10
-1.5995286717
 20
-5.9006069216
 10
-1.5728950054
 20
-5.9220998741
 10
-1.546261339
 20
-5.9313574982
 10
-1.523682407
 20
-5.9269704046
 10
-1.5085956469
 20
-5.9096064884
 10
-1.5032978813
 20
-5.8819092485
  0
LWPOLYLINE
  5
510
330
402
100
AcDbEntity
  8
0
  6
Continuous
 62
     7
370
    25
100
AcDbPolyline
 90
        9
 70
   128
 43
0.0
 10
-1.5032978813
 20
4.4561978046
 10
-1.5085956469
 20
4.4900117144
 10
-1.523682407
 20
4.524794433
 10
-1.546261339
 20
4.5552506068
 10
-1.5728950054
 20
4.5767435593
 10
-1.5995286717
 20
4.5860011834
 10
-1.6221076038
 20
4.5816140897
 10
-1.6371943639
 20
4.5642501736
 10
-1.6424921295
 20
4.5365529337
  0
LWPOLYLINE
  5
512
330
402
100
AcDbEntity
  8
0
  6
Continuous
 62
     7
370
    25
100
AcDbPolyline
 90
        9
 70
   128
 43
0.0
 10
-3.8696001018
 20
-4.5158720535
 10
-3.8643023361
 20
-4.5496859634
 10
-3.8492155761
 20
-4.584468682
 10
-3.826636644
 20
-4.6149248557
 10
-3.8000029776
 20
-4.6364178082
 10
-3.7733693113
 20
-4.6456754324
 10
-3.7507903792
 20
-4.6412883387
 10
-3.7357036191
 20
-4.6239244225
 10
-3.7304058535
 20
-4.5962271827
  0
LWPOLYLINE
  5
514
330
402
100
AcDbEntity
  8
0
  6
Continuous
 62
     7
370
    25
100
AcDbPolyline
 90
        9
 70
   128
 43
0.0
 10
-3.7304058535
 20
5.7418798704
 10
-3.7357036191
 20
5.7756937803
 10
-3.7507903792
 20
5.8104764989
 10
-3.7733693113
 20
5.8409326726
 10
-3.8000029776
 20
5.8624256251
 10
-3.826636644
 20
5.8716832492
 10
-3.8492155761
 20
5.8672961556
 10
-3.8643023361
 20
5.8499322394
 10
-3.8696001018
 20
5.8222349996
  0
LWPOLYLINE
  5
516
330
402
100
AcDbEntity
  8
0
  6
Continuous
 62
     7
370
    25
100
AcDbPolyline
 90
        9
 70
   128
 43
0.0
 10
-3.3128231087
 20
-4.83729257
 10
-3.3075253431
 20
-4.8711064799
 10
-3.292438583
 20
-4.9058891985
 10
-3.2698596509
 20
-4.9363453722
 10
-3.2432259846
 20
-4.9578383247
 10
-3.2165923182
 20
-4.9670959488
 10
-3.1940133862
 20
-4.9627088552
 10
-3.1789266261
 20
-4.945344939
 10
-3.1736288604
 20
-4.9176476991
  0
LWPOLYLINE
  5
518
330
402
100
AcDbEntity
  8
0
  6
Continuous
 62
     7
370
    25
100
AcDbPolyline
 90
        9
 70
   128
 43
0.0
 10
-3.1736288604
 20
5.420459354
 10
-3.1789266261
 20
5.4542732638
 10
-3.1940133862
 20
5.4890559824
 10
-3.2165923182
 20
5.5195121562
 10
-3.2432259846
 20
5.5410051087
 10
-3.2698596509
 20
5.5502627328
 10
-3.292438583
 20
5.5458756391
 10
-3.3075253431
 20
5.5285117229
 10
-3.3128231087
 20
5.5008144831
  0
LWPOLYLINE
  5
51A
330
402
100
AcDbEntity
  8
0
  6
Continuous
 62
     7
370
    25
100
AcDbPolyline
 90
        9
 70
   128
 43
0.0
 10
-0.5289381434
 20
-6.4443951523
 10
-0.5236403778
 20
-6.4782090622
 10
-0.5085536177
 20
-6.5129917808
 10
-0.4859746856
 20
-6.5434479545
 10
-0.4593410193
 20
-6.564940907
 10
-0.4327073529
 20
-6.5741985311
 10
-0.4101284208
 20
-6.5698114375
 10
-0.3950416608
 20
-6.5524475213
 10
-0.3897438951
 20
-6.5247502815
  0
LWPOLYLINE
  5
51C
330
402
100
AcDbEntity
  8
0
  6
Continuous
 62
     7
370
    25
100
AcDbPolyline
 90
        9
 70
   128
 43
0.0
 10
-0.3897438951
 20
3.8133567716
 10
-0.3950416608
 20
3.8471706815
 10
-0.4101284208
 20
3.8819534001
 10
-0.4327073529
 20
3.9124095738
 10
-0.4593410193
 20
3.9339025263
 10
-0.4859746856
 20
3.9431601505
 10
-0.5085536177
 20
3.9387730568
 10
-0.5236403778
 20
3.9214091406
 10
-0.5289381434
 20
3.8937119008
  0
LWPOLYLINE
  5
51E
330
402
100
AcDbEntity
  8
0
  6
Continuous
 62
     7
370
    25
100
AcDbPolyline
 90
        9
 70
   128
 43
0.0
 10
-0.2505496469
 20
-6.6051054106
 10
-0.2452518813
 20
-6.6389193204
 10
-0.2301651212
 20
-6.673702039
 10
-0.2075861891
 20
-6.7041582128
 10
-0.1809525227
 20
-6.7256511653
 10
-0.1543188564
 20
-6.7349087894
 10
-0.1317399243
 20
-6.7305216957
 10
-0.1166531642
 20
-6.7131577795
 10
-0.1113553986
 20
-6.6854605397
  0
LWPOLYLINE
  5
520
330
402
100
AcDbEntity
  8
0
  6
Continuous
 62
     7
370
    25
100
AcDbPolyline
 90
        9
 70
   128
 43
0.0
 10
-0.1113553986
 20
3.6526465134
 10
-0.1166531642
 20
3.6864604233
 10
-0.1317399243
 20
3.7212431419
 10
-0.1543188564
 20
3.7516993156
 10
-0.1809525227
 20
3.7731922681
 10
-0.2075861891
 20
3.7824498922
 10
-0.2301651212
 20
3.7780627986
 10
-0.2452518813
 20
3.7606988824
 10
-0.2505496469
 20
3.7330016425
  0
LWPOLYLINE
  5
522
330
402
100
AcDbEntity
  8
0
  6
Continuous
 62
     7
370
    25
100
AcDbPolyline
 90
        9
 70
   128
 43
0.0
 10
-1.2249093847
 20
4.2954875463
 10
-1.2302071504
 20
4.3293014562
 10
-1.2452939104
 20
4.3640841748
 10
-1.2678728425
 20
4.3945403485
 10
-1.2945065089
 20
4.416033301
 10
-1.3211401752
 20
4.4252909251
 10
-1.3437191073
 20
4.4209038315
 10
-1.3588058674
 20
4.4035399153
 10
-1.364103633
 20
4.3758426755
  0
LWPOLYLINE
  5
524
330
402
100
AcDbEntity
  8
0
  6
Continuous
 62
     7
370
    25
100
AcDbPolyline
 90
        9
 70
   128
 43
0.0
 10
-1.364103633
 20
-5.9622643776
 10
-1.3588058674
 20
-5.9960782875
 10
-1.3437191073
 20
-6.0308610061
 10
-1.3211401752
 20
-6.0613171798
 10
-1.2945065089
 20
-6.0828101323
 10
-1.2678728425
 20
-6.0920677564
 10
-1.2452939104
 20
-6.0876806628
 10
-1.2302071504
 20
-6.0703167466
 10
-1.2249093847
 20
-6.0426195068
  0
LWPOLYLINE
  5
526
330
402
100
AcDbEntity
  8
0
  6
Continuous
 62
     7
370
    25
100
AcDbPolyline
 90
        9
 70
   128
 43
0.0
 10
-0.6681323917
 20
3.9740670299
 10
-0.6734301573
 20
4.0078809397
 10
-0.6885169174
 20
4.0426636583
 10
-0.7110958495
 20
4.0731198321
 10
-0.7377295158
 20
4.0946127846
 10
-0.7643631822
 20
4.1038704087
 10
-0.7869421142
 20
4.099483315
 10
-0.8020288743
 20
4.0821193989
 10
-0.8073266399
 20
4.054422159
  0
LWPOLYLINE
  5
528
330
402
100
AcDbEntity
  8
0
  6
Continuous
 62
     7
370
    25
100
AcDbPolyline
 90
        9
 70
   128
 43
0.0
 10
-0.8073266399
 20
-6.2836848941
 10
-0.8020288743
 20
-6.317498804
 10
-0.7869421142
 20
-6.3522815226
 10
-0.7643631822
 20
-6.3827376963
 10
-0.7377295158
 20
-6.4042306488
 10
-0.7110958495
 20
-6.4134882729
 10
-0.6885169174
 20
-6.4091011793
 10
-0.6734301573
 20
-6.3917372631
 10
-0.6681323917
 20
-6.3640400232
  0
LWPOLYLINE
  5
529
330
402
100
AcDbEntity
  8
0
  6
Continuous
 62
     7
370
    25
100
AcDbPolyline
 90
        9
 70
   128
 43
0.0
 10
-12.0820607494
 20
10.5631876174
 10
-12.087358515
 20
10.5970015273
 10
-12.1024452751
 20
10.6317842459
 10
-12.1250242072
 20
10.6622404196
 10
-12.1516578735
 20
10.6837333721
 10
-12.1782915399
 20
10.6929909962
 10
-12.200870472
 20
10.6886039026
 10
-12.215957232
 20
10.6712399864
 10
-12.2212549977
 20
10.6435427465
  0
LWPOLYLINE
  5
52B
330
402
100
AcDbEntity
  8
0
  6
Continuous
 62
     7
370
    25
100
AcDbPolyline
 90
        9
 70
   128
 43
0.0
 10
-12.2212549977
 20
0.3054356934
 10
-12.215957232
 20
0.2716217836
 10
-12.200870472
 20
0.236839065
 10
-12.1782915399
 20
0.2063828912
 10
-12.1516578735
 20
0.1848899387
 10
-12.1250242072
 20
0.1756323146
 10
-12.1024452751
 20
0.1800194083
 10
-12.087358515
 20
0.1973833245
 10
-12.0820607494
 20
0.2250805643
  0
LWPOLYLINE
  5
52D
330
402
100
AcDbEntity
  8
0
  6
Continuous
 62
     7
370
    25
100
AcDbPolyline
 90
        9
 70
   128
 43
0.0
 10
-11.9428665011
 20
0.1447254352
 10
-11.9375687355
 20
0.1109115254
 10
-11.9224819754
 20
0.0761288068
 10
-11.8999030434
 20
0.045672633
 10
-11.873269377
 20
0.0241796805
 10
-11.8466357107
 20
0.0149220564
 10
-11.8240567786
 20
0.0193091501
 10
-11.8089700185
 20
0.0366730662
 10
-11.8036722529
 20
0.0643703061
  0
LWPOLYLINE
  5
52F
330
402
100
AcDbEntity
  8
0
  6
Continuous
 62
     7
370
    25
100
AcDbPolyline
 90
        9
 70
   128
 43
0.0
 10
-11.8036722529
 20
10.4024773592
 10
-11.8089700185
 20
10.436291269
 10
-11.8240567786
 20
10.4710739876
 10
-11.8466357107
 20
10.5015301614
 10
-11.873269377
 20
10.5230231139
 10
-11.8999030434
 20
10.532280738
 10
-11.9224819754
 20
10.5278936443
 10
-11.9375687355
 20
10.5105297282
 10
-11.9428665011
 20
10.4828324883
  0
LWPOLYLINE
  5
531
330
402
100
AcDbEntity
  8
0
  6
Continuous
 62
     7
370
    25
100
AcDbPolyline
 90
        9
 70
   128
 43
0.0
 10
-12.6388377425
 20
10.8846081339
 10
-12.6441355081
 20
10.9184220437
 10
-12.6592222682
 20
10.9532047623
 10
-12.6818012003
 20
10.9836609361
 10
-12.7084348666
 20
11.0051538886
 10
-12.7350685329
 20
11.0144115127
 10
-12.757647465
 20
11.010024419
 10
-12.7727342251
 20
10.9926605029
 10
-12.7780319907
 20
10.964963263
  0
LWPOLYLINE
  5
533
330
402
100
AcDbEntity
  8
0
  6
Continuous
 62
     7
370
    25
100
AcDbPolyline
 90
        9
 70
   128
 43
0.0
 10
-12.7780319907
 20
0.6268562099
 10
-12.7727342251
 20
0.5930423
 10
-12.757647465
 20
0.5582595815
 10
-12.7350685329
 20
0.5278034077
 10
-12.7084348666
 20
0.5063104552
 10
-12.6818012003
 20
0.4970528311
 10
-12.6592222682
 20
0.5014399248
 10
-12.6441355081
 20
0.5188038409
 10
-12.6388377425
 20
0.5465010808
  0
LWPOLYLINE
  5
535
330
402
100
AcDbEntity
  8
0
  6
Continuous
 62
     7
370
    25
100
AcDbPolyline
 90
        9
 70
   128
 43
0.0
 10
-12.4996434942
 20
0.4661459517
 10
-12.4943457286
 20
0.4323320418
 10
-12.4792589685
 20
0.3975493232
 10
-12.4566800364
 20
0.3670931495
 10
-12.4300463701
 20
0.345600197
 10
-12.4034127037
 20
0.3363425729
 10
-12.3808337716
 20
0.3407296665
 10
-12.3657470116
 20
0.3580935827
 10
-12.3604492459
 20
0.3857908226
  0
LWPOLYLINE
  5
537
330
402
100
AcDbEntity
  8
0
  6
Continuous
 62
     7
370
    25
100
AcDbPolyline
 90
        9
 70
   128
 43
0.0
 10
-12.3604492459
 20
10.7238978757
 10
-12.3657470116
 20
10.7577117855
 10
-12.3808337716
 20
10.7924945041
 10
-12.4034127037
 20
10.8229506778
 10
-12.4300463701
 20
10.8444436304
 10
-12.4566800364
 20
10.8537012545
 10
-12.4792589685
 20
10.8493141608
 10
-12.4943457286
 20
10.8319502446
 10
-12.4996434942
 20
10.8042530048
  0
LWPOLYLINE
  5
539
330
402
100
AcDbEntity
  8
0
  6
Continuous
 62
     7
370
    25
100
AcDbPolyline
 90
        9
 70
   128
 43
0.0
 10
-10.9685067633
 20
9.9203465845
 10
-10.9738045289
 20
9.9541604943
 10
-10.988891289
 20
9.9889432129
 10
-11.0114702211
 20
10.0193993867
 10
-11.0381038874
 20
10.0408923392
 10
-11.0647375538
 20
10.0501499633
 10
-11.0873164858
 20
10.0457628696
 10
-11.1024032459
 20
10.0283989535
 10
-11.1077010116
 20
10.0007017136
  0
LWPOLYLINE
  5
53B
330
402
100
AcDbEntity
  8
0
  6
Continuous
 62
     7
370
    25
100
AcDbPolyline
 90
        9
 70
   128
 43
0.0
 10
-11.1077010116
 20
-0.3374053395
 10
-11.1024032459
 20
-0.3712192493
 10
-11.0873164858
 20
-0.4060019679
 10
-11.0647375538
 20
-0.4364581417
 10
-11.0381038874
 20
-0.4579510942
 10
-11.0114702211
 20
-0.4672087183
 10
-10.988891289
 20
-0.4628216246
 10
-10.9738045289
 20
-0.4454577085
 10
-10.9685067633
 20
-0.4177604686
  0
LWPOLYLINE
  5
53D
330
402
100
AcDbEntity
  8
0
  6
Continuous
 62
     7
370
    25
100
AcDbPolyline
 90
        9
 70
   128
 43
0.0
 10
-10.6901182668
 20
9.7596363263
 10
-10.6954160324
 20
9.7934502361
 10
-10.7105027925
 20
9.8282329547
 10
-10.7330817245
 20
9.8586891284
 10
-10.7597153909
 20
9.880182081
 10
-10.7863490572
 20
9.8894397051
 10
-10.8089279893
 20
9.8850526114
 10
-10.8240147494
 20
9.8676886952
 10
-10.829312515
 20
9.8399914554
  0
LWPOLYLINE
  5
53F
330
402
100
AcDbEntity
  8
0
  6
Continuous
 62
     7
370
    25
100
AcDbPolyline
 90
        9
 70
   128
 43
0.0
 10
-10.829312515
 20
-0.4981155977
 10
-10.8240147494
 20
-0.5319295076
 10
-10.8089279893
 20
-0.5667122262
 10
-10.7863490572
 20
-0.5971683999
 10
-10.7597153909
 20
-0.6186613524
 10
-10.7330817245
 20
-0.6279189765
 10
-10.7105027925
 20
-0.6235318829
 10
-10.6954160324
 20
-0.6061679667
 10
-10.6901182668
 20
-0.5784707268
  0
LWPOLYLINE
  5
541
330
402
100
AcDbEntity
  8
0
  6
Continuous
 62
     7
370
    25
100
AcDbPolyline
 90
        9
 70
   128
 43
0.0
 10
-11.5252837563
 20
10.241767101
 10
-11.530581522
 20
10.2755810108
 10
-11.5456682821
 20
10.3103637294
 10
-11.5682472141
 20
10.3408199031
 10
-11.5948808805
 20
10.3623128557
 10
-11.6215145468
 20
10.3715704798
 10
-11.6440934789
 20
10.3671833861
 10
-11.659180239
 20
10.3498194699
 10
-11.6644780046
 20
10.3221222301
  0
LWPOLYLINE
  5
543
330
402
100
AcDbEntity
  8
0
  6
Continuous
 62
     7
370
    25
100
AcDbPolyline
 90
        9
 70
   128
 43
0.0
 10
-11.6644780046
 20
-0.015984823
 10
-11.659180239
 20
-0.0497987329
 10
-11.6440934789
 20
-0.0845814515
 10
-11.6215145468
 20
-0.1150376252
 10
-11.5948808805
 20
-0.1365305777
 10
-11.5682472141
 20
-0.1457882018
 10
-11.5456682821
 20
-0.1414011082
 10
-11.530581522
 20
-0.124037192
 10
-11.5252837563
 20
-0.0963399521
  0
LWPOLYLINE
  5
545
330
402
100
AcDbEntity
  8
0
  6
Continuous
 62
     7
370
    25
100
AcDbPolyline
 90
        9
 70
   128
 43
0.0
 10
-11.2468952598
 20
10.0810568427
 10
-11.2521930254
 20
10.1148707526
 10
-11.2672797855
 20
10.1496534712
 10
-11.2898587176
 20
10.1801096449
 10
-11.316492384
 20
10.2016025974
 10
-11.3431260503
 20
10.2108602215
 10
-11.3657049824
 20
10.2064731279
 10
-11.3807917425
 20
10.1891092117
 10
-11.3860895081
 20
10.1614119718
  0
LWPOLYLINE
  5
547
330
402
100
AcDbEntity
  8
0
  6
Continuous
 62
     7
370
    25
100
AcDbPolyline
 90
        9
 70
   128
 43
0.0
 10
-11.3860895081
 20
-0.1766950813
 10
-11.3807917425
 20
-0.2105089911
 10
-11.3657049824
 20
-0.2452917097
 10
-11.3431260503
 20
-0.2757478834
 10
-11.316492384
 20
-0.297240836
 10
-11.2898587176
 20
-0.3064984601
 10
-11.2672797855
 20
-0.3021113664
 10
-11.2521930254
 20
-0.2847474502
 10
-11.2468952598
 20
-0.2570502104
  0
LWPOLYLINE
  5
54C
330
402
100
AcDbEntity
  8
0
  6
Continuous
 62
     7
370
    25
100
AcDbPolyline
 90
        9
 70
   128
 43
0.0
 10
1.5311367309
 20
-7.56936696
 10
1.532196284
 20
-7.5761297419
 10
1.5352136361
 20
-7.5830862857
 10
1.5397294225
 20
-7.5891775204
 10
1.5450561557
 20
-7.5934761109
 10
1.550382889
 20
-7.5953276357
 10
1.5548986754
 20
-7.594450217
 10
1.5579160274
 20
-7.5909774338
 10
1.5589755806
 20
-7.5854379858
  0
LWPOLYLINE
  5
550
330
402
100
AcDbEntity
  8
0
  6
Continuous
 62
     7
370
    25
100
AcDbPolyline
 90
        9
 70
   128
 43
0.0
 10
1.2527482344
 20
-7.4086567017
 10
1.2538077875
 20
-7.4154194837
 10
1.2568251395
 20
-7.4223760274
 10
1.2613409259
 20
-7.4284672622
 10
1.2666676592
 20
-7.4327658527
 10
1.2719943925
 20
-7.4346173775
 10
1.2765101789
 20
-7.4337399588
 10
1.2795275309
 20
-7.4302671755
 10
1.280587084
 20
-7.4247277276
  0
LWPOLYLINE
  5
554
330
402
100
AcDbEntity
  8
0
  6
Continuous
 62
     7
370
    25
100
AcDbPolyline
 90
        9
 70
   128
 43
0.0
 10
0.9743597379
 20
-7.2479464435
 10
0.975419291
 20
-7.2547092255
 10
0.978436643
 20
-7.2616657692
 10
0.9829524294
 20
-7.2677570039
 10
0.9882791627
 20
-7.2720555944
 10
0.993605896
 20
-7.2739071193
 10
0.9981216824
 20
-7.2730297005
 10
1.0011390344
 20
-7.2695569173
 10
1.0021985875
 20
-7.2640174693
  0
LWPOLYLINE
  5
558
330
402
100
AcDbEntity
  8
0
  6
Continuous
 62
     7
370
    25
100
AcDbPolyline
 90
        9
 70
   128
 43
0.0
 10
0.6959712413
 20
-7.0872361853
 10
0.6970307945
 20
-7.0939989672
 10
0.7000481465
 20
-7.100955511
 10
0.7045639329
 20
-7.1070467457
 10
0.7098906662
 20
-7.1113453362
 10
0.7152173994
 20
-7.113196861
 10
0.7197331858
 20
-7.1123194423
 10
0.7227505379
 20
-7.1088466591
 10
0.723810091
 20
-7.1033072111
  0
LWPOLYLINE
  5
55C
330
402
100
AcDbEntity
  8
0
  6
Continuous
 62
     7
370
    25
100
AcDbPolyline
 90
        9
 70
   128
 43
0.0
 10
0.4175827448
 20
-6.926525927
 10
0.4186422979
 20
-6.933288709
 10
0.4216596499
 20
-6.9402452527
 10
0.4261754364
 20
-6.9463364875
 10
0.4315021696
 20
-6.950635078
 10
0.4368289029
 20
-6.9524866028
 10
0.4413446893
 20
-6.9516091841
 10
0.4443620413
 20
-6.9481364008
 10
0.4454215944
 20
-6.9425969529
  0
LWPOLYLINE
  5
64C
330
402
100
AcDbEntity
  8
0
  6
Continuous
 62
     7
370
    25
100
AcDbPolyline
 90
        9
 70
   128
 43
0.0
 10
-12.9450650887
 20
0.7875664681
 10
-12.9440055355
 20
0.7808036862
 10
-12.9409881835
 20
0.7738471424
 10
-12.9364723971
 20
0.7677559077
 10
-12.9311456638
 20
0.7634573172
 10
-12.9258189306
 20
0.7616057924
 10
-12.9213031441
 20
0.7624832111
 10
-12.9182857921
 20
0.7659559943
 10
-12.917226239
 20
0.7714954423
  0
LWPOLYLINE
  5
650
330
402
100
AcDbEntity
  8
0
  6
Continuous
 62
     7
370
    25
100
AcDbPolyline
 90
        9
 70
   128
 43
0.0
 10
-13.2234535852
 20
0.9482767264
 10
-13.2223940321
 20
0.9415139444
 10
-13.21937668
 20
0.9345574007
 10
-13.2148608936
 20
0.9284661659
 10
-13.2095341604
 20
0.9241675754
 10
-13.2042074271
 20
0.9223160506
 10
-13.1996916407
 20
0.9231934693
 10
-13.1966742887
 20
0.9266662526
 10
-13.1956147355
 20
0.9322057005
  0
LWPOLYLINE
  5
654
330
402
100
AcDbEntity
  8
0
  6
Continuous
 62
     7
370
    25
100
AcDbPolyline
 90
        9
 70
   128
 43
0.0
 10
-13.5018420817
 20
1.1089869846
 10
-13.5007825286
 20
1.1022242026
 10
-13.4977651766
 20
1.0952676589
 10
-13.4932493902
 20
1.0891764242
 10
-13.4879226569
 20
1.0848778337
 10
-13.4825959236
 20
1.0830263088
 10
-13.4780801372
 20
1.0839037276
 10
-13.4750627852
 20
1.0873765108
 10
-13.4740032321
 20
1.0929159588
  0
LWPOLYLINE
  5
658
330
402
100
AcDbEntity
  8
0
  6
Continuous
 62
     7
370
    25
100
AcDbPolyline
 90
        9
 70
   128
 43
0.0
 10
-13.7802305782
 20
1.2696972428
 10
-13.7791710251
 20
1.2629344609
 10
-13.7761536731
 20
1.2559779171
 10
-13.7716378867
 20
1.2498866824
 10
-13.7663111534
 20
1.2455880919
 10
-13.7609844201
 20
1.2437365671
 10
-13.7564686337
 20
1.2446139858
 10
-13.7534512817
 20
1.248086769
 10
-13.7523917286
 20
1.253626217
  0
LWPOLYLINE
  5
65C
330
402
100
AcDbEntity
  8
0
  6
Continuous
 62
     7
370
    25
100
AcDbPolyline
 90
        9
 70
   128
 43
0.0
 10
-14.0586190748
 20
1.4304075011
 10
-14.0575595216
 20
1.4236447191
 10
-14.0545421696
 20
1.4166881754
 10
-14.0500263832
 20
1.4105969406
 10
-14.0446996499
 20
1.4062983501
 10
-14.0393729167
 20
1.4044468253
 10
-14.0348571303
 20
1.405324244
 10
-14.0318397782
 20
1.4087970273
 10
-14.0307802251
 20
1.4143364752
  0
LWPOLYLINE
  5
671
330
402
100
AcDbEntity
  8
0
  6
Continuous
 62
     8
370
    25
100
AcDbPolyline
 90
        7
 70
   128
 43
0.0
 10
-14.4925094401
 20
13.9678059808
 10
-14.5039379707
 20
13.9687846349
 10
-14.514382284
 20
13.9716363163
 10
-14.5229429225
 20
13.97611544
 10
-14.5288826501
 20
13.981836267
 10
-14.5316899412
 20
13.9883061234
 10
-14.5318795189
 20
13.9905338435
  0
LWPOLYLINE
  5
674
330
402
100
AcDbEntity
  8
0
  6
Continuous
 62
     8
370
    25
100
AcDbPolyline
 90
        7
 70
   128
 43
0.0
 10
-14.4925094401
 20
1.1731901095
 10
-14.5039379707
 20
1.1741687636
 10
-14.514382284
 20
1.177020445
 10
-14.5229429225
 20
1.1814995687
 10
-14.5288826501
 20
1.1872203957
 10
-14.5316899412
 20
1.1936902521
 10
-14.5318795189
 20
1.1959179722
  0
LINE
  5
67B
330
402
100
AcDbEntity
  8
0
  6
Continuous
 62
     7
370
    25
100
AcDbLine
 10
14.1224521841
 20
12.0090951906
 30
0.0
 11
1.9962449645
 21
5.0087847685
 31
0.0
  0
LINE
  5
67C
330
402
100
AcDbEntity
  8
0
  6
Continuous
 62
     7
370
    25
100
AcDbLine
 10
2.0356118437
 20
-8.3682967529
 30
0.0
 11
14.6072406578
 21
-1.1108499177
 31
0.0
  0
LINE
  5
67D
330
402
100
AcDbEntity
  8
0
  6
Continuous
 62
     7
370
    25
100
AcDbLine
 10
14.6269272969
 20
-1.0767535057
 30
0.0
 11
14.6269272969
 21
11.7178623655
 31
0.0
  0
LINE
  5
67E
330
402
100
AcDbEntity
  8
0
  6
Continuous
 62
     7
370
    25
100
AcDbLine
 10
14.6072406578
 20
11.7519587774
 30
0.0
 11
14.1618190633
 21
12.0090951906
 31
0.0
  0
LINE
  5
67F
330
402
100
AcDbEntity
  8
0
  6
Continuous
 62
     7
370
    25
100
AcDbLine
 10
-14.5318795189
 20
13.9905338435
 30
0.0
 11
-14.5318795189
 21
1.1959179722
 31
0.0
  0
LINE
  5
680
330
402
100
AcDbEntity
  8
0
  6
Continuous
 62
     7
370
    25
100
AcDbLine
 10
-1.9405640657
 20
21.2820770906
 30
0.0
 11
-14.5121928798
 21
14.0246302554
 31
0.0
  0
LINE
  5
681
330
402
100
AcDbEntity
  8
0
  6
Continuous
 62
     7
370
    25
100
AcDbLine
 10
-14.4925094401
 20
1.1565478935
 30
0.0
 11
-14.4762018196
 21
1.1565478935
 31
0.0
  0
LINE
  5
682
330
402
100
AcDbEntity
  8
0
  6
Continuous
 62
     7
370
    25
100
AcDbLine
 10
-1.4360889529
 20
11.9480455042
 30
0.0
 11
-1.4360889529
 21
20.9908442656
 31
0.0
  0
LINE
  5
683
330
402
100
AcDbEntity
  8
0
  6
Continuous
 62
     7
370
    25
100
AcDbLine
 10
-1.455775592
 20
21.0249406775
 30
0.0
 11
-1.9011971864
 21
21.2820770906
 31
0.0
  0
LINE
  5
684
330
402
100
AcDbEntity
  8
0
  6
Continuous
 62
     7
370
    25
100
AcDbLine
 10
-14.4762018194
 20
1.0955886381
 30
0.0
 11
1.8815137467
 21
-8.3475195561
 31
0.0
  0
LINE
  5
685
330
402
100
AcDbEntity
  8
0
  6
Continuous
 62
     7
370
    25
100
AcDbLine
 10
-14.4762018196
 20
12.475724363
 30
0.0
 11
-14.4762018196
 21
1.0955886383
 31
0.0
  0
LINE
  5
686
330
402
100
AcDbEntity
  8
0
  6
Continuous
 62
     7
370
    25
100
AcDbLine
 10
2.0437672538
 20
4.4443445044
 30
0.0
 11
2.0437672538
 21
-8.3502713668
 31
0.0
  0
LINE
  5
687
330
402
100
AcDbEntity
  8
0
  6
Continuous
 62
     7
370
    25
100
AcDbLine
 10
1.9765583254
 20
-8.334200341
 30
0.0
 11
1.9765583254
 21
5.0162498216
 31
0.0
  0
LINE
  5
688
330
402
100
AcDbEntity
  8
0
  6
Continuous
 62
     7
370
    25
100
AcDbLine
 10
2.0159284041
 20
4.4925628063
 30
0.0
 11
14.5875572182
 21
11.7500096416
 31
0.0
  0
LINE
  5
689
330
402
100
AcDbEntity
  8
0
  6
Continuous
 62
     7
370
    25
100
AcDbLine
 10
14.6153960678
 20
11.7017913397
 30
0.0
 11
2.0437672538
 21
4.4443445044
 31
0.0
  0
LINE
  5
68A
330
402
100
AcDbEntity
  8
0
  6
Continuous
 62
     7
370
    25
100
AcDbLine
 10
2.0159284041
 20
5.0068356327
 30
0.0
 11
2.0159284041
 21
4.4925628063
 31
0.0
  0
LINE
  5
68B
330
402
100
AcDbEntity
  8
0
  6
Continuous
 62
     7
370
    25
100
AcDbLine
 10
14.6153960678
 20
-1.0928245316
 30
0.0
 11
14.6153960678
 21
11.7017913397
 31
0.0
  0
LINE
  5
68C
330
402
100
AcDbEntity
  8
0
  6
Continuous
 62
     7
370
    25
100
AcDbLine
 10
2.0437672538
 20
-8.3502713668
 30
0.0
 11
14.6153960678
 21
-1.0928245316
 31
0.0
  0
LINE
  5
68D
330
402
100
AcDbEntity
  8
0
  6
Continuous
 62
     7
370
    25
100
AcDbLine
 10
14.1421356237
 20
12.0071460548
 30
0.0
 11
2.0159284041
 21
5.0068356327
 31
0.0
  0
LINE
  5
68E
330
402
100
AcDbEntity
  8
0
  6
Continuous
 62
     7
370
    25
100
AcDbLine
 10
14.5875572182
 20
11.7500096416
 30
0.0
 11
14.1421356237
 21
12.0071460548
 31
0.0
  0
LINE
  5
68F
330
402
100
AcDbEntity
  8
0
  6
Continuous
 62
     7
370
    25
100
AcDbLine
 10
1.9765583254
 20
5.0162498216
 30
0.0
 11
-13.5853586307
 21
13.9999532569
 31
0.0
  0
LINE
  5
690
330
402
100
AcDbEntity
  8
0
  6
Continuous
 62
     7
370
    25
100
AcDbLine
 10
-13.5018420817
 20
14.0481663343
 30
0.0
 11
-13.5853586307
 21
13.9999532569
 31
0.0
  0
LINE
  5
691
330
402
100
AcDbEntity
  8
0
  6
Continuous
 62
     7
370
    25
100
AcDbLine
 10
2.0600748743
 20
5.0644628991
 30
0.0
 11
-13.5018420817
 21
14.0481663343
 31
0.0
  0
LINE
  5
692
330
402
100
AcDbEntity
  8
0
  6
Continuous
 62
     7
370
    25
100
AcDbLine
 10
2.0600748743
 20
5.0644628991
 30
0.0
 11
1.9765583254
 21
5.0162498216
 31
0.0
  0
LINE
  5
693
330
402
100
AcDbEntity
  8
0
  6
Continuous
 62
     7
370
    25
100
AcDbLine
 10
1.9208806261
 20
2.4766097886
 30
0.0
 11
1.9765583254
 21
2.444467737
 31
0.0
  0
LINE
  5
694
330
402
100
AcDbEntity
  8
0
  6
Continuous
 62
     7
370
    25
100
AcDbLine
 10
-13.5853586307
 20
13.9999532569
 30
0.0
 11
-13.5853586307
 21
12.006907262
 31
0.0
  0
LINE
  5
695
330
402
100
AcDbEntity
  8
0
  6
Continuous
 62
     7
370
    25
100
AcDbLine
 10
2.0763811696
 20
5.055046415
 30
0.0
 11
2.0600748743
 21
5.0644628991
 31
0.0
  0
LINE
  5
696
330
402
100
AcDbEntity
  8
0
  6
Continuous
 62
     7
370
    25
100
AcDbLine
 10
-14.4925094401
 20
14.0226811195
 30
0.0
 11
-13.6016662512
 21
14.0226811195
 31
0.0
  0
LINE
  5
697
330
402
100
AcDbEntity
  8
0
  6
Continuous
 62
     7
370
    25
100
AcDbLine
 10
-13.6016662512
 20
12.016321451
 30
0.0
 11
-13.6016662512
 21
14.0226811195
 31
0.0
  0
LINE
  5
698
330
402
100
AcDbEntity
  8
0
  6
Continuous
 62
     7
370
    25
100
AcDbLine
 10
-13.6016662512
 20
13.9678059808
 30
0.0
 11
-14.4925094401
 21
13.9678059808
 31
0.0
  0
LINE
  5
699
330
402
100
AcDbEntity
  8
0
  6
Continuous
 62
     7
370
    25
100
AcDbLine
 10
-14.4925094401
 20
14.0226811195
 30
0.0
 11
-14.4925094401
 21
1.1565478935
 31
0.0
  0
LINE
  5
69A
330
402
100
AcDbEntity
  8
0
  6
Continuous
 62
     7
370
    25
100
AcDbLine
 10
-13.6016662512
 20
14.0226811195
 30
0.0
 11
-1.4754590316
 21
21.0229915416
 31
0.0
  0
LINE
  5
69B
330
402
100
AcDbEntity
  8
0
  6
Continuous
 62
     7
370
    25
100
AcDbLine
 10
-1.9208806261
 20
21.2801279548
 30
0.0
 11
-14.4925094401
 21
14.0226811195
 31
0.0
  0
LINE
  5
69C
330
402
100
AcDbEntity
  8
0
  6
Continuous
 62
     7
370
    25
100
AcDbLine
 10
-1.4754590316
 20
21.0229915416
 30
0.0
 11
-1.9208806261
 21
21.2801279548
 31
0.0
  0
LINE
  5
69D
330
402
100
AcDbEntity
  8
0
  6
Continuous
 62
     7
370
    25
100
AcDbLine
 10
-14.5875572182
 20
1.1410428335
 30
0.0
 11
-14.5266035897
 21
1.1762306142
 31
0.0
  0
LINE
  5
69E
330
402
100
AcDbEntity
  8
0
  6
Continuous
 62
     7
370
    25
100
AcDbLine
 10
-14.5875572182
 20
1.1410428335
 30
0.0
 11
-14.5875572182
 21
13.9999532569
 31
0.0
  0
LINE
  5
69F
330
402
100
AcDbEntity
  8
0
  6
Continuous
 62
     7
370
    25
100
AcDbLine
 10
-14.5875572182
 20
13.9999532569
 30
0.0
 11
-1.9208806261
 21
21.3122700064
 31
0.0
  0
LINE
  5
6A0
330
402
100
AcDbEntity
  8
0
  6
Continuous
 62
     7
370
    25
100
AcDbLine
 10
-1.9208806261
 20
21.2873507575
 30
0.0
 11
-1.9208806261
 21
21.3122700064
 31
0.0
  0
LINE
  5
6A1
330
402
100
AcDbEntity
  8
0
  6
Continuous
 62
     7
370
    25
100
AcDbLine
 10
-15.0329788126
 20
1.9125356636
 30
0.0
 11
-15.0329788126
 21
13.7427332531
 31
0.0
  0
LINE
  5
6A2
330
402
100
AcDbEntity
  8
0
  6
Continuous
 62
     7
370
    25
100
AcDbLine
 10
-15.0329788126
 20
13.7427332531
 30
0.0
 11
-19.7099055543
 21
16.4426655914
 31
0.0
  0
LINE
  5
6A3
330
402
100
AcDbEntity
  8
0
  6
Continuous
 62
     7
370
    25
100
AcDbLine
 10
-19.7099055543
 20
16.4426655914
 30
0.0
 11
-19.7099055543
 21
4.6124680019
 31
0.0
  0
LINE
  5
6A4
330
402
100
AcDbEntity
  8
0
  6
Continuous
 62
     7
370
    25
100
AcDbLine
 10
-19.7099055543
 20
4.6124680019
 30
0.0
 11
-15.0329788126
 21
1.9125356636
 31
0.0
  0
LINE
  5
6A5
330
402
100
AcDbEntity
  8
0
  6
Continuous
 62
     7
370
    25
100
AcDbLine
 10
-20.1553271488
 20
4.3552479981
 30
0.0
 11
-14.5875572182
 21
1.1410428335
 31
0.0
  0
LINE
  5
6A6
330
402
100
AcDbEntity
  8
0
  6
Continuous
 62
     7
370
    25
100
AcDbLine
 10
-20.1553271488
 20
17.2141584215
 30
0.0
 11
-20.1553271488
 21
4.3552479981
 31
0.0
  0
LINE
  5
6A7
330
402
100
AcDbEntity
  8
0
  6
Continuous
 62
     7
370
    25
100
AcDbLine
 10
-14.5875572182
 20
13.9999532569
 30
0.0
 11
-20.1553271488
 21
17.2141584215
 31
0.0
  0
LINE
  5
6A8
330
402
100
AcDbEntity
  8
0
  6
Continuous
 62
     7
370
    25
100
AcDbLine
 10
-20.1553271488
 20
17.2141584215
 30
0.0
 11
-7.4886505567
 21
24.5264751711
 31
0.0
  0
LINE
  5
6A9
330
402
100
AcDbEntity
  8
0
  6
Continuous
 62
     7
370
    25
100
AcDbLine
 10
-1.9208806261
 20
21.3122700064
 30
0.0
 11
-7.4886505567
 21
24.5264751711
 31
0.0
  0
LINE
  5
6AA
330
402
100
AcDbEntity
  8
0
  6
Continuous
 62
     7
370
    25
100
AcDbLine
 10
-19.7099055543
 20
4.6124680019
 30
0.0
 11
-15.0329788126
 21
7.3124003402
 31
0.0
  0
LINE
  5
6AB
330
402
100
AcDbEntity
  8
0
  6
Continuous
 62
     7
370
    25
100
AcDbLine
 10
-15.0329788126
 20
8.0848126668
 30
0.0
 11
-19.7099055543
 21
10.7847450051
 31
0.0
  0
LINE
  5
6AC
330
402
100
AcDbEntity
  8
0
  6
Continuous
 62
     7
370
    25
100
AcDbLine
 10
-15.0329788126
 20
7.5704562499
 30
0.0
 11
-19.7099055543
 21
10.2703885882
 31
0.0
  0
LINE
  5
6AD
330
402
100
AcDbEntity
  8
0
  6
Continuous
 62
     7
370
    25
100
AcDbLine
 10
-15.0329788126
 20
13.4846773434
 30
0.0
 11
-19.7099055543
 21
10.7847450051
 31
0.0
  0
LINE
  5
6AE
330
402
100
AcDbEntity
  8
0
  6
Continuous
 62
     7
370
    25
100
AcDbLine
 10
-1.8234446523
 20
11.6119326379
 30
0.0
 11
5.8055136338
 21
7.2078287634
 31
0.0
  0
LINE
  5
6AF
330
402
100
AcDbEntity
  8
0
  6
Continuous
 62
     7
370
    25
100
AcDbLine
 10
-1.9207946517
 20
11.6682308602
 30
0.0
 11
-1.4197813323
 21
11.9574596931
 31
0.0
  0
LINE
  5
6B0
330
402
100
AcDbEntity
  8
0
  6
Continuous
 62
     7
370
    25
100
AcDbLine
 10
-1.4197813323
 20
11.9574596931
 30
0.0
 11
6.3066129276
 21
7.4971072282
 31
0.0
  0
LINE
  5
6B1
330
402
100
AcDbEntity
  8
0
  6
Continuous
 62
     7
370
    25
100
AcDbLine
 10
1.9208806261
 20
-7.2318675811
 30
0.0
 11
1.9765583254
 21
-7.2640096327
 31
0.0
  0
LINE
  5
6B2
330
402
100
AcDbEntity
  8
0
  6
Continuous
 62
     7
370
    25
100
AcDbLine
 10
1.9208806261
 20
-7.8105185501
 30
0.0
 11
1.9765583254
 21
-7.8426606018
 31
0.0
  0
LINE
  5
6B3
330
402
100
AcDbEntity
  8
0
  6
Continuous
 62
     7
370
    25
100
AcDbLine
 10
-2.324543946
 20
8.4616458677
 30
0.0
 11
2.8264399735
 21
5.4880461458
 31
0.0
  0
LINE
  5
6B4
330
402
100
AcDbEntity
  8
0
  6
Continuous
 62
     7
370
    25
100
AcDbLine
 10
-2.324543946
 20
11.0334279524
 30
0.0
 11
-2.324543946
 21
8.4616458677
 31
0.0
  0
LINE
  5
6B5
330
402
100
AcDbEntity
  8
0
  6
Continuous
 62
     7
370
    25
100
AcDbLine
 10
-2.324543946
 20
11.0334279524
 30
0.0
 11
2.7421266908
 21
8.1085012526
 31
0.0
  0
LINE
  5
6B6
330
402
100
AcDbEntity
  8
0
  6
Continuous
 62
     7
370
    25
100
AcDbLine
 10
3.2432259846
 20
8.3977797174
 30
0.0
 11
2.7421266908
 21
8.1085012526
 31
0.0
  0
LINE
  5
6B7
330
402
100
AcDbEntity
  8
0
  6
Continuous
 62
     7
370
    25
100
AcDbLine
 10
-1.8234446523
 20
11.3227064172
 30
0.0
 11
-2.324543946
 21
11.0334279524
 31
0.0
  0
LINE
  5
6B8
330
402
100
AcDbEntity
  8
0
  6
Continuous
 62
     7
370
    25
100
AcDbLine
 10
3.2432259846
 20
8.3977797174
 30
0.0
 11
-1.8234446523
 21
11.3227064172
 31
0.0
  0
LINE
  5
6B9
330
402
100
AcDbEntity
  8
0
  6
Continuous
 62
     7
370
    25
100
AcDbLine
 10
1.8536716977
 20
3.0165432957
 30
0.0
 11
-14.4646705905
 21
12.4369217803
 31
0.0
  0
LINE
  5
6BA
330
402
100
AcDbEntity
  8
0
  6
Continuous
 62
     7
370
    25
100
AcDbLine
 10
-14.4368317408
 20
12.4984522257
 30
0.0
 11
1.9208806261
 21
3.0553458784
 31
0.0
  0
LINE
  5
6BB
330
402
100
AcDbEntity
  8
0
  6
Continuous
 62
     7
370
    25
100
AcDbLine
 10
1.8536716977
 20
-8.3181293152
 30
0.0
 11
1.8536716977
 21
3.0165432957
 31
0.0
  0
LINE
  5
6BC
330
402
100
AcDbEntity
  8
0
  6
Continuous
 62
     7
370
    25
100
AcDbLine
 10
1.9208806261
 20
3.0553458784
 30
0.0
 11
1.9208806261
 21
-8.3342055654
 31
0.0
  0
LINE
  5
6BD
330
402
100
AcDbEntity
  8
0
  6
Continuous
 62
     7
370
    25
100
AcDbLine
 10
-14.4646705905
 20
1.1022491694
 30
0.0
 11
1.8536716977
 21
-8.3181293152
 31
0.0
  0
LINE
  5
6BE
330
402
100
AcDbEntity
  8
0
  6
Continuous
 62
     7
370
    25
100
AcDbLine
 10
-14.4646705905
 20
12.4369217803
 30
0.0
 11
-14.4646705905
 21
1.1022491694
 31
0.0
  0
LINE
  5
6BF
330
402
100
AcDbEntity
  8
0
  6
Continuous
 62
     7
370
    25
100
AcDbLine
 10
1.1413928358
 20
2.9294503514
 30
0.0
 11
1.1413928358
 21
-7.4086567017
 31
0.0
  0
LINE
  5
6C0
330
402
100
AcDbEntity
  8
0
  6
Continuous
 62
     7
370
    25
100
AcDbLine
 10
1.280587084
 20
-7.4890118309
 30
0.0
 11
1.280587084
 21
2.8490952222
 31
0.0
  0
LINE
  5
6C1
330
402
100
AcDbEntity
  8
0
  6
Continuous
 62
     7
370
    25
100
AcDbLine
 10
-6.3750965705
 20
7.2686273236
 30
0.0
 11
-6.3750965705
 21
-3.0694797294
 31
0.0
  0
LINE
  5
6C2
330
402
100
AcDbEntity
  8
0
  6
Continuous
 62
     7
370
    25
100
AcDbLine
 10
-6.2359023223
 20
-3.1498348586
 30
0.0
 11
-6.2359023223
 21
7.1882721945
 31
0.0
  0
LINE
  5
6C3
330
402
100
AcDbEntity
  8
0
  6
Continuous
 62
     7
370
    25
100
AcDbLine
 10
-6.5142908188
 20
-2.9891246003
 30
0.0
 11
-6.5142908188
 21
7.3489824528
 31
0.0
  0
LINE
  5
6C4
330
402
100
AcDbEntity
  8
0
  6
Continuous
 62
     7
370
    25
100
AcDbLine
 10
-6.6534850671
 20
7.4293375819
 30
0.0
 11
-6.6534850671
 21
-2.9087694712
 31
0.0
  0
LINE
  5
6C5
330
402
100
AcDbEntity
  8
0
  6
Continuous
 62
     7
370
    25
100
AcDbLine
 10
-5.8183195775
 20
6.9472068072
 30
0.0
 11
-5.8183195775
 21
-3.3909002459
 31
0.0
  0
LINE
  5
6C6
330
402
100
AcDbEntity
  8
0
  6
Continuous
 62
     7
370
    25
100
AcDbLine
 10
-5.6791253292
 20
-3.471255375
 30
0.0
 11
-5.6791253292
 21
6.8668516781
 31
0.0
  0
LINE
  5
6C7
330
402
100
AcDbEntity
  8
0
  6
Continuous
 62
     7
370
    25
100
AcDbLine
 10
-6.096708074
 20
7.1079170654
 30
0.0
 11
-6.096708074
 21
-3.2301899877
 31
0.0
  0
LINE
  5
6C8
330
402
100
AcDbEntity
  8
0
  6
Continuous
 62
     7
370
    25
100
AcDbLine
 10
-5.9575138257
 20
-3.3105451168
 30
0.0
 11
-5.9575138257
 21
7.0275619363
 31
0.0
  0
LINE
  5
6C9
330
402
100
AcDbEntity
  8
0
  6
Continuous
 62
     7
370
    25
100
AcDbLine
 10
-7.3494563084
 20
-2.5069938256
 30
0.0
 11
-7.3494563084
 21
7.8311132275
 31
0.0
  0
LINE
  5
6CA
330
402
100
AcDbEntity
  8
0
  6
Continuous
 62
     7
370
    25
100
AcDbLine
 10
-7.4886505567
 20
7.9114683566
 30
0.0
 11
-7.4886505567
 21
-2.4266386965
 31
0.0
  0
LINE
  5
6CB
330
402
100
AcDbEntity
  8
0
  6
Continuous
 62
     7
370
    25
100
AcDbLine
 10
-7.7670390532
 20
8.0721786148
 30
0.0
 11
-7.7670390532
 21
-2.2659284383
 31
0.0
  0
LINE
  5
6CC
330
402
100
AcDbEntity
  8
0
  6
Continuous
 62
     7
370
    25
100
AcDbLine
 10
-7.6278448049
 20
-2.3462835674
 30
0.0
 11
-7.6278448049
 21
7.9918234857
 31
0.0
  0
LINE
  5
6CD
330
402
100
AcDbEntity
  8
0
  6
Continuous
 62
     7
370
    25
100
AcDbLine
 10
-6.7926793153
 20
-2.8284143421
 30
0.0
 11
-6.7926793153
 21
7.509692711
 31
0.0
  0
LINE
  5
6CE
330
402
100
AcDbEntity
  8
0
  6
Continuous
 62
     7
370
    25
100
AcDbLine
 10
-6.9318735636
 20
7.5900478401
 30
0.0
 11
-6.9318735636
 21
-2.748059213
 31
0.0
  0
LINE
  5
6CF
330
402
100
AcDbEntity
  8
0
  6
Continuous
 62
     7
370
    25
100
AcDbLine
 10
-7.0710678119
 20
-2.6677040839
 30
0.0
 11
-7.0710678119
 21
7.6704029692
 31
0.0
  0
LINE
  5
6D0
330
402
100
AcDbEntity
  8
0
  6
Continuous
 62
     7
370
    25
100
AcDbLine
 10
-7.2102620601
 20
7.7507580983
 30
0.0
 11
-7.2102620601
 21
-2.5873489548
 31
0.0
  0
LINE
  5
6D1
330
402
100
AcDbEntity
  8
0
  6
Continuous
 62
     7
370
    25
100
AcDbLine
 10
-14.0307802251
 20
1.350052372
 30
0.0
 11
-14.0307802251
 21
11.6881594251
 31
0.0
  0
LINE
  5
6D2
330
402
100
AcDbEntity
  8
0
  6
Continuous
 62
     7
370
    25
100
AcDbLine
 10
-14.1699744734
 20
11.7685145542
 30
0.0
 11
-14.1699744734
 21
1.4304075011
 31
0.0
  0
LINE
  5
6D3
330
402
100
AcDbEntity
  8
0
  6
Continuous
 62
     7
370
    25
100
AcDbLine
 10
1.4197813323
 20
2.7687400931
 30
0.0
 11
1.4197813323
 21
-7.56936696
 31
0.0
  0
LINE
  5
6D4
330
402
100
AcDbEntity
  8
0
  6
Continuous
 62
     7
370
    25
100
AcDbLine
 10
1.5589755806
 20
-7.6497220891
 30
0.0
 11
1.5589755806
 21
2.688384964
 31
0.0
  0
LINE
  5
6D5
330
402
100
AcDbEntity
  8
0
  6
Continuous
 62
     7
370
    25
100
AcDbLine
 10
-8.6022045428
 20
8.5543093895
 30
0.0
 11
-8.6022045428
 21
-1.7837976636
 31
0.0
  0
LINE
  5
6D6
330
402
100
AcDbEntity
  8
0
  6
Continuous
 62
     7
370
    25
100
AcDbLine
 10
-8.4630102945
 20
-1.8641527927
 30
0.0
 11
-8.4630102945
 21
8.4739542604
 31
0.0
  0
LINE
  5
6D7
330
402
100
AcDbEntity
  8
0
  6
Continuous
 62
     7
370
    25
100
AcDbLine
 10
-8.741398791
 20
-1.7034425345
 30
0.0
 11
-8.741398791
 21
8.6346645186
 31
0.0
  0
LINE
  5
6D8
330
402
100
AcDbEntity
  8
0
  6
Continuous
 62
     7
370
    25
100
AcDbLine
 10
-8.8805930393
 20
8.7150196477
 30
0.0
 11
-8.8805930393
 21
-1.6230874054
 31
0.0
  0
LINE
  5
6D9
330
402
100
AcDbEntity
  8
0
  6
Continuous
 62
     7
370
    25
100
AcDbLine
 10
-13.3348089838
 20
11.2863837795
 30
0.0
 11
-13.3348089838
 21
0.9482767264
 31
0.0
  0
LINE
  5
6DA
330
402
100
AcDbEntity
  8
0
  6
Continuous
 62
     7
370
    25
100
AcDbLine
 10
-13.1956147355
 20
0.8679215973
 30
0.0
 11
-13.1956147355
 21
11.2060286504
 31
0.0
  0
LINE
  5
6DB
330
402
100
AcDbEntity
  8
0
  6
Continuous
 62
     7
370
    25
100
AcDbLine
 10
-12.917226239
 20
0.707211339
 30
0.0
 11
-12.917226239
 21
11.0453183921
 31
0.0
  0
LINE
  5
6DC
330
402
100
AcDbEntity
  8
0
  6
Continuous
 62
     7
370
    25
100
AcDbLine
 10
-13.0564204873
 20
11.1256735212
 30
0.0
 11
-13.0564204873
 21
0.7875664681
 31
0.0
  0
LINE
  5
6DD
330
402
100
AcDbEntity
  8
0
  6
Continuous
 62
     7
370
    25
100
AcDbLine
 10
-13.7523917286
 20
1.1893421137
 30
0.0
 11
-13.7523917286
 21
11.5274491668
 31
0.0
  0
LINE
  5
6DE
330
402
100
AcDbEntity
  8
0
  6
Continuous
 62
     7
370
    25
100
AcDbLine
 10
-13.8915859769
 20
11.6078042959
 30
0.0
 11
-13.8915859769
 21
1.2696972428
 31
0.0
  0
LINE
  5
6DF
330
402
100
AcDbEntity
  8
0
  6
Continuous
 62
     7
370
    25
100
AcDbLine
 10
-13.4740032321
 20
1.0286318555
 30
0.0
 11
-13.4740032321
 21
11.3667389086
 31
0.0
  0
LINE
  5
6E0
330
402
100
AcDbEntity
  8
0
  6
Continuous
 62
     7
370
    25
100
AcDbLine
 10
-13.6131974803
 20
11.4470940377
 30
0.0
 11
-13.6131974803
 21
1.1089869846
 31
0.0
  0
LINE
  5
6E1
330
402
100
AcDbEntity
  8
0
  6
Continuous
 62
     7
370
    25
100
AcDbLine
 10
-9.9941470254
 20
9.3578606807
 30
0.0
 11
-9.9941470254
 21
-0.9802463724
 31
0.0
  0
LINE
  5
6E2
330
402
100
AcDbEntity
  8
0
  6
Continuous
 62
     7
370
    25
100
AcDbLine
 10
-9.8549527772
 20
-1.0606015015
 30
0.0
 11
-9.8549527772
 21
9.2775055516
 31
0.0
  0
LINE
  5
6E3
330
402
100
AcDbEntity
  8
0
  6
Continuous
 62
     7
370
    25
100
AcDbLine
 10
-9.7157585289
 20
9.1971504224
 30
0.0
 11
-9.7157585289
 21
-1.1409566307
 31
0.0
  0
LINE
  5
6E4
330
402
100
AcDbEntity
  8
0
  6
Continuous
 62
     7
370
    25
100
AcDbLine
 10
-9.5765642806
 20
-1.2213117598
 30
0.0
 11
-9.5765642806
 21
9.1167952933
 31
0.0
  0
LINE
  5
6E5
330
402
100
AcDbEntity
  8
0
  6
Continuous
 62
     7
370
    25
100
AcDbLine
 10
-10.5509240185
 20
9.6792811971
 30
0.0
 11
-10.5509240185
 21
-0.658825856
 31
0.0
  0
LINE
  5
6E6
330
402
100
AcDbEntity
  8
0
  6
Continuous
 62
     7
370
    25
100
AcDbLine
 10
-10.4117297702
 20
-0.7391809851
 30
0.0
 11
-10.4117297702
 21
9.598926068
 31
0.0
  0
LINE
  5
6E7
330
402
100
AcDbEntity
  8
0
  6
Continuous
 62
     7
370
    25
100
AcDbLine
 10
-10.272535522
 20
9.5185709389
 30
0.0
 11
-10.272535522
 21
-0.8195361142
 31
0.0
  0
LINE
  5
6E8
330
402
100
AcDbEntity
  8
0
  6
Continuous
 62
     7
370
    25
100
AcDbLine
 10
-10.1333412737
 20
-0.8998912433
 30
0.0
 11
-10.1333412737
 21
9.4382158098
 31
0.0
  0
LINE
  5
6E9
330
402
100
AcDbEntity
  8
0
  6
Continuous
 62
     7
370
    25
100
AcDbLine
 10
-8.3238160463
 20
8.3935991313
 30
0.0
 11
-8.3238160463
 21
-1.9445079218
 31
0.0
  0
LINE
  5
6EA
330
402
100
AcDbEntity
  8
0
  6
Continuous
 62
     7
370
    25
100
AcDbLine
 10
-8.184621798
 20
-2.0248630509
 30
0.0
 11
-8.184621798
 21
8.3132440022
 31
0.0
  0
LINE
  5
6EB
330
402
100
AcDbEntity
  8
0
  6
Continuous
 62
     7
370
    25
100
AcDbLine
 10
-8.0454275497
 20
8.232888873
 30
0.0
 11
-8.0454275497
 21
-2.1052181801
 31
0.0
  0
LINE
  5
6EC
330
402
100
AcDbEntity
  8
0
  6
Continuous
 62
     7
370
    25
100
AcDbLine
 10
-7.9062333015
 20
-2.1855733092
 30
0.0
 11
-7.9062333015
 21
8.1525337439
 31
0.0
  0
LINE
  5
6ED
330
402
100
AcDbEntity
  8
0
  6
Continuous
 62
     7
370
    25
100
AcDbLine
 10
-9.4373700324
 20
9.0364401642
 30
0.0
 11
-9.4373700324
 21
-1.3016668889
 31
0.0
  0
LINE
  5
6EE
330
402
100
AcDbEntity
  8
0
  6
Continuous
 62
     7
370
    25
100
AcDbLine
 10
-9.2981757841
 20
-1.382022018
 30
0.0
 11
-9.2981757841
 21
8.9560850351
 31
0.0
  0
LINE
  5
6EF
330
402
100
AcDbEntity
  8
0
  6
Continuous
 62
     7
370
    25
100
AcDbLine
 10
-9.1589815358
 20
8.875729906
 30
0.0
 11
-9.1589815358
 21
-1.4623771471
 31
0.0
  0
LINE
  5
6F0
330
402
100
AcDbEntity
  8
0
  6
Continuous
 62
     7
370
    25
100
AcDbLine
 10
-9.0197872876
 20
-1.5427322762
 30
0.0
 11
-9.0197872876
 21
8.7953747769
 31
0.0
  0
LINE
  5
6F1
330
402
100
AcDbEntity
  8
0
  6
Continuous
 62
     7
370
    25
100
AcDbLine
 10
-0.9465208882
 20
-6.203329765
 30
0.0
 11
-0.9465208882
 21
4.1347772881
 31
0.0
  0
LINE
  5
6F2
330
402
100
AcDbEntity
  8
0
  6
Continuous
 62
     7
370
    25
100
AcDbLine
 10
-1.0857151365
 20
4.2151324172
 30
0.0
 11
-1.0857151365
 21
-6.1229746359
 31
0.0
  0
LINE
  5
6F3
330
402
100
AcDbEntity
  8
0
  6
Continuous
 62
     7
370
    25
100
AcDbLine
 10
-5.1223483362
 20
-3.7926758915
 30
0.0
 11
-5.1223483362
 21
6.5454311616
 31
0.0
  0
LINE
  5
6F4
330
402
100
AcDbEntity
  8
0
  6
Continuous
 62
     7
370
    25
100
AcDbLine
 10
-5.2615425844
 20
6.6257862907
 30
0.0
 11
-5.2615425844
 21
-3.7123207624
 31
0.0
  0
LINE
  5
6F5
330
402
100
AcDbEntity
  8
0
  6
Continuous
 62
     7
370
    25
100
AcDbLine
 10
-5.5399310809
 20
6.7864965489
 30
0.0
 11
-5.5399310809
 21
-3.5516105041
 31
0.0
  0
LINE
  5
6F6
330
402
100
AcDbEntity
  8
0
  6
Continuous
 62
     7
370
    25
100
AcDbLine
 10
-5.4007368327
 20
-3.6319656333
 30
0.0
 11
-5.4007368327
 21
6.7061414198
 31
0.0
  0
LINE
  5
6F7
330
402
100
AcDbEntity
  8
0
  6
Continuous
 62
     7
370
    25
100
AcDbLine
 10
-4.5655713431
 20
-4.114096408
 30
0.0
 11
-4.5655713431
 21
6.2240106451
 31
0.0
  0
LINE
  5
6F8
330
402
100
AcDbEntity
  8
0
  6
Continuous
 62
     7
370
    25
100
AcDbLine
 10
-4.7047655914
 20
6.3043657743
 30
0.0
 11
-4.7047655914
 21
-4.0337412788
 31
0.0
  0
LINE
  5
6F9
330
402
100
AcDbEntity
  8
0
  6
Continuous
 62
     7
370
    25
100
AcDbLine
 10
0.3062273462
 20
3.4115811261
 30
0.0
 11
0.3062273462
 21
-6.926525927
 31
0.0
  0
LINE
  5
6FA
330
402
100
AcDbEntity
  8
0
  6
Continuous
 62
     7
370
    25
100
AcDbLine
 10
0.4454215944
 20
-7.0068810562
 30
0.0
 11
0.4454215944
 21
3.3312259969
 31
0.0
  0
LINE
  5
6FB
330
402
100
AcDbEntity
  8
0
  6
Continuous
 62
     7
370
    25
100
AcDbLine
 10
0.0278388497
 20
3.5722913843
 30
0.0
 11
0.0278388497
 21
-6.7658156688
 31
0.0
  0
LINE
  5
6FC
330
402
100
AcDbEntity
  8
0
  6
Continuous
 62
     7
370
    25
100
AcDbLine
 10
0.1670330979
 20
-6.8461707979
 30
0.0
 11
0.1670330979
 21
3.4919362552
 31
0.0
  0
LINE
  5
6FD
330
402
100
AcDbEntity
  8
0
  6
Continuous
 62
     7
370
    25
100
AcDbLine
 10
0.8630043392
 20
3.0901606096
 30
0.0
 11
0.8630043392
 21
-7.2479464435
 31
0.0
  0
LINE
  5
6FE
330
402
100
AcDbEntity
  8
0
  6
Continuous
 62
     7
370
    25
100
AcDbLine
 10
1.0021985875
 20
-7.3283015726
 30
0.0
 11
1.0021985875
 21
3.0098054805
 31
0.0
  0
LINE
  5
6FF
330
402
100
AcDbEntity
  8
0
  6
Continuous
 62
     7
370
    25
100
AcDbLine
 10
-2.8952403639
 20
-5.0783579574
 30
0.0
 11
-2.8952403639
 21
5.2597490957
 31
0.0
  0
LINE
  5
700
330
402
100
AcDbEntity
  8
0
  6
Continuous
 62
     7
370
    25
100
AcDbLine
 10
-3.0344346122
 20
5.3401042249
 30
0.0
 11
-3.0344346122
 21
-4.9980028282
 31
0.0
  0
LINE
  5
701
330
402
100
AcDbEntity
  8
0
  6
Continuous
 62
     7
370
    25
100
AcDbLine
 10
-4.1479885983
 20
5.9829452578
 30
0.0
 11
-4.1479885983
 21
-4.3551617953
 31
0.0
  0
LINE
  5
702
330
402
100
AcDbEntity
  8
0
  6
Continuous
 62
     7
370
    25
100
AcDbLine
 10
-4.00879435
 20
-4.4355169244
 30
0.0
 11
-4.00879435
 21
5.9025901287
 31
0.0
  0
LINE
  5
703
330
402
100
AcDbEntity
  8
0
  6
Continuous
 62
     7
370
    25
100
AcDbLine
 10
0.5846158427
 20
3.2508708678
 30
0.0
 11
0.5846158427
 21
-7.0872361853
 31
0.0
  0
LINE
  5
704
330
402
100
AcDbEntity
  8
0
  6
Continuous
 62
     7
370
    25
100
AcDbLine
 10
0.723810091
 20
-7.1675913144
 30
0.0
 11
0.723810091
 21
3.1705157387
 31
0.0
  0
LINE
  5
705
330
402
100
AcDbEntity
  8
0
  6
Continuous
 62
     7
370
    25
100
AcDbLine
 10
-2.0600748743
 20
-5.5604887321
 30
0.0
 11
-2.0600748743
 21
4.777618321
 31
0.0
  0
LINE
  5
706
330
402
100
AcDbEntity
  8
0
  6
Continuous
 62
     7
370
    25
100
AcDbLine
 10
-2.1992691226
 20
4.8579734502
 30
0.0
 11
-2.1992691226
 21
-5.4801336029
 31
0.0
  0
LINE
  5
707
330
402
100
AcDbEntity
  8
0
  6
Continuous
 62
     7
370
    25
100
AcDbLine
 10
-1.9208806261
 20
4.6972631919
 30
0.0
 11
-1.9208806261
 21
-5.6408438612
 31
0.0
  0
LINE
  5
708
330
402
100
AcDbEntity
  8
0
  6
Continuous
 62
     7
370
    25
100
AcDbLine
 10
-1.7816863778
 20
-5.7211989903
 30
0.0
 11
-1.7816863778
 21
4.6169080628
 31
0.0
  0
LINE
  5
709
330
402
100
AcDbEntity
  8
0
  6
Continuous
 62
     7
370
    25
100
AcDbLine
 10
-4.8439598396
 20
-3.9533861497
 30
0.0
 11
-4.8439598396
 21
6.3847209034
 31
0.0
  0
LINE
  5
70A
330
402
100
AcDbEntity
  8
0
  6
Continuous
 62
     7
370
    25
100
AcDbLine
 10
-4.9831540879
 20
6.4650760325
 30
0.0
 11
-4.9831540879
 21
-3.8730310206
 31
0.0
  0
LINE
  5
70B
330
402
100
AcDbEntity
  8
0
  6
Continuous
 62
     7
370
    25
100
AcDbLine
 10
-3.452017357
 20
-4.7569374409
 30
0.0
 11
-3.452017357
 21
5.5811696122
 31
0.0
  0
LINE
  5
70C
330
402
100
AcDbEntity
  8
0
  6
Continuous
 62
     7
370
    25
100
AcDbLine
 10
-3.5912116052
 20
5.6615247413
 30
0.0
 11
-3.5912116052
 21
-4.6765823118
 31
0.0
  0
LINE
  5
70D
330
402
100
AcDbEntity
  8
0
  6
Continuous
 62
     7
370
    25
100
AcDbLine
 10
-2.7560461156
 20
5.1793939666
 30
0.0
 11
-2.7560461156
 21
-5.1587130865
 31
0.0
  0
LINE
  5
70E
330
402
100
AcDbEntity
  8
0
  6
Continuous
 62
     7
370
    25
100
AcDbLine
 10
-2.6168518674
 20
-5.2390682156
 30
0.0
 11
-2.6168518674
 21
5.0990388375
 31
0.0
  0
LINE
  5
70F
330
402
100
AcDbEntity
  8
0
  6
Continuous
 62
     7
370
    25
100
AcDbLine
 10
-4.2871828466
 20
-4.2748066662
 30
0.0
 11
-4.2871828466
 21
6.0633003869
 31
0.0
  0
LINE
  5
710
330
402
100
AcDbEntity
  8
0
  6
Continuous
 62
     7
370
    25
100
AcDbLine
 10
-4.4263770948
 20
6.143655516
 30
0.0
 11
-4.4263770948
 21
-4.1944515371
 31
0.0
  0
LINE
  5
711
330
402
100
AcDbEntity
  8
0
  6
Continuous
 62
     7
370
    25
100
AcDbLine
 10
-2.4776576191
 20
5.0186837084
 30
0.0
 11
-2.4776576191
 21
-5.3194233447
 31
0.0
  0
LINE
  5
712
330
402
100
AcDbEntity
  8
0
  6
Continuous
 62
     7
370
    25
100
AcDbLine
 10
-2.3384633709
 20
-5.3997784738
 30
0.0
 11
-2.3384633709
 21
4.9383285793
 31
0.0
  0
LINE
  5
713
330
402
100
AcDbEntity
  8
0
  6
Continuous
 62
     7
370
    25
100
AcDbLine
 10
-1.6424921295
 20
4.5365529337
 30
0.0
 11
-1.6424921295
 21
-5.8015541194
 31
0.0
  0
LINE
  5
714
330
402
100
AcDbEntity
  8
0
  6
Continuous
 62
     7
370
    25
100
AcDbLine
 10
-1.5032978813
 20
-5.8819092485
 30
0.0
 11
-1.5032978813
 21
4.4561978046
 31
0.0
  0
LINE
  5
715
330
402
100
AcDbEntity
  8
0
  6
Continuous
 62
     7
370
    25
100
AcDbLine
 10
-3.8696001018
 20
5.8222349996
 30
0.0
 11
-3.8696001018
 21
-4.5158720535
 31
0.0
  0
LINE
  5
716
330
402
100
AcDbEntity
  8
0
  6
Continuous
 62
     7
370
    25
100
AcDbLine
 10
-3.7304058535
 20
-4.5962271827
 30
0.0
 11
-3.7304058535
 21
5.7418798704
 31
0.0
  0
LINE
  5
717
330
402
100
AcDbEntity
  8
0
  6
Continuous
 62
     7
370
    25
100
AcDbLine
 10
-3.3128231087
 20
5.5008144831
 30
0.0
 11
-3.3128231087
 21
-4.83729257
 31
0.0
  0
LINE
  5
718
330
402
100
AcDbEntity
  8
0
  6
Continuous
 62
     7
370
    25
100
AcDbLine
 10
-3.1736288604
 20
-4.9176476991
 30
0.0
 11
-3.1736288604
 21
5.420459354
 31
0.0
  0
LINE
  5
719
330
402
100
AcDbEntity
  8
0
  6
Continuous
 62
     7
370
    25
100
AcDbLine
 10
-0.5289381434
 20
3.8937119008
 30
0.0
 11
-0.5289381434
 21
-6.4443951523
 31
0.0
  0
LINE
  5
71A
330
402
100
AcDbEntity
  8
0
  6
Continuous
 62
     7
370
    25
100
AcDbLine
 10
-0.3897438951
 20
-6.5247502815
 30
0.0
 11
-0.3897438951
 21
3.8133567716
 31
0.0
  0
LINE
  5
71B
330
402
100
AcDbEntity
  8
0
  6
Continuous
 62
     7
370
    25
100
AcDbLine
 10
-0.2505496469
 20
3.7330016425
 30
0.0
 11
-0.2505496469
 21
-6.6051054106
 31
0.0
  0
LINE
  5
71C
330
402
100
AcDbEntity
  8
0
  6
Continuous
 62
     7
370
    25
100
AcDbLine
 10
-0.1113553986
 20
-6.6854605397
 30
0.0
 11
-0.1113553986
 21
3.6526465134
 31
0.0
  0
LINE
  5
71D
330
402
100
AcDbEntity
  8
0
  6
Continuous
 62
     7
370
    25
100
AcDbLine
 10
-1.2249093847
 20
-6.0426195068
 30
0.0
 11
-1.2249093847
 21
4.2954875463
 31
0.0
  0
LINE
  5
71E
330
402
100
AcDbEntity
  8
0
  6
Continuous
 62
     7
370
    25
100
AcDbLine
 10
-1.364103633
 20
4.3758426755
 30
0.0
 11
-1.364103633
 21
-5.9622643776
 31
0.0
  0
LINE
  5
71F
330
402
100
AcDbEntity
  8
0
  6
Continuous
 62
     7
370
    25
100
AcDbLine
 10
-0.6681323917
 20
-6.3640400232
 30
0.0
 11
-0.6681323917
 21
3.9740670299
 31
0.0
  0
LINE
  5
720
330
402
100
AcDbEntity
  8
0
  6
Continuous
 62
     7
370
    25
100
AcDbLine
 10
-0.8073266399
 20
4.054422159
 30
0.0
 11
-0.8073266399
 21
-6.2836848941
 31
0.0
  0
LINE
  5
721
330
402
100
AcDbEntity
  8
0
  6
Continuous
 62
     7
370
    25
100
AcDbLine
 10
-12.2212549977
 20
10.6435427465
 30
0.0
 11
-12.2212549977
 21
0.3054356934
 31
0.0
  0
LINE
  5
722
330
402
100
AcDbEntity
  8
0
  6
Continuous
 62
     7
370
    25
100
AcDbLine
 10
-12.0820607494
 20
0.2250805643
 30
0.0
 11
-12.0820607494
 21
10.5631876174
 31
0.0
  0
LINE
  5
723
330
402
100
AcDbEntity
  8
0
  6
Continuous
 62
     7
370
    25
100
AcDbLine
 10
-11.8036722529
 20
0.0643703061
 30
0.0
 11
-11.8036722529
 21
10.4024773592
 31
0.0
  0
LINE
  5
724
330
402
100
AcDbEntity
  8
0
  6
Continuous
 62
     7
370
    25
100
AcDbLine
 10
-11.9428665011
 20
10.4828324883
 30
0.0
 11
-11.9428665011
 21
0.1447254352
 31
0.0
  0
LINE
  5
725
330
402
100
AcDbEntity
  8
0
  6
Continuous
 62
     7
370
    25
100
AcDbLine
 10
-12.7780319907
 20
10.964963263
 30
0.0
 11
-12.7780319907
 21
0.6268562099
 31
0.0
  0
LINE
  5
726
330
402
100
AcDbEntity
  8
0
  6
Continuous
 62
     7
370
    25
100
AcDbLine
 10
-12.6388377425
 20
0.5465010808
 30
0.0
 11
-12.6388377425
 21
10.8846081339
 31
0.0
  0
LINE
  5
727
330
402
100
AcDbEntity
  8
0
  6
Continuous
 62
     7
370
    25
100
AcDbLine
 10
-12.3604492459
 20
0.3857908226
 30
0.0
 11
-12.3604492459
 21
10.7238978757
 31
0.0
  0
LINE
  5
728
330
402
100
AcDbEntity
  8
0
  6
Continuous
 62
     7
370
    25
100
AcDbLine
 10
-12.4996434942
 20
10.8042530048
 30
0.0
 11
-12.4996434942
 21
0.4661459517
 31
0.0
  0
LINE
  5
729
330
402
100
AcDbEntity
  8
0
  6
Continuous
 62
     7
370
    25
100
AcDbLine
 10
-11.1077010116
 20
10.0007017136
 30
0.0
 11
-11.1077010116
 21
-0.3374053395
 31
0.0
  0
LINE
  5
72A
330
402
100
AcDbEntity
  8
0
  6
Continuous
 62
     7
370
    25
100
AcDbLine
 10
-10.9685067633
 20
-0.4177604686
 30
0.0
 11
-10.9685067633
 21
9.9203465845
 31
0.0
  0
LINE
  5
72B
330
402
100
AcDbEntity
  8
0
  6
Continuous
 62
     7
370
    25
100
AcDbLine
 10
-10.829312515
 20
9.8399914554
 30
0.0
 11
-10.829312515
 21
-0.4981155977
 31
0.0
  0
LINE
  5
72C
330
402
100
AcDbEntity
  8
0
  6
Continuous
 62
     7
370
    25
100
AcDbLine
 10
-10.6901182668
 20
-0.5784707268
 30
0.0
 11
-10.6901182668
 21
9.7596363263
 31
0.0
  0
LINE
  5
72D
330
402
100
AcDbEntity
  8
0
  6
Continuous
 62
     7
370
    25
100
AcDbLine
 10
-11.6644780046
 20
10.3221222301
 30
0.0
 11
-11.6644780046
 21
-0.015984823
 31
0.0
  0
LINE
  5
72E
330
402
100
AcDbEntity
  8
0
  6
Continuous
 62
     7
370
    25
100
AcDbLine
 10
-11.5252837563
 20
-0.0963399521
 30
0.0
 11
-11.5252837563
 21
10.241767101
 31
0.0
  0
LINE
  5
72F
330
402
100
AcDbEntity
  8
0
  6
Continuous
 62
     7
370
    25
100
AcDbLine
 10
-11.3860895081
 20
10.1614119718
 30
0.0
 11
-11.3860895081
 21
-0.1766950813
 31
0.0
  0
LINE
  5
730
330
402
100
AcDbEntity
  8
0
  6
Continuous
 62
     7
370
    25
100
AcDbLine
 10
-11.2468952598
 20
-0.2570502104
 30
0.0
 11
-11.2468952598
 21
10.0810568427
 31
0.0
  0
LINE
  5
731
330
402
100
AcDbEntity
  8
0
  6
Continuous
 62
     7
370
    25
100
AcDbLine
 10
1.5311367309
 20
2.7687400931
 30
0.0
 11
1.5311367309
 21
-7.56936696
 31
0.0
  0
LINE
  5
732
330
402
100
AcDbEntity
  8
0
  6
Continuous
 62
     7
370
    25
100
AcDbLine
 10
1.2527482344
 20
2.9294503514
 30
0.0
 11
1.2527482344
 21
-7.4086567017
 31
0.0
  0
LINE
  5
733
330
402
100
AcDbEntity
  8
0
  6
Continuous
 62
     7
370
    25
100
AcDbLine
 10
0.9743597379
 20
3.0901606096
 30
0.0
 11
0.9743597379
 21
-7.2479464435
 31
0.0
  0
LINE
  5
734
330
402
100
AcDbEntity
  8
0
  6
Continuous
 62
     7
370
    25
100
AcDbLine
 10
0.6959712413
 20
3.2508708678
 30
0.0
 11
0.6959712413
 21
-7.0872361853
 31
0.0
  0
LINE
  5
735
330
402
100
AcDbEntity
  8
0
  6
Continuous
 62
     7
370
    25
100
AcDbLine
 10
0.4175827448
 20
3.4115811261
 30
0.0
 11
0.4175827448
 21
-6.926525927
 31
0.0
  0
LINE
  5
736
330
402
100
AcDbEntity
  8
0
  6
Continuous
 62
     7
370
    25
100
AcDbLine
 10
0.0846948216
 20
3.618479087
 30
0.0
 11
0.083516549
 21
3.6044334359
 31
0.0
  0
LINE
  5
737
330
402
100
AcDbEntity
  8
0
  6
Continuous
 62
     7
370
    25
100
AcDbLine
 10
0.083516549
 20
3.6044334359
 30
0.0
 11
0.0278388497
 21
3.5722913843
 31
0.0
  0
LINE
  5
738
330
402
100
AcDbEntity
  8
0
  6
Continuous
 62
     7
370
    25
100
AcDbLine
 10
0.083516549
 20
3.6044334359
 30
0.0
 11
0.083516549
 21
-6.7336736172
 31
0.0
  0
LINE
  5
739
330
402
100
AcDbEntity
  8
0
  6
Continuous
 62
     7
370
    25
100
AcDbLine
 10
0.083516549
 20
-6.7336736172
 30
0.0
 11
0.0278388497
 21
-6.7658156688
 31
0.0
  0
LINE
  5
73A
330
402
100
AcDbEntity
  8
0
  6
Continuous
 62
     7
370
    25
100
AcDbLine
 10
-0.1936936749
 20
3.7791893453
 30
0.0
 11
-0.1948719476
 21
3.7651436942
 31
0.0
  0
LINE
  5
73B
330
402
100
AcDbEntity
  8
0
  6
Continuous
 62
     7
370
    25
100
AcDbLine
 10
-0.1948719476
 20
3.7651436942
 30
0.0
 11
-0.2505496469
 21
3.7330016425
 31
0.0
  0
LINE
  5
73C
330
402
100
AcDbEntity
  8
0
  6
Continuous
 62
     7
370
    25
100
AcDbLine
 10
-0.1948719476
 20
3.7651436942
 30
0.0
 11
-0.1948719476
 21
-6.5729633589
 31
0.0
  0
LINE
  5
73D
330
402
100
AcDbEntity
  8
0
  6
Continuous
 62
     7
370
    25
100
AcDbLine
 10
-0.1948719476
 20
-6.5729633589
 30
0.0
 11
-0.2505496469
 21
-6.6051054106
 31
0.0
  0
LINE
  5
73E
330
402
100
AcDbEntity
  8
0
  6
Continuous
 62
     7
370
    25
100
AcDbLine
 10
-0.4720821714
 20
3.9398996035
 30
0.0
 11
-0.4732604441
 21
3.9258539524
 31
0.0
  0
LINE
  5
73F
330
402
100
AcDbEntity
  8
0
  6
Continuous
 62
     7
370
    25
100
AcDbLine
 10
-0.4732604441
 20
3.9258539524
 30
0.0
 11
-0.5289381434
 21
3.8937119008
 31
0.0
  0
LINE
  5
740
330
402
100
AcDbEntity
  8
0
  6
Continuous
 62
     7
370
    25
100
AcDbLine
 10
-0.4732604441
 20
3.9258539524
 30
0.0
 11
-0.4732604441
 21
-6.4122531007
 31
0.0
  0
LINE
  5
741
330
402
100
AcDbEntity
  8
0
  6
Continuous
 62
     7
370
    25
100
AcDbLine
 10
-0.4732604441
 20
-6.4122531007
 30
0.0
 11
-0.5289381434
 21
-6.4443951523
 31
0.0
  0
LINE
  5
742
330
402
100
AcDbEntity
  8
0
  6
Continuous
 62
     7
370
    25
100
AcDbLine
 10
-0.750470668
 20
4.1006098617
 30
0.0
 11
-0.7516489406
 21
4.0865642106
 31
0.0
  0
LINE
  5
743
330
402
100
AcDbEntity
  8
0
  6
Continuous
 62
     7
370
    25
100
AcDbLine
 10
-0.7516489406
 20
4.0865642106
 30
0.0
 11
-0.8073266399
 21
4.054422159
 31
0.0
  0
LINE
  5
744
330
402
100
AcDbEntity
  8
0
  6
Continuous
 62
     7
370
    25
100
AcDbLine
 10
-0.7516489406
 20
4.0865642106
 30
0.0
 11
-0.7516489406
 21
-6.2515428425
 31
0.0
  0
LINE
  5
745
330
402
100
AcDbEntity
  8
0
  6
Continuous
 62
     7
370
    25
100
AcDbLine
 10
-0.7516489406
 20
-6.2515428425
 30
0.0
 11
-0.8073266399
 21
-6.2836848941
 31
0.0
  0
LINE
  5
746
330
402
100
AcDbEntity
  8
0
  6
Continuous
 62
     7
370
    25
100
AcDbLine
 10
-1.0288591645
 20
4.26132012
 30
0.0
 11
-1.0300374372
 21
4.2472744689
 31
0.0
  0
LINE
  5
747
330
402
100
AcDbEntity
  8
0
  6
Continuous
 62
     7
370
    25
100
AcDbLine
 10
-1.0300374372
 20
4.2472744689
 30
0.0
 11
-1.0857151365
 21
4.2151324172
 31
0.0
  0
LINE
  5
748
330
402
100
AcDbEntity
  8
0
  6
Continuous
 62
     7
370
    25
100
AcDbLine
 10
-1.0300374372
 20
4.2472744689
 30
0.0
 11
-1.0300374372
 21
-6.0908325842
 31
0.0
  0
LINE
  5
749
330
402
100
AcDbEntity
  8
0
  6
Continuous
 62
     7
370
    25
100
AcDbLine
 10
-1.0300374372
 20
-6.0908325842
 30
0.0
 11
-1.0857151365
 21
-6.1229746359
 31
0.0
  0
LINE
  5
74A
330
402
100
AcDbEntity
  8
0
  6
Continuous
 62
     7
370
    25
100
AcDbLine
 10
-1.307247661
 20
4.4220303782
 30
0.0
 11
-1.3084259337
 21
4.4079847271
 31
0.0
  0
LINE
  5
74B
330
402
100
AcDbEntity
  8
0
  6
Continuous
 62
     7
370
    25
100
AcDbLine
 10
-1.3084259337
 20
4.4079847271
 30
0.0
 11
-1.364103633
 21
4.3758426755
 31
0.0
  0
LINE
  5
74C
330
402
100
AcDbEntity
  8
0
  6
Continuous
 62
     7
370
    25
100
AcDbLine
 10
-1.3084259337
 20
4.4079847271
 30
0.0
 11
-1.3084259337
 21
-5.930122326
 31
0.0
  0
LINE
  5
74D
330
402
100
AcDbEntity
  8
0
  6
Continuous
 62
     7
370
    25
100
AcDbLine
 10
-1.3084259337
 20
-5.930122326
 30
0.0
 11
-1.364103633
 21
-5.9622643776
 31
0.0
  0
LINE
  5
74E
330
402
100
AcDbEntity
  8
0
  6
Continuous
 62
     7
370
    25
100
AcDbLine
 10
-1.5856361576
 20
4.5827406364
 30
0.0
 11
-1.5868144302
 21
4.5686949853
 31
0.0
  0
LINE
  5
74F
330
402
100
AcDbEntity
  8
0
  6
Continuous
 62
     7
370
    25
100
AcDbLine
 10
-1.5868144302
 20
4.5686949853
 30
0.0
 11
-1.6424921295
 21
4.5365529337
 31
0.0
  0
LINE
  5
750
330
402
100
AcDbEntity
  8
0
  6
Continuous
 62
     7
370
    25
100
AcDbLine
 10
-1.5868144302
 20
4.5686949853
 30
0.0
 11
-1.5868144302
 21
-5.7694120678
 31
0.0
  0
LINE
  5
751
330
402
100
AcDbEntity
  8
0
  6
Continuous
 62
     7
370
    25
100
AcDbLine
 10
-1.5868144302
 20
-5.7694120678
 30
0.0
 11
-1.6424921295
 21
-5.8015541194
 31
0.0
  0
LINE
  5
752
330
402
100
AcDbEntity
  8
0
  6
Continuous
 62
     7
370
    25
100
AcDbLine
 10
-1.8640246541
 20
4.7434508947
 30
0.0
 11
-1.8652029268
 21
4.7294052436
 31
0.0
  0
LINE
  5
753
330
402
100
AcDbEntity
  8
0
  6
Continuous
 62
     7
370
    25
100
AcDbLine
 10
-1.8652029268
 20
4.7294052436
 30
0.0
 11
-1.9208806261
 21
4.6972631919
 31
0.0
  0
LINE
  5
754
330
402
100
AcDbEntity
  8
0
  6
Continuous
 62
     7
370
    25
100
AcDbLine
 10
-1.8652029268
 20
4.7294052436
 30
0.0
 11
-1.8652029268
 21
-5.6087018095
 31
0.0
  0
LINE
  5
755
330
402
100
AcDbEntity
  8
0
  6
Continuous
 62
     7
370
    25
100
AcDbLine
 10
-1.8652029268
 20
-5.6087018095
 30
0.0
 11
-1.9208806261
 21
-5.6408438612
 31
0.0
  0
LINE
  5
756
330
402
100
AcDbEntity
  8
0
  6
Continuous
 62
     7
370
    25
100
AcDbLine
 10
-2.1424131506
 20
4.9041611529
 30
0.0
 11
-2.1435914233
 21
4.8901155018
 31
0.0
  0
LINE
  5
757
330
402
100
AcDbEntity
  8
0
  6
Continuous
 62
     7
370
    25
100
AcDbLine
 10
-2.1435914233
 20
4.8901155018
 30
0.0
 11
-2.1992691226
 21
4.8579734502
 31
0.0
  0
LINE
  5
758
330
402
100
AcDbEntity
  8
0
  6
Continuous
 62
     7
370
    25
100
AcDbLine
 10
-2.1435914233
 20
4.8901155018
 30
0.0
 11
-2.1435914233
 21
-5.4479915513
 31
0.0
  0
LINE
  5
759
330
402
100
AcDbEntity
  8
0
  6
Continuous
 62
     7
370
    25
100
AcDbLine
 10
-2.1435914233
 20
-5.4479915513
 30
0.0
 11
-2.1992691226
 21
-5.4801336029
 31
0.0
  0
LINE
  5
75A
330
402
100
AcDbEntity
  8
0
  6
Continuous
 62
     7
370
    25
100
AcDbLine
 10
-2.4208016472
 20
5.0648714111
 30
0.0
 11
-2.4219799198
 21
5.05082576
 31
0.0
  0
LINE
  5
75B
330
402
100
AcDbEntity
  8
0
  6
Continuous
 62
     7
370
    25
100
AcDbLine
 10
-2.4219799198
 20
5.05082576
 30
0.0
 11
-2.4776576191
 21
5.0186837084
 31
0.0
  0
LINE
  5
75C
330
402
100
AcDbEntity
  8
0
  6
Continuous
 62
     7
370
    25
100
AcDbLine
 10
-2.4219799198
 20
5.05082576
 30
0.0
 11
-2.4219799198
 21
-5.2872812931
 31
0.0
  0
LINE
  5
75D
330
402
100
AcDbEntity
  8
0
  6
Continuous
 62
     7
370
    25
100
AcDbLine
 10
-2.4219799198
 20
-5.2872812931
 30
0.0
 11
-2.4776576191
 21
-5.3194233447
 31
0.0
  0
LINE
  5
75E
330
402
100
AcDbEntity
  8
0
  6
Continuous
 62
     7
370
    25
100
AcDbLine
 10
-2.6991901437
 20
5.2255816694
 30
0.0
 11
-2.7003684163
 21
5.2115360183
 31
0.0
  0
LINE
  5
75F
330
402
100
AcDbEntity
  8
0
  6
Continuous
 62
     7
370
    25
100
AcDbLine
 10
-2.7003684163
 20
5.2115360183
 30
0.0
 11
-2.7560461156
 21
5.1793939666
 31
0.0
  0
LINE
  5
760
330
402
100
AcDbEntity
  8
0
  6
Continuous
 62
     7
370
    25
100
AcDbLine
 10
-2.7003684163
 20
5.2115360183
 30
0.0
 11
-2.7003684163
 21
-5.1265710348
 31
0.0
  0
LINE
  5
761
330
402
100
AcDbEntity
  8
0
  6
Continuous
 62
     7
370
    25
100
AcDbLine
 10
-2.7003684163
 20
-5.1265710348
 30
0.0
 11
-2.7560461156
 21
-5.1587130865
 31
0.0
  0
LINE
  5
762
330
402
100
AcDbEntity
  8
0
  6
Continuous
 62
     7
370
    25
100
AcDbLine
 10
-2.9775786402
 20
5.3862919276
 30
0.0
 11
-2.9787569129
 21
5.3722462765
 31
0.0
  0
LINE
  5
763
330
402
100
AcDbEntity
  8
0
  6
Continuous
 62
     7
370
    25
100
AcDbLine
 10
-2.9787569129
 20
5.3722462765
 30
0.0
 11
-3.0344346122
 21
5.3401042249
 31
0.0
  0
LINE
  5
764
330
402
100
AcDbEntity
  8
0
  6
Continuous
 62
     7
370
    25
100
AcDbLine
 10
-2.9787569129
 20
5.3722462765
 30
0.0
 11
-2.9787569129
 21
-4.9658607766
 31
0.0
  0
LINE
  5
765
330
402
100
AcDbEntity
  8
0
  6
Continuous
 62
     7
370
    25
100
AcDbLine
 10
-2.9787569129
 20
-4.9658607766
 30
0.0
 11
-3.0344346122
 21
-4.9980028282
 31
0.0
  0
LINE
  5
766
330
402
100
AcDbEntity
  8
0
  6
Continuous
 62
     7
370
    25
100
AcDbLine
 10
-3.2559671368
 20
5.5470021858
 30
0.0
 11
-3.2571454094
 21
5.5329565347
 31
0.0
  0
LINE
  5
767
330
402
100
AcDbEntity
  8
0
  6
Continuous
 62
     7
370
    25
100
AcDbLine
 10
-3.2571454094
 20
5.5329565347
 30
0.0
 11
-3.3128231087
 21
5.5008144831
 31
0.0
  0
LINE
  5
768
330
402
100
AcDbEntity
  8
0
  6
Continuous
 62
     7
370
    25
100
AcDbLine
 10
-3.2571454094
 20
5.5329565347
 30
0.0
 11
-3.2571454094
 21
-4.8051505184
 31
0.0
  0
LINE
  5
769
330
402
100
AcDbEntity
  8
0
  6
Continuous
 62
     7
370
    25
100
AcDbLine
 10
-3.2571454094
 20
-4.8051505184
 30
0.0
 11
-3.3128231087
 21
-4.83729257
 31
0.0
  0
LINE
  5
76A
330
402
100
AcDbEntity
  8
0
  6
Continuous
 62
     7
370
    25
100
AcDbLine
 10
-3.5343556333
 20
5.707712444
 30
0.0
 11
-3.5355339059
 21
5.693666793
 31
0.0
  0
LINE
  5
76B
330
402
100
AcDbEntity
  8
0
  6
Continuous
 62
     7
370
    25
100
AcDbLine
 10
-3.5355339059
 20
5.693666793
 30
0.0
 11
-3.5912116052
 21
5.6615247413
 31
0.0
  0
LINE
  5
76C
330
402
100
AcDbEntity
  8
0
  6
Continuous
 62
     7
370
    25
100
AcDbLine
 10
-3.5355339059
 20
5.693666793
 30
0.0
 11
-3.5355339059
 21
-4.6444402601
 31
0.0
  0
LINE
  5
76D
330
402
100
AcDbEntity
  8
0
  6
Continuous
 62
     7
370
    25
100
AcDbLine
 10
-3.5355339059
 20
-4.6444402601
 30
0.0
 11
-3.5912116052
 21
-4.6765823118
 31
0.0
  0
LINE
  5
76E
330
402
100
AcDbEntity
  8
0
  6
Continuous
 62
     7
370
    25
100
AcDbLine
 10
-3.8127441298
 20
5.8684227023
 30
0.0
 11
-3.8139224025
 21
5.8543770512
 31
0.0
  0
LINE
  5
76F
330
402
100
AcDbEntity
  8
0
  6
Continuous
 62
     7
370
    25
100
AcDbLine
 10
-3.8139224025
 20
5.8543770512
 30
0.0
 11
-3.8696001018
 21
5.8222349996
 31
0.0
  0
LINE
  5
770
330
402
100
AcDbEntity
  8
0
  6
Continuous
 62
     7
370
    25
100
AcDbLine
 10
-3.8139224025
 20
5.8543770512
 30
0.0
 11
-3.8139224025
 21
-4.4837300019
 31
0.0
  0
LINE
  5
771
330
402
100
AcDbEntity
  8
0
  6
Continuous
 62
     7
370
    25
100
AcDbLine
 10
-3.8139224025
 20
-4.4837300019
 30
0.0
 11
-3.8696001018
 21
-4.5158720535
 31
0.0
  0
LINE
  5
772
330
402
100
AcDbEntity
  8
0
  6
Continuous
 62
     7
370
    25
100
AcDbLine
 10
-4.0911326263
 20
6.0291329605
 30
0.0
 11
-4.092310899
 21
6.0150873094
 31
0.0
  0
LINE
  5
773
330
402
100
AcDbEntity
  8
0
  6
Continuous
 62
     7
370
    25
100
AcDbLine
 10
-4.092310899
 20
6.0150873094
 30
0.0
 11
-4.1479885983
 21
5.9829452578
 31
0.0
  0
LINE
  5
774
330
402
100
AcDbEntity
  8
0
  6
Continuous
 62
     7
370
    25
100
AcDbLine
 10
-4.092310899
 20
6.0150873094
 30
0.0
 11
-4.092310899
 21
-4.3230197437
 31
0.0
  0
LINE
  5
775
330
402
100
AcDbEntity
  8
0
  6
Continuous
 62
     7
370
    25
100
AcDbLine
 10
-4.092310899
 20
-4.3230197437
 30
0.0
 11
-4.1479885983
 21
-4.3551617953
 31
0.0
  0
LINE
  5
776
330
402
100
AcDbEntity
  8
0
  6
Continuous
 62
     7
370
    25
100
AcDbLine
 10
-4.3695211229
 20
6.1898432187
 30
0.0
 11
-4.3706993955
 21
6.1757975677
 31
0.0
  0
LINE
  5
777
330
402
100
AcDbEntity
  8
0
  6
Continuous
 62
     7
370
    25
100
AcDbLine
 10
-4.3706993955
 20
6.1757975677
 30
0.0
 11
-4.4263770948
 21
6.143655516
 31
0.0
  0
LINE
  5
778
330
402
100
AcDbEntity
  8
0
  6
Continuous
 62
     7
370
    25
100
AcDbLine
 10
-4.3706993955
 20
6.1757975677
 30
0.0
 11
-4.3706993955
 21
-4.1623094854
 31
0.0
  0
LINE
  5
779
330
402
100
AcDbEntity
  8
0
  6
Continuous
 62
     7
370
    25
100
AcDbLine
 10
-4.3706993955
 20
-4.1623094854
 30
0.0
 11
-4.4263770948
 21
-4.1944515371
 31
0.0
  0
LINE
  5
77A
330
402
100
AcDbEntity
  8
0
  6
Continuous
 62
     7
370
    25
100
AcDbLine
 10
-4.6479096194
 20
6.350553477
 30
0.0
 11
-4.6490878921
 21
6.3365078259
 31
0.0
  0
LINE
  5
77B
330
402
100
AcDbEntity
  8
0
  6
Continuous
 62
     7
370
    25
100
AcDbLine
 10
-4.6490878921
 20
6.3365078259
 30
0.0
 11
-4.7047655914
 21
6.3043657743
 31
0.0
  0
LINE
  5
77C
330
402
100
AcDbEntity
  8
0
  6
Continuous
 62
     7
370
    25
100
AcDbLine
 10
-4.6490878921
 20
6.3365078259
 30
0.0
 11
-4.6490878921
 21
-4.0015992272
 31
0.0
  0
LINE
  5
77D
330
402
100
AcDbEntity
  8
0
  6
Continuous
 62
     7
370
    25
100
AcDbLine
 10
-4.6490878921
 20
-4.0015992272
 30
0.0
 11
-4.7047655914
 21
-4.0337412788
 31
0.0
  0
LINE
  5
77E
330
402
100
AcDbEntity
  8
0
  6
Continuous
 62
     7
370
    25
100
AcDbLine
 10
-4.9262981159
 20
6.5112637352
 30
0.0
 11
-4.9274763886
 21
6.4972180841
 31
0.0
  0
LINE
  5
77F
330
402
100
AcDbEntity
  8
0
  6
Continuous
 62
     7
370
    25
100
AcDbLine
 10
-4.9274763886
 20
6.4972180841
 30
0.0
 11
-4.9831540879
 21
6.4650760325
 31
0.0
  0
LINE
  5
780
330
402
100
AcDbEntity
  8
0
  6
Continuous
 62
     7
370
    25
100
AcDbLine
 10
-4.9274763886
 20
6.4972180841
 30
0.0
 11
-4.9274763886
 21
-3.840888969
 31
0.0
  0
LINE
  5
781
330
402
100
AcDbEntity
  8
0
  6
Continuous
 62
     7
370
    25
100
AcDbLine
 10
-4.9274763886
 20
-3.840888969
 30
0.0
 11
-4.9831540879
 21
-3.8730310206
 31
0.0
  0
LINE
  5
782
330
402
100
AcDbEntity
  8
0
  6
Continuous
 62
     7
370
    25
100
AcDbLine
 10
-5.2046866125
 20
6.6719739934
 30
0.0
 11
-5.2058648851
 21
6.6579283424
 31
0.0
  0
LINE
  5
783
330
402
100
AcDbEntity
  8
0
  6
Continuous
 62
     7
370
    25
100
AcDbLine
 10
-5.2058648851
 20
6.6579283424
 30
0.0
 11
-5.2615425844
 21
6.6257862907
 31
0.0
  0
LINE
  5
784
330
402
100
AcDbEntity
  8
0
  6
Continuous
 62
     7
370
    25
100
AcDbLine
 10
-5.2058648851
 20
6.6579283424
 30
0.0
 11
-5.2058648851
 21
-3.6801787107
 31
0.0
  0
LINE
  5
785
330
402
100
AcDbEntity
  8
0
  6
Continuous
 62
     7
370
    25
100
AcDbLine
 10
-5.2058648851
 20
-3.6801787107
 30
0.0
 11
-5.2615425844
 21
-3.7123207624
 31
0.0
  0
LINE
  5
786
330
402
100
AcDbEntity
  8
0
  6
Continuous
 62
     7
370
    25
100
AcDbLine
 10
-5.483075109
 20
6.8326842517
 30
0.0
 11
-5.4842533816
 21
6.8186386006
 31
0.0
  0
LINE
  5
787
330
402
100
AcDbEntity
  8
0
  6
Continuous
 62
     7
370
    25
100
AcDbLine
 10
-5.4842533816
 20
6.8186386006
 30
0.0
 11
-5.5399310809
 21
6.7864965489
 31
0.0
  0
LINE
  5
788
330
402
100
AcDbEntity
  8
0
  6
Continuous
 62
     7
370
    25
100
AcDbLine
 10
-5.4842533816
 20
6.8186386006
 30
0.0
 11
-5.4842533816
 21
-3.5194684525
 31
0.0
  0
LINE
  5
789
330
402
100
AcDbEntity
  8
0
  6
Continuous
 62
     7
370
    25
100
AcDbLine
 10
-5.4842533816
 20
-3.5194684525
 30
0.0
 11
-5.5399310809
 21
-3.5516105041
 31
0.0
  0
LINE
  5
78A
330
402
100
AcDbEntity
  8
0
  6
Continuous
 62
     7
370
    25
100
AcDbLine
 10
-5.7614636055
 20
6.9933945099
 30
0.0
 11
-5.7626418782
 21
6.9793488588
 31
0.0
  0
LINE
  5
78B
330
402
100
AcDbEntity
  8
0
  6
Continuous
 62
     7
370
    25
100
AcDbLine
 10
-5.7626418782
 20
6.9793488588
 30
0.0
 11
-5.8183195775
 21
6.9472068072
 31
0.0
  0
LINE
  5
78C
330
402
100
AcDbEntity
  8
0
  6
Continuous
 62
     7
370
    25
100
AcDbLine
 10
-5.7626418782
 20
6.9793488588
 30
0.0
 11
-5.7626418782
 21
-3.3587581943
 31
0.0
  0
LINE
  5
78D
330
402
100
AcDbEntity
  8
0
  6
Continuous
 62
     7
370
    25
100
AcDbLine
 10
-5.7626418782
 20
-3.3587581943
 30
0.0
 11
-5.8183195775
 21
-3.3909002459
 31
0.0
  0
LINE
  5
78E
330
402
100
AcDbEntity
  8
0
  6
Continuous
 62
     7
370
    25
100
AcDbLine
 10
-6.0398521021
 20
7.1541047681
 30
0.0
 11
-6.0410303747
 21
7.1400591171
 31
0.0
  0
LINE
  5
78F
330
402
100
AcDbEntity
  8
0
  6
Continuous
 62
     7
370
    25
100
AcDbLine
 10
-6.0410303747
 20
7.1400591171
 30
0.0
 11
-6.096708074
 21
7.1079170654
 31
0.0
  0
LINE
  5
790
330
402
100
AcDbEntity
  8
0
  6
Continuous
 62
     7
370
    25
100
AcDbLine
 10
-6.0410303747
 20
7.1400591171
 30
0.0
 11
-6.0410303747
 21
-3.198047936
 31
0.0
  0
LINE
  5
791
330
402
100
AcDbEntity
  8
0
  6
Continuous
 62
     7
370
    25
100
AcDbLine
 10
-6.0410303747
 20
-3.198047936
 30
0.0
 11
-6.096708074
 21
-3.2301899877
 31
0.0
  0
LINE
  5
792
330
402
100
AcDbEntity
  8
0
  6
Continuous
 62
     7
370
    25
100
AcDbLine
 10
-6.3182405986
 20
7.3148150264
 30
0.0
 11
-6.3194188712
 21
7.3007693753
 31
0.0
  0
LINE
  5
793
330
402
100
AcDbEntity
  8
0
  6
Continuous
 62
     7
370
    25
100
AcDbLine
 10
-6.3194188712
 20
7.3007693753
 30
0.0
 11
-6.3750965705
 21
7.2686273236
 31
0.0
  0
LINE
  5
794
330
402
100
AcDbEntity
  8
0
  6
Continuous
 62
     7
370
    25
100
AcDbLine
 10
-6.3194188712
 20
7.3007693753
 30
0.0
 11
-6.3194188712
 21
-3.0373376778
 31
0.0
  0
LINE
  5
795
330
402
100
AcDbEntity
  8
0
  6
Continuous
 62
     7
370
    25
100
AcDbLine
 10
-6.3194188712
 20
-3.0373376778
 30
0.0
 11
-6.3750965705
 21
-3.0694797294
 31
0.0
  0
LINE
  5
796
330
402
100
AcDbEntity
  8
0
  6
Continuous
 62
     7
370
    25
100
AcDbLine
 10
-6.5966290951
 20
7.4755252846
 30
0.0
 11
-6.5978073678
 21
7.4614796335
 31
0.0
  0
LINE
  5
797
330
402
100
AcDbEntity
  8
0
  6
Continuous
 62
     7
370
    25
100
AcDbLine
 10
-6.5978073678
 20
7.4614796335
 30
0.0
 11
-6.6534850671
 21
7.4293375819
 31
0.0
  0
LINE
  5
798
330
402
100
AcDbEntity
  8
0
  6
Continuous
 62
     7
370
    25
100
AcDbLine
 10
-6.5978073678
 20
7.4614796335
 30
0.0
 11
-6.5978073678
 21
-2.8766274196
 31
0.0
  0
LINE
  5
799
330
402
100
AcDbEntity
  8
0
  6
Continuous
 62
     7
370
    25
100
AcDbLine
 10
-6.5978073678
 20
-2.8766274196
 30
0.0
 11
-6.6534850671
 21
-2.9087694712
 31
0.0
  0
LINE
  5
79A
330
402
100
AcDbEntity
  8
0
  6
Continuous
 62
     7
370
    25
100
AcDbLine
 10
-6.8750175916
 20
7.6362355428
 30
0.0
 11
-6.8761958643
 21
7.6221898918
 31
0.0
  0
LINE
  5
79B
330
402
100
AcDbEntity
  8
0
  6
Continuous
 62
     7
370
    25
100
AcDbLine
 10
-6.8761958643
 20
7.6221898918
 30
0.0
 11
-6.9318735636
 21
7.5900478401
 31
0.0
  0
LINE
  5
79C
330
402
100
AcDbEntity
  8
0
  6
Continuous
 62
     7
370
    25
100
AcDbLine
 10
-6.8761958643
 20
7.6221898918
 30
0.0
 11
-6.8761958643
 21
-2.7159171613
 31
0.0
  0
LINE
  5
79D
330
402
100
AcDbEntity
  8
0
  6
Continuous
 62
     7
370
    25
100
AcDbLine
 10
-6.8761958643
 20
-2.7159171613
 30
0.0
 11
-6.9318735636
 21
-2.748059213
 31
0.0
  0
LINE
  5
79E
330
402
100
AcDbEntity
  8
0
  6
Continuous
 62
     7
370
    25
100
AcDbLine
 10
-7.1534060882
 20
7.7969458011
 30
0.0
 11
-7.1545843608
 21
7.78290015
 31
0.0
  0
LINE
  5
79F
330
402
100
AcDbEntity
  8
0
  6
Continuous
 62
     7
370
    25
100
AcDbLine
 10
-7.1545843608
 20
7.78290015
 30
0.0
 11
-7.2102620601
 21
7.7507580983
 31
0.0
  0
LINE
  5
7A0
330
402
100
AcDbEntity
  8
0
  6
Continuous
 62
     7
370
    25
100
AcDbLine
 10
-7.1545843608
 20
7.78290015
 30
0.0
 11
-7.1545843608
 21
-2.5552069031
 31
0.0
  0
LINE
  5
7A1
330
402
100
AcDbEntity
  8
0
  6
Continuous
 62
     7
370
    25
100
AcDbLine
 10
-7.1545843608
 20
-2.5552069031
 30
0.0
 11
-7.2102620601
 21
-2.5873489548
 31
0.0
  0
LINE
  5
7A2
330
402
100
AcDbEntity
  8
0
  6
Continuous
 62
     7
370
    25
100
AcDbLine
 10
-7.4317945847
 20
7.9576560593
 30
0.0
 11
-7.4329728574
 21
7.9436104082
 31
0.0
  0
LINE
  5
7A3
330
402
100
AcDbEntity
  8
0
  6
Continuous
 62
     7
370
    25
100
AcDbLine
 10
-7.4329728574
 20
7.9436104082
 30
0.0
 11
-7.4886505567
 21
7.9114683566
 31
0.0
  0
LINE
  5
7A4
330
402
100
AcDbEntity
  8
0
  6
Continuous
 62
     7
370
    25
100
AcDbLine
 10
-7.4329728574
 20
7.9436104082
 30
0.0
 11
-7.4329728574
 21
-2.3944966449
 31
0.0
  0
LINE
  5
7A5
330
402
100
AcDbEntity
  8
0
  6
Continuous
 62
     7
370
    25
100
AcDbLine
 10
-7.4329728574
 20
-2.3944966449
 30
0.0
 11
-7.4886505567
 21
-2.4266386965
 31
0.0
  0
LINE
  5
7A6
330
402
100
AcDbEntity
  8
0
  6
Continuous
 62
     7
370
    25
100
AcDbLine
 10
-14.4646705905
 20
1.1022491694
 30
0.0
 11
-14.4762018194
 21
1.0955886381
 31
0.0
  0
LINE
  5
7A7
330
402
100
AcDbEntity
  8
0
  6
Continuous
 62
     7
370
    25
100
AcDbLine
 10
-7.7101830812
 20
8.1183663175
 30
0.0
 11
-7.7113613539
 21
8.1043206665
 31
0.0
  0
LINE
  5
7A8
330
402
100
AcDbEntity
  8
0
  6
Continuous
 62
     7
370
    25
100
AcDbLine
 10
-7.7113613539
 20
8.1043206665
 30
0.0
 11
-7.7670390532
 21
8.0721786148
 31
0.0
  0
LINE
  5
7A9
330
402
100
AcDbEntity
  8
0
  6
Continuous
 62
     7
370
    25
100
AcDbLine
 10
-7.7113613539
 20
8.1043206665
 30
0.0
 11
-7.7113613539
 21
-2.2337863866
 31
0.0
  0
LINE
  5
7AA
330
402
100
AcDbEntity
  8
0
  6
Continuous
 62
     7
370
    25
100
AcDbLine
 10
-7.7113613539
 20
-2.2337863866
 30
0.0
 11
-7.7670390532
 21
-2.2659284383
 31
0.0
  0
LINE
  5
7AB
330
402
100
AcDbEntity
  8
0
  6
Continuous
 62
     7
370
    25
100
AcDbLine
 10
-7.9885715778
 20
8.2790765758
 30
0.0
 11
-7.9897498504
 21
8.2650309247
 31
0.0
  0
LINE
  5
7AC
330
402
100
AcDbEntity
  8
0
  6
Continuous
 62
     7
370
    25
100
AcDbLine
 10
-7.9897498504
 20
8.2650309247
 30
0.0
 11
-8.0454275497
 21
8.232888873
 31
0.0
  0
LINE
  5
7AD
330
402
100
AcDbEntity
  8
0
  6
Continuous
 62
     7
370
    25
100
AcDbLine
 10
-7.9897498504
 20
8.2650309247
 30
0.0
 11
-7.9897498504
 21
-2.0730761284
 31
0.0
  0
LINE
  5
7AE
330
402
100
AcDbEntity
  8
0
  6
Continuous
 62
     7
370
    25
100
AcDbLine
 10
-7.9897498504
 20
-2.0730761284
 30
0.0
 11
-8.0454275497
 21
-2.1052181801
 31
0.0
  0
LINE
  5
7AF
330
402
100
AcDbEntity
  8
0
  6
Continuous
 62
     7
370
    25
100
AcDbLine
 10
-8.2669600743
 20
8.439786834
 30
0.0
 11
-8.2681383469
 21
8.4257411829
 31
0.0
  0
LINE
  5
7B0
330
402
100
AcDbEntity
  8
0
  6
Continuous
 62
     7
370
    25
100
AcDbLine
 10
-8.2681383469
 20
8.4257411829
 30
0.0
 11
-8.3238160463
 21
8.3935991313
 31
0.0
  0
LINE
  5
7B1
330
402
100
AcDbEntity
  8
0
  6
Continuous
 62
     7
370
    25
100
AcDbLine
 10
-8.2681383469
 20
8.4257411829
 30
0.0
 11
-8.2681383469
 21
-1.9123658702
 31
0.0
  0
LINE
  5
7B2
330
402
100
AcDbEntity
  8
0
  6
Continuous
 62
     7
370
    25
100
AcDbLine
 10
-8.2681383469
 20
-1.9123658702
 30
0.0
 11
-8.3238160463
 21
-1.9445079218
 31
0.0
  0
LINE
  5
7B3
330
402
100
AcDbEntity
  8
0
  6
Continuous
 62
     7
370
    25
100
AcDbLine
 10
-8.5453485708
 20
8.6004970922
 30
0.0
 11
-8.5465268435
 21
8.5864514412
 31
0.0
  0
LINE
  5
7B4
330
402
100
AcDbEntity
  8
0
  6
Continuous
 62
     7
370
    25
100
AcDbLine
 10
-8.5465268435
 20
8.5864514412
 30
0.0
 11
-8.6022045428
 21
8.5543093895
 31
0.0
  0
LINE
  5
7B5
330
402
100
AcDbEntity
  8
0
  6
Continuous
 62
     7
370
    25
100
AcDbLine
 10
-8.5465268435
 20
8.5864514412
 30
0.0
 11
-8.5465268435
 21
-1.7516556119
 31
0.0
  0
LINE
  5
7B6
330
402
100
AcDbEntity
  8
0
  6
Continuous
 62
     7
370
    25
100
AcDbLine
 10
-8.5465268435
 20
-1.7516556119
 30
0.0
 11
-8.6022045428
 21
-1.7837976636
 31
0.0
  0
LINE
  5
7B7
330
402
100
AcDbEntity
  8
0
  6
Continuous
 62
     7
370
    25
100
AcDbLine
 10
-8.8237370674
 20
8.7612073505
 30
0.0
 11
-8.82491534
 21
8.7471616994
 31
0.0
  0
LINE
  5
7B8
330
402
100
AcDbEntity
  8
0
  6
Continuous
 62
     7
370
    25
100
AcDbLine
 10
-8.82491534
 20
8.7471616994
 30
0.0
 11
-8.8805930393
 21
8.7150196477
 31
0.0
  0
LINE
  5
7B9
330
402
100
AcDbEntity
  8
0
  6
Continuous
 62
     7
370
    25
100
AcDbLine
 10
-8.82491534
 20
8.7471616994
 30
0.0
 11
-8.82491534
 21
-1.5909453537
 31
0.0
  0
LINE
  5
7BA
330
402
100
AcDbEntity
  8
0
  6
Continuous
 62
     7
370
    25
100
AcDbLine
 10
-8.82491534
 20
-1.5909453537
 30
0.0
 11
-8.8805930393
 21
-1.6230874054
 31
0.0
  0
LINE
  5
7BB
330
402
100
AcDbEntity
  8
0
  6
Continuous
 62
     7
370
    25
100
AcDbLine
 10
-9.1021255639
 20
8.9219176087
 30
0.0
 11
-9.1033038365
 21
8.9078719576
 31
0.0
  0
LINE
  5
7BC
330
402
100
AcDbEntity
  8
0
  6
Continuous
 62
     7
370
    25
100
AcDbLine
 10
-9.1033038365
 20
8.9078719576
 30
0.0
 11
-9.1589815358
 21
8.875729906
 31
0.0
  0
LINE
  5
7BD
330
402
100
AcDbEntity
  8
0
  6
Continuous
 62
     7
370
    25
100
AcDbLine
 10
-9.1033038365
 20
8.9078719576
 30
0.0
 11
-9.1033038365
 21
-1.4302350955
 31
0.0
  0
LINE
  5
7BE
330
402
100
AcDbEntity
  8
0
  6
Continuous
 62
     7
370
    25
100
AcDbLine
 10
-9.1033038365
 20
-1.4302350955
 30
0.0
 11
-9.1589815358
 21
-1.4623771471
 31
0.0
  0
LINE
  5
7BF
330
402
100
AcDbEntity
  8
0
  6
Continuous
 62
     7
370
    25
100
AcDbLine
 10
-9.3805140604
 20
9.0826278669
 30
0.0
 11
-9.3816923331
 21
9.0685822159
 31
0.0
  0
LINE
  5
7C0
330
402
100
AcDbEntity
  8
0
  6
Continuous
 62
     7
370
    25
100
AcDbLine
 10
-9.3816923331
 20
9.0685822159
 30
0.0
 11
-9.4373700324
 21
9.0364401642
 31
0.0
  0
LINE
  5
7C1
330
402
100
AcDbEntity
  8
0
  6
Continuous
 62
     7
370
    25
100
AcDbLine
 10
-9.3816923331
 20
9.0685822159
 30
0.0
 11
-9.3816923331
 21
-1.2695248372
 31
0.0
  0
LINE
  5
7C2
330
402
100
AcDbEntity
  8
0
  6
Continuous
 62
     7
370
    25
100
AcDbLine
 10
-9.3816923331
 20
-1.2695248372
 30
0.0
 11
-9.4373700324
 21
-1.3016668889
 31
0.0
  0
LINE
  5
7C3
330
402
100
AcDbEntity
  8
0
  6
Continuous
 62
     7
370
    25
100
AcDbLine
 10
-9.6589025569
 20
9.2433381252
 30
0.0
 11
-9.6600808296
 21
9.2292924741
 31
0.0
  0
LINE
  5
7C4
330
402
100
AcDbEntity
  8
0
  6
Continuous
 62
     7
370
    25
100
AcDbLine
 10
-9.6600808296
 20
9.2292924741
 30
0.0
 11
-9.7157585289
 21
9.1971504224
 31
0.0
  0
LINE
  5
7C5
330
402
100
AcDbEntity
  8
0
  6
Continuous
 62
     7
370
    25
100
AcDbLine
 10
-9.6600808296
 20
9.2292924741
 30
0.0
 11
-9.6600808296
 21
-1.108814579
 31
0.0
  0
LINE
  5
7C6
330
402
100
AcDbEntity
  8
0
  6
Continuous
 62
     7
370
    25
100
AcDbLine
 10
-9.6600808296
 20
-1.108814579
 30
0.0
 11
-9.7157585289
 21
-1.1409566307
 31
0.0
  0
LINE
  5
7C7
330
402
100
AcDbEntity
  8
0
  6
Continuous
 62
     7
370
    25
100
AcDbLine
 10
-9.9372910535
 20
9.4040483834
 30
0.0
 11
-9.9384693261
 21
9.3900027323
 31
0.0
  0
LINE
  5
7C8
330
402
100
AcDbEntity
  8
0
  6
Continuous
 62
     7
370
    25
100
AcDbLine
 10
-9.9384693261
 20
9.3900027323
 30
0.0
 11
-9.9941470254
 21
9.3578606807
 31
0.0
  0
LINE
  5
7C9
330
402
100
AcDbEntity
  8
0
  6
Continuous
 62
     7
370
    25
100
AcDbLine
 10
-9.9384693261
 20
9.3900027323
 30
0.0
 11
-9.9384693261
 21
-0.9481043208
 31
0.0
  0
LINE
  5
7CA
330
402
100
AcDbEntity
  8
0
  6
Continuous
 62
     7
370
    25
100
AcDbLine
 10
-9.9384693261
 20
-0.9481043208
 30
0.0
 11
-9.9941470254
 21
-0.9802463724
 31
0.0
  0
LINE
  5
7CB
330
402
100
AcDbEntity
  8
0
  6
Continuous
 62
     7
370
    25
100
AcDbLine
 10
-10.21567955
 20
9.5647586416
 30
0.0
 11
-10.2168578227
 21
9.5507129906
 31
0.0
  0
LINE
  5
7CC
330
402
100
AcDbEntity
  8
0
  6
Continuous
 62
     7
370
    25
100
AcDbLine
 10
-10.2168578227
 20
9.5507129906
 30
0.0
 11
-10.272535522
 21
9.5185709389
 31
0.0
  0
LINE
  5
7CD
330
402
100
AcDbEntity
  8
0
  6
Continuous
 62
     7
370
    25
100
AcDbLine
 10
-10.2168578227
 20
9.5507129906
 30
0.0
 11
-10.2168578227
 21
-0.7873940625
 31
0.0
  0
LINE
  5
7CE
330
402
100
AcDbEntity
  8
0
  6
Continuous
 62
     7
370
    25
100
AcDbLine
 10
-10.2168578227
 20
-0.7873940625
 30
0.0
 11
-10.272535522
 21
-0.8195361142
 31
0.0
  0
LINE
  5
7CF
330
402
100
AcDbEntity
  8
0
  6
Continuous
 62
     7
370
    25
100
AcDbLine
 10
-10.4940680465
 20
9.7254688999
 30
0.0
 11
-10.4952463192
 21
9.7114232488
 31
0.0
  0
LINE
  5
7D0
330
402
100
AcDbEntity
  8
0
  6
Continuous
 62
     7
370
    25
100
AcDbLine
 10
-10.4952463192
 20
9.7114232488
 30
0.0
 11
-10.5509240185
 21
9.6792811971
 31
0.0
  0
LINE
  5
7D1
330
402
100
AcDbEntity
  8
0
  6
Continuous
 62
     7
370
    25
100
AcDbLine
 10
-10.4952463192
 20
9.7114232488
 30
0.0
 11
-10.4952463192
 21
-0.6266838043
 31
0.0
  0
LINE
  5
7D2
330
402
100
AcDbEntity
  8
0
  6
Continuous
 62
     7
370
    25
100
AcDbLine
 10
-10.4952463192
 20
-0.6266838043
 30
0.0
 11
-10.5509240185
 21
-0.658825856
 31
0.0
  0
LINE
  5
7D3
330
402
100
AcDbEntity
  8
0
  6
Continuous
 62
     7
370
    25
100
AcDbLine
 10
-10.7724565431
 20
9.8861791581
 30
0.0
 11
-10.7736348157
 21
9.872133507
 31
0.0
  0
LINE
  5
7D4
330
402
100
AcDbEntity
  8
0
  6
Continuous
 62
     7
370
    25
100
AcDbLine
 10
-10.7736348157
 20
9.872133507
 30
0.0
 11
-10.829312515
 21
9.8399914554
 31
0.0
  0
LINE
  5
7D5
330
402
100
AcDbEntity
  8
0
  6
Continuous
 62
     7
370
    25
100
AcDbLine
 10
-10.7736348157
 20
9.872133507
 30
0.0
 11
-10.7736348157
 21
-0.4659735461
 31
0.0
  0
LINE
  5
7D6
330
402
100
AcDbEntity
  8
0
  6
Continuous
 62
     7
370
    25
100
AcDbLine
 10
-10.7736348157
 20
-0.4659735461
 30
0.0
 11
-10.829312515
 21
-0.4981155977
 31
0.0
  0
LINE
  5
7D7
330
402
100
AcDbEntity
  8
0
  6
Continuous
 62
     7
370
    25
100
AcDbLine
 10
-11.0508450396
 20
10.0468894163
 30
0.0
 11
-11.0520233122
 21
10.0328437653
 31
0.0
  0
LINE
  5
7D8
330
402
100
AcDbEntity
  8
0
  6
Continuous
 62
     7
370
    25
100
AcDbLine
 10
-11.0520233122
 20
10.0328437653
 30
0.0
 11
-11.1077010116
 21
10.0007017136
 31
0.0
  0
LINE
  5
7D9
330
402
100
AcDbEntity
  8
0
  6
Continuous
 62
     7
370
    25
100
AcDbLine
 10
-11.0520233122
 20
10.0328437653
 30
0.0
 11
-11.0520233122
 21
-0.3052632878
 31
0.0
  0
LINE
  5
7DA
330
402
100
AcDbEntity
  8
0
  6
Continuous
 62
     7
370
    25
100
AcDbLine
 10
-11.0520233122
 20
-0.3052632878
 30
0.0
 11
-11.1077010116
 21
-0.3374053395
 31
0.0
  0
LINE
  5
7DB
330
402
100
AcDbEntity
  8
0
  6
Continuous
 62
     7
370
    25
100
AcDbLine
 10
-11.3292335361
 20
10.2075996746
 30
0.0
 11
-11.3304118088
 21
10.1935540235
 31
0.0
  0
LINE
  5
7DC
330
402
100
AcDbEntity
  8
0
  6
Continuous
 62
     7
370
    25
100
AcDbLine
 10
-11.3304118088
 20
10.1935540235
 30
0.0
 11
-11.3860895081
 21
10.1614119718
 31
0.0
  0
LINE
  5
7DD
330
402
100
AcDbEntity
  8
0
  6
Continuous
 62
     7
370
    25
100
AcDbLine
 10
-11.3304118088
 20
10.1935540235
 30
0.0
 11
-11.3304118088
 21
-0.1445530296
 31
0.0
  0
LINE
  5
7DE
330
402
100
AcDbEntity
  8
0
  6
Continuous
 62
     7
370
    25
100
AcDbLine
 10
-11.3304118088
 20
-0.1445530296
 30
0.0
 11
-11.3860895081
 21
-0.1766950813
 31
0.0
  0
LINE
  5
7DF
330
402
100
AcDbEntity
  8
0
  6
Continuous
 62
     7
370
    25
100
AcDbLine
 10
-11.6076220327
 20
10.3683099328
 30
0.0
 11
-11.6088003053
 21
10.3542642817
 31
0.0
  0
LINE
  5
7E0
330
402
100
AcDbEntity
  8
0
  6
Continuous
 62
     7
370
    25
100
AcDbLine
 10
-11.6088003053
 20
10.3542642817
 30
0.0
 11
-11.6644780046
 21
10.3221222301
 31
0.0
  0
LINE
  5
7E1
330
402
100
AcDbEntity
  8
0
  6
Continuous
 62
     7
370
    25
100
AcDbLine
 10
-11.6088003053
 20
10.3542642817
 30
0.0
 11
-11.6088003053
 21
0.0161572286
 31
0.0
  0
LINE
  5
7E2
330
402
100
AcDbEntity
  8
0
  6
Continuous
 62
     7
370
    25
100
AcDbLine
 10
-11.6088003053
 20
0.0161572286
 30
0.0
 11
-11.6644780046
 21
-0.015984823
 31
0.0
  0
LINE
  5
7E3
330
402
100
AcDbEntity
  8
0
  6
Continuous
 62
     7
370
    25
100
AcDbLine
 10
-11.8860105292
 20
10.529020191
 30
0.0
 11
-11.8871888018
 21
10.51497454
 31
0.0
  0
LINE
  5
7E4
330
402
100
AcDbEntity
  8
0
  6
Continuous
 62
     7
370
    25
100
AcDbLine
 10
-11.8871888018
 20
10.51497454
 30
0.0
 11
-11.9428665011
 21
10.4828324883
 31
0.0
  0
LINE
  5
7E5
330
402
100
AcDbEntity
  8
0
  6
Continuous
 62
     7
370
    25
100
AcDbLine
 10
-11.8871888018
 20
10.51497454
 30
0.0
 11
-11.8871888018
 21
0.1768674869
 31
0.0
  0
LINE
  5
7E6
330
402
100
AcDbEntity
  8
0
  6
Continuous
 62
     7
370
    25
100
AcDbLine
 10
-11.8871888018
 20
0.1768674869
 30
0.0
 11
-11.9428665011
 21
0.1447254352
 31
0.0
  0
LINE
  5
7E7
330
402
100
AcDbEntity
  8
0
  6
Continuous
 62
     7
370
    25
100
AcDbLine
 10
-12.1643990257
 20
10.6897304493
 30
0.0
 11
-12.1655772984
 21
10.6756847982
 31
0.0
  0
LINE
  5
7E8
330
402
100
AcDbEntity
  8
0
  6
Continuous
 62
     7
370
    25
100
AcDbLine
 10
-12.1655772984
 20
10.6756847982
 30
0.0
 11
-12.2212549977
 21
10.6435427465
 31
0.0
  0
LINE
  5
7E9
330
402
100
AcDbEntity
  8
0
  6
Continuous
 62
     7
370
    25
100
AcDbLine
 10
-12.1655772984
 20
10.6756847982
 30
0.0
 11
-12.1655772984
 21
0.3375777451
 31
0.0
  0
LINE
  5
7EA
330
402
100
AcDbEntity
  8
0
  6
Continuous
 62
     7
370
    25
100
AcDbLine
 10
-12.1655772984
 20
0.3375777451
 30
0.0
 11
-12.2212549977
 21
0.3054356934
 31
0.0
  0
LINE
  5
7EB
330
402
100
AcDbEntity
  8
0
  6
Continuous
 62
     7
370
    25
100
AcDbLine
 10
-12.4427875222
 20
10.8504407075
 30
0.0
 11
-12.4439657949
 21
10.8363950564
 31
0.0
  0
LINE
  5
7EC
330
402
100
AcDbEntity
  8
0
  6
Continuous
 62
     7
370
    25
100
AcDbLine
 10
-12.4439657949
 20
10.8363950564
 30
0.0
 11
-12.4996434942
 21
10.8042530048
 31
0.0
  0
LINE
  5
7ED
330
402
100
AcDbEntity
  8
0
  6
Continuous
 62
     7
370
    25
100
AcDbLine
 10
-12.4439657949
 20
10.8363950564
 30
0.0
 11
-12.4439657949
 21
0.4982880033
 31
0.0
  0
LINE
  5
7EE
330
402
100
AcDbEntity
  8
0
  6
Continuous
 62
     7
370
    25
100
AcDbLine
 10
-12.4439657949
 20
0.4982880033
 30
0.0
 11
-12.4996434942
 21
0.4661459517
 31
0.0
  0
LINE
  5
7EF
330
402
100
AcDbEntity
  8
0
  6
Continuous
 62
     7
370
    25
100
AcDbLine
 10
-12.7211760188
 20
11.0111509657
 30
0.0
 11
-12.7223542914
 21
10.9971053146
 31
0.0
  0
LINE
  5
7F0
330
402
100
AcDbEntity
  8
0
  6
Continuous
 62
     7
370
    25
100
AcDbLine
 10
-12.7223542914
 20
10.9971053146
 30
0.0
 11
-12.7780319907
 21
10.964963263
 31
0.0
  0
LINE
  5
7F1
330
402
100
AcDbEntity
  8
0
  6
Continuous
 62
     7
370
    25
100
AcDbLine
 10
-12.7223542914
 20
10.9971053146
 30
0.0
 11
-12.7223542914
 21
0.6589982616
 31
0.0
  0
LINE
  5
7F2
330
402
100
AcDbEntity
  8
0
  6
Continuous
 62
     7
370
    25
100
AcDbLine
 10
-12.7223542914
 20
0.6589982616
 30
0.0
 11
-12.7780319907
 21
0.6268562099
 31
0.0
  0
LINE
  5
7F3
330
402
100
AcDbEntity
  8
0
  6
Continuous
 62
     7
370
    25
100
AcDbLine
 10
-12.9450650887
 20
11.1256735212
 30
0.0
 11
-12.9450650887
 21
0.7875664681
 31
0.0
  0
LINE
  5
7F4
330
402
100
AcDbEntity
  8
0
  6
Continuous
 62
     7
370
    25
100
AcDbLine
 10
-13.2234535852
 20
11.2863837795
 30
0.0
 11
-13.2234535852
 21
0.9482767264
 31
0.0
  0
LINE
  5
7F5
330
402
100
AcDbEntity
  8
0
  6
Continuous
 62
     7
370
    25
100
AcDbLine
 10
-13.5018420817
 20
11.4470940377
 30
0.0
 11
-13.5018420817
 21
1.1089869846
 31
0.0
  0
LINE
  5
7F6
330
402
100
AcDbEntity
  8
0
  6
Continuous
 62
     7
370
    25
100
AcDbLine
 10
-13.7802305782
 20
11.6078042959
 30
0.0
 11
-13.7802305782
 21
1.2696972428
 31
0.0
  0
LINE
  5
7F7
330
402
100
AcDbEntity
  8
0
  6
Continuous
 62
     7
370
    25
100
AcDbLine
 10
-14.0586190748
 20
11.7685145542
 30
0.0
 11
-14.0586190748
 21
1.4304075011
 31
0.0
  0
LINE
  5
7F8
330
402
100
AcDbEntity
  8
0
  6
Continuous
 62
     7
370
    25
100
AcDbLine
 10
-2.324543946
 20
11.9013103666
 30
0.0
 11
-6.0537597341
 21
9.7484799164
 31
0.0
  0
LINE
  5
7F9
330
402
100
AcDbEntity
  8
0
  6
Continuous
 62
     7
370
    25
100
AcDbLine
 10
-1.8234446523
 20
11.6120319018
 30
0.0
 11
-2.324543946
 21
11.9013103666
 31
0.0
  0
LINE
  5
7FA
330
402
100
AcDbEntity
  8
0
  6
Continuous
 62
     7
370
    25
100
AcDbLine
 10
-5.5526604403
 20
9.4592014516
 30
0.0
 11
-1.8234446523
 21
11.6120319018
 31
0.0
  0
LINE
  5
7FB
330
402
100
AcDbEntity
  8
0
  6
Continuous
 62
     7
370
    25
100
AcDbLine
 10
-1.8234446523
 20
11.3227064172
 30
0.0
 11
-1.8234446523
 21
11.6120319018
 31
0.0
  0
LINE
  5
7FC
330
402
100
AcDbEntity
  8
0
  6
Continuous
 62
     7
370
    25
100
AcDbLine
 10
1.9208806261
 20
-6.7014505871
 30
0.0
 11
1.9765583254
 21
-6.6693085355
 31
0.0
  0
LINE
  5
7FD
330
402
100
AcDbEntity
  8
0
  6
Continuous
 62
     7
370
    25
100
AcDbLine
 10
1.9208806261
 20
-3.325986601
 30
0.0
 11
1.9765583254
 21
-3.2938445493
 31
0.0
  0
LINE
  5
7FE
330
402
100
AcDbEntity
  8
0
  6
Continuous
 62
     7
370
    25
100
AcDbLine
 10
1.9765583254
 20
-2.7152876197
 30
0.0
 11
1.9208806261
 21
-2.7474296713
 31
0.0
  0
LINE
  5
7FF
330
402
100
AcDbEntity
  8
0
  6
Continuous
 62
     7
370
    25
100
AcDbLine
 10
-3.0746000994
 20
8.028647667
 30
0.0
 11
-2.324543946
 21
8.4616458677
 31
0.0
  0
LINE
  5
800
330
402
100
AcDbEntity
  8
0
  6
Continuous
 62
     8
370
    25
100
AcDbLine
 10
-14.4925094401
 20
1.1731901095
 30
0.0
 11
-14.4762018196
 21
1.1731901095
 31
0.0
  0
LINE
  5
801
330
402
100
AcDbEntity
  8
0
  6
Continuous
 62
     8
370
    25
100
AcDbLine
 10
-1.447620182
 20
20.9747732397
 30
0.0
 11
-13.4739987071
 21
14.0320926963
 31
0.0
  0
LINE
  5
802
330
402
100
AcDbEntity
  8
0
  6
Continuous
 62
     8
370
    25
100
AcDbLine
 10
-1.447620182
 20
11.9413886673
 30
0.0
 11
-1.447620182
 21
20.9747732397
 31
0.0
  0
ARC
  5
803
330
402
100
AcDbEntity
  8
0
  6
Continuous
 62
     7
370
    25
100
AcDbCircle
 10
2.0159284041
 20
4.9746883566
 30
0.0
 40
0.0393700787401584
100
AcDbArc
 50
119.9973117337
 51
180.0
  0
ARC
  5
804
330
402
100
AcDbEntity
  8
0
  6
Continuous
 62
     7
370
    25
100
AcDbCircle
 10
2.0159284041
 20
-8.334200341
 30
0.0
 40
0.0393700787401551
100
AcDbArc
 50
180.0
 51
299.9973117337
  0
ARC
  5
805
330
402
100
AcDbEntity
  8
0
  6
Continuous
 62
     7
370
    25
100
AcDbCircle
 10
14.5875572182
 20
11.7178623655
 30
0.0
 40
0.0393700787401379
100
AcDbArc
 50
360.0
 51
60.0026882664
  0
ARC
  5
806
330
402
100
AcDbEntity
  8
0
  6
Continuous
 62
     7
370
    25
100
AcDbCircle
 10
14.1421356237
 20
11.9749987787
 30
0.0
 40
0.0393700787401551
100
AcDbArc
 50
60.0026882663
 51
119.9973117337
  0
ARC
  5
807
330
402
100
AcDbEntity
  8
0
  6
Continuous
 62
     7
370
    25
100
AcDbCircle
 10
14.5875572182
 20
-1.0767535057
 30
0.0
 40
0.0393700787401579
100
AcDbArc
 50
299.9973117337
 51
0.0
  0
ARC
  5
808
330
402
100
AcDbEntity
  8
0
  6
Continuous
 62
     7
370
    25
100
AcDbCircle
 10
-14.4925094401
 20
13.9905338435
 30
0.0
 40
0.0393700787401705
100
AcDbArc
 50
119.9973117337
 51
180.0
  0
ARC
  5
809
330
402
100
AcDbEntity
  8
0
  6
Continuous
 62
     7
370
    25
100
AcDbCircle
 10
-14.4925094401
 20
1.1959179722
 30
0.0
 40
0.0393700787401592
100
AcDbArc
 50
180.0
 51
270.0
  0
ARC
  5
80A
330
402
100
AcDbEntity
  8
0
  6
Continuous
 62
     7
370
    25
100
AcDbCircle
 10
-1.4754590316
 20
20.9908442656
 30
0.0
 40
0.039370078740153
100
AcDbArc
 50
360.0
 51
60.0026882664
  0
ARC
  5
80B
330
402
100
AcDbEntity
  8
0
  6
Continuous
 62
     7
370
    25
100
AcDbCircle
 10
-1.9208806261
 20
21.2479806787
 30
0.0
 40
0.0393700787401796
100
AcDbArc
 50
60.0026882664
 51
119.9973117336
  0
ARC
  5
80C
330
402
100
AcDbEntity
  8
0
  6
Continuous
 62
     7
370
    25
100
AcDbCircle
 10
2.0126482751
 20
4.4563984268
 30
0.0
 40
0.0363128296282986
100
AcDbArc
 50
84.8174221345
 51
173.6486598634
  0
ARC
  5
80D
330
402
100
AcDbEntity
  8
0
  6
Continuous
 62
     7
370
    25
100
AcDbCircle
 10
1.983325675
 20
4.4415940772
 30
0.0
 40
0.0605041262823644
100
AcDbArc
 50
2.6054784857
 51
57.39452166
  0
ARC
  5
80E
330
402
100
AcDbEntity
  8
0
  6
Continuous
 62
     7
370
    25
100
AcDbCircle
 10
14.554954489
 20
11.6990409125
 30
0.0
 40
0.0605041262823637
100
AcDbArc
 50
2.6054784857
 51
57.39452166
  0
ARC
  5
80F
330
402
100
AcDbEntity
  8
0
  6
Continuous
 62
     7
370
    25
100
AcDbCircle
 10
2.0126482751
 20
4.9706712531
 30
0.0
 40
0.0363128296282976
100
AcDbArc
 50
84.8174221345
 51
173.6486598634
  0
ARC
  5
810
330
402
100
AcDbEntity
  8
0
  6
Continuous
 62
     7
370
    25
100
AcDbCircle
 10
-1.5080617608
 20
20.9720228125
 30
0.0
 40
0.0605041262823526
100
AcDbArc
 50
2.6054784856
 51
57.39452166
  0
ARC
  5
811
330
402
100
AcDbEntity
  8
0
  6
Continuous
 62
     7
370
    25
100
AcDbCircle
 10
1.9011775921
 20
-8.3322407474
 30
0.0
 40
0.0198007589958155
100
AcDbArc
 50
294.3746582936
 51
354.3052007488
  0
ARC
  5
812
330
402
100
AcDbEntity
  8
0
  6
Continuous
 62
     7
370
    25
100
AcDbCircle
 10
1.4754590316
 20
2.6612825274
 30
0.0
 40
0.1210253470796703
100
AcDbArc
 50
62.6096722366
 51
117.3903277634
  0
ARC
  5
813
330
402
100
AcDbEntity
  8
0
  6
Continuous
 62
     7
370
    25
100
AcDbCircle
 10
1.4754590316
 20
-7.6768245257
 30
0.0
 40
0.1210253470796639
100
AcDbArc
 50
62.6096722366
 51
117.3903277634
  0
ARC
  5
814
330
402
100
AcDbEntity
  8
0
  6
Continuous
 62
     7
370
    25
100
AcDbCircle
 10
1.1970705351
 20
2.8219927856
 30
0.0
 40
0.1210253470796706
100
AcDbArc
 50
62.6096722366
 51
117.3903277634
  0
ARC
  5
815
330
402
100
AcDbEntity
  8
0
  6
Continuous
 62
     7
370
    25
100
AcDbCircle
 10
1.1970705351
 20
-7.5161142675
 30
0.0
 40
0.1210253470796749
100
AcDbArc
 50
62.6096722366
 51
117.3903277634
  0
ARC
  5
816
330
402
100
AcDbEntity
  8
0
  6
Continuous
 62
     7
370
    25
100
AcDbCircle
 10
0.9186820385
 20
2.9827030439
 30
0.0
 40
0.1210253470796698
100
AcDbArc
 50
62.6096722366
 51
117.3903277634
  0
ARC
  5
817
330
402
100
AcDbEntity
  8
0
  6
Continuous
 62
     7
370
    25
100
AcDbCircle
 10
0.9186820385
 20
-7.3554040092
 30
0.0
 40
0.1210253470796686
100
AcDbArc
 50
62.6096722366
 51
117.3903277634
  0
ARC
  5
818
330
402
100
AcDbEntity
  8
0
  6
Continuous
 62
     7
370
    25
100
AcDbCircle
 10
0.640293542
 20
3.1434133021
 30
0.0
 40
0.1210253470796647
100
AcDbArc
 50
62.6096722366
 51
117.3903277634
  0
ARC
  5
819
330
402
100
AcDbEntity
  8
0
  6
Continuous
 62
     7
370
    25
100
AcDbCircle
 10
0.640293542
 20
-7.194693751
 30
0.0
 40
0.1210253470796639
100
AcDbArc
 50
62.6096722366
 51
117.3903277634
  0
ARC
  5
81A
330
402
100
AcDbEntity
  8
0
  6
Continuous
 62
     7
370
    25
100
AcDbCircle
 10
0.3619050455
 20
3.3041235603
 30
0.0
 40
0.121025347079669
100
AcDbArc
 50
62.6096722366
 51
117.3903277634
  0
ARC
  5
81B
330
402
100
AcDbEntity
  8
0
  6
Continuous
 62
     7
370
    25
100
AcDbCircle
 10
0.3619050455
 20
-7.0339834928
 30
0.0
 40
0.121025347079671
100
AcDbArc
 50
62.6096722366
 51
117.3903277634
  0
ARC
  5
81C
330
402
100
AcDbEntity
  8
0
  6
Continuous
 62
     7
370
    25
100
AcDbCircle
 10
0.224636173
 20
-6.7319097355
 30
0.0
 40
0.1411306471779173
100
AcDbArc
 50
180.7161138117
 51
245.3859923502
  0
ARC
  5
81D
330
402
100
AcDbEntity
  8
0
  6
Continuous
 62
     7
370
    25
100
AcDbCircle
 10
-0.0537523235
 20
-6.5711994773
 30
0.0
 40
0.1411306471779035
100
AcDbArc
 50
180.7161138117
 51
245.3859923502
  0
ARC
  5
81E
330
402
100
AcDbEntity
  8
0
  6
Continuous
 62
     7
370
    25
100
AcDbCircle
 10
-0.33214082
 20
-6.410489219
 30
0.0
 40
0.1411306471779999
100
AcDbArc
 50
180.7161138117
 51
245.38599235
  0
ARC
  5
81F
330
402
100
AcDbEntity
  8
0
  6
Continuous
 62
     7
370
    25
100
AcDbCircle
 10
-0.6105293166
 20
-6.2497789608
 30
0.0
 40
0.141130647177969
100
AcDbArc
 50
180.7161138117
 51
245.3859923501
  0
ARC
  5
820
330
402
100
AcDbEntity
  8
0
  6
Continuous
 62
     7
370
    25
100
AcDbCircle
 10
-0.8889178131
 20
-6.0890687026
 30
0.0
 40
0.1411306471779542
100
AcDbArc
 50
180.7161138117
 51
245.3859923501
  0
ARC
  5
821
330
402
100
AcDbEntity
  8
0
  6
Continuous
 62
     7
370
    25
100
AcDbCircle
 10
-1.1673063096
 20
-5.9283584443
 30
0.0
 40
0.141130647177985
100
AcDbArc
 50
180.7161138117
 51
245.3859923501
  0
ARC
  5
822
330
402
100
AcDbEntity
  8
0
  6
Continuous
 62
     7
370
    25
100
AcDbCircle
 10
-1.4456948062
 20
-5.7676481861
 30
0.0
 40
0.1411306471779511
100
AcDbArc
 50
180.7161138117
 51
245.3859923501
  0
ARC
  5
823
330
402
100
AcDbEntity
  8
0
  6
Continuous
 62
     7
370
    25
100
AcDbCircle
 10
-1.7240833027
 20
-5.6069379279
 30
0.0
 40
0.1411306471779569
100
AcDbArc
 50
180.7161138117
 51
245.3859923501
  0
ARC
  5
824
330
402
100
AcDbEntity
  8
0
  6
Continuous
 62
     7
370
    25
100
AcDbCircle
 10
-2.0024717992
 20
-5.4462276696
 30
0.0
 40
0.1411306471778792
100
AcDbArc
 50
180.7161138117
 51
245.3859923502
  0
ARC
  5
825
330
402
100
AcDbEntity
  8
0
  6
Continuous
 62
     7
370
    25
100
AcDbCircle
 10
-2.2808602958
 20
-5.2855174114
 30
0.0
 40
0.1411306471779944
100
AcDbArc
 50
180.7161138117
 51
245.3859923501
  0
ARC
  5
826
330
402
100
AcDbEntity
  8
0
  6
Continuous
 62
     7
370
    25
100
AcDbCircle
 10
-2.5592487923
 20
-5.1248071532
 30
0.0
 40
0.1411306471779278
100
AcDbArc
 50
180.7161138117
 51
245.3859923501
  0
ARC
  5
827
330
402
100
AcDbEntity
  8
0
  6
Continuous
 62
     7
370
    25
100
AcDbCircle
 10
-2.8376372888
 20
-4.9640968949
 30
0.0
 40
0.1411306471779319
100
AcDbArc
 50
180.7161138117
 51
245.3859923501
  0
ARC
  5
828
330
402
100
AcDbEntity
  8
0
  6
Continuous
 62
     7
370
    25
100
AcDbCircle
 10
-3.1160257853
 20
-4.8033866367
 30
0.0
 40
0.1411306471779055
100
AcDbArc
 50
180.7161138117
 51
245.3859923502
  0
ARC
  5
829
330
402
100
AcDbEntity
  8
0
  6
Continuous
 62
     7
370
    25
100
AcDbCircle
 10
-3.3944142819
 20
-4.6426763785
 30
0.0
 40
0.1411306471779308
100
AcDbArc
 50
180.7161138117
 51
245.3859923501
  0
ARC
  5
82A
330
402
100
AcDbEntity
  8
0
  6
Continuous
 62
     7
370
    25
100
AcDbCircle
 10
-3.6728027784
 20
-4.4819661202
 30
0.0
 40
0.1411306471779131
100
AcDbArc
 50
180.7161138117
 51
245.3859923502
  0
ARC
  5
82B
330
402
100
AcDbEntity
  8
0
  6
Continuous
 62
     7
370
    25
100
AcDbCircle
 10
-3.9511912749
 20
-4.321255862
 30
0.0
 40
0.1411306471779243
100
AcDbArc
 50
180.7161138117
 51
245.3859923501
  0
ARC
  5
82C
330
402
100
AcDbEntity
  8
0
  6
Continuous
 62
     7
370
    25
100
AcDbCircle
 10
-4.2295797715
 20
-4.1605456038
 30
0.0
 40
0.1411306471779136
100
AcDbArc
 50
180.7161138117
 51
245.3859923502
  0
ARC
  5
82D
330
402
100
AcDbEntity
  8
0
  6
Continuous
 62
     7
370
    25
100
AcDbCircle
 10
-4.507968268
 20
-3.9998353455
 30
0.0
 40
0.1411306471779824
100
AcDbArc
 50
180.7161138117
 51
245.3859923501
  0
ARC
  5
82E
330
402
100
AcDbEntity
  8
0
  6
Continuous
 62
     7
370
    25
100
AcDbCircle
 10
-4.7863567645
 20
-3.8391250873
 30
0.0
 40
0.141130647177943
100
AcDbArc
 50
180.7161138117
 51
245.3859923501
  0
ARC
  5
82F
330
402
100
AcDbEntity
  8
0
  6
Continuous
 62
     7
370
    25
100
AcDbCircle
 10
-5.0647452611
 20
-3.6784148291
 30
0.0
 40
0.1411306471779047
100
AcDbArc
 50
180.7161138117
 51
245.3859923502
  0
ARC
  5
830
330
402
100
AcDbEntity
  8
0
  6
Continuous
 62
     7
370
    25
100
AcDbCircle
 10
-5.3431337576
 20
-3.5177045708
 30
0.0
 40
0.1411306471779529
100
AcDbArc
 50
180.7161138117
 51
245.3859923501
  0
ARC
  5
831
330
402
100
AcDbEntity
  8
0
  6
Continuous
 62
     7
370
    25
100
AcDbCircle
 10
-5.6215222541
 20
-3.3569943126
 30
0.0
 40
0.1411306471779404
100
AcDbArc
 50
180.7161138117
 51
245.3859923501
  0
ARC
  5
832
330
402
100
AcDbEntity
  8
0
  6
Continuous
 62
     7
370
    25
100
AcDbCircle
 10
-5.8999107506
 20
-3.1962840544
 30
0.0
 40
0.1411306471779395
100
AcDbArc
 50
180.7161138117
 51
245.3859923501
  0
ARC
  5
833
330
402
100
AcDbEntity
  8
0
  6
Continuous
 62
     7
370
    25
100
AcDbCircle
 10
-6.1782992472
 20
-3.0355737961
 30
0.0
 40
0.1411306471780118
100
AcDbArc
 50
180.7161138117
 51
245.38599235
  0
ARC
  5
834
330
402
100
AcDbEntity
  8
0
  6
Continuous
 62
     7
370
    25
100
AcDbCircle
 10
-6.4566877437
 20
-2.8748635379
 30
0.0
 40
0.1411306471779244
100
AcDbArc
 50
180.7161138117
 51
245.3859923501
  0
ARC
  5
835
330
402
100
AcDbEntity
  8
0
  6
Continuous
 62
     7
370
    25
100
AcDbCircle
 10
-6.7350762402
 20
-2.7141532797
 30
0.0
 40
0.141130647177951
100
AcDbArc
 50
180.7161138117
 51
245.3859923501
  0
ARC
  5
836
330
402
100
AcDbEntity
  8
0
  6
Continuous
 62
     7
370
    25
100
AcDbCircle
 10
-7.0134647368
 20
-2.5534430214
 30
0.0
 40
0.1411306471778974
100
AcDbArc
 50
180.7161138117
 51
245.3859923502
  0
ARC
  5
837
330
402
100
AcDbEntity
  8
0
  6
Continuous
 62
     7
370
    25
100
AcDbCircle
 10
-7.2918532333
 20
-2.3927327632
 30
0.0
 40
0.1411306471778334
100
AcDbArc
 50
180.7161138117
 51
245.3859923502
  0
ARC
  5
838
330
402
100
AcDbEntity
  8
0
  6
Continuous
 62
     7
370
    25
100
AcDbCircle
 10
-7.5702417298
 20
-2.232022505
 30
0.0
 40
0.1411306471779966
100
AcDbArc
 50
180.7161138117
 51
245.3859923501
  0
ARC
  5
839
330
402
100
AcDbEntity
  8
0
  6
Continuous
 62
     7
370
    25
100
AcDbCircle
 10
-7.8486302264
 20
-2.0713122468
 30
0.0
 40
0.1411306471779001
100
AcDbArc
 50
180.7161138117
 51
245.3859923502
  0
ARC
  5
83A
330
402
100
AcDbEntity
  8
0
  6
Continuous
 62
     7
370
    25
100
AcDbCircle
 10
-8.1270187229
 20
-1.9106019885
 30
0.0
 40
0.1411306471780259
100
AcDbArc
 50
180.7161138117
 51
245.38599235
  0
ARC
  5
83B
330
402
100
AcDbEntity
  8
0
  6
Continuous
 62
     7
370
    25
100
AcDbCircle
 10
-8.4054072194
 20
-1.7498917303
 30
0.0
 40
0.1411306471779823
100
AcDbArc
 50
180.7161138117
 51
245.3859923501
  0
ARC
  5
83C
330
402
100
AcDbEntity
  8
0
  6
Continuous
 62
     7
370
    25
100
AcDbCircle
 10
-8.6837957159
 20
-1.5891814721
 30
0.0
 40
0.141130647177993
100
AcDbArc
 50
180.7161138117
 51
245.3859923501
  0
ARC
  5
83D
330
402
100
AcDbEntity
  8
0
  6
Continuous
 62
     7
370
    25
100
AcDbCircle
 10
-8.9621842125
 20
-1.4284712138
 30
0.0
 40
0.141130647177945
100
AcDbArc
 50
180.7161138117
 51
245.3859923501
  0
ARC
  5
83E
330
402
100
AcDbEntity
  8
0
  6
Continuous
 62
     7
370
    25
100
AcDbCircle
 10
-9.240572709
 20
-1.2677609556
 30
0.0
 40
0.141130647178002
100
AcDbArc
 50
180.7161138117
 51
245.38599235
  0
ARC
  5
83F
330
402
100
AcDbEntity
  8
0
  6
Continuous
 62
     7
370
    25
100
AcDbCircle
 10
-9.5189612055
 20
-1.1070506974
 30
0.0
 40
0.1411306471780698
100
AcDbArc
 50
180.7161138117
 51
245.38599235
  0
ARC
  5
840
330
402
100
AcDbEntity
  8
0
  6
Continuous
 62
     7
370
    25
100
AcDbCircle
 10
-9.7973497021
 20
-0.9463404391
 30
0.0
 40
0.1411306471779484
100
AcDbArc
 50
180.7161138117
 51
245.3859923501
  0
ARC
  5
841
330
402
100
AcDbEntity
  8
0
  6
Continuous
 62
     7
370
    25
100
AcDbCircle
 10
-10.0757381986
 20
-0.7856301809
 30
0.0
 40
0.1411306471781573
100
AcDbArc
 50
180.7161138117
 51
245.3859923499
  0
ARC
  5
842
330
402
100
AcDbEntity
  8
0
  6
Continuous
 62
     7
370
    25
100
AcDbCircle
 10
-10.3541266951
 20
-0.6249199227
 30
0.0
 40
0.1411306471778448
100
AcDbArc
 50
180.7161138117
 51
245.3859923502
  0
ARC
  5
843
330
402
100
AcDbEntity
  8
0
  6
Continuous
 62
     7
370
    25
100
AcDbCircle
 10
-10.6325151917
 20
-0.4642096644
 30
0.0
 40
0.1411306471779001
100
AcDbArc
 50
180.7161138117
 51
245.3859923502
  0
ARC
  5
844
330
402
100
AcDbEntity
  8
0
  6
Continuous
 62
     7
370
    25
100
AcDbCircle
 10
-10.9109036882
 20
-0.3034994062
 30
0.0
 40
0.1411306471779236
100
AcDbArc
 50
180.7161138117
 51
245.3859923501
  0
ARC
  5
845
330
402
100
AcDbEntity
  8
0
  6
Continuous
 62
     7
370
    25
100
AcDbCircle
 10
-11.1892921847
 20
-0.142789148
 30
0.0
 40
0.1411306471778162
100
AcDbArc
 50
180.7161138117
 51
245.3859923503
  0
ARC
  5
846
330
402
100
AcDbEntity
  8
0
  6
Continuous
 62
     7
370
    25
100
AcDbCircle
 10
-11.4676806812
 20
0.0179211103
 30
0.0
 40
0.141130647178018
100
AcDbArc
 50
180.7161138117
 51
245.38599235
  0
ARC
  5
847
330
402
100
AcDbEntity
  8
0
  6
Continuous
 62
     7
370
    25
100
AcDbCircle
 10
-11.7460691778
 20
0.1786313685
 30
0.0
 40
0.1411306471779019
100
AcDbArc
 50
180.7161138117
 51
245.3859923502
  0
ARC
  5
848
330
402
100
AcDbEntity
  8
0
  6
Continuous
 62
     7
370
    25
100
AcDbCircle
 10
-12.0244576743
 20
0.3393416267
 30
0.0
 40
0.1411306471778841
100
AcDbArc
 50
180.7161138117
 51
245.3859923502
  0
ARC
  5
849
330
402
100
AcDbEntity
  8
0
  6
Continuous
 62
     7
370
    25
100
AcDbCircle
 10
-12.3028461708
 20
0.500051885
 30
0.0
 40
0.1411306471779203
100
AcDbArc
 50
180.7161138117
 51
245.3859923501
  0
ARC
  5
84A
330
402
100
AcDbEntity
  8
0
  6
Continuous
 62
     7
370
    25
100
AcDbCircle
 10
-12.5812346674
 20
0.6607621432
 30
0.0
 40
0.1411306471779216
100
AcDbArc
 50
180.7161138117
 51
245.3859923501
  0
ARC
  5
84B
330
402
100
AcDbEntity
  8
0
  6
Continuous
 62
     7
370
    25
100
AcDbCircle
 10
-13.000742788
 20
11.0182159555
 30
0.0
 40
0.1210253470796669
100
AcDbArc
 50
62.6096722366
 51
117.3903277634
  0
ARC
  5
84C
330
402
100
AcDbEntity
  8
0
  6
Continuous
 62
     7
370
    25
100
AcDbCircle
 10
-13.000742788
 20
0.6801089024
 30
0.0
 40
0.1210253470796733
100
AcDbArc
 50
62.6096722366
 51
117.3903277634
  0
ARC
  5
84D
330
402
100
AcDbEntity
  8
0
  6
Continuous
 62
     7
370
    25
100
AcDbCircle
 10
-13.2791312845
 20
11.1789262137
 30
0.0
 40
0.1210253470796519
100
AcDbArc
 50
62.6096722366
 51
117.3903277634
  0
ARC
  5
84E
330
402
100
AcDbEntity
  8
0
  6
Continuous
 62
     7
370
    25
100
AcDbCircle
 10
-13.2791312845
 20
0.8408191606
 30
0.0
 40
0.121025347079667
100
AcDbArc
 50
62.6096722366
 51
117.3903277634
  0
ARC
  5
84F
330
402
100
AcDbEntity
  8
0
  6
Continuous
 62
     7
370
    25
100
AcDbCircle
 10
-13.557519781
 20
11.339636472
 30
0.0
 40
0.1210253470796748
100
AcDbArc
 50
62.6096722366
 51
117.3903277634
  0
ARC
  5
850
330
402
100
AcDbEntity
  8
0
  6
Continuous
 62
     7
370
    25
100
AcDbCircle
 10
-13.557519781
 20
1.0015294189
 30
0.0
 40
0.1210253470796687
100
AcDbArc
 50
62.6096722366
 51
117.3903277634
  0
ARC
  5
851
330
402
100
AcDbEntity
  8
0
  6
Continuous
 62
     7
370
    25
100
AcDbCircle
 10
-13.8359082775
 20
11.5003467302
 30
0.0
 40
0.1210253470796456
100
AcDbArc
 50
62.6096722366
 51
117.3903277634
  0
ARC
  5
852
330
402
100
AcDbEntity
  8
0
  6
Continuous
 62
     7
370
    25
100
AcDbCircle
 10
-13.8359082775
 20
1.1622396771
 30
0.0
 40
0.1210253470796738
100
AcDbArc
 50
62.6096722366
 51
117.3903277634
  0
ARC
  5
853
330
402
100
AcDbEntity
  8
0
  6
Continuous
 62
     7
370
    25
100
AcDbCircle
 10
-14.1142967741
 20
11.6610569884
 30
0.0
 40
0.1210253470796669
100
AcDbArc
 50
62.6096722366
 51
117.3903277634
  0
ARC
  5
854
330
402
100
AcDbEntity
  8
0
  6
Continuous
 62
     7
370
    25
100
AcDbCircle
 10
-14.1142967741
 20
1.3229499353
 30
0.0
 40
0.1210253470796762
100
AcDbArc
 50
62.6096722366
 51
117.3903277634
  0
ARC
  5
855
330
402
100
AcDbEntity
  8
0
  6
Continuous
 62
     8
370
    25
100
AcDbCircle
 10
2.0043961185
 20
4.9907379425
 30
0.0
 40
0.0198022533819623
100
AcDbArc
 50
54.3824225248
 51
114.3071190461
  0
ARC
  5
856
330
402
100
AcDbEntity
  8
0
  6
Continuous
 62
     8
370
    25
100
AcDbCircle
 10
14.1306033381
 20
11.9910483646
 30
0.0
 40
0.0198022533819454
100
AcDbArc
 50
54.3824225248
 51
114.3071190461
  0
ARC
  5
857
330
402
100
AcDbEntity
  8
0
  6
Continuous
 62
     8
370
    25
100
AcDbCircle
 10
2.0244758403
 20
-8.352400766
 30
0.0
 40
0.0194085799067197
100
AcDbArc
 50
305.0133328494
 51
6.298847544
  0
ARC
  5
858
330
402
100
AcDbEntity
  8
0
  6
Continuous
 62
     8
370
    25
100
AcDbCircle
 10
14.59666829
 20
-1.0952089421
 30
0.0
 40
0.0188789585190394
100
AcDbArc
 50
304.0563508293
 51
7.2558295641
  0
ARC
  5
859
330
402
100
AcDbEntity
  8
0
  6
Continuous
 62
     8
370
    25
100
AcDbCircle
 10
14.607224263
 20
11.7198271835
 30
0.0
 40
0.0198007589958261
100
AcDbArc
 50
294.3746582936
 51
354.3052007488
  0
ARC
  5
85A
330
402
100
AcDbEntity
  8
0
  6
Continuous
 62
     8
370
    25
100
AcDbCircle
 10
14.5990895038
 20
11.7339119515
 30
0.0
 40
0.0198022533819461
100
AcDbArc
 50
65.6928809539
 51
125.6175774752
  0
ARC
  5
85B
330
402
100
AcDbEntity
  8
0
  6
Continuous
 62
     8
370
    25
100
AcDbCircle
 10
14.607224263
 20
-1.0747886878
 30
0.0
 40
0.0198007589958213
100
AcDbArc
 50
294.3746582936
 51
354.3052007488
  0
ARC
  5
85C
330
402
100
AcDbEntity
  8
0
  6
Continuous
 62
     8
370
    25
100
AcDbCircle
 10
14.1536679094
 20
11.9910483646
 30
0.0
 40
0.0198022533819609
100
AcDbArc
 50
65.6928809539
 51
125.6175774752
  0
ARC
  5
85D
330
402
100
AcDbEntity
  8
0
  6
Continuous
 62
     8
370
    25
100
AcDbCircle
 10
-13.6014427288
 20
14.0321766823
 30
0.0
 40
0.064371089631685
100
AcDbArc
 50
269.8010454631
 51
284.4695382314
  0
ARC
  5
85E
330
402
100
AcDbEntity
  8
0
  6
Continuous
 62
     8
370
    25
100
AcDbCircle
 10
-13.6317253266
 20
13.9744916707
 30
0.0
 40
0.0567958712324768
100
AcDbArc
 50
28.8567998288
 51
58.0453714773
  0
ARC
  5
85F
330
402
100
AcDbEntity
  8
0
  6
Continuous
 62
     8
370
    25
100
AcDbCircle
 10
-14.5040417258
 20
14.0065834294
 30
0.0
 40
0.0198022533819804
100
AcDbArc
 50
54.3824225248
 51
114.3071190461
  0
ARC
  5
860
330
402
100
AcDbEntity
  8
0
  6
Continuous
 62
     8
370
    25
100
AcDbCircle
 10
-1.9324129117
 20
21.2640302647
 30
0.0
 40
0.0198022533819511
100
AcDbArc
 50
54.3824225248
 51
114.3071190461
  0
ARC
  5
861
330
402
100
AcDbEntity
  8
0
  6
Continuous
 62
     8
370
    25
100
AcDbCircle
 10
-1.4557919868
 20
20.9928090836
 30
0.0
 40
0.0198007589958206
100
AcDbArc
 50
294.3746582936
 51
354.3052007488
  0
ARC
  5
862
330
402
100
AcDbEntity
  8
0
  6
Continuous
 62
     8
370
    25
100
AcDbCircle
 10
-1.463926746
 20
21.0068938515
 30
0.0
 40
0.019802253381951
100
AcDbArc
 50
65.6928809539
 51
125.6175774752
  0
ARC
  5
863
330
402
100
AcDbEntity
  8
0
  6
Continuous
 62
     8
370
    25
100
AcDbCircle
 10
-1.9093483404
 20
21.2640302647
 30
0.0
 40
0.0198022533819479
100
AcDbArc
 50
65.6928809539
 51
125.6175774752
  0
VIEWPORT
  5
86A
330
402
100
AcDbEntity
  8
0
100
AcDbViewport
 10
0.0
 20
0.0
 30
0.0
 40
8.4
 41
6.4
 68
     1
 69
     1
 12
-3.937007874
 22
7.874015748
 13
0.0
 23
0.0
 14
0.5
 24
0.5
 15
0.5
 25
0.5
 16
0.0
 26
0.0
 36
1.0
 17
0.0
 27
0.0
 37
0.0
 42
50.0
 43
0.0
 44
0.0
 45
24.3239595051
 50
0.0
 51
0.0
 72
   100
 90
   557152
  1

281
     0
 71
     1
 74
     0
110
0.0
120
0.0
130
0.0
111
1.0
121
0.0
131
0.0
112
0.0
122
1.0
132
0.0
 79
     0
146
0.0
  0
ENDBLK
  5
405
330
402
100
AcDbEntity
  8
0
100
AcDbBlockEnd
  0
ENDSEC
  0
SECTION
  2
ENTITIES
  0
LINE
  5
1E1
330
1F
100
AcDbEntity
  8
0
  6
Continuous
 62
     7
370
    25
100
AcDbLine
 10
11.5781805684
 20
0.0
 30
0.0
 11
11.5781805684
 21
13.9600703322
 31
0.0
  0
LINE
  5
1E2
330
1F
100
AcDbEntity
  8
0
  6
Continuous
 62
     7
370
    25
100
AcDbLine
 10
-11.5781805684
 20
13.9600703322
 30
0.0
 11
-11.5781805684
 21
0.0
 31
0.0
  0
LINE
  5
1E3
330
1F
100
AcDbEntity
  8
0
  6
Continuous
 62
     7
370
    25
100
AcDbLine
 10
11.5781805684
 20
13.9600703322
 30
0.0
 11
-11.5781805684
 21
13.9600703322
 31
0.0
  0
LINE
  5
1E4
330
1F
100
AcDbEntity
  8
0
  6
Continuous
 62
     7
370
    25
100
AcDbLine
 10
11.7125984252
 20
15.7086614173
 30
0.0
 11
11.7125984252
 21
0.0393700787
 31
0.0
  0
LINE
  5
1E5
330
1F
100
AcDbEntity
  8
0
  6
Continuous
 62
     7
370
    25
100
AcDbLine
 10
11.5781805684
 20
0.0393700787
 30
0.0
 11
11.7125984252
 21
0.0393700787
 31
0.0
  0
LINE
  5
1E6
330
1F
100
AcDbEntity
  8
0
  6
Continuous
 62
     7
370
    25
100
AcDbLine
 10
11.6453894968
 20
0.0393700787
 30
0.0
 11
11.6453894968
 21
15.7086614173
 31
0.0
  0
LINE
  5
1E7
330
1F
100
AcDbEntity
  8
0
  6
Continuous
 62
     7
370
    25
100
AcDbLine
 10
11.7125984252
 20
15.7086614173
 30
0.0
 11
11.0039370079
 21
15.7086614173
 31
0.0
  0
LINE
  5
1E8
330
1F
100
AcDbEntity
  8
0
  6
Continuous
 62
     7
370
    25
100
AcDbLine
 10
11.0433070866
 20
15.7480314961
 30
0.0
 11
11.6732283465
 21
15.7480314961
 31
0.0
  0
LINE
  5
1E9
330
1F
100
AcDbEntity
  8
0
  6
Continuous
 62
     7
370
    25
100
AcDbLine
 10
-11.0039370079
 20
15.7480314961
 30
0.0
 11
-11.0039370079
 21
13.9600703322
 31
0.0
  0
LINE
  5
1EA
330
1F
100
AcDbEntity
  8
0
  6
Continuous
 62
     7
370
    25
100
AcDbLine
 10
11.0039370079
 20
13.9600703322
 30
0.0
 11
11.0039370079
 21
15.7480314961
 31
0.0
  0
LINE
  5
1EB
330
1F
100
AcDbEntity
  8
0
  6
Continuous
 62
     7
370
    25
100
AcDbLine
 10
11.0039370079
 20
15.7480314961
 30
0.0
 11
-11.0039370079
 21
15.7480314961
 31
0.0
  0
LINE
  5
1EC
330
1F
100
AcDbEntity
  8
0
  6
Continuous
 62
     7
370
    25
100
AcDbLine
 10
-11.6453894968
 20
15.7086614173
 30
0.0
 11
-11.6453894968
 21
0.0393700787
 31
0.0
  0
LINE
  5
1ED
330
1F
100
AcDbEntity
  8
0
  6
Continuous
 62
     7
370
    25
100
AcDbLine
 10
-11.7125984252
 20
0.0393700787
 30
0.0
 11
-11.5781805684
 21
0.0393700787
 31
0.0
  0
LINE
  5
1EE
330
1F
100
AcDbEntity
  8
0
  6
Continuous
 62
     7
370
    25
100
AcDbLine
 10
-11.0039370079
 20
15.7086614173
 30
0.0
 11
-11.7125984252
 21
15.7086614173
 31
0.0
  0
LINE
  5
1EF
330
1F
100
AcDbEntity
  8
0
  6
Continuous
 62
     7
370
    25
100
AcDbLine
 10
11.6732283465
 20
0.0
 30
0.0
 11
-11.6732283465
 21
0.0
 31
0.0
  0
LINE
  5
1F0
330
1F
100
AcDbEntity
  8
0
  6
Continuous
 62
     7
370
    25
100
AcDbLine
 10
-11.6732283465
 20
15.7480314961
 30
0.0
 11
-11.0433070866
 21
15.7480314961
 31
0.0
  0
LINE
  5
1F1
330
1F
100
AcDbEntity
  8
0
  6
Continuous
 62
     7
370
    25
100
AcDbLine
 10
-18.9566929134
 20
15.1181102362
 30
0.0
 11
-18.9566929134
 21
0.6299212598
 31
0.0
  0
LINE
  5
1F2
330
1F
100
AcDbEntity
  8
0
  6
Continuous
 62
     7
370
    25
100
AcDbLine
 10
-18.9566929134
 20
0.6299212598
 30
0.0
 11
-12.342519685
 21
0.6299212598
 31
0.0
  0
LINE
  5
1F3
330
1F
100
AcDbEntity
  8
0
  6
Continuous
 62
     7
370
    25
100
AcDbLine
 10
-19.5866141732
 20
0.0
 30
0.0
 11
-11.7125984252
 21
0.0
 31
0.0
  0
LINE
  5
1F4
330
1F
100
AcDbEntity
  8
0
  6
Continuous
 62
     7
370
    25
100
AcDbLine
 10
-11.7125984252
 20
0.0
 30
0.0
 11
-11.7125984252
 21
15.7480314961
 31
0.0
  0
LINE
  5
1F5
330
1F
100
AcDbEntity
  8
0
  6
Continuous
 62
     7
370
    25
100
AcDbLine
 10
-19.5866141732
 20
15.7480314961
 30
0.0
 11
-19.5866141732
 21
0.0
 31
0.0
  0
LINE
  5
1F6
330
1F
100
AcDbEntity
  8
0
  6
Continuous
 62
     7
370
    25
100
AcDbLine
 10
-11.7125984252
 20
15.7480314961
 30
0.0
 11
-19.5866141732
 21
15.7480314961
 31
0.0
  0
LINE
  5
1F7
330
1F
100
AcDbEntity
  8
0
  6
Continuous
 62
     7
370
    25
100
AcDbLine
 10
-12.342519685
 20
15.1181102362
 30
0.0
 11
-18.9566929134
 21
15.1181102362
 31
0.0
  0
LINE
  5
1F8
330
1F
100
AcDbEntity
  8
0
  6
Continuous
 62
     7
370
    25
100
AcDbLine
 10
-12.342519685
 20
0.6299212598
 30
0.0
 11
-12.342519685
 21
15.1181102362
 31
0.0
  0
LINE
  5
1F9
330
1F
100
AcDbEntity
  8
0
  6
Continuous
 62
     7
370
    25
100
AcDbLine
 10
-12.342519685
 20
7.5590551181
 30
0.0
 11
-18.9566929134
 21
7.5590551181
 31
0.0
  0
LINE
  5
1FA
330
1F
100
AcDbEntity
  8
0
  6
Continuous
 62
     7
370
    25
100
AcDbLine
 10
-12.342519685
 20
8.188976378
 30
0.0
 11
-18.9566929134
 21
8.188976378
 31
0.0
  0
LINE
  5
1FB
330
1F
100
AcDbEntity
  8
0
  6
Continuous
 62
     7
370
    25
100
AcDbLine
 10
11.5388104897
 20
0.0393700787
 30
0.0
 11
11.5781805684
 21
0.0
 31
0.0
  0
LINE
  5
1FC
330
1F
100
AcDbEntity
  8
0
  6
Continuous
 62
     7
370
    25
100
AcDbLine
 10
11.5388104897
 20
0.0393700787
 30
0.0
 11
11.5388104897
 21
13.9207002534
 31
0.0
  0
LINE
  5
1FD
330
1F
100
AcDbEntity
  8
0
  6
Continuous
 62
     7
370
    25
100
AcDbLine
 10
11.5388104897
 20
13.9207002534
 30
0.0
 11
11.5781805684
 21
13.9600703322
 31
0.0
  0
LINE
  5
1FE
330
1F
100
AcDbEntity
  8
0
  6
Continuous
 62
     7
370
    25
100
AcDbLine
 10
11.0039370079
 20
13.310464033
 30
0.0
 11
11.0039370079
 21
0.6496062992
 31
0.0
  0
LINE
  5
1FF
330
1F
100
AcDbEntity
  8
0
  6
Continuous
 62
     7
370
    25
100
AcDbLine
 10
10.9251968504
 20
0.6496062992
 30
0.0
 11
11.0039370079
 21
0.6496062992
 31
0.0
  0
LINE
  5
200
330
1F
100
AcDbEntity
  8
0
  6
Continuous
 62
     7
370
    25
100
AcDbLine
 10
10.9251968504
 20
13.310464033
 30
0.0
 11
10.9251968504
 21
0.6496062992
 31
0.0
  0
LINE
  5
201
330
1F
100
AcDbEntity
  8
0
  6
Continuous
 62
     7
370
    25
100
AcDbLine
 10
11.0039370079
 20
13.310464033
 30
0.0
 11
10.9251968504
 21
13.310464033
 31
0.0
  0
LINE
  5
202
330
1F
100
AcDbEntity
  8
0
  6
Continuous
 62
     7
370
    25
100
AcDbLine
 10
-10.2559055118
 20
13.310464033
 30
0.0
 11
-10.2559055118
 21
0.6496062992
 31
0.0
  0
LINE
  5
203
330
1F
100
AcDbEntity
  8
0
  6
Continuous
 62
     7
370
    25
100
AcDbLine
 10
-10.2559055118
 20
0.6496062992
 30
0.0
 11
-10.3346456693
 21
0.6496062992
 31
0.0
  0
LINE
  5
204
330
1F
100
AcDbEntity
  8
0
  6
Continuous
 62
     7
370
    25
100
AcDbLine
 10
-10.3346456693
 20
13.310464033
 30
0.0
 11
-10.3346456693
 21
0.6496062992
 31
0.0
  0
LINE
  5
205
330
1F
100
AcDbEntity
  8
0
  6
Continuous
 62
     7
370
    25
100
AcDbLine
 10
-10.3346456693
 20
13.310464033
 30
0.0
 11
-10.2559055118
 21
13.310464033
 31
0.0
  0
LINE
  5
206
330
1F
100
AcDbEntity
  8
0
  6
Continuous
 62
     7
370
    25
100
AcDbLine
 10
10.2165354331
 20
13.310464033
 30
0.0
 11
10.1377952756
 21
13.310464033
 31
0.0
  0
LINE
  5
207
330
1F
100
AcDbEntity
  8
0
  6
Continuous
 62
     7
370
    25
100
AcDbLine
 10
10.3346456693
 20
13.310464033
 30
0.0
 11
10.2559055118
 21
13.310464033
 31
0.0
  0
LINE
  5
208
330
1F
100
AcDbEntity
  8
0
  6
Continuous
 62
     7
370
    25
100
AcDbLine
 10
9.8228346457
 20
13.310464033
 30
0.0
 11
9.8228346457
 21
0.6496062992
 31
0.0
  0
LINE
  5
209
330
1F
100
AcDbEntity
  8
0
  6
Continuous
 62
     7
370
    25
100
AcDbLine
 10
9.8228346457
 20
0.6496062992
 30
0.0
 11
9.7440944882
 21
0.6496062992
 31
0.0
  0
LINE
  5
20A
330
1F
100
AcDbEntity
  8
0
  6
Continuous
 62
     7
370
    25
100
AcDbLine
 10
9.7440944882
 20
13.310464033
 30
0.0
 11
9.7440944882
 21
0.6496062992
 31
0.0
  0
LINE
  5
20B
330
1F
100
AcDbEntity
  8
0
  6
Continuous
 62
     7
370
    25
100
AcDbLine
 10
9.8228346457
 20
13.310464033
 30
0.0
 11
9.7440944882
 21
13.310464033
 31
0.0
  0
LINE
  5
20C
330
1F
100
AcDbEntity
  8
0
  6
Continuous
 62
     7
370
    25
100
AcDbLine
 10
9.9409448819
 20
0.6496062992
 30
0.0
 11
9.9409448819
 21
13.310464033
 31
0.0
  0
LINE
  5
20D
330
1F
100
AcDbEntity
  8
0
  6
Continuous
 62
     7
370
    25
100
AcDbLine
 10
9.9409448819
 20
0.6496062992
 30
0.0
 11
9.8622047244
 21
0.6496062992
 31
0.0
  0
LINE
  5
20E
330
1F
100
AcDbEntity
  8
0
  6
Continuous
 62
     7
370
    25
100
AcDbLine
 10
9.8622047244
 20
0.6496062992
 30
0.0
 11
9.8622047244
 21
13.310464033
 31
0.0
  0
LINE
  5
20F
330
1F
100
AcDbEntity
  8
0
  6
Continuous
 62
     7
370
    25
100
AcDbLine
 10
9.9409448819
 20
13.310464033
 30
0.0
 11
9.8622047244
 21
13.310464033
 31
0.0
  0
LINE
  5
210
330
1F
100
AcDbEntity
  8
0
  6
Continuous
 62
     7
370
    25
100
AcDbLine
 10
-11.5388104897
 20
0.0393700787
 30
0.0
 11
11.5388104897
 21
0.0393700787
 31
0.0
  0
LINE
  5
211
330
1F
100
AcDbEntity
  8
0
  6
Continuous
 62
     7
370
    25
100
AcDbLine
 10
-11.5388104897
 20
13.9207002534
 30
0.0
 11
-11.5388104897
 21
0.0393700787
 31
0.0
  0
LINE
  5
212
330
1F
100
AcDbEntity
  8
0
  6
Continuous
 62
     7
370
    25
100
AcDbLine
 10
11.5388104897
 20
13.9207002534
 30
0.0
 11
-11.5388104897
 21
13.9207002534
 31
0.0
  0
LINE
  5
213
330
1F
100
AcDbEntity
  8
0
  6
Continuous
 62
     7
370
    25
100
AcDbLine
 10
10.531496063
 20
13.310464033
 30
0.0
 11
10.531496063
 21
0.6496062992
 31
0.0
  0
LINE
  5
214
330
1F
100
AcDbEntity
  8
0
  6
Continuous
 62
     7
370
    25
100
AcDbLine
 10
10.7283464567
 20
0.6496062992
 30
0.0
 11
10.7283464567
 21
13.310464033
 31
0.0
  0
LINE
  5
215
330
1F
100
AcDbEntity
  8
0
  6
Continuous
 62
     7
370
    25
100
AcDbLine
 10
0.0984251969
 20
0.6496062992
 30
0.0
 11
0.0984251969
 21
13.310464033
 31
0.0
  0
LINE
  5
216
330
1F
100
AcDbEntity
  8
0
  6
Continuous
 62
     7
370
    25
100
AcDbLine
 10
-0.4921259843
 20
13.310464033
 30
0.0
 11
-0.4921259843
 21
0.6496062992
 31
0.0
  0
LINE
  5
217
330
1F
100
AcDbEntity
  8
0
  6
Continuous
 62
     7
370
    25
100
AcDbLine
 10
0.688976378
 20
13.310464033
 30
0.0
 11
0.688976378
 21
0.6496062992
 31
0.0
  0
LINE
  5
218
330
1F
100
AcDbEntity
  8
0
  6
Continuous
 62
     7
370
    25
100
AcDbLine
 10
0.2952755906
 20
13.310464033
 30
0.0
 11
0.2952755906
 21
0.6496062992
 31
0.0
  0
LINE
  5
219
330
1F
100
AcDbEntity
  8
0
  6
Continuous
 62
     7
370
    25
100
AcDbLine
 10
-1.4763779528
 20
0.6496062992
 30
0.0
 11
-1.4763779528
 21
13.310464033
 31
0.0
  0
LINE
  5
21A
330
1F
100
AcDbEntity
  8
0
  6
Continuous
 62
     7
370
    25
100
AcDbLine
 10
-2.0669291339
 20
13.310464033
 30
0.0
 11
-2.0669291339
 21
0.6496062992
 31
0.0
  0
LINE
  5
21B
330
1F
100
AcDbEntity
  8
0
  6
Continuous
 62
     7
370
    25
100
AcDbLine
 10
-1.8700787402
 20
0.6496062992
 30
0.0
 11
-1.8700787402
 21
13.310464033
 31
0.0
  0
LINE
  5
21C
330
1F
100
AcDbEntity
  8
0
  6
Continuous
 62
     7
370
    25
100
AcDbLine
 10
-0.688976378
 20
0.6496062992
 30
0.0
 11
-0.688976378
 21
13.310464033
 31
0.0
  0
LINE
  5
21D
330
1F
100
AcDbEntity
  8
0
  6
Continuous
 62
     7
370
    25
100
AcDbLine
 10
-0.8858267717
 20
13.310464033
 30
0.0
 11
-0.8858267717
 21
0.6496062992
 31
0.0
  0
LINE
  5
21E
330
1F
100
AcDbEntity
  8
0
  6
Continuous
 62
     7
370
    25
100
AcDbLine
 10
-1.0826771654
 20
0.6496062992
 30
0.0
 11
-1.0826771654
 21
13.310464033
 31
0.0
  0
LINE
  5
21F
330
1F
100
AcDbEntity
  8
0
  6
Continuous
 62
     7
370
    25
100
AcDbLine
 10
-1.2795275591
 20
13.310464033
 30
0.0
 11
-1.2795275591
 21
0.6496062992
 31
0.0
  0
LINE
  5
220
330
1F
100
AcDbEntity
  8
0
  6
Continuous
 62
     7
370
    25
100
AcDbLine
 10
-10.9251968504
 20
0.6496062992
 30
0.0
 11
-10.9251968504
 21
13.310464033
 31
0.0
  0
LINE
  5
221
330
1F
100
AcDbEntity
  8
0
  6
Continuous
 62
     7
370
    25
100
AcDbLine
 10
-11.1220472441
 20
13.310464033
 30
0.0
 11
-11.1220472441
 21
0.6496062992
 31
0.0
  0
LINE
  5
222
330
1F
100
AcDbEntity
  8
0
  6
Continuous
 62
     7
370
    25
100
AcDbLine
 10
11.1220472441
 20
0.6496062992
 30
0.0
 11
11.1220472441
 21
13.310464033
 31
0.0
  0
LINE
  5
223
330
1F
100
AcDbEntity
  8
0
  6
Continuous
 62
     7
370
    25
100
AcDbLine
 10
-3.2480314961
 20
13.310464033
 30
0.0
 11
-3.2480314961
 21
0.6496062992
 31
0.0
  0
LINE
  5
224
330
1F
100
AcDbEntity
  8
0
  6
Continuous
 62
     7
370
    25
100
AcDbLine
 10
-3.0511811024
 20
0.6496062992
 30
0.0
 11
-3.0511811024
 21
13.310464033
 31
0.0
  0
LINE
  5
225
330
1F
100
AcDbEntity
  8
0
  6
Continuous
 62
     7
370
    25
100
AcDbLine
 10
-3.4448818898
 20
0.6496062992
 30
0.0
 11
-3.4448818898
 21
13.310464033
 31
0.0
  0
LINE
  5
226
330
1F
100
AcDbEntity
  8
0
  6
Continuous
 62
     7
370
    25
100
AcDbLine
 10
-3.6417322835
 20
13.310464033
 30
0.0
 11
-3.6417322835
 21
0.6496062992
 31
0.0
  0
LINE
  5
227
330
1F
100
AcDbEntity
  8
0
  6
Continuous
 62
     7
370
    25
100
AcDbLine
 10
-9.9409448819
 20
13.310464033
 30
0.0
 11
-9.9409448819
 21
0.6496062992
 31
0.0
  0
LINE
  5
228
330
1F
100
AcDbEntity
  8
0
  6
Continuous
 62
     7
370
    25
100
AcDbLine
 10
-9.7440944882
 20
0.6496062992
 30
0.0
 11
-9.7440944882
 21
13.310464033
 31
0.0
  0
LINE
  5
229
330
1F
100
AcDbEntity
  8
0
  6
Continuous
 62
     7
370
    25
100
AcDbLine
 10
-9.3503937008
 20
0.6496062992
 30
0.0
 11
-9.3503937008
 21
13.310464033
 31
0.0
  0
LINE
  5
22A
330
1F
100
AcDbEntity
  8
0
  6
Continuous
 62
     7
370
    25
100
AcDbLine
 10
-9.5472440945
 20
13.310464033
 30
0.0
 11
-9.5472440945
 21
0.6496062992
 31
0.0
  0
LINE
  5
22B
330
1F
100
AcDbEntity
  8
0
  6
Continuous
 62
     7
370
    25
100
AcDbLine
 10
-10.531496063
 20
0.6496062992
 30
0.0
 11
-10.531496063
 21
13.310464033
 31
0.0
  0
LINE
  5
22C
330
1F
100
AcDbEntity
  8
0
  6
Continuous
 62
     7
370
    25
100
AcDbLine
 10
-10.7283464567
 20
13.310464033
 30
0.0
 11
-10.7283464567
 21
0.6496062992
 31
0.0
  0
LINE
  5
22D
330
1F
100
AcDbEntity
  8
0
  6
Continuous
 62
     7
370
    25
100
AcDbLine
 10
-10.1377952756
 20
0.6496062992
 30
0.0
 11
-10.1377952756
 21
13.310464033
 31
0.0
  0
LINE
  5
22E
330
1F
100
AcDbEntity
  8
0
  6
Continuous
 62
     7
370
    25
100
AcDbLine
 10
-5.2165354331
 20
13.310464033
 30
0.0
 11
-5.2165354331
 21
0.6496062992
 31
0.0
  0
LINE
  5
22F
330
1F
100
AcDbEntity
  8
0
  6
Continuous
 62
     7
370
    25
100
AcDbLine
 10
-4.8228346457
 20
13.310464033
 30
0.0
 11
-4.8228346457
 21
0.6496062992
 31
0.0
  0
LINE
  5
230
330
1F
100
AcDbEntity
  8
0
  6
Continuous
 62
     7
370
    25
100
AcDbLine
 10
-4.625984252
 20
0.6496062992
 30
0.0
 11
-4.625984252
 21
13.310464033
 31
0.0
  0
LINE
  5
231
330
1F
100
AcDbEntity
  8
0
  6
Continuous
 62
     7
370
    25
100
AcDbLine
 10
-6.0039370079
 20
13.310464033
 30
0.0
 11
-6.0039370079
 21
0.6496062992
 31
0.0
  0
LINE
  5
232
330
1F
100
AcDbEntity
  8
0
  6
Continuous
 62
     7
370
    25
100
AcDbLine
 10
-5.6102362205
 20
13.310464033
 30
0.0
 11
-5.6102362205
 21
0.6496062992
 31
0.0
  0
LINE
  5
233
330
1F
100
AcDbEntity
  8
0
  6
Continuous
 62
     7
370
    25
100
AcDbLine
 10
-2.8543307087
 20
13.310464033
 30
0.0
 11
-2.8543307087
 21
0.6496062992
 31
0.0
  0
LINE
  5
234
330
1F
100
AcDbEntity
  8
0
  6
Continuous
 62
     7
370
    25
100
AcDbLine
 10
-2.4606299213
 20
13.310464033
 30
0.0
 11
-2.4606299213
 21
0.6496062992
 31
0.0
  0
LINE
  5
235
330
1F
100
AcDbEntity
  8
0
  6
Continuous
 62
     7
370
    25
100
AcDbLine
 10
9.3503937008
 20
13.310464033
 30
0.0
 11
9.3503937008
 21
0.6496062992
 31
0.0
  0
LINE
  5
236
330
1F
100
AcDbEntity
  8
0
  6
Continuous
 62
     7
370
    25
100
AcDbLine
 10
9.5472440945
 20
0.6496062992
 30
0.0
 11
9.5472440945
 21
13.310464033
 31
0.0
  0
LINE
  5
237
330
1F
100
AcDbEntity
  8
0
  6
Continuous
 62
     7
370
    25
100
AcDbLine
 10
10.1377952756
 20
13.310464033
 30
0.0
 11
10.1377952756
 21
0.6496062992
 31
0.0
  0
LINE
  5
238
330
1F
100
AcDbEntity
  8
0
  6
Continuous
 62
     7
370
    25
100
AcDbLine
 10
10.3346456693
 20
0.6496062992
 30
0.0
 11
10.3346456693
 21
13.310464033
 31
0.0
  0
LINE
  5
239
330
1F
100
AcDbEntity
  8
0
  6
Continuous
 62
     7
370
    25
100
AcDbLine
 10
2.0669291339
 20
0.6496062992
 30
0.0
 11
2.0669291339
 21
13.310464033
 31
0.0
  0
LINE
  5
23A
330
1F
100
AcDbEntity
  8
0
  6
Continuous
 62
     7
370
    25
100
AcDbLine
 10
1.8700787402
 20
13.310464033
 30
0.0
 11
1.8700787402
 21
0.6496062992
 31
0.0
  0
LINE
  5
23B
330
1F
100
AcDbEntity
  8
0
  6
Continuous
 62
     7
370
    25
100
AcDbLine
 10
4.0354330709
 20
0.6496062992
 30
0.0
 11
4.0354330709
 21
13.310464033
 31
0.0
  0
LINE
  5
23C
330
1F
100
AcDbEntity
  8
0
  6
Continuous
 62
     7
370
    25
100
AcDbLine
 10
3.8385826772
 20
13.310464033
 30
0.0
 11
3.8385826772
 21
0.6496062992
 31
0.0
  0
LINE
  5
23D
330
1F
100
AcDbEntity
  8
0
  6
Continuous
 62
     7
370
    25
100
AcDbLine
 10
6.7913385827
 20
0.6496062992
 30
0.0
 11
6.7913385827
 21
13.310464033
 31
0.0
  0
LINE
  5
23E
330
1F
100
AcDbEntity
  8
0
  6
Continuous
 62
     7
370
    25
100
AcDbLine
 10
3.6417322835
 20
0.6496062992
 30
0.0
 11
3.6417322835
 21
13.310464033
 31
0.0
  0
LINE
  5
23F
330
1F
100
AcDbEntity
  8
0
  6
Continuous
 62
     7
370
    25
100
AcDbLine
 10
-7.7755905512
 20
0.6496062992
 30
0.0
 11
-7.7755905512
 21
13.310464033
 31
0.0
  0
LINE
  5
240
330
1F
100
AcDbEntity
  8
0
  6
Continuous
 62
     7
370
    25
100
AcDbLine
 10
-7.9724409449
 20
13.310464033
 30
0.0
 11
-7.9724409449
 21
0.6496062992
 31
0.0
  0
LINE
  5
241
330
1F
100
AcDbEntity
  8
0
  6
Continuous
 62
     7
370
    25
100
AcDbLine
 10
-9.1535433071
 20
13.310464033
 30
0.0
 11
-9.1535433071
 21
0.6496062992
 31
0.0
  0
LINE
  5
242
330
1F
100
AcDbEntity
  8
0
  6
Continuous
 62
     7
370
    25
100
AcDbLine
 10
-8.9566929134
 20
0.6496062992
 30
0.0
 11
-8.9566929134
 21
13.310464033
 31
0.0
  0
LINE
  5
243
330
1F
100
AcDbEntity
  8
0
  6
Continuous
 62
     7
370
    25
100
AcDbLine
 10
-8.562992126
 20
0.6496062992
 30
0.0
 11
-8.562992126
 21
13.310464033
 31
0.0
  0
LINE
  5
244
330
1F
100
AcDbEntity
  8
0
  6
Continuous
 62
     7
370
    25
100
AcDbLine
 10
-8.7598425197
 20
13.310464033
 30
0.0
 11
-8.7598425197
 21
0.6496062992
 31
0.0
  0
LINE
  5
245
330
1F
100
AcDbEntity
  8
0
  6
Continuous
 62
     7
370
    25
100
AcDbLine
 10
-6.7913385827
 20
13.310464033
 30
0.0
 11
-6.7913385827
 21
0.6496062992
 31
0.0
  0
LINE
  5
246
330
1F
100
AcDbEntity
  8
0
  6
Continuous
 62
     7
370
    25
100
AcDbLine
 10
-6.594488189
 20
0.6496062992
 30
0.0
 11
-6.594488189
 21
13.310464033
 31
0.0
  0
LINE
  5
247
330
1F
100
AcDbEntity
  8
0
  6
Continuous
 62
     7
370
    25
100
AcDbLine
 10
-6.3976377953
 20
13.310464033
 30
0.0
 11
-6.3976377953
 21
0.6496062992
 31
0.0
  0
LINE
  5
248
330
1F
100
AcDbEntity
  8
0
  6
Continuous
 62
     7
370
    25
100
AcDbLine
 10
-6.2007874016
 20
0.6496062992
 30
0.0
 11
-6.2007874016
 21
13.310464033
 31
0.0
  0
LINE
  5
249
330
1F
100
AcDbEntity
  8
0
  6
Continuous
 62
     7
370
    25
100
AcDbLine
 10
-7.5787401575
 20
13.310464033
 30
0.0
 11
-7.5787401575
 21
0.6496062992
 31
0.0
  0
LINE
  5
24A
330
1F
100
AcDbEntity
  8
0
  6
Continuous
 62
     7
370
    25
100
AcDbLine
 10
-7.3818897638
 20
0.6496062992
 30
0.0
 11
-7.3818897638
 21
13.310464033
 31
0.0
  0
LINE
  5
24B
330
1F
100
AcDbEntity
  8
0
  6
Continuous
 62
     7
370
    25
100
AcDbLine
 10
-7.1850393701
 20
13.310464033
 30
0.0
 11
-7.1850393701
 21
0.6496062992
 31
0.0
  0
LINE
  5
24C
330
1F
100
AcDbEntity
  8
0
  6
Continuous
 62
     7
370
    25
100
AcDbLine
 10
-8.1692913386
 20
0.6496062992
 30
0.0
 11
-8.1692913386
 21
13.310464033
 31
0.0
  0
LINE
  5
24D
330
1F
100
AcDbEntity
  8
0
  6
Continuous
 62
     7
370
    25
100
AcDbLine
 10
-8.3661417323
 20
13.310464033
 30
0.0
 11
-8.3661417323
 21
0.6496062992
 31
0.0
  0
LINE
  5
24E
330
1F
100
AcDbEntity
  8
0
  6
Continuous
 62
     7
370
    25
100
AcDbLine
 10
7.9724409449
 20
0.6496062992
 30
0.0
 11
7.9724409449
 21
13.310464033
 31
0.0
  0
LINE
  5
24F
330
1F
100
AcDbEntity
  8
0
  6
Continuous
 62
     7
370
    25
100
AcDbLine
 10
7.1850393701
 20
0.6496062992
 30
0.0
 11
7.1850393701
 21
13.310464033
 31
0.0
  0
LINE
  5
250
330
1F
100
AcDbEntity
  8
0
  6
Continuous
 62
     7
370
    25
100
AcDbLine
 10
8.562992126
 20
13.310464033
 30
0.0
 11
8.562992126
 21
0.6496062992
 31
0.0
  0
LINE
  5
251
330
1F
100
AcDbEntity
  8
0
  6
Continuous
 62
     7
370
    25
100
AcDbLine
 10
8.7598425197
 20
0.6496062992
 30
0.0
 11
8.7598425197
 21
13.310464033
 31
0.0
  0
LINE
  5
252
330
1F
100
AcDbEntity
  8
0
  6
Continuous
 62
     7
370
    25
100
AcDbLine
 10
-2.657480315
 20
0.6496062992
 30
0.0
 11
-2.657480315
 21
13.310464033
 31
0.0
  0
LINE
  5
253
330
1F
100
AcDbEntity
  8
0
  6
Continuous
 62
     7
370
    25
100
AcDbLine
 10
8.1692913386
 20
13.310464033
 30
0.0
 11
8.1692913386
 21
0.6496062992
 31
0.0
  0
LINE
  5
254
330
1F
100
AcDbEntity
  8
0
  6
Continuous
 62
     7
370
    25
100
AcDbLine
 10
8.3661417323
 20
0.6496062992
 30
0.0
 11
8.3661417323
 21
13.310464033
 31
0.0
  0
LINE
  5
255
330
1F
100
AcDbEntity
  8
0
  6
Continuous
 62
     7
370
    25
100
AcDbLine
 10
-5.4133858268
 20
0.6496062992
 30
0.0
 11
-5.4133858268
 21
13.310464033
 31
0.0
  0
LINE
  5
256
330
1F
100
AcDbEntity
  8
0
  6
Continuous
 62
     7
370
    25
100
AcDbLine
 10
4.2322834646
 20
13.310464033
 30
0.0
 11
4.2322834646
 21
0.6496062992
 31
0.0
  0
LINE
  5
257
330
1F
100
AcDbEntity
  8
0
  6
Continuous
 62
     7
370
    25
100
AcDbLine
 10
4.4291338583
 20
0.6496062992
 30
0.0
 11
4.4291338583
 21
13.310464033
 31
0.0
  0
LINE
  5
258
330
1F
100
AcDbEntity
  8
0
  6
Continuous
 62
     7
370
    25
100
AcDbLine
 10
-5.8070866142
 20
0.6496062992
 30
0.0
 11
-5.8070866142
 21
13.310464033
 31
0.0
  0
LINE
  5
259
330
1F
100
AcDbEntity
  8
0
  6
Continuous
 62
     7
370
    25
100
AcDbLine
 10
3.4448818898
 20
13.310464033
 30
0.0
 11
3.4448818898
 21
0.6496062992
 31
0.0
  0
LINE
  5
25A
330
1F
100
AcDbEntity
  8
0
  6
Continuous
 62
     7
370
    25
100
AcDbLine
 10
8.9566929134
 20
13.310464033
 30
0.0
 11
8.9566929134
 21
0.6496062992
 31
0.0
  0
LINE
  5
25B
330
1F
100
AcDbEntity
  8
0
  6
Continuous
 62
     7
370
    25
100
AcDbLine
 10
6.594488189
 20
13.310464033
 30
0.0
 11
6.594488189
 21
0.6496062992
 31
0.0
  0
LINE
  5
25C
330
1F
100
AcDbEntity
  8
0
  6
Continuous
 62
     7
370
    25
100
AcDbLine
 10
-0.2952755906
 20
0.6496062992
 30
0.0
 11
-0.2952755906
 21
13.310464033
 31
0.0
  0
LINE
  5
25D
330
1F
100
AcDbEntity
  8
0
  6
Continuous
 62
     7
370
    25
100
AcDbLine
 10
-5.0196850394
 20
0.6496062992
 30
0.0
 11
-5.0196850394
 21
13.310464033
 31
0.0
  0
LINE
  5
25E
330
1F
100
AcDbEntity
  8
0
  6
Continuous
 62
     7
370
    25
100
AcDbLine
 10
5.4133858268
 20
13.310464033
 30
0.0
 11
5.4133858268
 21
0.6496062992
 31
0.0
  0
LINE
  5
25F
330
1F
100
AcDbEntity
  8
0
  6
Continuous
 62
     7
370
    25
100
AcDbLine
 10
5.6102362205
 20
0.6496062992
 30
0.0
 11
5.6102362205
 21
13.310464033
 31
0.0
  0
LINE
  5
260
330
1F
100
AcDbEntity
  8
0
  6
Continuous
 62
     7
370
    25
100
AcDbLine
 10
2.8543307087
 20
0.6496062992
 30
0.0
 11
2.8543307087
 21
13.310464033
 31
0.0
  0
LINE
  5
261
330
1F
100
AcDbEntity
  8
0
  6
Continuous
 62
     7
370
    25
100
AcDbLine
 10
2.657480315
 20
13.310464033
 30
0.0
 11
2.657480315
 21
0.6496062992
 31
0.0
  0
LINE
  5
262
330
1F
100
AcDbEntity
  8
0
  6
Continuous
 62
     7
370
    25
100
AcDbLine
 10
5.0196850394
 20
13.310464033
 30
0.0
 11
5.0196850394
 21
0.6496062992
 31
0.0
  0
LINE
  5
263
330
1F
100
AcDbEntity
  8
0
  6
Continuous
 62
     7
370
    25
100
AcDbLine
 10
5.2165354331
 20
0.6496062992
 30
0.0
 11
5.2165354331
 21
13.310464033
 31
0.0
  0
LINE
  5
264
330
1F
100
AcDbEntity
  8
0
  6
Continuous
 62
     7
370
    25
100
AcDbLine
 10
7.5787401575
 20
0.6496062992
 30
0.0
 11
7.5787401575
 21
13.310464033
 31
0.0
  0
LINE
  5
265
330
1F
100
AcDbEntity
  8
0
  6
Continuous
 62
     7
370
    25
100
AcDbLine
 10
-3.8385826772
 20
0.6496062992
 30
0.0
 11
-3.8385826772
 21
13.310464033
 31
0.0
  0
LINE
  5
266
330
1F
100
AcDbEntity
  8
0
  6
Continuous
 62
     7
370
    25
100
AcDbLine
 10
-4.0354330709
 20
13.310464033
 30
0.0
 11
-4.0354330709
 21
0.6496062992
 31
0.0
  0
LINE
  5
267
330
1F
100
AcDbEntity
  8
0
  6
Continuous
 62
     7
370
    25
100
AcDbLine
 10
-4.2322834646
 20
0.6496062992
 30
0.0
 11
-4.2322834646
 21
13.310464033
 31
0.0
  0
LINE
  5
268
330
1F
100
AcDbEntity
  8
0
  6
Continuous
 62
     7
370
    25
100
AcDbLine
 10
6.3976377953
 20
0.6496062992
 30
0.0
 11
6.3976377953
 21
13.310464033
 31
0.0
  0
LINE
  5
269
330
1F
100
AcDbEntity
  8
0
  6
Continuous
 62
     7
370
    25
100
AcDbLine
 10
6.2007874016
 20
13.310464033
 30
0.0
 11
6.2007874016
 21
0.6496062992
 31
0.0
  0
LINE
  5
26A
330
1F
100
AcDbEntity
  8
0
  6
Continuous
 62
     7
370
    25
100
AcDbLine
 10
5.8070866142
 20
13.310464033
 30
0.0
 11
5.8070866142
 21
0.6496062992
 31
0.0
  0
LINE
  5
26B
330
1F
100
AcDbEntity
  8
0
  6
Continuous
 62
     7
370
    25
100
AcDbLine
 10
6.0039370079
 20
0.6496062992
 30
0.0
 11
6.0039370079
 21
13.310464033
 31
0.0
  0
LINE
  5
26C
330
1F
100
AcDbEntity
  8
0
  6
Continuous
 62
     7
370
    25
100
AcDbLine
 10
-6.9881889764
 20
0.6496062992
 30
0.0
 11
-6.9881889764
 21
13.310464033
 31
0.0
  0
LINE
  5
26D
330
1F
100
AcDbEntity
  8
0
  6
Continuous
 62
     7
370
    25
100
AcDbLine
 10
-1.6732283465
 20
13.310464033
 30
0.0
 11
-1.6732283465
 21
0.6496062992
 31
0.0
  0
LINE
  5
26E
330
1F
100
AcDbEntity
  8
0
  6
Continuous
 62
     7
370
    25
100
AcDbLine
 10
3.0511811024
 20
13.310464033
 30
0.0
 11
3.0511811024
 21
0.6496062992
 31
0.0
  0
LINE
  5
26F
330
1F
100
AcDbEntity
  8
0
  6
Continuous
 62
     7
370
    25
100
AcDbLine
 10
3.2480314961
 20
0.6496062992
 30
0.0
 11
3.2480314961
 21
13.310464033
 31
0.0
  0
LINE
  5
270
330
1F
100
AcDbEntity
  8
0
  6
Continuous
 62
     7
370
    25
100
AcDbLine
 10
0.4921259843
 20
0.6496062992
 30
0.0
 11
0.4921259843
 21
13.310464033
 31
0.0
  0
LINE
  5
271
330
1F
100
AcDbEntity
  8
0
  6
Continuous
 62
     7
370
    25
100
AcDbLine
 10
4.625984252
 20
13.310464033
 30
0.0
 11
4.625984252
 21
0.6496062992
 31
0.0
  0
LINE
  5
272
330
1F
100
AcDbEntity
  8
0
  6
Continuous
 62
     7
370
    25
100
AcDbLine
 10
4.8228346457
 20
0.6496062992
 30
0.0
 11
4.8228346457
 21
13.310464033
 31
0.0
  0
LINE
  5
273
330
1F
100
AcDbEntity
  8
0
  6
Continuous
 62
     7
370
    25
100
AcDbLine
 10
0.8858267717
 20
0.6496062992
 30
0.0
 11
0.8858267717
 21
13.310464033
 31
0.0
  0
LINE
  5
274
330
1F
100
AcDbEntity
  8
0
  6
Continuous
 62
     7
370
    25
100
AcDbLine
 10
1.0826771654
 20
13.310464033
 30
0.0
 11
1.0826771654
 21
0.6496062992
 31
0.0
  0
LINE
  5
275
330
1F
100
AcDbEntity
  8
0
  6
Continuous
 62
     7
370
    25
100
AcDbLine
 10
9.1535433071
 20
0.6496062992
 30
0.0
 11
9.1535433071
 21
13.310464033
 31
0.0
  0
LINE
  5
276
330
1F
100
AcDbEntity
  8
0
  6
Continuous
 62
     7
370
    25
100
AcDbLine
 10
2.2637795276
 20
13.310464033
 30
0.0
 11
2.2637795276
 21
0.6496062992
 31
0.0
  0
LINE
  5
277
330
1F
100
AcDbEntity
  8
0
  6
Continuous
 62
     7
370
    25
100
AcDbLine
 10
2.4606299213
 20
0.6496062992
 30
0.0
 11
2.4606299213
 21
13.310464033
 31
0.0
  0
LINE
  5
278
330
1F
100
AcDbEntity
  8
0
  6
Continuous
 62
     7
370
    25
100
AcDbLine
 10
-0.0984251969
 20
13.310464033
 30
0.0
 11
-0.0984251969
 21
0.6496062992
 31
0.0
  0
LINE
  5
279
330
1F
100
AcDbEntity
  8
0
  6
Continuous
 62
     7
370
    25
100
AcDbLine
 10
1.2795275591
 20
0.6496062992
 30
0.0
 11
1.2795275591
 21
13.310464033
 31
0.0
  0
LINE
  5
27A
330
1F
100
AcDbEntity
  8
0
  6
Continuous
 62
     7
370
    25
100
AcDbLine
 10
7.3818897638
 20
13.310464033
 30
0.0
 11
7.3818897638
 21
0.6496062992
 31
0.0
  0
LINE
  5
27B
330
1F
100
AcDbEntity
  8
0
  6
Continuous
 62
     7
370
    25
100
AcDbLine
 10
1.4763779528
 20
13.310464033
 30
0.0
 11
1.4763779528
 21
0.6496062992
 31
0.0
  0
LINE
  5
27C
330
1F
100
AcDbEntity
  8
0
  6
Continuous
 62
     7
370
    25
100
AcDbLine
 10
7.7755905512
 20
13.310464033
 30
0.0
 11
7.7755905512
 21
0.6496062992
 31
0.0
  0
LINE
  5
27D
330
1F
100
AcDbEntity
  8
0
  6
Continuous
 62
     7
370
    25
100
AcDbLine
 10
1.6732283465
 20
0.6496062992
 30
0.0
 11
1.6732283465
 21
13.310464033
 31
0.0
  0
LINE
  5
27E
330
1F
100
AcDbEntity
  8
0
  6
Continuous
 62
     7
370
    25
100
AcDbLine
 10
6.9881889764
 20
13.310464033
 30
0.0
 11
6.9881889764
 21
0.6496062992
 31
0.0
  0
LINE
  5
27F
330
1F
100
AcDbEntity
  8
0
  6
Continuous
 62
     7
370
    25
100
AcDbLine
 10
-2.2637795276
 20
0.6496062992
 30
0.0
 11
-2.2637795276
 21
13.310464033
 31
0.0
  0
LINE
  5
280
330
1F
100
AcDbEntity
  8
0
  6
Continuous
 62
     7
370
    25
100
AcDbLine
 10
-4.4291338583
 20
13.310464033
 30
0.0
 11
-4.4291338583
 21
0.6496062992
 31
0.0
  0
LINE
  5
281
330
1F
100
AcDbEntity
  8
0
  6
Continuous
 62
     7
370
    25
100
AcDbLine
 10
-11.5781805684
 20
0.0
 30
0.0
 11
-11.5388104897
 21
0.0393700787
 31
0.0
  0
LINE
  5
282
330
1F
100
AcDbEntity
  8
0
  6
Continuous
 62
     7
370
    25
100
AcDbLine
 10
-11.5781805684
 20
13.9600703322
 30
0.0
 11
-11.5388104897
 21
13.9207002534
 31
0.0
  0
LINE
  5
283
330
1F
100
AcDbEntity
  8
0
  6
Continuous
 62
     7
370
    25
100
AcDbLine
 10
11.1220472441
 20
0.6496062992
 30
0.0
 11
11.0433070866
 21
0.6496062992
 31
0.0
  0
LINE
  5
284
330
1F
100
AcDbEntity
  8
0
  6
Continuous
 62
     7
370
    25
100
AcDbLine
 10
10.7283464567
 20
0.6496062992
 30
0.0
 11
10.6496062992
 21
0.6496062992
 31
0.0
  0
LINE
  5
285
330
1F
100
AcDbEntity
  8
0
  6
Continuous
 62
     7
370
    25
100
AcDbLine
 10
10.6102362205
 20
0.6496062992
 30
0.0
 11
10.531496063
 21
0.6496062992
 31
0.0
  0
LINE
  5
286
330
1F
100
AcDbEntity
  8
0
  6
Continuous
 62
     7
370
    25
100
AcDbLine
 10
9.5472440945
 20
0.6496062992
 30
0.0
 11
9.468503937
 21
0.6496062992
 31
0.0
  0
LINE
  5
287
330
1F
100
AcDbEntity
  8
0
  6
Continuous
 62
     7
370
    25
100
AcDbLine
 10
9.468503937
 20
0.6496062992
 30
0.0
 11
9.468503937
 21
13.310464033
 31
0.0
  0
LINE
  5
288
330
1F
100
AcDbEntity
  8
0
  6
Continuous
 62
     7
370
    25
100
AcDbLine
 10
9.5472440945
 20
13.310464033
 30
0.0
 11
9.468503937
 21
13.310464033
 31
0.0
  0
LINE
  5
289
330
1F
100
AcDbEntity
  8
0
  6
Continuous
 62
     7
370
    25
100
AcDbLine
 10
9.4291338583
 20
13.310464033
 30
0.0
 11
9.4291338583
 21
0.6496062992
 31
0.0
  0
LINE
  5
28A
330
1F
100
AcDbEntity
  8
0
  6
Continuous
 62
     7
370
    25
100
AcDbLine
 10
9.4291338583
 20
0.6496062992
 30
0.0
 11
9.3503937008
 21
0.6496062992
 31
0.0
  0
LINE
  5
28B
330
1F
100
AcDbEntity
  8
0
  6
Continuous
 62
     7
370
    25
100
AcDbLine
 10
9.4291338583
 20
13.310464033
 30
0.0
 11
9.3503937008
 21
13.310464033
 31
0.0
  0
LINE
  5
28C
330
1F
100
AcDbEntity
  8
0
  6
Continuous
 62
     7
370
    25
100
AcDbLine
 10
-9.468503937
 20
13.310464033
 30
0.0
 11
-9.468503937
 21
0.6496062992
 31
0.0
  0
LINE
  5
28D
330
1F
100
AcDbEntity
  8
0
  6
Continuous
 62
     7
370
    25
100
AcDbLine
 10
-9.468503937
 20
0.6496062992
 30
0.0
 11
-9.5472440945
 21
0.6496062992
 31
0.0
  0
LINE
  5
28E
330
1F
100
AcDbEntity
  8
0
  6
Continuous
 62
     7
370
    25
100
AcDbLine
 10
-9.5472440945
 20
13.310464033
 30
0.0
 11
-9.468503937
 21
13.310464033
 31
0.0
  0
LINE
  5
28F
330
1F
100
AcDbEntity
  8
0
  6
Continuous
 62
     7
370
    25
100
AcDbLine
 10
-9.4291338583
 20
0.6496062992
 30
0.0
 11
-9.4291338583
 21
13.310464033
 31
0.0
  0
LINE
  5
290
330
1F
100
AcDbEntity
  8
0
  6
Continuous
 62
     7
370
    25
100
AcDbLine
 10
-9.3503937008
 20
13.310464033
 30
0.0
 11
-9.4291338583
 21
13.310464033
 31
0.0
  0
LINE
  5
291
330
1F
100
AcDbEntity
  8
0
  6
Continuous
 62
     7
370
    25
100
AcDbLine
 10
-9.4291338583
 20
0.6496062992
 30
0.0
 11
-9.3503937008
 21
0.6496062992
 31
0.0
  0
LINE
  5
292
330
1F
100
AcDbEntity
  8
0
  6
Continuous
 62
     7
370
    25
100
AcDbLine
 10
-9.8622047244
 20
13.310464033
 30
0.0
 11
-9.9409448819
 21
13.310464033
 31
0.0
  0
LINE
  5
293
330
1F
100
AcDbEntity
  8
0
  6
Continuous
 62
     7
370
    25
100
AcDbLine
 10
-9.8228346457
 20
13.310464033
 30
0.0
 11
-9.7440944882
 21
13.310464033
 31
0.0
  0
LINE
  5
294
330
1F
100
AcDbEntity
  8
0
  6
Continuous
 62
     7
370
    25
100
AcDbLine
 10
-9.9409448819
 20
0.6496062992
 30
0.0
 11
-9.8622047244
 21
0.6496062992
 31
0.0
  0
LINE
  5
295
330
1F
100
AcDbEntity
  8
0
  6
Continuous
 62
     7
370
    25
100
AcDbLine
 10
-9.7440944882
 20
0.6496062992
 30
0.0
 11
-9.8228346457
 21
0.6496062992
 31
0.0
  0
LINE
  5
296
330
1F
100
AcDbEntity
  8
0
  6
Continuous
 62
     7
370
    25
100
AcDbLine
 10
-9.8622047244
 20
13.310464033
 30
0.0
 11
-9.8622047244
 21
0.6496062992
 31
0.0
  0
LINE
  5
297
330
1F
100
AcDbEntity
  8
0
  6
Continuous
 62
     7
370
    25
100
AcDbLine
 10
-10.2165354331
 20
0.6496062992
 30
0.0
 11
-10.1377952756
 21
0.6496062992
 31
0.0
  0
LINE
  5
298
330
1F
100
AcDbEntity
  8
0
  6
Continuous
 62
     7
370
    25
100
AcDbLine
 10
-10.6102362205
 20
0.6496062992
 30
0.0
 11
-10.531496063
 21
0.6496062992
 31
0.0
  0
LINE
  5
299
330
1F
100
AcDbEntity
  8
0
  6
Continuous
 62
     7
370
    25
100
AcDbLine
 10
-10.6496062992
 20
0.6496062992
 30
0.0
 11
-10.7283464567
 21
0.6496062992
 31
0.0
  0
LINE
  5
29A
330
1F
100
AcDbEntity
  8
0
  6
Continuous
 62
     7
370
    25
100
AcDbLine
 10
-10.531496063
 20
13.310464033
 30
0.0
 11
-10.6102362205
 21
13.310464033
 31
0.0
  0
LINE
  5
29B
330
1F
100
AcDbEntity
  8
0
  6
Continuous
 62
     7
370
    25
100
AcDbLine
 10
-10.7283464567
 20
13.310464033
 30
0.0
 11
-10.6496062992
 21
13.310464033
 31
0.0
  0
LINE
  5
29C
330
1F
100
AcDbEntity
  8
0
  6
Continuous
 62
     7
370
    25
100
AcDbLine
 10
-11.0039370079
 20
0.6496062992
 30
0.0
 11
-11.0039370079
 21
13.310464033
 31
0.0
  0
LINE
  5
29D
330
1F
100
AcDbEntity
  8
0
  6
Continuous
 62
     7
370
    25
100
AcDbLine
 10
-10.9251968504
 20
13.310464033
 30
0.0
 11
-11.0039370079
 21
13.310464033
 31
0.0
  0
LINE
  5
29E
330
1F
100
AcDbEntity
  8
0
  6
Continuous
 62
     7
370
    25
100
AcDbLine
 10
-11.0039370079
 20
0.6496062992
 30
0.0
 11
-10.9251968504
 21
0.6496062992
 31
0.0
  0
LINE
  5
29F
330
1F
100
AcDbEntity
  8
0
  6
Continuous
 62
     7
370
    25
100
AcDbLine
 10
10.6496062992
 20
0.6496062992
 30
0.0
 11
10.6496062992
 21
13.310464033
 31
0.0
  0
LINE
  5
2A0
330
1F
100
AcDbEntity
  8
0
  6
Continuous
 62
     7
370
    25
100
AcDbLine
 10
10.7283464567
 20
13.310464033
 30
0.0
 11
10.6496062992
 21
13.310464033
 31
0.0
  0
LINE
  5
2A1
330
1F
100
AcDbEntity
  8
0
  6
Continuous
 62
     7
370
    25
100
AcDbLine
 10
-9.8228346457
 20
0.6496062992
 30
0.0
 11
-9.8228346457
 21
13.310464033
 31
0.0
  0
LINE
  5
2A2
330
1F
100
AcDbEntity
  8
0
  6
Continuous
 62
     7
370
    25
100
AcDbLine
 10
11.0433070866
 20
0.6496062992
 30
0.0
 11
11.0433070866
 21
13.310464033
 31
0.0
  0
LINE
  5
2A3
330
1F
100
AcDbEntity
  8
0
  6
Continuous
 62
     7
370
    25
100
AcDbLine
 10
11.0433070866
 20
13.310464033
 30
0.0
 11
11.1220472441
 21
13.310464033
 31
0.0
  0
LINE
  5
2A4
330
1F
100
AcDbEntity
  8
0
  6
Continuous
 62
     7
370
    25
100
AcDbLine
 10
-10.1377952756
 20
13.310464033
 30
0.0
 11
-10.2165354331
 21
13.310464033
 31
0.0
  0
LINE
  5
2A5
330
1F
100
AcDbEntity
  8
0
  6
Continuous
 62
     7
370
    25
100
AcDbLine
 10
10.6102362205
 20
13.310464033
 30
0.0
 11
10.531496063
 21
13.310464033
 31
0.0
  0
LINE
  5
2A6
330
1F
100
AcDbEntity
  8
0
  6
Continuous
 62
     7
370
    25
100
AcDbLine
 10
10.6102362205
 20
13.310464033
 30
0.0
 11
10.6102362205
 21
0.6496062992
 31
0.0
  0
LINE
  5
2A7
330
1F
100
AcDbEntity
  8
0
  6
Continuous
 62
     7
370
    25
100
AcDbLine
 10
10.2165354331
 20
13.310464033
 30
0.0
 11
10.2165354331
 21
0.6496062992
 31
0.0
  0
LINE
  5
2A8
330
1F
100
AcDbEntity
  8
0
  6
Continuous
 62
     7
370
    25
100
AcDbLine
 10
10.2165354331
 20
0.6496062992
 30
0.0
 11
10.1377952756
 21
0.6496062992
 31
0.0
  0
LINE
  5
2A9
330
1F
100
AcDbEntity
  8
0
  6
Continuous
 62
     7
370
    25
100
AcDbLine
 10
10.3346456693
 20
0.6496062992
 30
0.0
 11
10.2559055118
 21
0.6496062992
 31
0.0
  0
LINE
  5
2AA
330
1F
100
AcDbEntity
  8
0
  6
Continuous
 62
     7
370
    25
100
AcDbLine
 10
10.2559055118
 20
0.6496062992
 30
0.0
 11
10.2559055118
 21
13.310464033
 31
0.0
  0
LINE
  5
2AB
330
1F
100
AcDbEntity
  8
0
  6
Continuous
 62
     7
370
    25
100
AcDbLine
 10
-10.6496062992
 20
13.310464033
 30
0.0
 11
-10.6496062992
 21
0.6496062992
 31
0.0
  0
LINE
  5
2AC
330
1F
100
AcDbEntity
  8
0
  6
Continuous
 62
     7
370
    25
100
AcDbLine
 10
-10.2165354331
 20
0.6496062992
 30
0.0
 11
-10.2165354331
 21
13.310464033
 31
0.0
  0
LINE
  5
2AD
330
1F
100
AcDbEntity
  8
0
  6
Continuous
 62
     7
370
    25
100
AcDbLine
 10
-11.0433070866
 20
0.6496062992
 30
0.0
 11
-11.1220472441
 21
0.6496062992
 31
0.0
  0
LINE
  5
2AE
330
1F
100
AcDbEntity
  8
0
  6
Continuous
 62
     7
370
    25
100
AcDbLine
 10
-11.1220472441
 20
13.310464033
 30
0.0
 11
-11.0433070866
 21
13.310464033
 31
0.0
  0
LINE
  5
2AF
330
1F
100
AcDbEntity
  8
0
  6
Continuous
 62
     7
370
    25
100
AcDbLine
 10
-10.6102362205
 20
0.6496062992
 30
0.0
 11
-10.6102362205
 21
13.310464033
 31
0.0
  0
LINE
  5
2B0
330
1F
100
AcDbEntity
  8
0
  6
Continuous
 62
     7
370
    25
100
AcDbLine
 10
-11.0433070866
 20
13.310464033
 30
0.0
 11
-11.0433070866
 21
0.6496062992
 31
0.0
  0
LINE
  5
2B1
330
1F
100
AcDbEntity
  8
0
  6
Continuous
 62
     8
370
    25
100
AcDbLine
 10
11.015468237
 20
15.7086614173
 30
0.0
 11
11.015468237
 21
13.9600703322
 31
0.0
  0
LINE
  5
2B2
330
1F
100
AcDbEntity
  8
0
  6
Continuous
 62
     8
370
    25
100
AcDbLine
 10
-11.015468237
 20
13.9600703322
 30
0.0
 11
-11.015468237
 21
15.7086614173
 31
0.0
  0
ARC
  5
2B3
330
1F
100
AcDbEntity
  8
0
  6
Continuous
 62
     7
370
    25
100
AcDbCircle
 10
11.6801880589
 20
15.7135826772
 30
0.0
 40
0.0351448249436185
100
AcDbArc
 50
101.421753659
 51
188.0494669755
  0
ARC
  5
2B4
330
1F
100
AcDbEntity
  8
0
  6
Continuous
 62
     7
370
    25
100
AcDbCircle
 10
11.6732283465
 20
15.7086614173
 30
0.0
 40
0.0393700787401574
100
AcDbArc
 50
0.0
 51
90.0
  0
ARC
  5
2B5
330
1F
100
AcDbEntity
  8
0
  6
Continuous
 62
     7
370
    25
100
AcDbCircle
 10
11.6801880589
 20
0.0344488189
 30
0.0
 40
0.0351448249436186
100
AcDbArc
 50
171.9505330245
 51
258.578246341
  0
ARC
  5
2B6
330
1F
100
AcDbEntity
  8
0
  6
Continuous
 62
     7
370
    25
100
AcDbCircle
 10
11.6732283465
 20
0.0393700787
 30
0.0
 40
0.0393700787401595
100
AcDbArc
 50
270.0
 51
360.0
  0
ARC
  5
2B7
330
1F
100
AcDbEntity
  8
0
  6
Continuous
 62
     7
370
    25
100
AcDbCircle
 10
11.050266799
 20
15.7135826772
 30
0.0
 40
0.0351448249436161
100
AcDbArc
 50
101.421753659
 51
188.0494669755
  0
ARC
  5
2B8
330
1F
100
AcDbEntity
  8
0
  6
Continuous
 62
     7
370
    25
100
AcDbCircle
 10
11.0433070866
 20
15.7086614173
 30
0.0
 40
0.0393700787401574
100
AcDbArc
 50
90.0
 51
180.0
  0
ARC
  5
2B9
330
1F
100
AcDbEntity
  8
0
  6
Continuous
 62
     7
370
    25
100
AcDbCircle
 10
-11.6801880589
 20
0.0344488189
 30
0.0
 40
0.0351448249436185
100
AcDbArc
 50
281.421753659
 51
8.0494669755
  0
ARC
  5
2BA
330
1F
100
AcDbEntity
  8
0
  6
Continuous
 62
     7
370
    25
100
AcDbCircle
 10
-11.6732283465
 20
0.0393700787
 30
0.0
 40
0.0393700787401566
100
AcDbArc
 50
180.0
 51
270.0
  0
ARC
  5
2BB
330
1F
100
AcDbEntity
  8
0
  6
Continuous
 62
     7
370
    25
100
AcDbCircle
 10
-11.6732283465
 20
15.7086614173
 30
0.0
 40
0.0393700787401539
100
AcDbArc
 50
90.0
 51
180.0
  0
ARC
  5
2BC
330
1F
100
AcDbEntity
  8
0
  6
Continuous
 62
     7
370
    25
100
AcDbCircle
 10
-11.6801880589
 20
15.7135826772
 30
0.0
 40
0.0351448249436152
100
AcDbArc
 50
351.9505330245
 51
78.578246341
  0
ARC
  5
2BD
330
1F
100
AcDbEntity
  8
0
  6
Continuous
 62
     7
370
    25
100
AcDbCircle
 10
-11.050266799
 20
15.7135826772
 30
0.0
 40
0.0351448249436152
100
AcDbArc
 50
351.9505330245
 51
78.578246341
  0
ARC
  5
2BE
330
1F
100
AcDbEntity
  8
0
  6
Continuous
 62
     7
370
    25
100
AcDbCircle
 10
-11.0433070866
 20
15.7086614173
 30
0.0
 40
0.0393700787401574
100
AcDbArc
 50
0.0
 51
90.0
  0
ARC
  5
2BF
330
1F
100
AcDbEntity
  8
0
  6
Continuous
 62
     7
370
    25
100
AcDbCircle
 10
10.2362204724
 20
13.310464033
 30
0.0
 40
0.0196850393700796
100
AcDbArc
 50
0.0
 51
180.0
  0
ARC
  5
2C0
330
1F
100
AcDbEntity
  8
0
  6
Continuous
 62
     7
370
    25
100
AcDbCircle
 10
10.2362204724
 20
13.310464033
 30
0.0
 40
0.0984251968503944
100
AcDbArc
 50
0.0
 51
180.0
  0
ARC
  5
2C1
330
1F
100
AcDbEntity
  8
0
  6
Continuous
 62
     7
370
    25
100
AcDbCircle
 10
10.6299212598
 20
0.6496062992
 30
0.0
 40
0.0984251968503962
100
AcDbArc
 50
180.0
 51
0.0
  0
ARC
  5
2C2
330
1F
100
AcDbEntity
  8
0
  6
Continuous
 62
     7
370
    25
100
AcDbCircle
 10
10.6299212598
 20
13.310464033
 30
0.0
 40
0.0984251968503944
100
AcDbArc
 50
0.0
 51
180.0
  0
ARC
  5
2C3
330
1F
100
AcDbEntity
  8
0
  6
Continuous
 62
     7
370
    25
100
AcDbCircle
 10
0.0
 20
13.310464033
 30
0.0
 40
0.0984251968503938
100
AcDbArc
 50
0.0
 51
180.0
  0
ARC
  5
2C4
330
1F
100
AcDbEntity
  8
0
  6
Continuous
 62
     7
370
    25
100
AcDbCircle
 10
0.0
 20
0.6496062992
 30
0.0
 40
0.0984251968503954
100
AcDbArc
 50
180.0
 51
0.0
  0
ARC
  5
2C5
330
1F
100
AcDbEntity
  8
0
  6
Continuous
 62
     7
370
    25
100
AcDbCircle
 10
-0.3937007874
 20
13.310464033
 30
0.0
 40
0.0984251968503941
100
AcDbArc
 50
0.0
 51
180.0
  0
ARC
  5
2C6
330
1F
100
AcDbEntity
  8
0
  6
Continuous
 62
     7
370
    25
100
AcDbCircle
 10
0.7874015748
 20
0.6496062992
 30
0.0
 40
0.0984251968503957
100
AcDbArc
 50
180.0
 51
0.0
  0
ARC
  5
2C7
330
1F
100
AcDbEntity
  8
0
  6
Continuous
 62
     7
370
    25
100
AcDbCircle
 10
0.3937007874
 20
13.310464033
 30
0.0
 40
0.0984251968503941
100
AcDbArc
 50
0.0
 51
180.0
  0
ARC
  5
2C8
330
1F
100
AcDbEntity
  8
0
  6
Continuous
 62
     7
370
    25
100
AcDbCircle
 10
0.3937007874
 20
0.6496062992
 30
0.0
 40
0.0984251968503955
100
AcDbArc
 50
180.0
 51
0.0
  0
ARC
  5
2C9
330
1F
100
AcDbEntity
  8
0
  6
Continuous
 62
     7
370
    25
100
AcDbCircle
 10
-1.5748031496
 20
0.6496062992
 30
0.0
 40
0.0984251968503957
100
AcDbArc
 50
180.0
 51
0.0
  0
ARC
  5
2CA
330
1F
100
AcDbEntity
  8
0
  6
Continuous
 62
     7
370
    25
100
AcDbCircle
 10
-1.5748031496
 20
13.310464033
 30
0.0
 40
0.0984251968503942
100
AcDbArc
 50
0.0
 51
180.0
  0
ARC
  5
2CB
330
1F
100
AcDbEntity
  8
0
  6
Continuous
 62
     7
370
    25
100
AcDbCircle
 10
-1.968503937
 20
13.310464033
 30
0.0
 40
0.0984251968503942
100
AcDbArc
 50
0.0
 51
180.0
  0
ARC
  5
2CC
330
1F
100
AcDbEntity
  8
0
  6
Continuous
 62
     7
370
    25
100
AcDbCircle
 10
-1.968503937
 20
0.6496062992
 30
0.0
 40
0.098425196850396
100
AcDbArc
 50
180.0
 51
0.0
  0
ARC
  5
2CD
330
1F
100
AcDbEntity
  8
0
  6
Continuous
 62
     7
370
    25
100
AcDbCircle
 10
-0.7874015748
 20
0.6496062992
 30
0.0
 40
0.0984251968503954
100
AcDbArc
 50
180.0
 51
0.0
  0
ARC
  5
2CE
330
1F
100
AcDbEntity
  8
0
  6
Continuous
 62
     7
370
    25
100
AcDbCircle
 10
-1.1811023622
 20
0.6496062992
 30
0.0
 40
0.0984251968503962
100
AcDbArc
 50
180.0
 51
0.0
  0
ARC
  5
2CF
330
1F
100
AcDbEntity
  8
0
  6
Continuous
 62
     7
370
    25
100
AcDbCircle
 10
-11.0236220472
 20
0.6496062992
 30
0.0
 40
0.0984251968503962
100
AcDbArc
 50
180.0
 51
0.0
  0
ARC
  5
2D0
330
1F
100
AcDbEntity
  8
0
  6
Continuous
 62
     7
370
    25
100
AcDbCircle
 10
-11.0236220472
 20
13.310464033
 30
0.0
 40
0.0984251968503944
100
AcDbArc
 50
0.0
 51
180.0
  0
ARC
  5
2D1
330
1F
100
AcDbEntity
  8
0
  6
Continuous
 62
     7
370
    25
100
AcDbCircle
 10
11.0236220472
 20
13.310464033
 30
0.0
 40
0.0984251968503962
100
AcDbArc
 50
0.0
 51
180.0
  0
ARC
  5
2D2
330
1F
100
AcDbEntity
  8
0
  6
Continuous
 62
     7
370
    25
100
AcDbCircle
 10
11.0236220472
 20
0.6496062992
 30
0.0
 40
0.0984251968503962
100
AcDbArc
 50
180.0
 51
0.0
  0
ARC
  5
2D3
330
1F
100
AcDbEntity
  8
0
  6
Continuous
 62
     7
370
    25
100
AcDbCircle
 10
-3.1496062992
 20
0.6496062992
 30
0.0
 40
0.0984251968503957
100
AcDbArc
 50
180.0
 51
0.0
  0
ARC
  5
2D4
330
1F
100
AcDbEntity
  8
0
  6
Continuous
 62
     7
370
    25
100
AcDbCircle
 10
-3.5433070866
 20
13.310464033
 30
0.0
 40
0.0984251968503944
100
AcDbArc
 50
0.0
 51
180.0
  0
ARC
  5
2D5
330
1F
100
AcDbEntity
  8
0
  6
Continuous
 62
     7
370
    25
100
AcDbCircle
 10
-9.842519685
 20
13.310464033
 30
0.0
 40
0.0984251968503944
100
AcDbArc
 50
0.0
 51
180.0
  0
ARC
  5
2D6
330
1F
100
AcDbEntity
  8
0
  6
Continuous
 62
     7
370
    25
100
AcDbCircle
 10
-9.842519685
 20
0.6496062992
 30
0.0
 40
0.0984251968503962
100
AcDbArc
 50
180.0
 51
0.0
  0
ARC
  5
2D7
330
1F
100
AcDbEntity
  8
0
  6
Continuous
 62
     7
370
    25
100
AcDbCircle
 10
-9.4488188976
 20
0.6496062992
 30
0.0
 40
0.0984251968503962
100
AcDbArc
 50
180.0
 51
0.0
  0
ARC
  5
2D8
330
1F
100
AcDbEntity
  8
0
  6
Continuous
 62
     7
370
    25
100
AcDbCircle
 10
-9.4488188976
 20
13.310464033
 30
0.0
 40
0.0984251968503944
100
AcDbArc
 50
0.0
 51
180.0
  0
ARC
  5
2D9
330
1F
100
AcDbEntity
  8
0
  6
Continuous
 62
     7
370
    25
100
AcDbCircle
 10
-10.6299212598
 20
0.6496062992
 30
0.0
 40
0.0984251968503962
100
AcDbArc
 50
180.0
 51
0.0
  0
ARC
  5
2DA
330
1F
100
AcDbEntity
  8
0
  6
Continuous
 62
     7
370
    25
100
AcDbCircle
 10
-10.6299212598
 20
13.310464033
 30
0.0
 40
0.0984251968503962
100
AcDbArc
 50
0.0
 51
180.0
  0
ARC
  5
2DB
330
1F
100
AcDbEntity
  8
0
  6
Continuous
 62
     7
370
    25
100
AcDbCircle
 10
-10.2362204724
 20
0.6496062992
 30
0.0
 40
0.0984251968503962
100
AcDbArc
 50
180.0
 51
0.0
  0
ARC
  5
2DC
330
1F
100
AcDbEntity
  8
0
  6
Continuous
 62
     7
370
    25
100
AcDbCircle
 10
-10.2362204724
 20
13.310464033
 30
0.0
 40
0.0984251968503944
100
AcDbArc
 50
0.0
 51
180.0
  0
ARC
  5
2DD
330
1F
100
AcDbEntity
  8
0
  6
Continuous
 62
     7
370
    25
100
AcDbCircle
 10
-5.1181102362
 20
13.310464033
 30
0.0
 40
0.0984251968503944
100
AcDbArc
 50
0.0
 51
180.0
  0
ARC
  5
2DE
330
1F
100
AcDbEntity
  8
0
  6
Continuous
 62
     7
370
    25
100
AcDbCircle
 10
-5.1181102362
 20
0.6496062992
 30
0.0
 40
0.0984251968503962
100
AcDbArc
 50
180.0
 51
0.0
  0
ARC
  5
2DF
330
1F
100
AcDbEntity
  8
0
  6
Continuous
 62
     7
370
    25
100
AcDbCircle
 10
-4.7244094488
 20
13.310464033
 30
0.0
 40
0.0984251968503944
100
AcDbArc
 50
0.0
 51
180.0
  0
ARC
  5
2E0
330
1F
100
AcDbEntity
  8
0
  6
Continuous
 62
     7
370
    25
100
AcDbCircle
 10
-4.7244094488
 20
0.6496062992
 30
0.0
 40
0.0984251968503953
100
AcDbArc
 50
180.0
 51
0.0
  0
ARC
  5
2E1
330
1F
100
AcDbEntity
  8
0
  6
Continuous
 62
     7
370
    25
100
AcDbCircle
 10
-5.905511811
 20
13.310464033
 30
0.0
 40
0.0984251968503953
100
AcDbArc
 50
0.0
 51
180.0
  0
ARC
  5
2E2
330
1F
100
AcDbEntity
  8
0
  6
Continuous
 62
     7
370
    25
100
AcDbCircle
 10
-5.905511811
 20
0.6496062992
 30
0.0
 40
0.0984251968503962
100
AcDbArc
 50
180.0
 51
0.0
  0
ARC
  5
2E3
330
1F
100
AcDbEntity
  8
0
  6
Continuous
 62
     7
370
    25
100
AcDbCircle
 10
-5.5118110236
 20
13.310464033
 30
0.0
 40
0.0984251968503953
100
AcDbArc
 50
0.0
 51
180.0
  0
ARC
  5
2E4
330
1F
100
AcDbEntity
  8
0
  6
Continuous
 62
     7
370
    25
100
AcDbCircle
 10
-5.5118110236
 20
0.6496062992
 30
0.0
 40
0.0984251968503971
100
AcDbArc
 50
180.0
 51
0.0
  0
ARC
  5
2E5
330
1F
100
AcDbEntity
  8
0
  6
Continuous
 62
     7
370
    25
100
AcDbCircle
 10
-2.7559055118
 20
13.310464033
 30
0.0
 40
0.098425196850394
100
AcDbArc
 50
0.0
 51
180.0
  0
ARC
  5
2E6
330
1F
100
AcDbEntity
  8
0
  6
Continuous
 62
     7
370
    25
100
AcDbCircle
 10
-2.7559055118
 20
0.6496062992
 30
0.0
 40
0.0984251968503949
100
AcDbArc
 50
180.0
 51
0.0
  0
ARC
  5
2E7
330
1F
100
AcDbEntity
  8
0
  6
Continuous
 62
     7
370
    25
100
AcDbCircle
 10
-2.3622047244
 20
0.6496062992
 30
0.0
 40
0.0984251968503957
100
AcDbArc
 50
180.0
 51
0.0
  0
ARC
  5
2E8
330
1F
100
AcDbEntity
  8
0
  6
Continuous
 62
     7
370
    25
100
AcDbCircle
 10
9.4488188976
 20
0.6496062992
 30
0.0
 40
0.0984251968503962
100
AcDbArc
 50
180.0
 51
0.0
  0
ARC
  5
2E9
330
1F
100
AcDbEntity
  8
0
  6
Continuous
 62
     7
370
    25
100
AcDbCircle
 10
9.4488188976
 20
13.310464033
 30
0.0
 40
0.0984251968503944
100
AcDbArc
 50
0.0
 51
180.0
  0
ARC
  5
2EA
330
1F
100
AcDbEntity
  8
0
  6
Continuous
 62
     7
370
    25
100
AcDbCircle
 10
10.2362204724
 20
0.6496062992
 30
0.0
 40
0.0984251968503944
100
AcDbArc
 50
180.0
 51
0.0
  0
ARC
  5
2EB
330
1F
100
AcDbEntity
  8
0
  6
Continuous
 62
     7
370
    25
100
AcDbCircle
 10
9.842519685
 20
13.310464033
 30
0.0
 40
0.0984251968503944
100
AcDbArc
 50
0.0
 51
180.0
  0
ARC
  5
2EC
330
1F
100
AcDbEntity
  8
0
  6
Continuous
 62
     7
370
    25
100
AcDbCircle
 10
9.842519685
 20
0.6496062992
 30
0.0
 40
0.0984251968503944
100
AcDbArc
 50
180.0
 51
0.0
  0
ARC
  5
2ED
330
1F
100
AcDbEntity
  8
0
  6
Continuous
 62
     7
370
    25
100
AcDbCircle
 10
1.968503937
 20
0.6496062992
 30
0.0
 40
0.0984251968503957
100
AcDbArc
 50
180.0
 51
0.0
  0
ARC
  5
2EE
330
1F
100
AcDbEntity
  8
0
  6
Continuous
 62
     7
370
    25
100
AcDbCircle
 10
3.937007874
 20
13.310464033
 30
0.0
 40
0.0984251968503949
100
AcDbArc
 50
0.0
 51
180.0
  0
ARC
  5
2EF
330
1F
100
AcDbEntity
  8
0
  6
Continuous
 62
     7
370
    25
100
AcDbCircle
 10
3.937007874
 20
0.6496062992
 30
0.0
 40
0.0984251968503953
100
AcDbArc
 50
180.0
 51
0.0
  0
ARC
  5
2F0
330
1F
100
AcDbEntity
  8
0
  6
Continuous
 62
     7
370
    25
100
AcDbCircle
 10
6.6929133858
 20
0.6496062992
 30
0.0
 40
0.0984251968503971
100
AcDbArc
 50
180.0
 51
0.0
  0
ARC
  5
2F1
330
1F
100
AcDbEntity
  8
0
  6
Continuous
 62
     7
370
    25
100
AcDbCircle
 10
6.6929133858
 20
13.310464033
 30
0.0
 40
0.0984251968503935
100
AcDbArc
 50
0.0
 51
180.0
  0
ARC
  5
2F2
330
1F
100
AcDbEntity
  8
0
  6
Continuous
 62
     7
370
    25
100
AcDbCircle
 10
-7.874015748
 20
0.6496062992
 30
0.0
 40
0.0984251968503971
100
AcDbArc
 50
180.0
 51
0.0
  0
ARC
  5
2F3
330
1F
100
AcDbEntity
  8
0
  6
Continuous
 62
     7
370
    25
100
AcDbCircle
 10
-9.0551181102
 20
13.310464033
 30
0.0
 40
0.0984251968503944
100
AcDbArc
 50
0.0
 51
180.0
  0
ARC
  5
2F4
330
1F
100
AcDbEntity
  8
0
  6
Continuous
 62
     7
370
    25
100
AcDbCircle
 10
-9.0551181102
 20
0.6496062992
 30
0.0
 40
0.0984251968503962
100
AcDbArc
 50
180.0
 51
0.0
  0
ARC
  5
2F5
330
1F
100
AcDbEntity
  8
0
  6
Continuous
 62
     7
370
    25
100
AcDbCircle
 10
-8.6614173228
 20
0.6496062992
 30
0.0
 40
0.0984251968503962
100
AcDbArc
 50
180.0
 51
0.0
  0
ARC
  5
2F6
330
1F
100
AcDbEntity
  8
0
  6
Continuous
 62
     7
370
    25
100
AcDbCircle
 10
-8.6614173228
 20
13.310464033
 30
0.0
 40
0.0984251968503944
100
AcDbArc
 50
0.0
 51
180.0
  0
ARC
  5
2F7
330
1F
100
AcDbEntity
  8
0
  6
Continuous
 62
     7
370
    25
100
AcDbCircle
 10
-6.6929133858
 20
13.310464033
 30
0.0
 40
0.0984251968503944
100
AcDbArc
 50
0.0
 51
180.0
  0
ARC
  5
2F8
330
1F
100
AcDbEntity
  8
0
  6
Continuous
 62
     7
370
    25
100
AcDbCircle
 10
-6.6929133858
 20
0.6496062992
 30
0.0
 40
0.0984251968503962
100
AcDbArc
 50
180.0
 51
0.0
  0
ARC
  5
2F9
330
1F
100
AcDbEntity
  8
0
  6
Continuous
 62
     7
370
    25
100
AcDbCircle
 10
-6.2992125984
 20
13.310464033
 30
0.0
 40
0.0984251968503953
100
AcDbArc
 50
0.0
 51
180.0
  0
ARC
  5
2FA
330
1F
100
AcDbEntity
  8
0
  6
Continuous
 62
     7
370
    25
100
AcDbCircle
 10
-6.2992125984
 20
0.6496062992
 30
0.0
 40
0.0984251968503971
100
AcDbArc
 50
180.0
 51
0.0
  0
ARC
  5
2FB
330
1F
100
AcDbEntity
  8
0
  6
Continuous
 62
     7
370
    25
100
AcDbCircle
 10
-7.4803149606
 20
13.310464033
 30
0.0
 40
0.0984251968503944
100
AcDbArc
 50
0.0
 51
180.0
  0
ARC
  5
2FC
330
1F
100
AcDbEntity
  8
0
  6
Continuous
 62
     7
370
    25
100
AcDbCircle
 10
-7.4803149606
 20
0.6496062992
 30
0.0
 40
0.0984251968503971
100
AcDbArc
 50
180.0
 51
0.0
  0
ARC
  5
2FD
330
1F
100
AcDbEntity
  8
0
  6
Continuous
 62
     7
370
    25
100
AcDbCircle
 10
-7.0866141732
 20
13.310464033
 30
0.0
 40
0.0984251968503944
100
AcDbArc
 50
0.0
 51
180.0
  0
ARC
  5
2FE
330
1F
100
AcDbEntity
  8
0
  6
Continuous
 62
     7
370
    25
100
AcDbCircle
 10
-7.0866141732
 20
0.6496062992
 30
0.0
 40
0.0984251968503962
100
AcDbArc
 50
180.0
 51
0.0
  0
ARC
  5
2FF
330
1F
100
AcDbEntity
  8
0
  6
Continuous
 62
     7
370
    25
100
AcDbCircle
 10
-8.2677165354
 20
13.310464033
 30
0.0
 40
0.0984251968503944
100
AcDbArc
 50
0.0
 51
180.0
  0
ARC
  5
300
330
1F
100
AcDbEntity
  8
0
  6
Continuous
 62
     7
370
    25
100
AcDbCircle
 10
7.874015748
 20
0.6496062992
 30
0.0
 40
0.0984251968503971
100
AcDbArc
 50
180.0
 51
0.0
  0
ARC
  5
301
330
1F
100
AcDbEntity
  8
0
  6
Continuous
 62
     7
370
    25
100
AcDbCircle
 10
7.874015748
 20
13.310464033
 30
0.0
 40
0.0984251968503953
100
AcDbArc
 50
0.0
 51
180.0
  0
ARC
  5
302
330
1F
100
AcDbEntity
  8
0
  6
Continuous
 62
     7
370
    25
100
AcDbCircle
 10
-1.1811023622
 20
13.310464033
 30
0.0
 40
0.0984251968503942
100
AcDbArc
 50
0.0
 51
180.0
  0
ARC
  5
303
330
1F
100
AcDbEntity
  8
0
  6
Continuous
 62
     7
370
    25
100
AcDbCircle
 10
7.0866141732
 20
0.6496062992
 30
0.0
 40
0.0984251968503971
100
AcDbArc
 50
180.0
 51
0.0
  0
ARC
  5
304
330
1F
100
AcDbEntity
  8
0
  6
Continuous
 62
     7
370
    25
100
AcDbCircle
 10
7.0866141732
 20
13.310464033
 30
0.0
 40
0.0984251968503944
100
AcDbArc
 50
0.0
 51
180.0
  0
ARC
  5
305
330
1F
100
AcDbEntity
  8
0
  6
Continuous
 62
     7
370
    25
100
AcDbCircle
 10
-0.7874015748
 20
13.310464033
 30
0.0
 40
0.0984251968503944
100
AcDbArc
 50
0.0
 51
180.0
  0
ARC
  5
306
330
1F
100
AcDbEntity
  8
0
  6
Continuous
 62
     7
370
    25
100
AcDbCircle
 10
-2.3622047244
 20
13.310464033
 30
0.0
 40
0.098425196850394
100
AcDbArc
 50
0.0
 51
180.0
  0
ARC
  5
307
330
1F
100
AcDbEntity
  8
0
  6
Continuous
 62
     7
370
    25
100
AcDbCircle
 10
8.6614173228
 20
13.310464033
 30
0.0
 40
0.0984251968503944
100
AcDbArc
 50
0.0
 51
180.0
  0
ARC
  5
308
330
1F
100
AcDbEntity
  8
0
  6
Continuous
 62
     7
370
    25
100
AcDbCircle
 10
8.6614173228
 20
0.6496062992
 30
0.0
 40
0.0984251968503962
100
AcDbArc
 50
180.0
 51
0.0
  0
ARC
  5
309
330
1F
100
AcDbEntity
  8
0
  6
Continuous
 62
     7
370
    25
100
AcDbCircle
 10
8.2677165354
 20
13.310464033
 30
0.0
 40
0.0984251968503944
100
AcDbArc
 50
0.0
 51
180.0
  0
ARC
  5
30A
330
1F
100
AcDbEntity
  8
0
  6
Continuous
 62
     7
370
    25
100
AcDbCircle
 10
8.2677165354
 20
0.6496062992
 30
0.0
 40
0.0984251968503962
100
AcDbArc
 50
180.0
 51
0.0
  0
ARC
  5
30B
330
1F
100
AcDbEntity
  8
0
  6
Continuous
 62
     7
370
    25
100
AcDbCircle
 10
4.3307086614
 20
13.310464033
 30
0.0
 40
0.0984251968503935
100
AcDbArc
 50
0.0
 51
180.0
  0
ARC
  5
30C
330
1F
100
AcDbEntity
  8
0
  6
Continuous
 62
     7
370
    25
100
AcDbCircle
 10
4.3307086614
 20
0.6496062992
 30
0.0
 40
0.0984251968503962
100
AcDbArc
 50
180.0
 51
0.0
  0
ARC
  5
30D
330
1F
100
AcDbEntity
  8
0
  6
Continuous
 62
     7
370
    25
100
AcDbCircle
 10
3.5433070866
 20
13.310464033
 30
0.0
 40
0.0984251968503944
100
AcDbArc
 50
0.0
 51
180.0
  0
ARC
  5
30E
330
1F
100
AcDbEntity
  8
0
  6
Continuous
 62
     7
370
    25
100
AcDbCircle
 10
3.5433070866
 20
0.6496062992
 30
0.0
 40
0.0984251968503962
100
AcDbArc
 50
180.0
 51
0.0
  0
ARC
  5
30F
330
1F
100
AcDbEntity
  8
0
  6
Continuous
 62
     7
370
    25
100
AcDbCircle
 10
9.0551181102
 20
13.310464033
 30
0.0
 40
0.0984251968503944
100
AcDbArc
 50
0.0
 51
180.0
  0
ARC
  5
310
330
1F
100
AcDbEntity
  8
0
  6
Continuous
 62
     7
370
    25
100
AcDbCircle
 10
9.0551181102
 20
0.6496062992
 30
0.0
 40
0.0984251968503944
100
AcDbArc
 50
180.0
 51
0.0
  0
ARC
  5
311
330
1F
100
AcDbEntity
  8
0
  6
Continuous
 62
     7
370
    25
100
AcDbCircle
 10
-0.3937007874
 20
0.6496062992
 30
0.0
 40
0.0984251968503957
100
AcDbArc
 50
180.0
 51
0.0
  0
ARC
  5
312
330
1F
100
AcDbEntity
  8
0
  6
Continuous
 62
     7
370
    25
100
AcDbCircle
 10
5.5118110236
 20
13.310464033
 30
0.0
 40
0.0984251968503944
100
AcDbArc
 50
0.0
 51
180.0
  0
ARC
  5
313
330
1F
100
AcDbEntity
  8
0
  6
Continuous
 62
     7
370
    25
100
AcDbCircle
 10
5.5118110236
 20
0.6496062992
 30
0.0
 40
0.0984251968503971
100
AcDbArc
 50
180.0
 51
0.0
  0
ARC
  5
314
330
1F
100
AcDbEntity
  8
0
  6
Continuous
 62
     7
370
    25
100
AcDbCircle
 10
2.7559055118
 20
0.6496062992
 30
0.0
 40
0.0984251968503953
100
AcDbArc
 50
180.0
 51
0.0
  0
ARC
  5
315
330
1F
100
AcDbEntity
  8
0
  6
Continuous
 62
     7
370
    25
100
AcDbCircle
 10
2.7559055118
 20
13.310464033
 30
0.0
 40
0.0984251968503944
100
AcDbArc
 50
0.0
 51
180.0
  0
ARC
  5
316
330
1F
100
AcDbEntity
  8
0
  6
Continuous
 62
     7
370
    25
100
AcDbCircle
 10
-3.5433070866
 20
0.6496062992
 30
0.0
 40
0.0984251968503953
100
AcDbArc
 50
180.0
 51
0.0
  0
ARC
  5
317
330
1F
100
AcDbEntity
  8
0
  6
Continuous
 62
     7
370
    25
100
AcDbCircle
 10
5.1181102362
 20
13.310464033
 30
0.0
 40
0.0984251968503935
100
AcDbArc
 50
0.0
 51
180.0
  0
ARC
  5
318
330
1F
100
AcDbEntity
  8
0
  6
Continuous
 62
     7
370
    25
100
AcDbCircle
 10
5.1181102362
 20
0.6496062992
 30
0.0
 40
0.0984251968503962
100
AcDbArc
 50
180.0
 51
0.0
  0
ARC
  5
319
330
1F
100
AcDbEntity
  8
0
  6
Continuous
 62
     7
370
    25
100
AcDbCircle
 10
-3.1496062992
 20
13.310464033
 30
0.0
 40
0.098425196850394
100
AcDbArc
 50
0.0
 51
180.0
  0
ARC
  5
31A
330
1F
100
AcDbEntity
  8
0
  6
Continuous
 62
     7
370
    25
100
AcDbCircle
 10
7.4803149606
 20
0.6496062992
 30
0.0
 40
0.0984251968503953
100
AcDbArc
 50
180.0
 51
0.0
  0
ARC
  5
31B
330
1F
100
AcDbEntity
  8
0
  6
Continuous
 62
     7
370
    25
100
AcDbCircle
 10
7.4803149606
 20
13.310464033
 30
0.0
 40
0.0984251968503953
100
AcDbArc
 50
0.0
 51
180.0
  0
ARC
  5
31C
330
1F
100
AcDbEntity
  8
0
  6
Continuous
 62
     7
370
    25
100
AcDbCircle
 10
-8.2677165354
 20
0.6496062992
 30
0.0
 40
0.0984251968503962
100
AcDbArc
 50
180.0
 51
0.0
  0
ARC
  5
31D
330
1F
100
AcDbEntity
  8
0
  6
Continuous
 62
     7
370
    25
100
AcDbCircle
 10
-3.937007874
 20
13.310464033
 30
0.0
 40
0.098425196850394
100
AcDbArc
 50
0.0
 51
180.0
  0
ARC
  5
31E
330
1F
100
AcDbEntity
  8
0
  6
Continuous
 62
     7
370
    25
100
AcDbCircle
 10
-3.937007874
 20
0.6496062992
 30
0.0
 40
0.0984251968503957
100
AcDbArc
 50
180.0
 51
0.0
  0
ARC
  5
31F
330
1F
100
AcDbEntity
  8
0
  6
Continuous
 62
     7
370
    25
100
AcDbCircle
 10
1.968503937
 20
13.310464033
 30
0.0
 40
0.0984251968503946
100
AcDbArc
 50
0.0
 51
180.0
  0
ARC
  5
320
330
1F
100
AcDbEntity
  8
0
  6
Continuous
 62
     7
370
    25
100
AcDbCircle
 10
6.2992125984
 20
13.310464033
 30
0.0
 40
0.0984251968503944
100
AcDbArc
 50
0.0
 51
180.0
  0
ARC
  5
321
330
1F
100
AcDbEntity
  8
0
  6
Continuous
 62
     7
370
    25
100
AcDbCircle
 10
6.2992125984
 20
0.6496062992
 30
0.0
 40
0.0984251968503971
100
AcDbArc
 50
180.0
 51
0.0
  0
ARC
  5
322
330
1F
100
AcDbEntity
  8
0
  6
Continuous
 62
     7
370
    25
100
AcDbCircle
 10
5.905511811
 20
0.6496062992
 30
0.0
 40
0.0984251968503953
100
AcDbArc
 50
180.0
 51
0.0
  0
ARC
  5
323
330
1F
100
AcDbEntity
  8
0
  6
Continuous
 62
     7
370
    25
100
AcDbCircle
 10
5.905511811
 20
13.310464033
 30
0.0
 40
0.0984251968503944
100
AcDbArc
 50
0.0
 51
180.0
  0
ARC
  5
324
330
1F
100
AcDbEntity
  8
0
  6
Continuous
 62
     7
370
    25
100
AcDbCircle
 10
3.1496062992
 20
13.310464033
 30
0.0
 40
0.0984251968503944
100
AcDbArc
 50
0.0
 51
180.0
  0
ARC
  5
325
330
1F
100
AcDbEntity
  8
0
  6
Continuous
 62
     7
370
    25
100
AcDbCircle
 10
3.1496062992
 20
0.6496062992
 30
0.0
 40
0.0984251968503953
100
AcDbArc
 50
180.0
 51
0.0
  0
ARC
  5
326
330
1F
100
AcDbEntity
  8
0
  6
Continuous
 62
     7
370
    25
100
AcDbCircle
 10
4.7244094488
 20
0.6496062992
 30
0.0
 40
0.0984251968503962
100
AcDbArc
 50
180.0
 51
0.0
  0
ARC
  5
327
330
1F
100
AcDbEntity
  8
0
  6
Continuous
 62
     7
370
    25
100
AcDbCircle
 10
4.7244094488
 20
13.310464033
 30
0.0
 40
0.0984251968503935
100
AcDbArc
 50
0.0
 51
180.0
  0
ARC
  5
328
330
1F
100
AcDbEntity
  8
0
  6
Continuous
 62
     7
370
    25
100
AcDbCircle
 10
0.7874015748
 20
13.310464033
 30
0.0
 40
0.0984251968503942
100
AcDbArc
 50
0.0
 51
180.0
  0
ARC
  5
329
330
1F
100
AcDbEntity
  8
0
  6
Continuous
 62
     7
370
    25
100
AcDbCircle
 10
1.1811023622
 20
0.6496062992
 30
0.0
 40
0.0984251968503955
100
AcDbArc
 50
180.0
 51
0.0
  0
ARC
  5
32A
330
1F
100
AcDbEntity
  8
0
  6
Continuous
 62
     7
370
    25
100
AcDbCircle
 10
1.5748031496
 20
0.6496062992
 30
0.0
 40
0.0984251968503955
100
AcDbArc
 50
180.0
 51
0.0
  0
ARC
  5
32B
330
1F
100
AcDbEntity
  8
0
  6
Continuous
 62
     7
370
    25
100
AcDbCircle
 10
-4.3307086614
 20
13.310464033
 30
0.0
 40
0.0984251968503944
100
AcDbArc
 50
0.0
 51
180.0
  0
ARC
  5
32C
330
1F
100
AcDbEntity
  8
0
  6
Continuous
 62
     7
370
    25
100
AcDbCircle
 10
2.3622047244
 20
0.6496062992
 30
0.0
 40
0.0984251968503949
100
AcDbArc
 50
180.0
 51
0.0
  0
ARC
  5
32D
330
1F
100
AcDbEntity
  8
0
  6
Continuous
 62
     7
370
    25
100
AcDbCircle
 10
2.3622047244
 20
13.310464033
 30
0.0
 40
0.0984251968503949
100
AcDbArc
 50
0.0
 51
180.0
  0
ARC
  5
32E
330
1F
100
AcDbEntity
  8
0
  6
Continuous
 62
     7
370
    25
100
AcDbCircle
 10
1.1811023622
 20
13.310464033
 30
0.0
 40
0.0984251968503944
100
AcDbArc
 50
0.0
 51
180.0
  0
ARC
  5
32F
330
1F
100
AcDbEntity
  8
0
  6
Continuous
 62
     7
370
    25
100
AcDbCircle
 10
1.5748031496
 20
13.310464033
 30
0.0
 40
0.0984251968503946
100
AcDbArc
 50
0.0
 51
180.0
  0
ARC
  5
330
330
1F
100
AcDbEntity
  8
0
  6
Continuous
 62
     7
370
    25
100
AcDbCircle
 10
-7.874015748
 20
13.310464033
 30
0.0
 40
0.0984251968503944
100
AcDbArc
 50
0.0
 51
180.0
  0
ARC
  5
331
330
1F
100
AcDbEntity
  8
0
  6
Continuous
 62
     7
370
    25
100
AcDbCircle
 10
-4.3307086614
 20
0.6496062992
 30
0.0
 40
0.0984251968503953
100
AcDbArc
 50
180.0
 51
0.0
  0
ARC
  5
332
330
1F
100
AcDbEntity
  8
0
  6
Continuous
 62
     7
370
    25
100
AcDbCircle
 10
11.0236220472
 20
0.6496062992
 30
0.0
 40
0.0196850393700831
100
AcDbArc
 50
180.0
 51
0.0
  0
ARC
  5
333
330
1F
100
AcDbEntity
  8
0
  6
Continuous
 62
     7
370
    25
100
AcDbCircle
 10
10.6299212598
 20
0.6496062992
 30
0.0
 40
0.0196850393700814
100
AcDbArc
 50
180.0
 51
0.0
  0
ARC
  5
334
330
1F
100
AcDbEntity
  8
0
  6
Continuous
 62
     7
370
    25
100
AcDbCircle
 10
9.842519685
 20
13.310464033
 30
0.0
 40
0.0196850393700796
100
AcDbArc
 50
0.0
 51
180.0
  0
ARC
  5
335
330
1F
100
AcDbEntity
  8
0
  6
Continuous
 62
     7
370
    25
100
AcDbCircle
 10
9.842519685
 20
0.6496062992
 30
0.0
 40
0.0196850393700796
100
AcDbArc
 50
180.0
 51
0.0
  0
ARC
  5
336
330
1F
100
AcDbEntity
  8
0
  6
Continuous
 62
     7
370
    25
100
AcDbCircle
 10
-9.842519685
 20
13.310464033
 30
0.0
 40
0.0196850393700796
100
AcDbArc
 50
360.0
 51
180.0
  0
ARC
  5
337
330
1F
100
AcDbEntity
  8
0
  6
Continuous
 62
     7
370
    25
100
AcDbCircle
 10
-9.842519685
 20
0.6496062992
 30
0.0
 40
0.0196850393700814
100
AcDbArc
 50
180.0
 51
0.0
  0
ARC
  5
338
330
1F
100
AcDbEntity
  8
0
  6
Continuous
 62
     7
370
    25
100
AcDbCircle
 10
-10.2362204724
 20
0.6496062992
 30
0.0
 40
0.0196850393700831
100
AcDbArc
 50
180.0
 51
0.0
  0
ARC
  5
339
330
1F
100
AcDbEntity
  8
0
  6
Continuous
 62
     7
370
    25
100
AcDbCircle
 10
-10.6299212598
 20
0.6496062992
 30
0.0
 40
0.0196850393700831
100
AcDbArc
 50
180.0
 51
0.0
  0
ARC
  5
33A
330
1F
100
AcDbEntity
  8
0
  6
Continuous
 62
     7
370
    25
100
AcDbCircle
 10
-10.6299212598
 20
13.310464033
 30
0.0
 40
0.0196850393700814
100
AcDbArc
 50
0.0
 51
180.0
  0
ARC
  5
33B
330
1F
100
AcDbEntity
  8
0
  6
Continuous
 62
     7
370
    25
100
AcDbCircle
 10
-9.4488188976
 20
0.6496062992
 30
0.0
 40
0.0196850393700814
100
AcDbArc
 50
180.0
 51
0.0
  0
ARC
  5
33C
330
1F
100
AcDbEntity
  8
0
  6
Continuous
 62
     7
370
    25
100
AcDbCircle
 10
11.0236220472
 20
13.310464033
 30
0.0
 40
0.0196850393700814
100
AcDbArc
 50
0.0
 51
180.0
  0
ARC
  5
33D
330
1F
100
AcDbEntity
  8
0
  6
Continuous
 62
     7
370
    25
100
AcDbCircle
 10
-10.2362204724
 20
13.310464033
 30
0.0
 40
0.0196850393700796
100
AcDbArc
 50
360.0
 51
180.0
  0
ARC
  5
33E
330
1F
100
AcDbEntity
  8
0
  6
Continuous
 62
     7
370
    25
100
AcDbCircle
 10
10.6299212598
 20
13.310464033
 30
0.0
 40
0.0196850393700814
100
AcDbArc
 50
360.0
 51
180.0
  0
ARC
  5
33F
330
1F
100
AcDbEntity
  8
0
  6
Continuous
 62
     7
370
    25
100
AcDbCircle
 10
9.4488188976
 20
0.6496062992
 30
0.0
 40
0.0196850393700814
100
AcDbArc
 50
180.0
 51
360.0
  0
ARC
  5
340
330
1F
100
AcDbEntity
  8
0
  6
Continuous
 62
     7
370
    25
100
AcDbCircle
 10
10.2362204724
 20
0.6496062992
 30
0.0
 40
0.0196850393700796
100
AcDbArc
 50
180.0
 51
360.0
  0
ARC
  5
341
330
1F
100
AcDbEntity
  8
0
  6
Continuous
 62
     7
370
    25
100
AcDbCircle
 10
-9.4488188976
 20
13.310464033
 30
0.0
 40
0.0196850393700796
100
AcDbArc
 50
0.0
 51
180.0
  0
ARC
  5
342
330
1F
100
AcDbEntity
  8
0
  6
Continuous
 62
     7
370
    25
100
AcDbCircle
 10
9.4488188976
 20
13.310464033
 30
0.0
 40
0.0196850393700796
100
AcDbArc
 50
0.0
 51
180.0
  0
ARC
  5
343
330
1F
100
AcDbEntity
  8
0
  6
Continuous
 62
     7
370
    25
100
AcDbCircle
 10
-11.0236220472
 20
0.6496062992
 30
0.0
 40
0.0196850393700814
100
AcDbArc
 50
180.0
 51
0.0
  0
ARC
  5
344
330
1F
100
AcDbEntity
  8
0
  6
Continuous
 62
     7
370
    25
100
AcDbCircle
 10
-11.0236220472
 20
13.310464033
 30
0.0
 40
0.0196850393700796
100
AcDbArc
 50
0.0
 51
180.0
  0
LINE
  5
349
330
1B
100
AcDbEntity
 67
     1
  8
0
  6
Continuous
 62
     7
370
    25
100
AcDbLine
 10
8.9173228346
 20
15.7480314961
 30
0.0
 11
8.9173228346
 21
0.0
 31
0.0
  0
LINE
  5
34A
330
1B
100
AcDbEntity
 67
     1
  8
0
  6
Continuous
 62
     7
370
    25
100
AcDbLine
 10
8.9173228346
 20
0.0
 30
0.0
 11
-8.9960629921
 21
0.0
 31
0.0
  0
LINE
  5
34B
330
1B
100
AcDbEntity
 67
     1
  8
0
  6
Continuous
 62
     7
370
    25
100
AcDbLine
 10
8.9173228346
 20
15.7480314961
 30
0.0
 11
-8.9960629921
 21
15.7480314961
 31
0.0
  0
LINE
  5
34C
330
1B
100
AcDbEntity
 67
     1
  8
0
  6
Continuous
 62
     7
370
    25
100
AcDbLine
 10
-8.9960629921
 20
15.7480314961
 30
0.0
 11
-8.9960629921
 21
0.0
 31
0.0
  0
VIEWPORT
  5
864
330
1B
100
AcDbEntity
 67
     1
  8
0
100
AcDbViewport
 10
0.0
 20
0.0
 30
0.0
 40
8.4
 41
6.4
 68
     1
 69
     1
 12
-3.937007874
 22
7.874015748
 13
0.0
 23
0.0
 14
0.5
 24
0.5
 15
0.5
 25
0.5
 16
0.0
 26
0.0
 36
1.0
 17
0.0
 27
0.0
 37
0.0
 42
50.0
 43
0.0
 44
0.0
 45
24.3239595051
 50
0.0
 51
0.0
 72
   100
 90
   557152
  1

281
     0
 71
     1
 74
     0
110
0.0
120
0.0
130
0.0
111
1.0
121
0.0
131
0.0
112
0.0
122
1.0
132
0.0
 79
     0
146
0.0
  0
ENDSEC
  0
SECTION
  2
OBJECTS
  0
DICTIONARY
  5
C
330
0
100
AcDbDictionary
281
     1
  3
ACAD_GROUP
350
D
  3
ACAD_LAYOUT
350
1A
  3
ACAD_MLINESTYLE
350
17
  3
ACAD_PLOTSETTINGS
350
19
  3
ACAD_PLOTSTYLENAME
350
E
  3
ACAD_SCALELIST
350
47
  0
DICTIONARY
  5
D
102
{ACAD_REACTORS
330
C
102
}
330
C
100
AcDbDictionary
281
     1
  0
DICTIONARY
  5
1A
102
{ACAD_REACTORS
330
C
102
}
330
C
100
AcDbDictionary
281
     1
  3
_Isometric
350
403
  3
_Left
350
1E
  3
_Right
350
26
  3
_Top
350
37F
  3
Model
350
22
  0
DICTIONARY
  5
17
102
{ACAD_REACTORS
330
C
102
}
330
C
100
AcDbDictionary
281
     1
  3
Standard
350
18
  0
DICTIONARY
  5
19
102
{ACAD_REACTORS
330
C
102
}
330
C
100
AcDbDictionary
281
     1
  0
ACDBDICTIONARYWDFLT
  5
E
102
{ACAD_REACTORS
330
C
102
}
330
C
100
AcDbDictionary
281
     1
  3
Normal
350
F
100
AcDbDictionaryWithDefault
340
F
  0
DICTIONARY
  5
47
102
{ACAD_REACTORS
330
C
102
}
330
C
100
AcDbDictionary
281
     1
  3
A0
350
48
  3
A1
350
49
  3
A2
350
4A
  3
A3
350
4B
  3
A4
350
4C
  3
A5
350
4D
  3
A6
350
4E
  3
A7
350
4F
  3
A8
350
50
  3
A9
350
51
  3
B0
350
52
  3
B1
350
53
  3
B2
350
54
  3
B3
350
55
  3
B4
350
56
  3
B5
350
57
  3
B6
350
58
  3
B7
350
59
  3
B8
350
5A
  3
B9
350
5B
  3
C0
350
5C
  3
C1
350
5D
  3
C2
350
5E
  3
C3
350
5F
  3
C4
350
60
  3
C5
350
61
  3
C6
350
62
  3
C7
350
63
  3
C8
350
64
  3
C9
350
65
  3
D0
350
66
  3
D1
350
67
  3
D2
350
68
  0
LAYOUT
  5
403
102
{ACAD_REACTORS
330
1A
102
}
330
1A
100
AcDbPlotSettings
  1

  2
none_device
  4
Letter_(8.50_x_11.00_Inches)
  6

 40
6.35
 41
6.35
 42
6.35001
 43
6.35001
 44
215.9
 45
279.4
 46
0.0
 47
0.0
 48
0.0
 49
0.0
140
0.0
141
0.0
142
1.0
143
1.9685040339
 70
   688
 72
     0
 73
     1
 74
     1
  7

 75
     0
147
0.507999975
148
228.5
149
0.0
100
AcDbLayout
  1
_Isometric
 70
     1
 71
     4
 10
0.0
 20
0.0
 11
0.0
 21
0.0
 12
0.0
 22
0.0
 32
0.0
 14
0.0
 24
0.0
 34
0.0
 15
0.0
 25
0.0
 35
0.0
146
0.0
 13
0.0
 23
0.0
 33
0.0
 16
1.0
 26
0.0
 36
0.0
 17
0.0
 27
1.0
 37
0.0
 76
     0
330
402
331
86A
  0
LAYOUT
  5
1E
102
{ACAD_REACTORS
330
1A
102
}
330
1A
100
AcDbPlotSettings
  1

  2
none_device
  4
Letter_(8.50_x_11.00_Inches)
  6

 40
6.35
 41
6.35
 42
6.35001
 43
6.35001
 44
215.9
 45
279.4
 46
0.0
 47
0.0
 48
0.0
 49
0.0
140
0.0
141
0.0
142
1.0
143
1.9685040339
 70
   688
 72
     0
 73
     1
 74
     1
  7

 75
     0
147
0.507999975
148
228.5
149
0.0
100
AcDbLayout
  1
_Left
 70
     1
 71
     1
 10
-9.4881897756
 20
-0.4921260085
 11
12.1653545971
 21
16.2401582795
 12
0.0
 22
0.0
 32
0.0
 14
-8.9960629921
 24
0.0
 34
0.0
 15
8.9173228346
 25
15.7480314961
 35
0.0
146
0.0
 13
0.0
 23
0.0
 33
0.0
 16
1.0
 26
0.0
 36
0.0
 17
0.0
 27
1.0
 37
0.0
 76
     0
330
1B
331
864
  0
LAYOUT
  5
26
102
{ACAD_REACTORS
330
1A
102
}
330
1A
100
AcDbPlotSettings
  1

  2
none_device
  4
Letter_(8.50_x_11.00_Inches)
  6

 40
6.35
 41
6.35
 42
6.35001
 43
6.35001
 44
215.9
 45
279.4
 46
0.0
 47
0.0
 48
0.0
 49
0.0
140
0.0
141
0.0
142
1.0
143
1.9685040339
 70
   688
 72
     0
 73
     1
 74
     1
  7

 75
     0
147
0.507999975
148
228.5
149
0.0
100
AcDbLayout
  1
_Right
 70
     1
 71
     2
 10
0.0
 20
0.0
 11
0.0
 21
0.0
 12
0.0
 22
0.0
 32
0.0
 14
0.0
 24
0.0
 34
0.0
 15
0.0
 25
0.0
 35
0.0
146
0.0
 13
0.0
 23
0.0
 33
0.0
 16
1.0
 26
0.0
 36
0.0
 17
0.0
 27
1.0
 37
0.0
 76
     0
330
23
331
866
  0
LAYOUT
  5
37F
102
{ACAD_REACTORS
330
1A
102
}
330
1A
100
AcDbPlotSettings
  1

  2
none_device
  4
Letter_(8.50_x_11.00_Inches)
  6

 40
6.35
 41
6.35
 42
6.35001
 43
6.35001
 44
215.9
 45
279.4
 46
0.0
 47
0.0
 48
0.0
 49
0.0
140
0.0
141
0.0
142
1.0
143
1.9685040339
 70
   688
 72
     0
 73
     1
 74
     1
  7

 75
     0
147
0.507999975
148
228.5
149
0.0
100
AcDbLayout
  1
_Top
 70
     1
 71
     3
 10
0.0
 20
0.0
 11
0.0
 21
0.0
 12
0.0
 22
0.0
 32
0.0
 14
0.0
 24
0.0
 34
0.0
 15
0.0
 25
0.0
 35
0.0
146
0.0
 13
0.0
 23
0.0
 33
0.0
 16
1.0
 26
0.0
 36
0.0
 17
0.0
 27
1.0
 37
0.0
 76
     0
330
37E
331
868
  0
LAYOUT
  5
22
102
{ACAD_REACTORS
330
1A
102
}
330
1A
100
AcDbPlotSettings
  1

  2
none_device
  4
ANSI_A_(11.00_x_8.50_Inches)
  6

 40
6.35
 41
19.05
 42
6.35000508
 43
19.05000254
 44
279.4
 45
215.9
 46
168.1432050072
 47
19.3135836357
 48
0.0
 49
0.0
140
0.0
141
0.0
142
0.3479320755
143
1.0
 70
  1696
 72
     0
 73
     0
 74
     0
  7

 75
     0
147
0.5913241897
148
-39.4088153714
149
0.0
100
AcDbLayout
  1
Model
 70
     1
 71
     0
 10
0.0
 20
0.0
 11
12.0
 21
9.0
 12
0.0
 22
0.0
 32
0.0
 14
-19.5866141732
 24
0.0
 34
0.0
 15
11.7125984252
 25
15.7480314961
 35
0.0
146
0.0
 13
0.0
 23
0.0
 33
0.0
 16
1.0
 26
0.0
 36
0.0
 17
0.0
 27
1.0
 37
0.0
 76
     0
330
1F
331
29
  0
MLINESTYLE
  5
18
102
{ACAD_REACTORS
330
17
102
}
330
17
100
AcDbMlineStyle
  2
Standard
 70
     0
  3

 62
   256
 51
90.0
 52
90.0
 71
     2
 49
0.5
 62
   256
  6
BYLAYER
 49
-0.5
 62
   256
  6
BYLAYER
  0
ACDBPLACEHOLDER
  5
F
102
{ACAD_REACTORS
330
E
102
}
330
E
  0
SCALE
  5
48
102
{ACAD_REACTORS
330
47
102
}
330
47
100
AcDbScale
 70
     0
300
1:1
140
1.0
141
1.0
290
     1
  0
SCALE
  5
49
102
{ACAD_REACTORS
330
47
102
}
330
47
100
AcDbScale
 70
     0
300
1:2
140
1.0
141
2.0
290
     0
  0
SCALE
  5
4A
102
{ACAD_REACTORS
330
47
102
}
330
47
100
AcDbScale
 70
     0
300
1:4
140
1.0
141
4.0
290
     0
  0
SCALE
  5
4B
102
{ACAD_REACTORS
330
47
102
}
330
47
100
AcDbScale
 70
     0
300
1:5
140
1.0
141
5.0
290
     0
  0
SCALE
  5
4C
102
{ACAD_REACTORS
330
47
102
}
330
47
100
AcDbScale
 70
     0
300
1:8
140
1.0
141
8.0
290
     0
  0
SCALE
  5
4D
102
{ACAD_REACTORS
330
47
102
}
330
47
100
AcDbScale
 70
     0
300
1:10
140
1.0
141
10.0
290
     0
  0
SCALE
  5
4E
102
{ACAD_REACTORS
330
47
102
}
330
47
100
AcDbScale
 70
     0
300
1:16
140
1.0
141
16.0
290
     0
  0
SCALE
  5
4F
102
{ACAD_REACTORS
330
47
102
}
330
47
100
AcDbScale
 70
     0
300
1:20
140
1.0
141
20.0
290
     0
  0
SCALE
  5
50
102
{ACAD_REACTORS
330
47
102
}
330
47
100
AcDbScale
 70
     0
300
1:30
140
1.0
141
30.0
290
     0
  0
SCALE
  5
51
102
{ACAD_REACTORS
330
47
102
}
330
47
100
AcDbScale
 70
     0
300
1:40
140
1.0
141
40.0
290
     0
  0
SCALE
  5
52
102
{ACAD_REACTORS
330
47
102
}
330
47
100
AcDbScale
 70
     0
300
1:50
140
1.0
141
50.0
290
     0
  0
SCALE
  5
53
102
{ACAD_REACTORS
330
47
102
}
330
47
100
AcDbScale
 70
     0
300
1:100
140
1.0
141
100.0
290
     0
  0
SCALE
  5
54
102
{ACAD_REACTORS
330
47
102
}
330
47
100
AcDbScale
 70
     0
300
2:1
140
2.0
141
1.0
290
     0
  0
SCALE
  5
55
102
{ACAD_REACTORS
330
47
102
}
330
47
100
AcDbScale
 70
     0
300
4:1
140
4.0
141
1.0
290
     0
  0
SCALE
  5
56
102
{ACAD_REACTORS
330
47
102
}
330
47
100
AcDbScale
 70
     0
300
8:1
140
8.0
141
1.0
290
     0
  0
SCALE
  5
57
102
{ACAD_REACTORS
330
47
102
}
330
47
100
AcDbScale
 70
     0
300
10:1
140
10.0
141
1.0
290
     0
  0
SCALE
  5
58
102
{ACAD_REACTORS
330
47
102
}
330
47
100
AcDbScale
 70
     0
300
100:1
140
100.0
141
1.0
290
     0
  0
SCALE
  5
59
102
{ACAD_REACTORS
330
47
102
}
330
47
100
AcDbScale
 70
     0
300
1/128" = 1'-0"
140
0.0078125
141
12.0
290
     0
  0
SCALE
  5
5A
102
{ACAD_REACTORS
330
47
102
}
330
47
100
AcDbScale
 70
     0
300
1/64" = 1'-0"
140
0.015625
141
12.0
290
     0
  0
SCALE
  5
5B
102
{ACAD_REACTORS
330
47
102
}
330
47
100
AcDbScale
 70
     0
300
1/32" = 1'-0"
140
0.03125
141
12.0
290
     0
  0
SCALE
  5
5C
102
{ACAD_REACTORS
330
47
102
}
330
47
100
AcDbScale
 70
     0
300
1/16" = 1'-0"
140
0.0625
141
12.0
290
     0
  0
SCALE
  5
5D
102
{ACAD_REACTORS
330
47
102
}
330
47
100
AcDbScale
 70
     0
300
3/32" = 1'-0"
140
0.09375
141
12.0
290
     0
  0
SCALE
  5
5E
102
{ACAD_REACTORS
330
47
102
}
330
47
100
AcDbScale
 70
     0
300
1/8" = 1'-0"
140
0.125
141
12.0
290
     0
  0
SCALE
  5
5F
102
{ACAD_REACTORS
330
47
102
}
330
47
100
AcDbScale
 70
     0
300
3/16" = 1'-0"
140
0.1875
141
12.0
290
     0
  0
SCALE
  5
60
102
{ACAD_REACTORS
330
47
102
}
330
47
100
AcDbScale
 70
     0
300
1/4" = 1'-0"
140
0.25
141
12.0
290
     0
  0
SCALE
  5
61
102
{ACAD_REACTORS
330
47
102
}
330
47
100
AcDbScale
 70
     0
300
3/8" = 1'-0"
140
0.375
141
12.0
290
     0
  0
SCALE
  5
62
102
{ACAD_REACTORS
330
47
102
}
330
47
100
AcDbScale
 70
     0
300
1/2" = 1'-0"
140
0.5
141
12.0
290
     0
  0
SCALE
  5
63
102
{ACAD_REACTORS
330
47
102
}
330
47
100
AcDbScale
 70
     0
300
3/4" = 1'-0"
140
0.75
141
12.0
290
     0
  0
SCALE
  5
64
102
{ACAD_REACTORS
330
47
102
}
330
47
100
AcDbScale
 70
     0
300
1" = 1'-0"
140
1.0
141
12.0
290
     0
  0
SCALE
  5
65
102
{ACAD_REACTORS
330
47
102
}
330
47
100
AcDbScale
 70
     0
300
1-1/2" = 1'-0"
140
1.5
141
12.0
290
     0
  0
SCALE
  5
66
102
{ACAD_REACTORS
330
47
102
}
330
47
100
AcDbScale
 70
     0
300
3" = 1'-0"
140
3.0
141
12.0
290
     0
  0
SCALE
  5
67
102
{ACAD_REACTORS
330
47
102
}
330
47
100
AcDbScale
 70
     0
300
6" = 1'-0"
140
6.0
141
12.0
290
     0
  0
SCALE
  5
68
102
{ACAD_REACTORS
330
47
102
}
330
47
100
AcDbScale
 70
     0
300
1'-0" = 1'-0"
140
12.0
141
12.0
290
     0
  0
ENDSEC
  0
EOF
