  0
SECTION
  2
HEADER
  9
$ACADVER
  1
AC1015
  9
$ACADMAINTVER
 70
     6
  9
$DWGCODEPAGE
  3
ANSI_1252
  9
$INSBASE
 10
0.0
 20
0.0
 30
0.0
  9
$EXTMIN
 10
-60.0
 20
93.5
 30
0.0
  9
$EXTMAX
 10
60.0
 20
136.8
 30
0.0
  9
$LIMMIN
 10
0.0
 20
0.0
  9
$LIMMAX
 10
420.0
 20
297.0
  9
$ORTHOMODE
 70
     0
  9
$REGENMODE
 70
     1
  9
$FILLMODE
 70
     1
  9
$QTEXTMODE
 70
     0
  9
$MIRRTEXT
 70
     1
  9
$LTSCALE
 40
1.0
  9
$ATTMODE
 70
     1
  9
$TEXTSIZE
 40
3.5
  9
$TRACEWID
 40
1.0
  9
$TEXTSTYLE
  7
Standard
  9
$CLAYER
  8
0
  9
$CELTYPE
  6
ByLayer
  9
$CECOLOR
 62
   256
  9
$CELTSCALE
 40
1.0
  9
$DISPSILH
 70
     0
  9
$DIMSCALE
 40
1.0
  9
$DIMASZ
 40
3.302
  9
$DIMEXO
 40
1.0
  9
$DIMDLI
 40
3.75
  9
$DIMRND
 40
0.0
  9
$DIMDLE
 40
0.0
  9
$DIMEXE
 40
1.0
  9
$DIMTP
 40
0.0
  9
$DIMTM
 40
0.0
  9
$DIMTXT
 40
3.5
  9
$DIMCEN
 40
2.5
  9
$DIMTSZ
 40
0.0
  9
$DIMTOL
 70
     0
  9
$DIMLIM
 70
     0
  9
$DIMTIH
 70
     1
  9
$DIMTOH
 70
     1
  9
$DIMSE1
 70
     0
  9
$DIMSE2
 70
     0
  9
$DIMTAD
 70
     1
  9
$DIMZIN
 70
     1
  9
$DIMBLK
  1

  9
$DIMASO
 70
     1
  9
$DIMSHO
 70
     1
  9
$DIMPOST
  1

  9
$DIMAPOST
  1

  9
$DIMALT
 70
     0
  9
$DIMALTD
 70
     3
  9
$DIMALTF
 40
0.0393700787
  9
$DIMLFAC
 40
1.0
  9
$DIMTOFL
 70
     1
  9
$DIMTVP
 40
0.0
  9
$DIMTIX
 70
     0
  9
$DIMSOXD
 70
     0
  9
$DIMSAH
 70
     0
  9
$DIMBLK1
  1

  9
$DIMBLK2
  1

  9
$DIMSTYLE
  2
ISO-25
  9
$DIMCLRD
 70
     0
  9
$DIMCLRE
 70
     0
  9
$DIMCLRT
 70
     0
  9
$DIMTFAC
 40
1.0
  9
$DIMGAP
 40
1.524
  9
$DIMJUST
 70
     0
  9
$DIMSD1
 70
     0
  9
$DIMSD2
 70
     0
  9
$DIMTOLJ
 70
     0
  9
$DIMTZIN
 70
     1
  9
$DIMALTZ
 70
     0
  9
$DIMALTTZ
 70
     0
  9
$DIMUPT
 70
     0
  9
$DIMDEC
 70
     2
  9
$DIMTDEC
 70
     2
  9
$DIMALTU
 70
     2
  9
$DIMALTTD
 70
     3
  9
$DIMTXSTY
  7
Standard
  9
$DIMAUNIT
 70
     0
  9
$DIMADEC
 70
     2
  9
$DIMALTRND
 40
0.0
  9
$DIMAZIN
 70
     0
  9
$DIMDSEP
 70
    44
  9
$DIMATFIT
 70
     3
  9
$DIMFRAC
 70
     0
  9
$DIMLDRBLK
  1

  9
$DIMLUNIT
 70
     2
  9
$DIMLWD
 70
    -2
  9
$DIMLWE
 70
    -2
  9
$DIMTMOVE
 70
     0
  9
$LUNITS
 70
     2
  9
$LUPREC
 70
     2
  9
$SKETCHINC
 40
1.0
  9
$FILLETRAD
 40
10.0
  9
$AUNITS
 70
     0
  9
$AUPREC
 70
     2
  9
$MENU
  1
.
  9
$ELEVATION
 40
0.0
  9
$PELEVATION
 40
0.0
  9
$THICKNESS
 40
0.0
  9
$LIMCHECK
 70
     0
  9
$CHAMFERA
 40
0.0
  9
$CHAMFERB
 40
0.0
  9
$CHAMFERC
 40
0.0
  9
$CHAMFERD
 40
0.0
  9
$SKPOLY
 70
     0
  9
$TDCREATE
 40
2458704.682386829
  9
$TDUCREATE
 40
2458704.640720162
  9
$TDUPDATE
 40
2458704.682464607
  9
$TDUUPDATE
 40
2458704.64079794
  9
$TDINDWG
 40
0.0000000116
  9
$TDUSRTIMER
 40
0.0000000116
  9
$USRTIMER
 70
     1
  9
$ANGBASE
 50
0.0
  9
$ANGDIR
 70
     0
  9
$PDMODE
 70
     0
  9
$PDSIZE
 40
-1.0
  9
$PLINEWID
 40
0.0
  9
$SPLFRAME
 70
     0
  9
$SPLINETYPE
 70
     6
  9
$SPLINESEGS
 70
     8
  9
$HANDSEED
  5
4C9
  9
$SURFTAB1
 70
     6
  9
$SURFTAB2
 70
     6
  9
$SURFTYPE
 70
     6
  9
$SURFU
 70
     6
  9
$SURFV
 70
     6
  9
$UCSBASE
  2

  9
$UCSNAME
  2

  9
$UCSORG
 10
0.0
 20
0.0
 30
0.0
  9
$UCSXDIR
 10
1.0
 20
0.0
 30
0.0
  9
$UCSYDIR
 10
0.0
 20
1.0
 30
0.0
  9
$UCSORTHOREF
  2

  9
$UCSORTHOVIEW
 70
     0
  9
$UCSORGTOP
 10
0.0
 20
0.0
 30
0.0
  9
$UCSORGBOTTOM
 10
0.0
 20
0.0
 30
0.0
  9
$UCSORGLEFT
 10
0.0
 20
0.0
 30
0.0
  9
$UCSORGRIGHT
 10
0.0
 20
0.0
 30
0.0
  9
$UCSORGFRONT
 10
0.0
 20
0.0
 30
0.0
  9
$UCSORGBACK
 10
0.0
 20
0.0
 30
0.0
  9
$PUCSBASE
  2

  9
$PUCSNAME
  2

  9
$PUCSORG
 10
0.0
 20
0.0
 30
0.0
  9
$PUCSXDIR
 10
1.0
 20
0.0
 30
0.0
  9
$PUCSYDIR
 10
0.0
 20
1.0
 30
0.0
  9
$PUCSORTHOREF
  2

  9
$PUCSORTHOVIEW
 70
     0
  9
$PUCSORGTOP
 10
0.0
 20
0.0
 30
0.0
  9
$PUCSORGBOTTOM
 10
0.0
 20
0.0
 30
0.0
  9
$PUCSORGLEFT
 10
0.0
 20
0.0
 30
0.0
  9
$PUCSORGRIGHT
 10
0.0
 20
0.0
 30
0.0
  9
$PUCSORGFRONT
 10
0.0
 20
0.0
 30
0.0
  9
$PUCSORGBACK
 10
0.0
 20
0.0
 30
0.0
  9
$USERI1
 70
     0
  9
$USERI2
 70
     0
  9
$USERI3
 70
     0
  9
$USERI4
 70
     0
  9
$USERI5
 70
     0
  9
$USERR1
 40
0.0
  9
$USERR2
 40
0.0
  9
$USERR3
 40
0.0
  9
$USERR4
 40
0.0
  9
$USERR5
 40
0.0
  9
$WORLDVIEW
 70
     1
  9
$SHADEDGE
 70
     3
  9
$SHADEDIF
 70
    70
  9
$TILEMODE
 70
     1
  9
$MAXACTVP
 70
    64
  9
$PINSBASE
 10
0.0
 20
0.0
 30
0.0
  9
$PLIMCHECK
 70
     0
  9
$PEXTMIN
 10
-137.5
 20
93.5
 30
0.0
  9
$PEXTMAX
 10
137.5
 20
136.8
 30
0.0
  9
$PLIMMIN
 10
-158.9007782102
 20
85.4747081712
  9
$PLIMMAX
 10
158.9007782101
 20
310.1828793774
  9
$UNITMODE
 70
     0
  9
$VISRETAIN
 70
     1
  9
$PLINEGEN
 70
     0
  9
$PSLTSCALE
 70
     1
  9
$TREEDEPTH
 70
  3020
  9
$CMLSTYLE
  2
Standard
  9
$CMLJUST
 70
     0
  9
$CMLSCALE
 40
20.0
  9
$PROXYGRAPHICS
 70
     1
  9
$MEASUREMENT
 70
     1
  9
$CELWEIGHT
370
    -1
  9
$ENDCAPS
280
     0
  9
$JOINSTYLE
280
     0
  9
$LWDISPLAY
290
     1
  9
$INSUNITS
 70
     4
  9
$HYPERLINKBASE
  1

  9
$STYLESHEET
  1

  9
$XEDIT
290
     1
  9
$CEPSNTYPE
380
     0
  9
$PSTYLEMODE
290
     1
  9
$FINGERPRINTGUID
  2
{f55d9c54-6fa2-43fc-bb34-34bc38a22361}
  9
$VERSIONGUID
  2
{FAEB1C32-E019-11D5-929B-00C0DF256EC4}
  9
$EXTNAMES
290
     1
  9
$PSVPSCALE
 40
0.0
  9
$OLESTARTUP
290
     0
  0
ENDSEC
  0
SECTION
  2
CLASSES
  0
CLASS
  1
ACDBDICTIONARYWDFLT
  2
AcDbDictionaryWithDefault
  3
ObjectDBX Classes
 90
        0
280
     0
281
     0
  0
CLASS
  1
VISUALSTYLE
  2
AcDbVisualStyle
  3
ObjectDBX Classes
 90
     4095
280
     0
281
     0
  0
CLASS
  1
MATERIAL
  2
AcDbMaterial
  3
ObjectDBX Classes
 90
     1153
280
     0
281
     0
  0
CLASS
  1
SCALE
  2
AcDbScale
  3
ObjectDBX Classes
 90
     1153
280
     0
281
     0
  0
CLASS
  1
TABLESTYLE
  2
AcDbTableStyle
  3
ObjectDBX Classes
 90
     4095
280
     0
281
     0
  0
CLASS
  1
MLEADERSTYLE
  2
AcDbMLeaderStyle
  3
ACDB_MLEADERSTYLE_CLASS
 90
     4095
280
     0
281
     0
  0
CLASS
  1
SUN
  2
AcDbSun
  3
SCENEOE
 90
     1153
280
     0
281
     0
  0
CLASS
  1
ACDBPLACEHOLDER
  2
AcDbPlaceHolder
  3
ObjectDBX Classes
 90
        0
280
     0
281
     0
  0
CLASS
  1
LAYOUT
  2
AcDbLayout
  3
ObjectDBX Classes
 90
        0
280
     0
281
     0
  0
ENDSEC
  0
SECTION
  2
TABLES
  0
TABLE
  2
VPORT
  5
8
330
0
100
AcDbSymbolTable
 70
     1
  0
VPORT
  5
29
330
8
100
AcDbSymbolTableRecord
100
AcDbViewportTableRecord
  2
*Active
 70
     0
 10
0.0
 20
0.0
 11
1.0
 21
1.0
 12
0.0
 22
115.15
 13
0.0
 23
0.0
 14
10.0
 24
10.0
 15
10.0
 25
10.0
 16
0.0
 26
0.0
 36
1.0
 17
0.0
 27
0.0
 37
0.0
 40
44.166
 41
2.7713625866
 42
50.0
 43
0.0
 44
0.0
 50
0.0
 51
0.0
 71
     0
 72
   100
 73
     1
 74
     3
 75
     0
 76
     0
 77
     0
 78
     0
281
     0
 65
     1
110
0.0
120
0.0
130
0.0
111
1.0
121
0.0
131
0.0
112
0.0
122
1.0
132
0.0
 79
     0
146
0.0
  0
ENDTAB
  0
TABLE
  2
LTYPE
  5
5
330
0
100
AcDbSymbolTable
 70
     6
  0
LTYPE
  5
14
330
5
100
AcDbSymbolTableRecord
100
AcDbLinetypeTableRecord
  2
ByBlock
 70
     0
  3

 72
    65
 73
     0
 40
0.0
  0
LTYPE
  5
15
330
5
100
AcDbSymbolTableRecord
100
AcDbLinetypeTableRecord
  2
ByLayer
 70
     0
  3

 72
    65
 73
     0
 40
0.0
  0
LTYPE
  5
16
330
5
100
AcDbSymbolTableRecord
100
AcDbLinetypeTableRecord
  2
Continuous
 70
     0
  3
Solid line
 72
    65
 73
     0
 40
0.0
  0
LTYPE
  5
6E
330
5
100
AcDbSymbolTableRecord
100
AcDbLinetypeTableRecord
  2
HIDDEN
 70
     0
  3
Hidden __ __ __ __ __ __ __ __ __ __ __ __ __ __
 72
    65
 73
     2
 40
1.905
 49
1.27
 74
     0
 49
-0.635
 74
     0
  0
LTYPE
  5
6F
330
5
100
AcDbSymbolTableRecord
100
AcDbLinetypeTableRecord
  2
PHANTOM
 70
     0
  3
Phantom ______  __  __  ______  __  __  ______
 72
    65
 73
     6
 40
12.7
 49
6.35
 74
     0
 49
-1.27
 74
     0
 49
1.27
 74
     0
 49
-1.27
 74
     0
 49
1.27
 74
     0
 49
-1.27
 74
     0
  0
LTYPE
  5
70
330
5
100
AcDbSymbolTableRecord
100
AcDbLinetypeTableRecord
  2
CENTER
 70
     0
  3
Center ____ _ ____ _ ____ _ ____ _ ____ _ ____
 72
    65
 73
     4
 40
10.16
 49
6.35
 74
     0
 49
-1.27
 74
     0
 49
1.27
 74
     0
 49
-1.27
 74
     0
  0
LTYPE
  5
71
330
5
100
AcDbSymbolTableRecord
100
AcDbLinetypeTableRecord
  2
CENTERX2
 70
     0
  3
Center (2x) ________  __  ________  __  _____
 72
    65
 73
     4
 40
20.32
 49
12.7
 74
     0
 49
-2.54
 74
     0
 49
2.54
 74
     0
 49
-2.54
 74
     0
  0
LTYPE
  5
72
330
5
100
AcDbSymbolTableRecord
100
AcDbLinetypeTableRecord
  2
DOT2
 70
     0
  3
Dot (.5x) ........................................
 72
    65
 73
     2
 40
0.635
 49
0.0
 74
     0
 49
-0.635
 74
     0
  0
ENDTAB
  0
TABLE
  2
LAYER
  5
2
330
0
100
AcDbSymbolTable
 70
     1
  0
LAYER
  5
10
330
2
100
AcDbSymbolTableRecord
100
AcDbLayerTableRecord
  2
0
 70
     0
 62
     7
  6
Continuous
370
    -3
390
F
  0
ENDTAB
  0
TABLE
  2
STYLE
  5
3
330
0
100
AcDbSymbolTable
 70
     1
  0
STYLE
  5
11
330
3
100
AcDbSymbolTableRecord
100
AcDbTextStyleTableRecord
  2
Standard
 70
     0
 40
0.0
 41
1.0
 50
0.0
 71
     0
 42
3.5
  3
txt
  4

  0
ENDTAB
  0
TABLE
  2
VIEW
  5
6
330
0
100
AcDbSymbolTable
 70
     0
  0
ENDTAB
  0
TABLE
  2
UCS
  5
7
330
0
100
AcDbSymbolTable
 70
     0
  0
ENDTAB
  0
TABLE
  2
APPID
  5
9
330
0
100
AcDbSymbolTable
 70
     1
  0
APPID
  5
12
330
9
100
AcDbSymbolTableRecord
100
AcDbRegAppTableRecord
  2
ACAD
 70
     0
  0
ENDTAB
  0
TABLE
  2
DIMSTYLE
  5
A
330
0
100
AcDbSymbolTable
 70
     1
100
AcDbDimStyleTable
  0
DIMSTYLE
105
27
330
A
100
AcDbSymbolTableRecord
100
AcDbDimStyleTableRecord
  2
ISO-25
 70
     0
 41
2.5
 42
0.625
 43
3.75
 44
1.25
 73
     0
 74
     0
 77
     1
 78
     8
140
2.5
141
2.5
143
0.0393700787
147
0.625
171
     3
172
     1
178
     0
271
     2
272
     2
274
     3
278
    44
283
     0
284
     8
340
11
  0
ENDTAB
  0
TABLE
  2
BLOCK_RECORD
  5
1
330
0
100
AcDbSymbolTable
 70
     3
  0
BLOCK_RECORD
  5
1F
330
1
100
AcDbSymbolTableRecord
100
AcDbBlockTableRecord
  2
*Model_Space
340
22
  0
BLOCK_RECORD
  5
1B
330
1
100
AcDbSymbolTableRecord
100
AcDbBlockTableRecord
  2
*Paper_Space
340
1E
  0
BLOCK_RECORD
  5
23
330
1
100
AcDbSymbolTableRecord
100
AcDbBlockTableRecord
  2
*Paper_Space0
340
26
  0
BLOCK_RECORD
  5
284
330
1
100
AcDbSymbolTableRecord
100
AcDbBlockTableRecord
  2
*Paper_Space1
340
285
  0
BLOCK_RECORD
  5
363
330
1
100
AcDbSymbolTableRecord
100
AcDbBlockTableRecord
  2
*Paper_Space2
340
364
  0
ENDTAB
  0
ENDSEC
  0
SECTION
  2
BLOCKS
  0
BLOCK
  5
20
330
1F
100
AcDbEntity
  8
0
100
AcDbBlockBegin
  2
*Model_Space
 70
     0
 10
0.0
 20
0.0
 30
0.0
  3
*Model_Space
  1

  0
ENDBLK
  5
21
330
1F
100
AcDbEntity
  8
0
100
AcDbBlockEnd
  0
BLOCK
  5
1C
330
1B
100
AcDbEntity
 67
     1
  8
0
100
AcDbBlockBegin
  2
*Paper_Space
 70
     0
 10
0.0
 20
0.0
 30
0.0
  3
*Paper_Space
  1

  0
ENDBLK
  5
1D
330
1B
100
AcDbEntity
 67
     1
  8
0
100
AcDbBlockEnd
  0
BLOCK
  5
24
330
23
100
AcDbEntity
  8
0
100
AcDbBlockBegin
  2
*Paper_Space0
 70
     0
 10
0.0
 20
0.0
 30
0.0
  3
*Paper_Space0
  1

  0
LINE
  5
22D
330
23
100
AcDbEntity
  8
0
  6
Continuous
 62
     7
370
    25
100
AcDbLine
 10
101.0
 20
95.5
 30
0.0
 11
101.0
 21
98.0
 31
0.0
  0
LINE
  5
22E
330
23
100
AcDbEntity
  8
0
  6
Continuous
 62
     7
370
    25
100
AcDbLine
 10
59.0
 20
98.0
 30
0.0
 11
59.0
 21
95.5
 31
0.0
  0
LINE
  5
22F
330
23
100
AcDbEntity
  8
0
  6
Continuous
 62
     7
370
    25
100
AcDbLine
 10
59.0
 20
118.3
 30
0.0
 11
58.8916849894
 21
118.3
 31
0.0
  0
LINE
  5
230
330
23
100
AcDbEntity
  8
0
  6
Continuous
 62
     7
370
    25
100
AcDbLine
 10
58.8916849894
 20
113.3
 30
0.0
 11
59.0
 21
113.3
 31
0.0
  0
LINE
  5
231
330
23
100
AcDbEntity
  8
0
  6
Continuous
 62
     7
370
    25
100
AcDbLine
 10
-101.0
 20
118.3
 30
0.0
 11
-101.1083150106
 21
118.3
 31
0.0
  0
LINE
  5
232
330
23
100
AcDbEntity
  8
0
  6
Continuous
 62
     7
370
    25
100
AcDbLine
 10
-101.1083150106
 20
113.3
 30
0.0
 11
-101.0
 21
113.3
 31
0.0
  0
LINE
  5
233
330
23
100
AcDbEntity
  8
0
  6
Continuous
 62
     7
370
    25
100
AcDbLine
 10
21.0
 20
118.3
 30
0.0
 11
24.5
 21
118.3
 31
0.0
  0
LINE
  5
234
330
23
100
AcDbEntity
  8
0
  6
Continuous
 62
     7
370
    25
100
AcDbLine
 10
24.5
 20
126.3
 30
0.0
 11
21.0
 21
126.3
 31
0.0
  0
LINE
  5
235
330
23
100
AcDbEntity
  8
0
  6
Continuous
 62
     7
370
    25
100
AcDbLine
 10
61.0
 20
98.8
 30
0.0
 11
61.0
 21
98.5
 31
0.0
  0
LINE
  5
236
330
23
100
AcDbEntity
  8
0
  6
Continuous
 62
     7
370
    25
100
AcDbLine
 10
99.0
 20
98.5
 30
0.0
 11
99.0
 21
98.8
 31
0.0
  0
LINE
  5
237
330
23
100
AcDbEntity
  8
0
  6
Continuous
 62
     7
370
    25
100
AcDbLine
 10
-21.0
 20
98.0
 30
0.0
 11
-21.0
 21
95.5
 31
0.0
  0
LINE
  5
238
330
23
100
AcDbEntity
  8
0
  6
Continuous
 62
     7
370
    25
100
AcDbLine
 10
21.0
 20
95.5
 30
0.0
 11
21.0
 21
98.0
 31
0.0
  0
LINE
  5
239
330
23
100
AcDbEntity
  8
0
  6
Continuous
 62
     7
370
    25
100
AcDbLine
 10
-19.0
 20
98.8
 30
0.0
 11
-19.0
 21
98.5
 31
0.0
  0
LINE
  5
23A
330
23
100
AcDbEntity
  8
0
  6
Continuous
 62
     7
370
    25
100
AcDbLine
 10
19.0
 20
98.5
 30
0.0
 11
19.0
 21
98.8
 31
0.0
  0
LINE
  5
23B
330
23
100
AcDbEntity
  8
0
  6
Continuous
 62
     7
370
    25
100
AcDbLine
 10
-99.0
 20
98.8
 30
0.0
 11
-99.0
 21
98.5
 31
0.0
  0
LINE
  5
23C
330
23
100
AcDbEntity
  8
0
  6
Continuous
 62
     7
370
    25
100
AcDbLine
 10
-61.0
 20
98.5
 30
0.0
 11
-61.0
 21
98.8
 31
0.0
  0
LINE
  5
23D
330
23
100
AcDbEntity
  8
0
  6
Continuous
 62
     7
370
    25
100
AcDbLine
 10
-59.0
 20
95.5
 30
0.0
 11
-59.0
 21
98.0
 31
0.0
  0
LINE
  5
23E
330
23
100
AcDbEntity
  8
0
  6
Continuous
 62
     7
370
    25
100
AcDbLine
 10
-101.0
 20
98.0
 30
0.0
 11
-101.0
 21
95.5
 31
0.0
  0
LINE
  5
23F
330
23
100
AcDbEntity
  8
0
  6
Continuous
 62
     7
370
    25
100
AcDbLine
 10
80.0
 20
95.5
 30
0.0
 11
80.0
 21
98.8
 31
0.0
  0
LINE
  5
240
330
23
100
AcDbEntity
  8
0
  6
Continuous
 62
     7
370
    25
100
AcDbLine
 10
100.5
 20
98.5
 30
0.0
 11
59.5
 21
98.5
 31
0.0
  0
LINE
  5
241
330
23
100
AcDbEntity
  8
0
  6
Continuous
 62
     7
370
    25
100
AcDbLine
 10
137.5
 20
95.0
 30
0.0
 11
-137.5
 21
95.0
 31
0.0
  0
LINE
  5
242
330
23
100
AcDbEntity
  8
0
  6
Continuous
 62
     7
370
    25
100
AcDbLine
 10
137.0
 20
93.5
 30
0.0
 11
137.0
 21
95.5
 31
0.0
  0
LINE
  5
243
330
23
100
AcDbEntity
  8
0
  6
Continuous
 62
     7
370
    25
100
AcDbLine
 10
-137.5
 20
93.5
 30
0.0
 11
137.5
 21
93.5
 31
0.0
  0
LINE
  5
244
330
23
100
AcDbEntity
  8
0
  6
Continuous
 62
     7
370
    25
100
AcDbLine
 10
-137.0
 20
93.5
 30
0.0
 11
-137.0
 21
95.5
 31
0.0
  0
LINE
  5
245
330
23
100
AcDbEntity
  8
0
  6
Continuous
 62
     7
370
    25
100
AcDbLine
 10
137.5
 20
93.5
 30
0.0
 11
137.5
 21
95.0
 31
0.0
  0
LINE
  5
246
330
23
100
AcDbEntity
  8
0
  6
Continuous
 62
     7
370
    25
100
AcDbLine
 10
-137.5
 20
93.5
 30
0.0
 11
-137.5
 21
95.0
 31
0.0
  0
LINE
  5
247
330
23
100
AcDbEntity
  8
0
  6
Continuous
 62
     7
370
    25
100
AcDbLine
 10
137.0
 20
95.5
 30
0.0
 11
-137.0
 21
95.5
 31
0.0
  0
LINE
  5
248
330
23
100
AcDbEntity
  8
0
  6
Continuous
 62
     7
370
    25
100
AcDbLine
 10
58.8916849894
 20
118.3
 30
0.0
 11
58.8916849894
 21
113.3
 31
0.0
  0
LINE
  5
249
330
23
100
AcDbEntity
  8
0
  6
Continuous
 62
     7
370
    25
100
AcDbLine
 10
-101.1083150106
 20
118.3
 30
0.0
 11
-101.1083150106
 21
113.3
 31
0.0
  0
LINE
  5
24A
330
23
100
AcDbEntity
  8
0
  6
Continuous
 62
     7
370
    25
100
AcDbLine
 10
-20.5
 20
136.8
 30
0.0
 11
-20.5
 21
98.8
 31
0.0
  0
LINE
  5
24B
330
23
100
AcDbEntity
  8
0
  6
Continuous
 62
     7
370
    25
100
AcDbLine
 10
21.0
 20
136.3
 30
0.0
 11
-21.0
 21
136.3
 31
0.0
  0
LINE
  5
24C
330
23
100
AcDbEntity
  8
0
  6
Continuous
 62
     7
370
    25
100
AcDbLine
 10
20.5
 20
98.8
 30
0.0
 11
20.5
 21
136.8
 31
0.0
  0
LINE
  5
24D
330
23
100
AcDbEntity
  8
0
  6
Continuous
 62
     7
370
    25
100
AcDbLine
 10
-21.0
 20
99.3
 30
0.0
 11
21.0
 21
99.3
 31
0.0
  0
LINE
  5
24E
330
23
100
AcDbEntity
  8
0
  6
Continuous
 62
     7
370
    25
100
AcDbLine
 10
21.0
 20
136.3
 30
0.0
 11
21.0
 21
99.3
 31
0.0
  0
LINE
  5
24F
330
23
100
AcDbEntity
  8
0
  6
Continuous
 62
     7
370
    25
100
AcDbLine
 10
20.5
 20
98.8
 30
0.0
 11
-20.5
 21
98.8
 31
0.0
  0
LINE
  5
250
330
23
100
AcDbEntity
  8
0
  6
Continuous
 62
     7
370
    25
100
AcDbLine
 10
-21.0
 20
99.3
 30
0.0
 11
-21.0
 21
136.3
 31
0.0
  0
LINE
  5
251
330
23
100
AcDbEntity
  8
0
  6
Continuous
 62
     7
370
    25
100
AcDbLine
 10
-20.5
 20
136.8
 30
0.0
 11
20.5
 21
136.8
 31
0.0
  0
LINE
  5
252
330
23
100
AcDbEntity
  8
0
  6
Continuous
 62
     7
370
    25
100
AcDbLine
 10
25.0
 20
125.8
 30
0.0
 11
25.0
 21
118.8
 31
0.0
  0
LINE
  5
253
330
23
100
AcDbEntity
  8
0
  6
Continuous
 62
     7
370
    25
100
AcDbLine
 10
21.0
 20
122.3
 30
0.0
 11
25.0
 21
122.3
 31
0.0
  0
LINE
  5
254
330
23
100
AcDbEntity
  8
0
  6
Continuous
 62
     7
370
    25
100
AcDbLine
 10
-20.5
 20
98.5
 30
0.0
 11
20.5
 21
98.5
 31
0.0
  0
LINE
  5
255
330
23
100
AcDbEntity
  8
0
  6
Continuous
 62
     7
370
    25
100
AcDbLine
 10
0.0
 20
95.5
 30
0.0
 11
0.0
 21
98.8
 31
0.0
  0
LINE
  5
256
330
23
100
AcDbEntity
  8
0
  6
Continuous
 62
     7
370
    25
100
AcDbLine
 10
59.5
 20
136.8
 30
0.0
 11
59.5
 21
98.8
 31
0.0
  0
LINE
  5
257
330
23
100
AcDbEntity
  8
0
  6
Continuous
 62
     7
370
    25
100
AcDbLine
 10
101.0
 20
136.3
 30
0.0
 11
59.0
 21
136.3
 31
0.0
  0
LINE
  5
258
330
23
100
AcDbEntity
  8
0
  6
Continuous
 62
     7
370
    25
100
AcDbLine
 10
100.5
 20
98.8
 30
0.0
 11
100.5
 21
136.8
 31
0.0
  0
LINE
  5
259
330
23
100
AcDbEntity
  8
0
  6
Continuous
 62
     7
370
    25
100
AcDbLine
 10
59.5
 20
136.8
 30
0.0
 11
100.5
 21
136.8
 31
0.0
  0
LINE
  5
25A
330
23
100
AcDbEntity
  8
0
  6
Continuous
 62
     7
370
    25
100
AcDbLine
 10
59.0
 20
99.3
 30
0.0
 11
101.0
 21
99.3
 31
0.0
  0
LINE
  5
25B
330
23
100
AcDbEntity
  8
0
  6
Continuous
 62
     7
370
    25
100
AcDbLine
 10
59.0
 20
99.3
 30
0.0
 11
59.0
 21
136.3
 31
0.0
  0
LINE
  5
25C
330
23
100
AcDbEntity
  8
0
  6
Continuous
 62
     7
370
    25
100
AcDbLine
 10
101.0
 20
136.3
 30
0.0
 11
101.0
 21
99.3
 31
0.0
  0
LINE
  5
25D
330
23
100
AcDbEntity
  8
0
  6
Continuous
 62
     7
370
    25
100
AcDbLine
 10
100.5
 20
98.8
 30
0.0
 11
59.5
 21
98.8
 31
0.0
  0
LINE
  5
25E
330
23
100
AcDbEntity
  8
0
  6
Continuous
 62
     7
370
    25
100
AcDbLine
 10
-59.5
 20
98.8
 30
0.0
 11
-100.5
 21
98.8
 31
0.0
  0
LINE
  5
25F
330
23
100
AcDbEntity
  8
0
  6
Continuous
 62
     7
370
    25
100
AcDbLine
 10
-100.5
 20
136.8
 30
0.0
 11
-100.5
 21
98.8
 31
0.0
  0
LINE
  5
260
330
23
100
AcDbEntity
  8
0
  6
Continuous
 62
     7
370
    25
100
AcDbLine
 10
-101.0
 20
99.3
 30
0.0
 11
-59.0
 21
99.3
 31
0.0
  0
LINE
  5
261
330
23
100
AcDbEntity
  8
0
  6
Continuous
 62
     7
370
    25
100
AcDbLine
 10
-59.5
 20
98.8
 30
0.0
 11
-59.5
 21
136.8
 31
0.0
  0
LINE
  5
262
330
23
100
AcDbEntity
  8
0
  6
Continuous
 62
     7
370
    25
100
AcDbLine
 10
-59.0
 20
136.3
 30
0.0
 11
-101.0
 21
136.3
 31
0.0
  0
LINE
  5
263
330
23
100
AcDbEntity
  8
0
  6
Continuous
 62
     7
370
    25
100
AcDbLine
 10
-59.0
 20
136.3
 30
0.0
 11
-59.0
 21
99.3
 31
0.0
  0
LINE
  5
264
330
23
100
AcDbEntity
  8
0
  6
Continuous
 62
     7
370
    25
100
AcDbLine
 10
-101.0
 20
99.3
 30
0.0
 11
-101.0
 21
136.3
 31
0.0
  0
LINE
  5
265
330
23
100
AcDbEntity
  8
0
  6
Continuous
 62
     7
370
    25
100
AcDbLine
 10
-100.5
 20
136.8
 30
0.0
 11
-59.5
 21
136.8
 31
0.0
  0
LINE
  5
266
330
23
100
AcDbEntity
  8
0
  6
Continuous
 62
     7
370
    25
100
AcDbLine
 10
-100.5
 20
98.5
 30
0.0
 11
-59.5
 21
98.5
 31
0.0
  0
LINE
  5
267
330
23
100
AcDbEntity
  8
0
  6
Continuous
 62
     7
370
    25
100
AcDbLine
 10
-80.0
 20
98.8
 30
0.0
 11
-80.0
 21
95.5
 31
0.0
  0
LINE
  5
268
330
23
100
AcDbEntity
  8
0
  6
Continuous
 62
     8
370
    25
100
AcDbLine
 10
101.0
 20
98.0
 30
0.0
 11
59.0
 21
98.0
 31
0.0
  0
LINE
  5
269
330
23
100
AcDbEntity
  8
0
  6
Continuous
 62
     8
370
    25
100
AcDbLine
 10
59.0
 20
114.8733918119
 30
0.0
 11
58.8916849894
 21
114.8733918119
 31
0.0
  0
LINE
  5
26A
330
23
100
AcDbEntity
  8
0
  6
Continuous
 62
     8
370
    25
100
AcDbLine
 10
-101.0
 20
114.8733918119
 30
0.0
 11
-101.1083150106
 21
114.8733918119
 31
0.0
  0
LINE
  5
26B
330
23
100
AcDbEntity
  8
0
  6
Continuous
 62
     8
370
    25
100
AcDbLine
 10
24.5
 20
126.3
 30
0.0
 11
24.5
 21
118.3
 31
0.0
  0
LINE
  5
26C
330
23
100
AcDbEntity
  8
0
  6
Continuous
 62
     8
370
    25
100
AcDbLine
 10
-21.0
 20
98.0
 30
0.0
 11
21.0
 21
98.0
 31
0.0
  0
LINE
  5
26D
330
23
100
AcDbEntity
  8
0
  6
Continuous
 62
     8
370
    25
100
AcDbLine
 10
-101.0
 20
98.0
 30
0.0
 11
-59.0
 21
98.0
 31
0.0
  0
ARC
  5
26E
330
23
100
AcDbEntity
  8
0
  6
Continuous
 62
     7
370
    25
100
AcDbCircle
 10
100.5
 20
98.0
 30
0.0
 40
0.5
100
AcDbArc
 50
0.0
 51
90.0
  0
ARC
  5
26F
330
23
100
AcDbEntity
  8
0
  6
Continuous
 62
     7
370
    25
100
AcDbCircle
 10
59.5
 20
98.0
 30
0.0
 40
0.4999999999999858
100
AcDbArc
 50
90.0
 51
180.0
  0
ARC
  5
270
330
23
100
AcDbEntity
  8
0
  6
Continuous
 62
     7
370
    25
100
AcDbCircle
 10
24.5
 20
118.8
 30
0.0
 40
0.5000000000000284
100
AcDbArc
 50
270.0
 51
360.0
  0
ARC
  5
271
330
23
100
AcDbEntity
  8
0
  6
Continuous
 62
     7
370
    25
100
AcDbCircle
 10
24.5
 20
125.8
 30
0.0
 40
0.5
100
AcDbArc
 50
360.0
 51
90.0
  0
ARC
  5
272
330
23
100
AcDbEntity
  8
0
  6
Continuous
 62
     7
370
    25
100
AcDbCircle
 10
-20.5
 20
98.0
 30
0.0
 40
0.5000000000000036
100
AcDbArc
 50
90.0
 51
180.0
  0
ARC
  5
273
330
23
100
AcDbEntity
  8
0
  6
Continuous
 62
     7
370
    25
100
AcDbCircle
 10
20.5
 20
98.0
 30
0.0
 40
0.5
100
AcDbArc
 50
0.0
 51
90.0
  0
ARC
  5
274
330
23
100
AcDbEntity
  8
0
  6
Continuous
 62
     7
370
    25
100
AcDbCircle
 10
-59.5
 20
98.0
 30
0.0
 40
0.4999999999999858
100
AcDbArc
 50
360.0
 51
90.0
  0
ARC
  5
275
330
23
100
AcDbEntity
  8
0
  6
Continuous
 62
     7
370
    25
100
AcDbCircle
 10
-100.5
 20
98.0
 30
0.0
 40
0.5000000000000142
100
AcDbArc
 50
90.0
 51
180.0
  0
ARC
  5
276
330
23
100
AcDbEntity
  8
0
  6
Continuous
 62
     7
370
    25
100
AcDbCircle
 10
137.0
 20
95.0
 30
0.0
 40
0.5000000000000426
100
AcDbArc
 50
0.0
 51
90.0
  0
ARC
  5
277
330
23
100
AcDbEntity
  8
0
  6
Continuous
 62
     7
370
    25
100
AcDbCircle
 10
-137.0
 20
95.0
 30
0.0
 40
0.5
100
AcDbArc
 50
90.0
 51
180.0
  0
ARC
  5
278
330
23
100
AcDbEntity
  8
0
  6
Continuous
 62
     7
370
    25
100
AcDbCircle
 10
-20.5
 20
99.3
 30
0.0
 40
0.5000000000000036
100
AcDbArc
 50
180.0
 51
270.0
  0
ARC
  5
279
330
23
100
AcDbEntity
  8
0
  6
Continuous
 62
     7
370
    25
100
AcDbCircle
 10
20.5
 20
136.3
 30
0.0
 40
0.5000000000000284
100
AcDbArc
 50
0.0
 51
90.0
  0
ARC
  5
27A
330
23
100
AcDbEntity
  8
0
  6
Continuous
 62
     7
370
    25
100
AcDbCircle
 10
-20.5
 20
136.3
 30
0.0
 40
0.5000000000000284
100
AcDbArc
 50
90.0
 51
180.0
  0
ARC
  5
27B
330
23
100
AcDbEntity
  8
0
  6
Continuous
 62
     7
370
    25
100
AcDbCircle
 10
20.5
 20
99.3
 30
0.0
 40
0.5000000000000142
100
AcDbArc
 50
270.0
 51
360.0
  0
ARC
  5
27C
330
23
100
AcDbEntity
  8
0
  6
Continuous
 62
     7
370
    25
100
AcDbCircle
 10
59.5
 20
136.3
 30
0.0
 40
0.5000000000000284
100
AcDbArc
 50
90.0
 51
180.0
  0
ARC
  5
27D
330
23
100
AcDbEntity
  8
0
  6
Continuous
 62
     7
370
    25
100
AcDbCircle
 10
100.5
 20
99.3
 30
0.0
 40
0.5000000000000142
100
AcDbArc
 50
270.0
 51
360.0
  0
ARC
  5
27E
330
23
100
AcDbEntity
  8
0
  6
Continuous
 62
     7
370
    25
100
AcDbCircle
 10
100.5
 20
136.3
 30
0.0
 40
0.5000000000000426
100
AcDbArc
 50
0.0
 51
90.0
  0
ARC
  5
27F
330
23
100
AcDbEntity
  8
0
  6
Continuous
 62
     7
370
    25
100
AcDbCircle
 10
59.5
 20
99.3
 30
0.0
 40
0.5
100
AcDbArc
 50
180.0
 51
270.0
  0
ARC
  5
280
330
23
100
AcDbEntity
  8
0
  6
Continuous
 62
     7
370
    25
100
AcDbCircle
 10
-59.5
 20
99.3
 30
0.0
 40
0.5
100
AcDbArc
 50
270.0
 51
0.0
  0
ARC
  5
281
330
23
100
AcDbEntity
  8
0
  6
Continuous
 62
     7
370
    25
100
AcDbCircle
 10
-100.5
 20
99.3
 30
0.0
 40
0.5000000000000142
100
AcDbArc
 50
180.0
 51
270.0
  0
ARC
  5
282
330
23
100
AcDbEntity
  8
0
  6
Continuous
 62
     7
370
    25
100
AcDbCircle
 10
-59.5
 20
136.3
 30
0.0
 40
0.5000000000000284
100
AcDbArc
 50
0.0
 51
90.0
  0
ARC
  5
283
330
23
100
AcDbEntity
  8
0
  6
Continuous
 62
     7
370
    25
100
AcDbCircle
 10
-100.5
 20
136.3
 30
0.0
 40
0.5000000000000284
100
AcDbArc
 50
90.0
 51
180.0
  0
VIEWPORT
  5
4C3
330
23
100
AcDbEntity
  8
0
100
AcDbViewport
 10
0.0
 20
0.0
 30
0.0
 40
205.6
 41
156.0
 68
     1
 69
     1
 12
0.0
 22
115.15
 13
0.0
 23
0.0
 14
10.0
 24
10.0
 15
10.0
 25
10.0
 16
0.0
 26
0.0
 36
1.0
 17
0.0
 27
0.0
 37
0.0
 42
50.0
 43
0.0
 44
0.0
 45
92.8715953307
 50
0.0
 51
0.0
 72
   100
 90
   557152
  1

281
     0
 71
     1
 74
     0
110
0.0
120
0.0
130
0.0
111
1.0
121
0.0
131
0.0
112
0.0
122
1.0
132
0.0
 79
     0
146
0.0
  0
ENDBLK
  5
25
330
23
100
AcDbEntity
  8
0
100
AcDbBlockEnd
  0
BLOCK
  5
286
330
284
100
AcDbEntity
  8
0
100
AcDbBlockBegin
  2
*Paper_Space1
 70
     0
 10
0.0
 20
0.0
 30
0.0
  3
*Paper_Space1
  1

  0
LWPOLYLINE
  5
28E
330
284
100
AcDbEntity
  8
0
  6
Continuous
 62
     7
370
    25
100
AcDbPolyline
 90
        3
 70
   128
 43
0.0
 10
3.25
 20
-21.0
 10
2.1498268422
 20
-21.1409731221
 10
0.0
 20
-21.25
  0
LWPOLYLINE
  5
296
330
284
100
AcDbEntity
  8
0
  6
Continuous
 62
     7
370
    25
100
AcDbPolyline
 90
        3
 70
   128
 43
0.0
 10
0.0
 20
101.25
 10
2.1498268422
 20
101.140973122
 10
3.25
 20
101.0
  0
LWPOLYLINE
  5
298
330
284
100
AcDbEntity
  8
0
  6
Continuous
 62
     7
370
    25
100
AcDbPolyline
 90
        3
 70
   128
 43
0.0
 10
3.25
 20
59.0
 10
2.1498268422
 20
58.8590268779
 10
0.0
 20
58.75
  0
LWPOLYLINE
  5
29A
330
284
100
AcDbEntity
  8
0
  6
Continuous
 62
     7
370
    25
100
AcDbPolyline
 90
        3
 70
   128
 43
0.0
 10
0.0
 20
58.75
 10
-2.1498268422
 20
58.8590268779
 10
-3.25
 20
59.0
  0
LWPOLYLINE
  5
29C
330
284
100
AcDbEntity
  8
0
  6
Continuous
 62
     7
370
    25
100
AcDbPolyline
 90
        3
 70
   128
 43
0.0
 10
-3.25
 20
101.0
 10
-2.1498268422
 20
101.140973122
 10
0.0
 20
101.25
  0
LWPOLYLINE
  5
2A8
330
284
100
AcDbEntity
  8
0
  6
Continuous
 62
     7
370
    25
100
AcDbPolyline
 90
        3
 70
   128
 43
0.0
 10
0.0
 20
-58.75
 10
2.1498268422
 20
-58.8590268779
 10
3.2500000003
 20
-59.0
  0
LWPOLYLINE
  5
2AA
330
284
100
AcDbEntity
  8
0
  6
Continuous
 62
     7
370
    25
100
AcDbPolyline
 90
        3
 70
   128
 43
0.0
 10
3.2499999997
 20
-101.0
 10
2.1498268422
 20
-101.1409731221
 10
0.0
 20
-101.25
  0
LWPOLYLINE
  5
2AC
330
284
100
AcDbEntity
  8
0
  6
Continuous
 62
     7
370
    25
100
AcDbPolyline
 90
        3
 70
   128
 43
0.0
 10
0.0
 20
-101.25
 10
-2.1498268422
 20
-101.1409731221
 10
-3.2499999997
 20
-101.0
  0
LWPOLYLINE
  5
2AE
330
284
100
AcDbEntity
  8
0
  6
Continuous
 62
     7
370
    25
100
AcDbPolyline
 90
        3
 70
   128
 43
0.0
 10
-3.2500000003
 20
-59.0
 10
-2.1498268422
 20
-58.8590268779
 10
0.0
 20
-58.75
  0
LWPOLYLINE
  5
2B3
330
284
100
AcDbEntity
  8
0
  6
Continuous
 62
     7
370
    25
100
AcDbPolyline
 90
        3
 70
   128
 43
0.0
 10
0.0
 20
-21.25
 10
-2.1498268422
 20
-21.1409731221
 10
-3.25
 20
-21.0
  0
LWPOLYLINE
  5
2FB
330
284
100
AcDbEntity
  8
0
  6
Continuous
 62
     8
370
    25
100
AcDbPolyline
 90
        3
 70
   128
 43
0.0
 10
4.0
 20
21.3790200898
 10
4.2432145039
 20
21.3320798487
 10
5.6623758265
 20
21.0
  0
LWPOLYLINE
  5
30C
330
284
100
AcDbEntity
  8
0
  6
Continuous
 62
     8
370
    25
100
AcDbPolyline
 90
        3
 70
   128
 43
0.0
 10
-5.6623758265
 20
21.0
 10
-4.2432145039
 20
21.3320798487
 10
-4.0
 20
21.3790200898
  0
LINE
  5
30F
330
284
100
AcDbEntity
  8
0
  6
Continuous
 62
     7
370
    25
100
AcDbLine
 10
2.5
 20
58.8916849894
 30
0.0
 11
2.5
 21
59.0
 31
0.0
  0
LINE
  5
310
330
284
100
AcDbEntity
  8
0
  6
Continuous
 62
     7
370
    25
100
AcDbLine
 10
-2.5
 20
59.0
 30
0.0
 11
-2.5
 21
58.8916849894
 31
0.0
  0
LINE
  5
311
330
284
100
AcDbEntity
  8
0
  6
Continuous
 62
     7
370
    25
100
AcDbLine
 10
2.5
 20
-101.1083150106
 30
0.0
 11
2.5
 21
-101.0
 31
0.0
  0
LINE
  5
312
330
284
100
AcDbEntity
  8
0
  6
Continuous
 62
     7
370
    25
100
AcDbLine
 10
-2.5
 20
-101.0
 30
0.0
 11
-2.5
 21
-101.1083150106
 31
0.0
  0
LINE
  5
313
330
284
100
AcDbEntity
  8
0
  6
Continuous
 62
     7
370
    25
100
AcDbLine
 10
0.0
 20
-21.75
 30
0.0
 11
0.0
 21
-21.25
 31
0.0
  0
LINE
  5
314
330
284
100
AcDbEntity
  8
0
  6
Continuous
 62
     7
370
    25
100
AcDbLine
 10
59.5
 20
-137.5
 30
0.0
 11
-59.5
 21
-137.5
 31
0.0
  0
LINE
  5
315
330
284
100
AcDbEntity
  8
0
  6
Continuous
 62
     7
370
    25
100
AcDbLine
 10
60.0
 20
-137.0
 30
0.0
 11
-60.0
 21
-137.0
 31
0.0
  0
LINE
  5
316
330
284
100
AcDbEntity
  8
0
  6
Continuous
 62
     7
370
    25
100
AcDbLine
 10
0.0
 20
58.25
 30
0.0
 11
0.0
 21
58.75
 31
0.0
  0
LINE
  5
317
330
284
100
AcDbEntity
  8
0
  6
Continuous
 62
     7
370
    25
100
AcDbLine
 10
0.0
 20
101.75
 30
0.0
 11
0.0
 21
101.25
 31
0.0
  0
LINE
  5
318
330
284
100
AcDbEntity
  8
0
  6
Continuous
 62
     7
370
    25
100
AcDbLine
 10
-60.0
 20
137.0
 30
0.0
 11
60.0
 21
137.0
 31
0.0
  0
LINE
  5
319
330
284
100
AcDbEntity
  8
0
  6
Continuous
 62
     7
370
    25
100
AcDbLine
 10
59.5
 20
137.5
 30
0.0
 11
59.5
 21
-137.5
 31
0.0
  0
LINE
  5
31A
330
284
100
AcDbEntity
  8
0
  6
Continuous
 62
     7
370
    25
100
AcDbLine
 10
-59.5
 20
137.5
 30
0.0
 11
59.5
 21
137.5
 31
0.0
  0
LINE
  5
31B
330
284
100
AcDbEntity
  8
0
  6
Continuous
 62
     7
370
    25
100
AcDbLine
 10
-59.5
 20
-137.5
 30
0.0
 11
-59.5
 21
137.5
 31
0.0
  0
LINE
  5
31C
330
284
100
AcDbEntity
  8
0
  6
Continuous
 62
     7
370
    25
100
AcDbLine
 10
60.0
 20
137.0
 30
0.0
 11
60.0
 21
-137.0
 31
0.0
  0
LINE
  5
31D
330
284
100
AcDbEntity
  8
0
  6
Continuous
 62
     7
370
    25
100
AcDbLine
 10
0.0
 20
-101.75
 30
0.0
 11
0.0
 21
-101.25
 31
0.0
  0
LINE
  5
31E
330
284
100
AcDbEntity
  8
0
  6
Continuous
 62
     7
370
    25
100
AcDbLine
 10
0.0
 20
-58.25
 30
0.0
 11
0.0
 21
-58.75
 31
0.0
  0
LINE
  5
31F
330
284
100
AcDbEntity
  8
0
  6
Continuous
 62
     7
370
    25
100
AcDbLine
 10
-60.0
 20
-137.0
 30
0.0
 11
-60.0
 21
137.0
 31
0.0
  0
LINE
  5
320
330
284
100
AcDbEntity
  8
0
  6
Continuous
 62
     7
370
    25
100
AcDbLine
 10
-2.5
 20
58.8916849894
 30
0.0
 11
2.5
 21
58.8916849894
 31
0.0
  0
LINE
  5
321
330
284
100
AcDbEntity
  8
0
  6
Continuous
 62
     7
370
    25
100
AcDbLine
 10
-2.5
 20
-101.1083150106
 30
0.0
 11
2.5
 21
-101.1083150106
 31
0.0
  0
LINE
  5
322
330
284
100
AcDbEntity
  8
0
  6
Continuous
 62
     7
370
    25
100
AcDbLine
 10
20.5
 20
-21.0
 30
0.0
 11
-20.5
 21
-21.0
 31
0.0
  0
LINE
  5
323
330
284
100
AcDbEntity
  8
0
  6
Continuous
 62
     7
370
    25
100
AcDbLine
 10
-21.0
 20
-20.5
 30
0.0
 11
21.0
 21
-20.5
 31
0.0
  0
LINE
  5
324
330
284
100
AcDbEntity
  8
0
  6
Continuous
 62
     7
370
    25
100
AcDbLine
 10
-20.5
 20
21.0
 30
0.0
 11
-20.5
 21
-21.0
 31
0.0
  0
LINE
  5
325
330
284
100
AcDbEntity
  8
0
  6
Continuous
 62
     7
370
    25
100
AcDbLine
 10
-20.5
 20
21.0
 30
0.0
 11
20.5
 21
21.0
 31
0.0
  0
LINE
  5
326
330
284
100
AcDbEntity
  8
0
  6
Continuous
 62
     7
370
    25
100
AcDbLine
 10
20.5
 20
-21.0
 30
0.0
 11
20.5
 21
21.0
 31
0.0
  0
LINE
  5
327
330
284
100
AcDbEntity
  8
0
  6
Continuous
 62
     7
370
    25
100
AcDbLine
 10
21.0
 20
20.4999999999
 30
0.0
 11
-21.0
 21
20.5
 31
0.0
  0
LINE
  5
328
330
284
100
AcDbEntity
  8
0
  6
Continuous
 62
     7
370
    25
100
AcDbLine
 10
21.0
 20
20.4999999999
 30
0.0
 11
21.0
 21
-20.5
 31
0.0
  0
LINE
  5
329
330
284
100
AcDbEntity
  8
0
  6
Continuous
 62
     7
370
    25
100
AcDbLine
 10
-21.0
 20
-20.5
 30
0.0
 11
-21.0
 21
20.5
 31
0.0
  0
LINE
  5
32A
330
284
100
AcDbEntity
  8
0
  6
Continuous
 62
     7
370
    25
100
AcDbLine
 10
-3.5
 20
25.0
 30
0.0
 11
3.5
 21
25.0
 31
0.0
  0
LINE
  5
32B
330
284
100
AcDbEntity
  8
0
  6
Continuous
 62
     7
370
    25
100
AcDbLine
 10
-4.0
 20
24.5
 30
0.0
 11
4.0
 21
24.5
 31
0.0
  0
LINE
  5
32C
330
284
100
AcDbEntity
  8
0
  6
Continuous
 62
     7
370
    25
100
AcDbLine
 10
4.0
 20
21.0
 30
0.0
 11
4.0
 21
24.5
 31
0.0
  0
LINE
  5
32D
330
284
100
AcDbEntity
  8
0
  6
Continuous
 62
     7
370
    25
100
AcDbLine
 10
-4.0
 20
24.5
 30
0.0
 11
-4.0
 21
21.0
 31
0.0
  0
LINE
  5
32E
330
284
100
AcDbEntity
  8
0
  6
Continuous
 62
     7
370
    25
100
AcDbLine
 10
-21.0
 20
59.4999999997
 30
0.0
 11
21.0
 21
59.4999999993
 31
0.0
  0
LINE
  5
32F
330
284
100
AcDbEntity
  8
0
  6
Continuous
 62
     7
370
    25
100
AcDbLine
 10
20.5000000003
 20
59.0
 30
0.0
 11
20.5000000007
 21
101.0
 31
0.0
  0
LINE
  5
330
330
284
100
AcDbEntity
  8
0
  6
Continuous
 62
     7
370
    25
100
AcDbLine
 10
21.0
 20
100.5000000003
 30
0.0
 11
-21.0
 21
100.5000000007
 31
0.0
  0
LINE
  5
331
330
284
100
AcDbEntity
  8
0
  6
Continuous
 62
     7
370
    25
100
AcDbLine
 10
-20.5000000003
 20
101.0
 30
0.0
 11
-20.5000000007
 21
59.0
 31
0.0
  0
LINE
  5
332
330
284
100
AcDbEntity
  8
0
  6
Continuous
 62
     7
370
    25
100
AcDbLine
 10
-21.0
 20
59.4999999997
 30
0.0
 11
-21.0
 21
100.5000000007
 31
0.0
  0
LINE
  5
333
330
284
100
AcDbEntity
  8
0
  6
Continuous
 62
     7
370
    25
100
AcDbLine
 10
20.5000000003
 20
59.0
 30
0.0
 11
-20.5000000007
 21
59.0
 31
0.0
  0
LINE
  5
334
330
284
100
AcDbEntity
  8
0
  6
Continuous
 62
     7
370
    25
100
AcDbLine
 10
21.0
 20
100.5000000003
 30
0.0
 11
21.0
 21
59.4999999993
 31
0.0
  0
LINE
  5
335
330
284
100
AcDbEntity
  8
0
  6
Continuous
 62
     7
370
    25
100
AcDbLine
 10
-20.5000000003
 20
101.0
 30
0.0
 11
20.5000000007
 21
101.0
 31
0.0
  0
LINE
  5
336
330
284
100
AcDbEntity
  8
0
  6
Continuous
 62
     7
370
    25
100
AcDbLine
 10
-20.5000000003
 20
-59.0
 30
0.0
 11
-20.5000000007
 21
-101.0
 31
0.0
  0
LINE
  5
337
330
284
100
AcDbEntity
  8
0
  6
Continuous
 62
     7
370
    25
100
AcDbLine
 10
-21.0
 20
-100.5000000003
 30
0.0
 11
21.0
 21
-100.5000000007
 31
0.0
  0
LINE
  5
338
330
284
100
AcDbEntity
  8
0
  6
Continuous
 62
     7
370
    25
100
AcDbLine
 10
20.5000000003
 20
-101.0
 30
0.0
 11
20.5000000007
 21
-59.0
 31
0.0
  0
LINE
  5
339
330
284
100
AcDbEntity
  8
0
  6
Continuous
 62
     7
370
    25
100
AcDbLine
 10
20.5000000003
 20
-101.0
 30
0.0
 11
-20.5000000007
 21
-101.0
 31
0.0
  0
LINE
  5
33A
330
284
100
AcDbEntity
  8
0
  6
Continuous
 62
     7
370
    25
100
AcDbLine
 10
21.0
 20
-59.4999999997
 30
0.0
 11
-21.0
 21
-59.4999999993
 31
0.0
  0
LINE
  5
33B
330
284
100
AcDbEntity
  8
0
  6
Continuous
 62
     7
370
    25
100
AcDbLine
 10
-20.5000000003
 20
-59.0
 30
0.0
 11
20.5000000007
 21
-59.0
 31
0.0
  0
LINE
  5
33C
330
284
100
AcDbEntity
  8
0
  6
Continuous
 62
     7
370
    25
100
AcDbLine
 10
21.0
 20
-59.4999999997
 30
0.0
 11
21.0
 21
-100.5000000007
 31
0.0
  0
LINE
  5
33D
330
284
100
AcDbEntity
  8
0
  6
Continuous
 62
     7
370
    25
100
AcDbLine
 10
-21.0
 20
-100.5000000003
 30
0.0
 11
-21.0
 21
-59.4999999993
 31
0.0
  0
LINE
  5
33E
330
284
100
AcDbEntity
  8
0
  6
Continuous
 62
     8
370
    25
100
AcDbLine
 10
-2.3219382562
 20
59.0
 30
0.0
 11
-2.3219382562
 21
58.8916849894
 31
0.0
  0
LINE
  5
33F
330
284
100
AcDbEntity
  8
0
  6
Continuous
 62
     8
370
    25
100
AcDbLine
 10
-2.3219382562
 20
-101.0
 30
0.0
 11
-2.3219382562
 21
-101.1083150106
 31
0.0
  0
ARC
  5
340
330
284
100
AcDbEntity
  8
0
  6
Continuous
 62
     7
370
    25
100
AcDbCircle
 10
0.0000000029
 20
0.0
 30
0.0
 40
21.24999999710993
100
AcDbArc
 50
351.2025892888
 51
8.7974107112
  0
ARC
  5
341
330
284
100
AcDbEntity
  8
0
  6
Continuous
 62
     7
370
    25
100
AcDbCircle
 10
59.5
 20
-137.0
 30
0.0
 40
0.4999999999999147
100
AcDbArc
 50
270.0
 51
0.0
  0
ARC
  5
342
330
284
100
AcDbEntity
  8
0
  6
Continuous
 62
     7
370
    25
100
AcDbCircle
 10
0.0
 20
80.0
 30
0.0
 40
21.24999999998119
100
AcDbArc
 50
351.20258929
 51
8.79741071
  0
ARC
  5
343
330
284
100
AcDbEntity
  8
0
  6
Continuous
 62
     7
370
    25
100
AcDbCircle
 10
-0.0000000001
 20
80.0
 30
0.0
 40
21.24999999994602
100
AcDbArc
 50
171.20258929
 51
188.79741071
  0
ARC
  5
344
330
284
100
AcDbEntity
  8
0
  6
Continuous
 62
     7
370
    25
100
AcDbCircle
 10
59.5
 20
137.0
 30
0.0
 40
0.4999999999999787
100
AcDbArc
 50
360.0
 51
90.0
  0
ARC
  5
345
330
284
100
AcDbEntity
  8
0
  6
Continuous
 62
     7
370
    25
100
AcDbCircle
 10
-59.5
 20
-137.0
 30
0.0
 40
0.5
100
AcDbArc
 50
180.0
 51
270.0
  0
ARC
  5
346
330
284
100
AcDbEntity
  8
0
  6
Continuous
 62
     7
370
    25
100
AcDbCircle
 10
-0.0000000578
 20
-80.0
 30
0.0
 40
21.25000005710404
100
AcDbArc
 50
351.2025893138
 51
8.7974106862
  0
ARC
  5
347
330
284
100
AcDbEntity
  8
0
  6
Continuous
 62
     7
370
    25
100
AcDbCircle
 10
-0.0000000001
 20
-80.0
 30
0.0
 40
21.2499999999429
100
AcDbArc
 50
171.20258929
 51
188.79741071
  0
ARC
  5
348
330
284
100
AcDbEntity
  8
0
  6
Continuous
 62
     7
370
    25
100
AcDbCircle
 10
-59.5
 20
137.0
 30
0.0
 40
0.4999999999999716
100
AcDbArc
 50
90.0
 51
180.0
  0
ARC
  5
349
330
284
100
AcDbEntity
  8
0
  6
Continuous
 62
     7
370
    25
100
AcDbCircle
 10
-0.0000000001
 20
0.0
 30
0.0
 40
21.24999999994572
100
AcDbArc
 50
171.20258929
 51
188.79741071
  0
ARC
  5
34A
330
284
100
AcDbEntity
  8
0
  6
Continuous
 62
     7
370
    25
100
AcDbCircle
 10
20.5
 20
20.5
 30
0.0
 40
0.5000000000000036
100
AcDbArc
 50
359.9999999977
 51
90.0
  0
ARC
  5
34B
330
284
100
AcDbEntity
  8
0
  6
Continuous
 62
     7
370
    25
100
AcDbCircle
 10
-20.5
 20
-20.5
 30
0.0
 40
0.4999999999999964
100
AcDbArc
 50
179.9999999977
 51
270.0
  0
ARC
  5
34C
330
284
100
AcDbEntity
  8
0
  6
Continuous
 62
     7
370
    25
100
AcDbCircle
 10
-20.5
 20
20.5
 30
0.0
 40
0.5000000000000036
100
AcDbArc
 50
89.9999999977
 51
180.0
  0
ARC
  5
34D
330
284
100
AcDbEntity
  8
0
  6
Continuous
 62
     7
370
    25
100
AcDbCircle
 10
20.5
 20
-20.5
 30
0.0
 40
0.4999999999999964
100
AcDbArc
 50
269.9999999977
 51
0.0
  0
ARC
  5
34E
330
284
100
AcDbEntity
  8
0
  6
Continuous
 62
     7
370
    25
100
AcDbCircle
 10
3.5
 20
24.5
 30
0.0
 40
0.5000000000000071
100
AcDbArc
 50
0.0
 51
90.0
  0
ARC
  5
34F
330
284
100
AcDbEntity
  8
0
  6
Continuous
 62
     7
370
    25
100
AcDbCircle
 10
-3.5
 20
24.5
 30
0.0
 40
0.5000000000000071
100
AcDbArc
 50
90.0
 51
180.0
  0
ARC
  5
350
330
284
100
AcDbEntity
  8
0
  6
Continuous
 62
     7
370
    25
100
AcDbCircle
 10
20.5
 20
59.5
 30
0.0
 40
0.4999999999999893
100
AcDbArc
 50
270.0000000332
 51
359.9999999186
  0
ARC
  5
351
330
284
100
AcDbEntity
  8
0
  6
Continuous
 62
     7
370
    25
100
AcDbCircle
 10
-20.5
 20
100.5
 30
0.0
 40
0.5
100
AcDbArc
 50
90.0000000332
 51
179.9999999198
  0
ARC
  5
352
330
284
100
AcDbEntity
  8
0
  6
Continuous
 62
     7
370
    25
100
AcDbCircle
 10
20.5
 20
100.5
 30
0.0
 40
0.5000000000000142
100
AcDbArc
 50
0.0000000344
 51
89.9999999186
  0
ARC
  5
353
330
284
100
AcDbEntity
  8
0
  6
Continuous
 62
     7
370
    25
100
AcDbCircle
 10
-20.5
 20
59.5
 30
0.0
 40
0.5
100
AcDbArc
 50
180.0000000332
 51
269.9999999186
  0
ARC
  5
354
330
284
100
AcDbEntity
  8
0
  6
Continuous
 62
     7
370
    25
100
AcDbCircle
 10
-20.5
 20
-100.5
 30
0.0
 40
0.5000000000000142
100
AcDbArc
 50
180.0000000332
 51
269.9999999186
  0
ARC
  5
355
330
284
100
AcDbEntity
  8
0
  6
Continuous
 62
     7
370
    25
100
AcDbCircle
 10
20.5
 20
-59.5
 30
0.0
 40
0.5000000000000071
100
AcDbArc
 50
0.0000000344
 51
89.9999999186
  0
ARC
  5
356
330
284
100
AcDbEntity
  8
0
  6
Continuous
 62
     7
370
    25
100
AcDbCircle
 10
20.5
 20
-100.5
 30
0.0
 40
0.5
100
AcDbArc
 50
270.0000000332
 51
359.9999999186
  0
ARC
  5
357
330
284
100
AcDbEntity
  8
0
  6
Continuous
 62
     7
370
    25
100
AcDbCircle
 10
-20.5
 20
-59.5
 30
0.0
 40
0.4999999999999929
100
AcDbArc
 50
90.0000000332
 51
179.9999999198
  0
ARC
  5
358
330
284
100
AcDbEntity
  8
0
  6
Continuous
 62
     8
370
    25
100
AcDbCircle
 10
0.0000000001
 20
0.0
 30
0.0
 40
21.74999999994939
100
AcDbArc
 50
344.9098148205
 51
15.0901851795
  0
ARC
  5
359
330
284
100
AcDbEntity
  8
0
  6
Continuous
 62
     8
370
    25
100
AcDbCircle
 10
0.0
 20
0.0
 30
0.0
 40
21.74999999999944
100
AcDbArc
 50
254.9098148206
 51
285.0901851795
  0
ARC
  5
35A
330
284
100
AcDbEntity
  8
0
  6
Continuous
 62
     8
370
    25
100
AcDbCircle
 10
0.0
 20
80.0
 30
0.0
 40
21.75000000000266
100
AcDbArc
 50
74.9098148206
 51
105.0901851794
  0
ARC
  5
35B
330
284
100
AcDbEntity
  8
0
  6
Continuous
 62
     8
370
    25
100
AcDbCircle
 10
0.0
 20
80.0
 30
0.0
 40
21.7500000000012
100
AcDbArc
 50
344.9098148206
 51
15.0901851794
  0
ARC
  5
35C
330
284
100
AcDbEntity
  8
0
  6
Continuous
 62
     8
370
    25
100
AcDbCircle
 10
0.0
 20
80.0
 30
0.0
 40
21.75000000000544
100
AcDbArc
 50
254.9098148206
 51
285.0901851794
  0
ARC
  5
35D
330
284
100
AcDbEntity
  8
0
  6
Continuous
 62
     8
370
    25
100
AcDbCircle
 10
0.0
 20
80.0
 30
0.0
 40
21.75000000000049
100
AcDbArc
 50
164.9098148206
 51
195.0901851794
  0
ARC
  5
35E
330
284
100
AcDbEntity
  8
0
  6
Continuous
 62
     8
370
    25
100
AcDbCircle
 10
-0.0000000002
 20
-79.9999999989
 30
0.0
 40
21.75000000157162
100
AcDbArc
 50
74.9098148209
 51
105.09018518
  0
ARC
  5
35F
330
284
100
AcDbEntity
  8
0
  6
Continuous
 62
     8
370
    25
100
AcDbCircle
 10
-0.0000000011
 20
-80.0
 30
0.0
 40
21.75000000103024
100
AcDbArc
 50
344.9098148213
 51
15.0901851787
  0
ARC
  5
360
330
284
100
AcDbEntity
  8
0
  6
Continuous
 62
     8
370
    25
100
AcDbCircle
 10
0.0
 20
-80.0
 30
0.0
 40
21.75000000273681
100
AcDbArc
 50
254.909814821
 51
285.0901851781
  0
ARC
  5
361
330
284
100
AcDbEntity
  8
0
  6
Continuous
 62
     8
370
    25
100
AcDbCircle
 10
0.0
 20
-80.0
 30
0.0
 40
21.75000000000048
100
AcDbArc
 50
164.9098148206
 51
195.0901851794
  0
ARC
  5
362
330
284
100
AcDbEntity
  8
0
  6
Continuous
 62
     8
370
    25
100
AcDbCircle
 10
0.0
 20
0.0
 30
0.0
 40
21.75000000000041
100
AcDbArc
 50
164.9098148206
 51
195.0901851794
  0
VIEWPORT
  5
4C5
330
284
100
AcDbEntity
  8
0
100
AcDbViewport
 10
0.0
 20
0.0
 30
0.0
 40
205.6
 41
156.0
 68
     1
 69
     1
 12
0.0
 22
115.15
 13
0.0
 23
0.0
 14
10.0
 24
10.0
 15
10.0
 25
10.0
 16
0.0
 26
0.0
 36
1.0
 17
0.0
 27
0.0
 37
0.0
 42
50.0
 43
0.0
 44
0.0
 45
92.8715953307
 50
0.0
 51
0.0
 72
   100
 90
   557152
  1

281
     0
 71
     1
 74
     0
110
0.0
120
0.0
130
0.0
111
1.0
121
0.0
131
0.0
112
0.0
122
1.0
132
0.0
 79
     0
146
0.0
  0
ENDBLK
  5
287
330
284
100
AcDbEntity
  8
0
100
AcDbBlockEnd
  0
BLOCK
  5
365
330
363
100
AcDbEntity
  8
0
100
AcDbBlockBegin
  2
*Paper_Space2
 70
     0
 10
0.0
 20
0.0
 30
0.0
  3
*Paper_Space2
  1

  0
SPLINE
  5
3CC
330
363
100
AcDbEntity
  8
0
  6
Continuous
 62
     7
370
    25
100
AcDbSpline
210
0.0
220
0.0
230
1.0
 70
     8
 71
     3
 72
     8
 73
     4
 74
     0
 42
0.000000001
 43
0.00000001
 40
0.0
 40
0.0
 40
0.0
 40
0.0
 40
1.0
 40
1.0
 40
1.0
 40
1.0
 10
-5.000000000003487
 20
-92.53993620394307
 30
0.0
 10
-3.414066358891512
 20
-93.17228935762552
 30
0.0
 10
-1.707297124330304
 20
-93.5000071315965
 30
0.0
 10
0.0000563905962227
 20
-93.49999999984223
 30
0.0
  0
SPLINE
  5
3CD
330
363
100
AcDbEntity
  8
0
  6
Continuous
 62
     7
370
    25
100
AcDbSpline
210
0.0
220
0.0
230
1.0
 70
     8
 71
     3
 72
     8
 73
     4
 74
     0
 42
0.000000001
 43
0.00000001
 40
0.0
 40
0.0
 40
0.0
 40
0.0
 40
1.0
 40
1.0
 40
1.0
 40
1.0
 10
0.0000563905962227
 20
-93.49999999984223
 30
0.0
 10
1.707384969950851
 20
-93.49999286819212
 30
0.0
 10
3.414126573761415
 20
-93.17227051860135
 30
0.0
 10
5.000035273873765
 20
-92.53992213927243
 30
0.0
  0
SPLINE
  5
3D0
330
363
100
AcDbEntity
  8
0
  6
Continuous
 62
     7
370
    25
100
AcDbSpline
210
0.0
220
0.0
230
1.0
 70
     8
 71
     3
 72
     9
 73
     5
 74
     0
 42
0.000000001
 43
0.00000001
 40
0.0
 40
0.0
 40
0.0
 40
0.0
 40
0.4908600873692259
 40
1.0
 40
1.0
 40
1.0
 40
1.0
 10
-4.999997246344101
 20
-92.53992193532909
 30
0.0
 10
-4.99999856450066
 20
-92.71543534069397
 30
0.0
 10
-5.000001249902455
 20
-93.07299834058172
 30
0.0
 10
-4.999999184304908
 20
-93.42925683903528
 30
0.0
 10
-4.999998132626754
 20
-93.61064225981193
 30
0.0
  0
SPLINE
  5
3D1
330
363
100
AcDbEntity
  8
0
  6
Continuous
 62
     7
370
    25
100
AcDbSpline
210
0.0
220
0.0
230
1.0
 70
     8
 71
     3
 72
     9
 73
     5
 74
     0
 42
0.000000001
 43
0.00000001
 40
0.0
 40
0.0
 40
0.0
 40
0.0
 40
0.5089747972986132
 40
1.0
 40
1.0
 40
1.0
 40
1.0
 10
5.000007215311423
 20
-93.61067658513801
 30
0.0
 10
5.00001124912506
 20
-93.42935437855685
 30
0.0
 10
5.000019174495153
 20
-93.07310450617905
 30
0.0
 10
5.000022632008069
 20
-92.71555014950336
 30
0.0
 10
5.000024329734051
 20
-92.53998194903993
 30
0.0
  0
SPLINE
  5
3D3
330
363
100
AcDbEntity
  8
0
  6
Continuous
 62
     7
370
    25
100
AcDbSpline
210
0.0
220
0.0
230
1.0
 70
     8
 71
     3
 72
    10
 73
     6
 74
     0
 42
0.000000001
 43
0.00000001
 40
0.0
 40
0.0
 40
0.0
 40
0.0
 40
0.5
 40
0.5
 40
1.0
 40
1.0
 40
1.0
 40
1.0
 10
-12.53992334032078
 20
-74.99996773817628
 30
0.0
 10
-13.17227575627444
 20
-76.58588766928021
 30
0.0
 10
-13.49999780373055
 20
-78.29264212736696
 30
0.0
 10
-13.50000219624711
 20
-81.70732314077378
 30
0.0
 10
-13.17228453980091
 20
-83.4140784419934
 30
0.0
 10
-12.53993620398423
 20
-84.99999999996055
 30
0.0
  0
SPLINE
  5
3D4
330
363
100
AcDbEntity
  8
0
  6
Continuous
 62
     7
370
    25
100
AcDbSpline
210
0.0
220
0.0
230
1.0
 70
     8
 71
     3
 72
     9
 73
     5
 74
     0
 42
0.000000001
 43
0.00000001
 40
0.0
 40
0.0
 40
0.0
 40
0.0
 40
0.5091387684159109
 40
1.0
 40
1.0
 40
1.0
 40
1.0
 10
-13.61064307991195
 20
-84.99999822732059
 30
0.0
 10
-13.42925812549399
 20
-84.99999930000331
 30
0.0
 10
-13.07299974237714
 20
-85.00000140686055
 30
0.0
 10
-12.71543685526857
 20
-84.99999876431569
 30
0.0
 10
-12.5399230961337
 20
-84.99999746719288
 30
0.0
  0
SPLINE
  5
3D5
330
363
100
AcDbEntity
  8
0
  6
Continuous
 62
     7
370
    25
100
AcDbSpline
210
0.0
220
0.0
230
1.0
 70
     8
 71
     3
 72
     9
 73
     5
 74
     0
 42
0.000000001
 43
0.00000001
 40
0.0
 40
0.0
 40
0.0
 40
0.0
 40
0.4910091762154934
 40
0.9999999999999999
 40
0.9999999999999999
 40
0.9999999999999999
 40
0.9999999999999999
 10
-12.53997795886287
 20
-74.9999776222963
 30
0.0
 10
-12.71554060524495
 20
-74.99997902678595
 30
0.0
 10
-13.07309532089252
 20
-74.99998188720024
 30
0.0
 10
-13.42934555264902
 20
-74.99998924312469
 30
0.0
 10
-13.61067365158418
 20
-74.99999298722275
 30
0.0
  0
SPLINE
  5
3D8
330
363
100
AcDbEntity
  8
0
  6
Continuous
 62
     7
370
    25
100
AcDbSpline
210
0.0
220
0.0
230
1.0
 70
     8
 71
     3
 72
     9
 73
     5
 74
     0
 42
0.000000001
 43
0.00000001
 40
0.0
 40
0.0
 40
0.0
 40
0.0
 40
0.4908839496891429
 40
1.0
 40
1.0
 40
1.0
 40
1.0
 10
12.53993637197331
 20
-85.00000293124793
 30
0.0
 10
12.71545859260875
 20
-85.0000038117108
 30
0.0
 10
13.07302216898272
 20
-85.00000560533815
 30
0.0
 10
13.42928121314995
 20
-85.00000268429828
 30
0.0
 10
13.61065841060389
 20
-85.00000119715001
 30
0.0
  0
SPLINE
  5
3D9
330
363
100
AcDbEntity
  8
0
  6
Continuous
 62
     7
370
    25
100
AcDbSpline
210
0.0
220
0.0
230
1.0
 70
     8
 71
     3
 72
     9
 73
     5
 74
     0
 42
0.000000001
 43
0.00000001
 40
0.0
 40
0.0
 40
0.0
 40
0.0
 40
0.5091315701185848
 40
1.0
 40
1.0
 40
1.0
 40
1.0
 10
13.6106545368792
 20
-75.00000037282788
 30
0.0
 10
13.42927214456982
 20
-74.99999916709169
 30
0.0
 10
13.07301375684671
 20
-74.99999679887041
 30
0.0
 10
12.71545084556993
 20
-74.99999917204205
 30
0.0
 10
12.53993450072767
 20
-75.00000033695711
 30
0.0
  0
SPLINE
  5
3DE
330
363
100
AcDbEntity
  8
0
  6
Continuous
 62
     7
370
    25
100
AcDbSpline
210
0.0
220
0.0
230
1.0
 70
     8
 71
     3
 72
     9
 73
     5
 74
     0
 42
0.000000001
 43
0.00000001
 40
0.0
 40
0.0
 40
0.0
 40
0.0
 40
0.4908683462159253
 40
1.0
 40
1.0
 40
1.0
 40
1.0
 10
4.999999676169994
 20
-67.46006543437657
 30
0.0
 10
5.00000084261965
 20
-67.2845491016182
 30
0.0
 10
5.000003218918031
 20
-66.92698615401437
 30
0.0
 10
5.000000853623502
 20
-66.57072772989329
 30
0.0
 10
4.999999649377187
 20
-66.38934528924602
 30
0.0
  0
SPLINE
  5
3DF
330
363
100
AcDbEntity
  8
0
  6
Continuous
 62
     7
370
    25
100
AcDbSpline
210
0.0
220
0.0
230
1.0
 70
     8
 71
     3
 72
     9
 73
     5
 74
     0
 42
0.000000001
 43
0.00000001
 40
0.0
 40
0.0
 40
0.0
 40
0.0
 40
0.5091162542064024
 40
1.0
 40
1.0
 40
1.0
 40
1.0
 10
-5.000001105094148
 20
-66.3893414532477
 30
0.0
 10
-5.000002588607112
 20
-66.57071874990284
 30
0.0
 10
-5.000005502505366
 20
-66.92697784624197
 30
0.0
 10
-5.000003701270855
 20
-67.2845414750157
 30
0.0
 10
-5.000002817074113
 20
-67.46006364846771
 30
0.0
  0
SPLINE
  5
3F4
330
363
100
AcDbEntity
  8
0
  6
Continuous
 62
     7
370
    25
100
AcDbSpline
210
0.0
220
0.0
230
1.0
 70
     8
 71
     3
 72
     8
 73
     4
 74
     0
 42
0.000000001
 43
0.00000001
 40
0.0
 40
0.0
 40
0.0
 40
0.0
 40
1.0
 40
1.0
 40
1.0
 40
1.0
 10
-5.000000000003487
 20
67.4600637960569
 30
0.0
 10
-3.414066358891512
 20
66.82771064237446
 30
0.0
 10
-1.707297124330304
 20
66.49999286840347
 30
0.0
 10
0.0000563905962227
 20
66.50000000015774
 30
0.0
  0
SPLINE
  5
3F5
330
363
100
AcDbEntity
  8
0
  6
Continuous
 62
     7
370
    25
100
AcDbSpline
210
0.0
220
0.0
230
1.0
 70
     8
 71
     3
 72
     8
 73
     4
 74
     0
 42
0.000000001
 43
0.00000001
 40
0.0
 40
0.0
 40
0.0
 40
0.0
 40
1.0
 40
1.0
 40
1.0
 40
1.0
 10
0.0000563905962227
 20
66.50000000015774
 30
0.0
 10
1.707384969950851
 20
66.50000713180786
 30
0.0
 10
3.414126573761415
 20
66.82772948139862
 30
0.0
 10
5.000035273873765
 20
67.46007786072754
 30
0.0
  0
SPLINE
  5
3F8
330
363
100
AcDbEntity
  8
0
  6
Continuous
 62
     7
370
    25
100
AcDbSpline
210
0.0
220
0.0
230
1.0
 70
     8
 71
     3
 72
     9
 73
     5
 74
     0
 42
0.000000001
 43
0.00000001
 40
0.0
 40
0.0
 40
0.0
 40
0.0
 40
0.5089747972986132
 40
1.0
 40
1.0
 40
1.0
 40
1.0
 10
5.000007215311423
 20
66.38932341486196
 30
0.0
 10
5.00001124912506
 20
66.5706456214431
 30
0.0
 10
5.000019174495153
 20
66.92689549382092
 30
0.0
 10
5.000022632008069
 20
67.28444985049661
 30
0.0
 10
5.000024329734051
 20
67.46001805096006
 30
0.0
  0
SPLINE
  5
3F9
330
363
100
AcDbEntity
  8
0
  6
Continuous
 62
     7
370
    25
100
AcDbSpline
210
0.0
220
0.0
230
1.0
 70
     8
 71
     3
 72
     9
 73
     5
 74
     0
 42
0.000000001
 43
0.00000001
 40
0.0
 40
0.0
 40
0.0
 40
0.0
 40
0.4908600873692259
 40
1.0
 40
1.0
 40
1.0
 40
1.0
 10
-4.999997246344101
 20
67.46007806467088
 30
0.0
 10
-4.99999856450066
 20
67.28456465930599
 30
0.0
 10
-5.000001249902455
 20
66.92700165941828
 30
0.0
 10
-4.999999184304908
 20
66.57074316096465
 30
0.0
 10
-4.999998132626754
 20
66.38935774018805
 30
0.0
  0
SPLINE
  5
3FB
330
363
100
AcDbEntity
  8
0
  6
Continuous
 62
     7
370
    25
100
AcDbSpline
210
0.0
220
0.0
230
1.0
 70
     8
 71
     3
 72
    10
 73
     6
 74
     0
 42
0.000000001
 43
0.00000001
 40
0.0
 40
0.0
 40
0.0
 40
0.0
 40
0.5
 40
0.5
 40
1.0
 40
1.0
 40
1.0
 40
1.0
 10
-12.53992334032078
 20
85.00003226182369
 30
0.0
 10
-13.17227575627444
 20
83.41411233071977
 30
0.0
 10
-13.49999780373055
 20
81.70735787263303
 30
0.0
 10
-13.50000219624711
 20
78.29267685922618
 30
0.0
 10
-13.17228453980091
 20
76.5859215580066
 30
0.0
 10
-12.53993620398423
 20
75.00000000003942
 30
0.0
  0
SPLINE
  5
3FC
330
363
100
AcDbEntity
  8
0
  6
Continuous
 62
     7
370
    25
100
AcDbSpline
210
0.0
220
0.0
230
1.0
 70
     8
 71
     3
 72
     9
 73
     5
 74
     0
 42
0.000000001
 43
0.00000001
 40
0.0
 40
0.0
 40
0.0
 40
0.0
 40
0.5091387684159109
 40
1.0
 40
1.0
 40
1.0
 40
1.0
 10
-13.61064307991195
 20
75.00000177267938
 30
0.0
 10
-13.42925812549399
 20
75.00000069999669
 30
0.0
 10
-13.07299974237714
 20
74.99999859313942
 30
0.0
 10
-12.71543685526857
 20
75.00000123568428
 30
0.0
 10
-12.5399230961337
 20
75.00000253280712
 30
0.0
  0
SPLINE
  5
3FD
330
363
100
AcDbEntity
  8
0
  6
Continuous
 62
     7
370
    25
100
AcDbSpline
210
0.0
220
0.0
230
1.0
 70
     8
 71
     3
 72
     9
 73
     5
 74
     0
 42
0.000000001
 43
0.00000001
 40
0.0
 40
0.0
 40
0.0
 40
0.0
 40
0.4910091762154934
 40
0.9999999999999999
 40
0.9999999999999999
 40
0.9999999999999999
 40
0.9999999999999999
 10
-12.53997795886287
 20
85.00002237770371
 30
0.0
 10
-12.71554060524495
 20
85.00002097321405
 30
0.0
 10
-13.07309532089252
 20
85.00001811279976
 30
0.0
 10
-13.42934555264902
 20
85.0000107568753
 30
0.0
 10
-13.61067365158418
 20
85.00000701277723
 30
0.0
  0
SPLINE
  5
400
330
363
100
AcDbEntity
  8
0
  6
Continuous
 62
     7
370
    25
100
AcDbSpline
210
0.0
220
0.0
230
1.0
 70
     8
 71
     3
 72
     9
 73
     5
 74
     0
 42
0.000000001
 43
0.00000001
 40
0.0
 40
0.0
 40
0.0
 40
0.0
 40
0.5091315701185848
 40
1.0
 40
1.0
 40
1.0
 40
1.0
 10
13.6106545368792
 20
84.99999962717212
 30
0.0
 10
13.42927214456982
 20
85.00000083290833
 30
0.0
 10
13.07301375684671
 20
85.00000320112959
 30
0.0
 10
12.71545084556993
 20
85.00000082795792
 30
0.0
 10
12.53993450072767
 20
84.99999966304286
 30
0.0
  0
SPLINE
  5
401
330
363
100
AcDbEntity
  8
0
  6
Continuous
 62
     7
370
    25
100
AcDbSpline
210
0.0
220
0.0
230
1.0
 70
     8
 71
     3
 72
     9
 73
     5
 74
     0
 42
0.000000001
 43
0.00000001
 40
0.0
 40
0.0
 40
0.0
 40
0.0
 40
0.4908839496891429
 40
1.0
 40
1.0
 40
1.0
 40
1.0
 10
12.53993637197331
 20
74.99999706875207
 30
0.0
 10
12.71545859260875
 20
74.99999618828919
 30
0.0
 10
13.07302216898272
 20
74.99999439466184
 30
0.0
 10
13.42928121314995
 20
74.99999731570169
 30
0.0
 10
13.61065841060389
 20
74.99999880284996
 30
0.0
  0
SPLINE
  5
406
330
363
100
AcDbEntity
  8
0
  6
Continuous
 62
     7
370
    25
100
AcDbSpline
210
0.0
220
0.0
230
1.0
 70
     8
 71
     3
 72
     9
 73
     5
 74
     0
 42
0.000000001
 43
0.00000001
 40
0.0
 40
0.0
 40
0.0
 40
0.0
 40
0.5091162542064024
 40
1.0
 40
1.0
 40
1.0
 40
1.0
 10
-5.000001105094148
 20
93.61065854675228
 30
0.0
 10
-5.000002588607112
 20
93.42928125009715
 30
0.0
 10
-5.000005502505366
 20
93.07302215375803
 30
0.0
 10
-5.000003701270855
 20
92.71545852498427
 30
0.0
 10
-5.000002817074113
 20
92.53993635153226
 30
0.0
  0
SPLINE
  5
407
330
363
100
AcDbEntity
  8
0
  6
Continuous
 62
     7
370
    25
100
AcDbSpline
210
0.0
220
0.0
230
1.0
 70
     8
 71
     3
 72
     9
 73
     5
 74
     0
 42
0.000000001
 43
0.00000001
 40
0.0
 40
0.0
 40
0.0
 40
0.0
 40
0.4908683462159253
 40
1.0
 40
1.0
 40
1.0
 40
1.0
 10
4.999999676169994
 20
92.53993456562343
 30
0.0
 10
5.00000084261965
 20
92.71545089838182
 30
0.0
 10
5.000003218918031
 20
93.07301384598564
 30
0.0
 10
5.000000853623502
 20
93.42927227010668
 30
0.0
 10
4.999999649377187
 20
93.61065471075396
 30
0.0
  0
LINE
  5
430
330
363
100
AcDbEntity
  8
0
  6
Continuous
 62
     7
370
    25
100
AcDbLine
 10
-2.5
 20
-58.8975712298
 30
0.0
 11
-2.5
 21
-59.0
 31
0.0
  0
LINE
  5
431
330
363
100
AcDbEntity
  8
0
  6
Continuous
 62
     7
370
    25
100
AcDbLine
 10
-0.3861608736
 20
-66.5055241158
 30
0.0
 11
0.0
 21
-66.8916849894
 31
0.0
  0
LINE
  5
432
330
363
100
AcDbEntity
  8
0
  6
Continuous
 62
     7
370
    25
100
AcDbLine
 10
2.5
 20
-59.0
 30
0.0
 11
2.5
 21
-58.8975712298
 31
0.0
  0
LINE
  5
433
330
363
100
AcDbEntity
  8
0
  6
Continuous
 62
     7
370
    25
100
AcDbLine
 10
0.0
 20
-66.8916849894
 30
0.0
 11
0.3861602204
 21
-66.505524769
 31
0.0
  0
LINE
  5
434
330
363
100
AcDbEntity
  8
0
  6
Continuous
 62
     7
370
    25
100
AcDbLine
 10
-0.3861608736
 20
93.4944758842
 30
0.0
 11
0.0
 21
93.1083150106
 31
0.0
  0
LINE
  5
435
330
363
100
AcDbEntity
  8
0
  6
Continuous
 62
     7
370
    25
100
AcDbLine
 10
-2.5
 20
101.1024287702
 30
0.0
 11
-2.5
 21
101.0
 31
0.0
  0
LINE
  5
436
330
363
100
AcDbEntity
  8
0
  6
Continuous
 62
     7
370
    25
100
AcDbLine
 10
0.0
 20
93.1083150106
 30
0.0
 11
0.3861602204
 21
93.494475231
 31
0.0
  0
LINE
  5
437
330
363
100
AcDbEntity
  8
0
  6
Continuous
 62
     7
370
    25
100
AcDbLine
 10
2.5
 20
101.0
 30
0.0
 11
2.5
 21
101.1024287702
 31
0.0
  0
LINE
  5
438
330
363
100
AcDbEntity
  8
0
  6
Continuous
 62
     7
370
    25
100
AcDbLine
 10
-60.0
 20
-137.0
 30
0.0
 11
-60.0
 21
137.0
 31
0.0
  0
LINE
  5
439
330
363
100
AcDbEntity
  8
0
  6
Continuous
 62
     7
370
    25
100
AcDbLine
 10
59.5
 20
-137.5
 30
0.0
 11
-59.5
 21
-137.5
 31
0.0
  0
LINE
  5
43A
330
363
100
AcDbEntity
  8
0
  6
Continuous
 62
     7
370
    25
100
AcDbLine
 10
-59.5
 20
137.5
 30
0.0
 11
59.5
 21
137.5
 31
0.0
  0
LINE
  5
43B
330
363
100
AcDbEntity
  8
0
  6
Continuous
 62
     7
370
    25
100
AcDbLine
 10
60.0
 20
137.0
 30
0.0
 11
60.0
 21
-137.0
 31
0.0
  0
LINE
  5
43C
330
363
100
AcDbEntity
  8
0
  6
Continuous
 62
     7
370
    25
100
AcDbLine
 10
2.4498035462
 20
-58.8916849894
 30
0.0
 11
-2.4498035462
 21
-58.8916849894
 31
0.0
  0
LINE
  5
43D
330
363
100
AcDbEntity
  8
0
  6
Continuous
 62
     7
370
    25
100
AcDbLine
 10
2.4498035459
 20
101.1083150106
 30
0.0
 11
-2.4498035459
 21
101.1083150106
 31
0.0
  0
LINE
  5
43E
330
363
100
AcDbEntity
  8
0
  6
Continuous
 62
     7
370
    25
100
AcDbLine
 10
3.25
 20
-21.0
 30
0.0
 11
-3.25
 21
-21.0
 31
0.0
  0
LINE
  5
43F
330
363
100
AcDbEntity
  8
0
  6
Continuous
 62
     7
370
    25
100
AcDbLine
 10
21.0
 20
3.25
 30
0.0
 11
21.0
 21
-3.25
 31
0.0
  0
LINE
  5
440
330
363
100
AcDbEntity
  8
0
  6
Continuous
 62
     7
370
    25
100
AcDbLine
 10
-9.5164331553
 20
19.0
 30
0.0
 11
-8.94427191
 21
19.0
 31
0.0
  0
LINE
  5
441
330
363
100
AcDbEntity
  8
0
  6
Continuous
 62
     7
370
    25
100
AcDbLine
 10
-19.0
 20
8.94427191
 30
0.0
 11
-19.0
 21
9.5164331554
 31
0.0
  0
LINE
  5
442
330
363
100
AcDbEntity
  8
0
  6
Continuous
 62
     7
370
    25
100
AcDbLine
 10
-19.0
 20
-9.5164331553
 30
0.0
 11
-19.0
 21
-8.94427191
 31
0.0
  0
LINE
  5
443
330
363
100
AcDbEntity
  8
0
  6
Continuous
 62
     7
370
    25
100
AcDbLine
 10
-8.94427191
 20
-19.0
 30
0.0
 11
-9.5164331553
 21
-19.0
 31
0.0
  0
LINE
  5
444
330
363
100
AcDbEntity
  8
0
  6
Continuous
 62
     7
370
    25
100
AcDbLine
 10
19.0
 20
-8.94427191
 30
0.0
 11
19.0
 21
-9.5164331553
 31
0.0
  0
LINE
  5
445
330
363
100
AcDbEntity
  8
0
  6
Continuous
 62
     7
370
    25
100
AcDbLine
 10
19.0
 20
9.5164331554
 30
0.0
 11
19.0
 21
8.94427191
 31
0.0
  0
LINE
  5
446
330
363
100
AcDbEntity
  8
0
  6
Continuous
 62
     7
370
    25
100
AcDbLine
 10
8.94427191
 20
19.0
 30
0.0
 11
9.5164331553
 21
19.0
 31
0.0
  0
LINE
  5
447
330
363
100
AcDbEntity
  8
0
  6
Continuous
 62
     7
370
    25
100
AcDbLine
 10
9.5164331553
 20
-19.0
 30
0.0
 11
8.94427191
 21
-19.0
 31
0.0
  0
LINE
  5
448
330
363
100
AcDbEntity
  8
0
  6
Continuous
 62
     7
370
    25
100
AcDbLine
 10
-3.25
 20
21.0
 30
0.0
 11
3.25
 21
21.0
 31
0.0
  0
LINE
  5
449
330
363
100
AcDbEntity
  8
0
  6
Continuous
 62
     7
370
    25
100
AcDbLine
 10
-21.0
 20
-3.25
 30
0.0
 11
-21.0
 21
3.25
 31
0.0
  0
LINE
  5
44A
330
363
100
AcDbEntity
  8
0
  6
Continuous
 62
     7
370
    25
100
AcDbLine
 10
8.5
 20
0.0
 30
0.0
 11
9.5
 21
-6.8738635424
 31
0.0
  0
LINE
  5
44B
330
363
100
AcDbEntity
  8
0
  6
Continuous
 62
     7
370
    25
100
AcDbLine
 10
9.5
 20
-6.8738635424
 30
0.0
 11
9.5
 21
-12.2474487139
 31
0.0
  0
LINE
  5
44C
330
363
100
AcDbEntity
  8
0
  6
Continuous
 62
     7
370
    25
100
AcDbLine
 10
9.5
 20
-18.7283208003
 30
0.0
 11
9.5
 21
-19.0
 31
0.0
  0
LINE
  5
44D
330
363
100
AcDbEntity
  8
0
  6
Continuous
 62
     7
370
    25
100
AcDbLine
 10
-9.5
 20
-19.0
 30
0.0
 11
-9.5
 21
-18.7283208003
 31
0.0
  0
LINE
  5
44E
330
363
100
AcDbEntity
  8
0
  6
Continuous
 62
     7
370
    25
100
AcDbLine
 10
-9.5
 20
-12.2474487139
 30
0.0
 11
-9.5
 21
-6.8738635424
 31
0.0
  0
LINE
  5
44F
330
363
100
AcDbEntity
  8
0
  6
Continuous
 62
     7
370
    25
100
AcDbLine
 10
-9.5
 20
-6.8738635424
 30
0.0
 11
-8.5
 21
0.0
 31
0.0
  0
LINE
  5
450
330
363
100
AcDbEntity
  8
0
  6
Continuous
 62
     7
370
    25
100
AcDbLine
 10
21.0
 20
-76.75
 30
0.0
 11
21.0
 21
-83.25
 31
0.0
  0
LINE
  5
451
330
363
100
AcDbEntity
  8
0
  6
Continuous
 62
     7
370
    25
100
AcDbLine
 10
-21.0
 20
-83.25
 30
0.0
 11
-21.0
 21
-76.75
 31
0.0
  0
LINE
  5
452
330
363
100
AcDbEntity
  8
0
  6
Continuous
 62
     7
370
    25
100
AcDbLine
 10
3.25
 20
-101.0
 30
0.0
 11
-3.25
 21
-101.0
 31
0.0
  0
LINE
  5
453
330
363
100
AcDbEntity
  8
0
  6
Continuous
 62
     7
370
    25
100
AcDbLine
 10
-19.0
 20
-71.05572809
 30
0.0
 11
-19.0
 21
-70.4835668446
 31
0.0
  0
LINE
  5
454
330
363
100
AcDbEntity
  8
0
  6
Continuous
 62
     7
370
    25
100
AcDbLine
 10
-9.5164331553
 20
-61.0
 30
0.0
 11
-8.94427191
 21
-61.0
 31
0.0
  0
LINE
  5
455
330
363
100
AcDbEntity
  8
0
  6
Continuous
 62
     7
370
    25
100
AcDbLine
 10
-19.0
 20
-89.5164331553
 30
0.0
 11
-19.0
 21
-88.94427191
 31
0.0
  0
LINE
  5
456
330
363
100
AcDbEntity
  8
0
  6
Continuous
 62
     7
370
    25
100
AcDbLine
 10
9.5164331553
 20
-99.0
 30
0.0
 11
8.94427191
 21
-99.0
 31
0.0
  0
LINE
  5
457
330
363
100
AcDbEntity
  8
0
  6
Continuous
 62
     7
370
    25
100
AcDbLine
 10
19.0
 20
-88.94427191
 30
0.0
 11
19.0
 21
-89.5164331553
 31
0.0
  0
LINE
  5
458
330
363
100
AcDbEntity
  8
0
  6
Continuous
 62
     7
370
    25
100
AcDbLine
 10
19.0
 20
-70.4835668446
 30
0.0
 11
19.0
 21
-71.05572809
 31
0.0
  0
LINE
  5
459
330
363
100
AcDbEntity
  8
0
  6
Continuous
 62
     7
370
    25
100
AcDbLine
 10
8.94427191
 20
-61.0
 30
0.0
 11
9.5164331553
 21
-61.0
 31
0.0
  0
LINE
  5
45A
330
363
100
AcDbEntity
  8
0
  6
Continuous
 62
     7
370
    25
100
AcDbLine
 10
-8.94427191
 20
-99.0
 30
0.0
 11
-9.5164331553
 21
-99.0
 31
0.0
  0
LINE
  5
45B
330
363
100
AcDbEntity
  8
0
  6
Continuous
 62
     7
370
    25
100
AcDbLine
 10
-3.25
 20
-59.0
 30
0.0
 11
3.25
 21
-59.0
 31
0.0
  0
LINE
  5
45C
330
363
100
AcDbEntity
  8
0
  6
Continuous
 62
     7
370
    25
100
AcDbLine
 10
-4.9999988461
 20
-93.610639078
 30
0.0
 11
-4.9999990675
 21
-94.6714010689
 31
0.0
  0
LINE
  5
45D
330
363
100
AcDbEntity
  8
0
  6
Continuous
 62
     7
370
    25
100
AcDbLine
 10
5.0
 20
-93.6107204502
 30
0.0
 11
5.0
 21
-94.5958361946
 31
0.0
  0
LINE
  5
45E
330
363
100
AcDbEntity
  8
0
  6
Continuous
 62
     7
370
    25
100
AcDbLine
 10
13.610662398
 20
-85.0000009454
 30
0.0
 11
14.6714004805
 21
-85.000000794
 31
0.0
  0
LINE
  5
45F
330
363
100
AcDbEntity
  8
0
  6
Continuous
 62
     7
370
    25
100
AcDbLine
 10
13.6106539018
 20
-75.0000002299
 30
0.0
 11
14.6714008144
 21
-75.0000001858
 31
0.0
  0
LINE
  5
460
330
363
100
AcDbEntity
  8
0
  6
Continuous
 62
     7
370
    25
100
AcDbLine
 10
4.9999997833
 20
-66.3893458867
 30
0.0
 11
4.9999998249
 21
-65.3285991892
 31
0.0
  0
LINE
  5
461
330
363
100
AcDbEntity
  8
0
  6
Continuous
 62
     7
370
    25
100
AcDbLine
 10
-5.0000008889
 20
-66.3893420417
 30
0.0
 11
-5.0000007461
 21
-65.3285995031
 31
0.0
  0
LINE
  5
462
330
363
100
AcDbEntity
  8
0
  6
Continuous
 62
     7
370
    25
100
AcDbLine
 10
-13.6106400611
 20
-84.9999989068
 30
0.0
 11
-14.6714010522
 21
-84.9999991166
 31
0.0
  0
LINE
  5
463
330
363
100
AcDbEntity
  8
0
  6
Continuous
 62
     7
370
    25
100
AcDbLine
 10
-13.6107138509
 20
-74.999995509
 30
0.0
 11
-14.6118226808
 21
-74.9999962515
 31
0.0
  0
LINE
  5
464
330
363
100
AcDbEntity
  8
0
  6
Continuous
 62
     7
370
    25
100
AcDbLine
 10
3.2500000003
 20
59.0
 30
0.0
 11
-3.2500000003
 21
59.0
 31
0.0
  0
LINE
  5
465
330
363
100
AcDbEntity
  8
0
  6
Continuous
 62
     7
370
    25
100
AcDbLine
 10
21.0
 20
83.25
 30
0.0
 11
21.0
 21
76.75
 31
0.0
  0
LINE
  5
466
330
363
100
AcDbEntity
  8
0
  6
Continuous
 62
     7
370
    25
100
AcDbLine
 10
-19.0
 20
88.94427191
 30
0.0
 11
-19.0
 21
89.5164331553
 31
0.0
  0
LINE
  5
467
330
363
100
AcDbEntity
  8
0
  6
Continuous
 62
     7
370
    25
100
AcDbLine
 10
-19.0
 20
70.4835668447
 30
0.0
 11
-19.0
 21
71.05572809
 31
0.0
  0
LINE
  5
468
330
363
100
AcDbEntity
  8
0
  6
Continuous
 62
     7
370
    25
100
AcDbLine
 10
-8.94427191
 20
61.0
 30
0.0
 11
-9.5164331554
 21
61.0
 31
0.0
  0
LINE
  5
469
330
363
100
AcDbEntity
  8
0
  6
Continuous
 62
     7
370
    25
100
AcDbLine
 10
19.0
 20
89.5164331553
 30
0.0
 11
19.0
 21
88.94427191
 31
0.0
  0
LINE
  5
46A
330
363
100
AcDbEntity
  8
0
  6
Continuous
 62
     7
370
    25
100
AcDbLine
 10
8.94427191
 20
99.0
 30
0.0
 11
9.5164331553
 21
99.0
 31
0.0
  0
LINE
  5
46B
330
363
100
AcDbEntity
  8
0
  6
Continuous
 62
     7
370
    25
100
AcDbLine
 10
-9.5164331553
 20
99.0
 30
0.0
 11
-8.94427191
 21
99.0
 31
0.0
  0
LINE
  5
46C
330
363
100
AcDbEntity
  8
0
  6
Continuous
 62
     7
370
    25
100
AcDbLine
 10
19.0
 20
71.05572809
 30
0.0
 11
19.0
 21
70.4835668447
 31
0.0
  0
LINE
  5
46D
330
363
100
AcDbEntity
  8
0
  6
Continuous
 62
     7
370
    25
100
AcDbLine
 10
9.5164331554
 20
61.0
 30
0.0
 11
8.94427191
 21
61.0
 31
0.0
  0
LINE
  5
46E
330
363
100
AcDbEntity
  8
0
  6
Continuous
 62
     7
370
    25
100
AcDbLine
 10
-21.0
 20
76.75
 30
0.0
 11
-21.0
 21
83.25
 31
0.0
  0
LINE
  5
46F
330
363
100
AcDbEntity
  8
0
  6
Continuous
 62
     7
370
    25
100
AcDbLine
 10
-3.2499999997
 20
101.0
 30
0.0
 11
3.2499999997
 21
101.0
 31
0.0
  0
LINE
  5
470
330
363
100
AcDbEntity
  8
0
  6
Continuous
 62
     7
370
    25
100
AcDbLine
 10
13.6106539018
 20
84.9999997701
 30
0.0
 11
14.6714008144
 21
84.9999998142
 31
0.0
  0
LINE
  5
471
330
363
100
AcDbEntity
  8
0
  6
Continuous
 62
     7
370
    25
100
AcDbLine
 10
13.610662398
 20
74.9999990546
 30
0.0
 11
14.6714004805
 21
74.999999206
 31
0.0
  0
LINE
  5
472
330
363
100
AcDbEntity
  8
0
  6
Continuous
 62
     7
370
    25
100
AcDbLine
 10
5.0
 20
66.3892795498
 30
0.0
 11
5.0
 21
65.4041638054
 31
0.0
  0
LINE
  5
473
330
363
100
AcDbEntity
  8
0
  6
Continuous
 62
     7
370
    25
100
AcDbLine
 10
-4.9999988461
 20
66.389360922
 30
0.0
 11
-4.9999990675
 21
65.3285989311
 31
0.0
  0
LINE
  5
474
330
363
100
AcDbEntity
  8
0
  6
Continuous
 62
     7
370
    25
100
AcDbLine
 10
-5.0000008889
 20
93.6106579583
 30
0.0
 11
-5.0000007461
 21
94.6714004969
 31
0.0
  0
LINE
  5
475
330
363
100
AcDbEntity
  8
0
  6
Continuous
 62
     7
370
    25
100
AcDbLine
 10
4.9999997833
 20
93.6106541133
 30
0.0
 11
4.9999998249
 21
94.6714008108
 31
0.0
  0
LINE
  5
476
330
363
100
AcDbEntity
  8
0
  6
Continuous
 62
     7
370
    25
100
AcDbLine
 10
-13.6106400611
 20
75.0000010932
 30
0.0
 11
-14.6714010522
 21
75.0000008834
 31
0.0
  0
LINE
  5
477
330
363
100
AcDbEntity
  8
0
  6
Continuous
 62
     7
370
    25
100
AcDbLine
 10
-13.6107138509
 20
85.000004491
 30
0.0
 11
-14.6118226808
 21
85.0000037485
 31
0.0
  0
LINE
  5
478
330
363
100
AcDbEntity
  8
0
  6
Continuous
 62
     8
370
    25
100
AcDbLine
 10
2.3219382562
 20
-59.0
 30
0.0
 11
2.3219382562
 21
-58.8916849894
 31
0.0
  0
LINE
  5
479
330
363
100
AcDbEntity
  8
0
  6
Continuous
 62
     8
370
    25
100
AcDbLine
 10
0.3593440503
 20
-66.5047840358
 30
0.0
 11
0.0
 21
-66.8916849894
 31
0.0
  0
LINE
  5
47A
330
363
100
AcDbEntity
  8
0
  6
Continuous
 62
     8
370
    25
100
AcDbLine
 10
0.3593440503
 20
93.4952159642
 30
0.0
 11
0.0
 21
93.1083150106
 31
0.0
  0
LINE
  5
47B
330
363
100
AcDbEntity
  8
0
  6
Continuous
 62
     8
370
    25
100
AcDbLine
 10
2.3219382562
 20
101.0
 30
0.0
 11
2.3219382562
 21
101.1083150106
 31
0.0
  0
LINE
  5
47C
330
363
100
AcDbEntity
  8
0
  6
Continuous
 62
     8
370
    25
100
AcDbLine
 10
-5.5957573214
 20
-20.5
 30
0.0
 11
-4.5552167896
 21
-20.5
 31
0.0
  0
LINE
  5
47D
330
363
100
AcDbEntity
  8
0
  6
Continuous
 62
     8
370
    25
100
AcDbLine
 10
4.5552167896
 20
-20.5
 30
0.0
 11
5.5957573214
 21
-20.5
 31
0.0
  0
LINE
  5
47E
330
363
100
AcDbEntity
  8
0
  6
Continuous
 62
     8
370
    25
100
AcDbLine
 10
20.5
 20
-5.5957573214
 30
0.0
 11
20.5
 21
-4.5552167895
 31
0.0
  0
LINE
  5
47F
330
363
100
AcDbEntity
  8
0
  6
Continuous
 62
     8
370
    25
100
AcDbLine
 10
20.5
 20
4.5552167896
 30
0.0
 11
20.5
 21
5.5957573214
 31
0.0
  0
LINE
  5
480
330
363
100
AcDbEntity
  8
0
  6
Continuous
 62
     8
370
    25
100
AcDbLine
 10
-20.5
 20
5.5957573214
 30
0.0
 11
-20.5
 21
4.5552167896
 31
0.0
  0
LINE
  5
481
330
363
100
AcDbEntity
  8
0
  6
Continuous
 62
     8
370
    25
100
AcDbLine
 10
-20.5
 20
-4.5552167895
 30
0.0
 11
-20.5
 21
-5.5957573214
 31
0.0
  0
LINE
  5
482
330
363
100
AcDbEntity
  8
0
  6
Continuous
 62
     8
370
    25
100
AcDbLine
 10
5.5957573214
 20
20.5
 30
0.0
 11
4.5552167896
 21
20.5
 31
0.0
  0
LINE
  5
483
330
363
100
AcDbEntity
  8
0
  6
Continuous
 62
     8
370
    25
100
AcDbLine
 10
-4.5552167896
 20
20.5
 30
0.0
 11
-5.5957573214
 21
20.5
 31
0.0
  0
LINE
  5
484
330
363
100
AcDbEntity
  8
0
  6
Continuous
 62
     8
370
    25
100
AcDbLine
 10
20.5
 20
-85.5957573214
 30
0.0
 11
20.5
 21
-84.5552167895
 31
0.0
  0
LINE
  5
485
330
363
100
AcDbEntity
  8
0
  6
Continuous
 62
     8
370
    25
100
AcDbLine
 10
20.5
 20
-75.4447832104
 30
0.0
 11
20.5
 21
-74.4042426786
 31
0.0
  0
LINE
  5
486
330
363
100
AcDbEntity
  8
0
  6
Continuous
 62
     8
370
    25
100
AcDbLine
 10
-20.5
 20
-74.4042426786
 30
0.0
 11
-20.5
 21
-75.4447832104
 31
0.0
  0
LINE
  5
487
330
363
100
AcDbEntity
  8
0
  6
Continuous
 62
     8
370
    25
100
AcDbLine
 10
-20.5
 20
-84.5552167895
 30
0.0
 11
-20.5
 21
-85.5957573214
 31
0.0
  0
LINE
  5
488
330
363
100
AcDbEntity
  8
0
  6
Continuous
 62
     8
370
    25
100
AcDbLine
 10
-5.5957573214
 20
-100.5
 30
0.0
 11
-4.5552167896
 21
-100.5
 31
0.0
  0
LINE
  5
489
330
363
100
AcDbEntity
  8
0
  6
Continuous
 62
     8
370
    25
100
AcDbLine
 10
4.5552167896
 20
-100.5
 30
0.0
 11
5.5957573214
 21
-100.5
 31
0.0
  0
LINE
  5
48A
330
363
100
AcDbEntity
  8
0
  6
Continuous
 62
     8
370
    25
100
AcDbLine
 10
5.5957573214
 20
-59.5
 30
0.0
 11
4.5552167896
 21
-59.5
 31
0.0
  0
LINE
  5
48B
330
363
100
AcDbEntity
  8
0
  6
Continuous
 62
     8
370
    25
100
AcDbLine
 10
-4.5552167896
 20
-59.5
 30
0.0
 11
-5.5957573214
 21
-59.5
 31
0.0
  0
LINE
  5
48C
330
363
100
AcDbEntity
  8
0
  6
Continuous
 62
     8
370
    25
100
AcDbLine
 10
-5.5957573215
 20
59.5
 30
0.0
 11
-4.5552167896
 21
59.5
 31
0.0
  0
LINE
  5
48D
330
363
100
AcDbEntity
  8
0
  6
Continuous
 62
     8
370
    25
100
AcDbLine
 10
4.5552167896
 20
59.5
 30
0.0
 11
5.5957573215
 21
59.5
 31
0.0
  0
LINE
  5
48E
330
363
100
AcDbEntity
  8
0
  6
Continuous
 62
     8
370
    25
100
AcDbLine
 10
20.5
 20
74.4042426786
 30
0.0
 11
20.5
 21
75.4447832105
 31
0.0
  0
LINE
  5
48F
330
363
100
AcDbEntity
  8
0
  6
Continuous
 62
     8
370
    25
100
AcDbLine
 10
20.5
 20
84.5552167896
 30
0.0
 11
20.5
 21
85.5957573214
 31
0.0
  0
LINE
  5
490
330
363
100
AcDbEntity
  8
0
  6
Continuous
 62
     8
370
    25
100
AcDbLine
 10
-20.5
 20
85.5957573214
 30
0.0
 11
-20.5
 21
84.5552167896
 31
0.0
  0
LINE
  5
491
330
363
100
AcDbEntity
  8
0
  6
Continuous
 62
     8
370
    25
100
AcDbLine
 10
-20.5
 20
75.4447832105
 30
0.0
 11
-20.5
 21
74.4042426786
 31
0.0
  0
LINE
  5
492
330
363
100
AcDbEntity
  8
0
  6
Continuous
 62
     8
370
    25
100
AcDbLine
 10
5.5957573213
 20
100.5
 30
0.0
 11
4.5552167896
 21
100.5
 31
0.0
  0
LINE
  5
493
330
363
100
AcDbEntity
  8
0
  6
Continuous
 62
     8
370
    25
100
AcDbLine
 10
-4.5552167896
 20
100.5
 30
0.0
 11
-5.5957573213
 21
100.5
 31
0.0
  0
ARC
  5
494
330
363
100
AcDbEntity
  8
0
  6
Continuous
 62
     7
370
    25
100
AcDbCircle
 10
11.5
 20
-68.5
 30
0.0
 40
8.000000000048487
100
AcDbArc
 50
109.3842072679
 51
127.8252166557
  0
ARC
  5
495
330
363
100
AcDbEntity
  8
0
  6
Continuous
 62
     7
370
    25
100
AcDbCircle
 10
0.0
 20
-80.0
 30
0.0
 40
19.00000000000193
100
AcDbArc
 50
69.6929757537
 51
110.3070242463
  0
ARC
  5
496
330
363
100
AcDbEntity
  8
0
  6
Continuous
 62
     7
370
    25
100
AcDbCircle
 10
-11.5
 20
-68.4999999999
 30
0.0
 40
7.999999999961813
100
AcDbArc
 50
52.1747833442
 51
70.6157927322
  0
ARC
  5
497
330
363
100
AcDbEntity
  8
0
  6
Continuous
 62
     7
370
    25
100
AcDbCircle
 10
11.4999999987
 20
-68.4999999992
 30
0.0
 40
8.000000001503864
100
AcDbArc
 50
322.1747833454
 51
340.6157927298
  0
ARC
  5
498
330
363
100
AcDbEntity
  8
0
  6
Continuous
 62
     7
370
    25
100
AcDbCircle
 10
0.0000000005
 20
-80.0000000001
 30
0.0
 40
19.00000000050396
100
AcDbArc
 50
339.6929757536
 51
20.3070242459
  0
ARC
  5
499
330
363
100
AcDbEntity
  8
0
  6
Continuous
 62
     7
370
    25
100
AcDbCircle
 10
11.5000000013
 20
-91.4999999993
 30
0.0
 40
7.999999998577125
100
AcDbArc
 50
19.3842072668
 51
37.825216658
  0
ARC
  5
49A
330
363
100
AcDbEntity
  8
0
  6
Continuous
 62
     7
370
    25
100
AcDbCircle
 10
-11.5
 20
-91.4999999999
 30
0.0
 40
8.000000000048285
100
AcDbArc
 50
289.3842072679
 51
307.8252166557
  0
ARC
  5
49B
330
363
100
AcDbEntity
  8
0
  6
Continuous
 62
     7
370
    25
100
AcDbCircle
 10
0.0
 20
-80.0
 30
0.0
 40
19.00000000000166
100
AcDbArc
 50
249.6929757537
 51
290.3070242463
  0
ARC
  5
49C
330
363
100
AcDbEntity
  8
0
  6
Continuous
 62
     7
370
    25
100
AcDbCircle
 10
11.5
 20
-91.5
 30
0.0
 40
7.999999999961388
100
AcDbArc
 50
232.1747833442
 51
250.6157927322
  0
ARC
  5
49D
330
363
100
AcDbEntity
  8
0
  6
Continuous
 62
     7
370
    25
100
AcDbCircle
 10
0.0000000001
 20
-79.9999999999
 30
0.0
 40
19.00000000013918
100
AcDbArc
 50
159.6929757537
 51
200.3070242462
  0
ARC
  5
49E
330
363
100
AcDbEntity
  8
0
  6
Continuous
 62
     7
370
    25
100
AcDbCircle
 10
-11.4999999999
 20
-91.5
 30
0.0
 40
8.000000000087697
100
AcDbArc
 50
142.1747833443
 51
160.615792732
  0
ARC
  5
49F
330
363
100
AcDbEntity
  8
0
  6
Continuous
 62
     7
370
    25
100
AcDbCircle
 10
0.0000000003
 20
-80.0000000002
 30
0.0
 40
21.00000000000401
100
AcDbArc
 50
335.0908588675
 51
294.9091411327
  0
ARC
  5
4A0
330
363
100
AcDbEntity
  8
0
  6
Continuous
 62
     7
370
    25
100
AcDbCircle
 10
-11.5000000001
 20
-68.5
 30
0.0
 40
7.999999999948626
100
AcDbArc
 50
199.3842072679
 51
217.8252166558
  0
ARC
  5
4A1
330
363
100
AcDbEntity
  8
0
  6
Continuous
 62
     7
370
    25
100
AcDbCircle
 10
0.0
 20
-80.0
 30
0.0
 40
17.55000000000003
100
AcDbArc
 50
270.0
 51
90.0
  0
ARC
  5
4A2
330
363
100
AcDbEntity
  8
0
  6
Continuous
 62
     7
370
    25
100
AcDbCircle
 10
0.0
 20
80.0
 30
0.0
 40
21.24999999999001
100
AcDbArc
 50
270.0
 51
90.0
  0
ARC
  5
4A3
330
363
100
AcDbEntity
  8
0
  6
Continuous
 62
     7
370
    25
100
AcDbCircle
 10
0.0
 20
0.0
 30
0.0
 40
21.2500000000005
100
AcDbArc
 50
270.0
 51
90.0
  0
ARC
  5
4A4
330
363
100
AcDbEntity
  8
0
  6
Continuous
 62
     7
370
    25
100
AcDbCircle
 10
59.5
 20
-137.0
 30
0.0
 40
0.4999999999999787
100
AcDbArc
 50
270.0
 51
0.0
  0
ARC
  5
4A5
330
363
100
AcDbEntity
  8
0
  6
Continuous
 62
     7
370
    25
100
AcDbCircle
 10
-59.5
 20
-137.0
 30
0.0
 40
0.4999999999999716
100
AcDbArc
 50
180.0
 51
270.0
  0
ARC
  5
4A6
330
363
100
AcDbEntity
  8
0
  6
Continuous
 62
     7
370
    25
100
AcDbCircle
 10
-59.5
 20
137.0
 30
0.0
 40
0.5
100
AcDbArc
 50
90.0
 51
180.0
  0
ARC
  5
4A7
330
363
100
AcDbEntity
  8
0
  6
Continuous
 62
     7
370
    25
100
AcDbCircle
 10
0.0
 20
-80.0
 30
0.0
 40
21.25
100
AcDbArc
 50
270.0
 51
90.0
  0
ARC
  5
4A8
330
363
100
AcDbEntity
  8
0
  6
Continuous
 62
     7
370
    25
100
AcDbCircle
 10
59.5
 20
137.0
 30
0.0
 40
0.4999999999999147
100
AcDbArc
 50
360.0
 51
90.0
  0
ARC
  5
4A9
330
363
100
AcDbEntity
  8
0
  6
Continuous
 62
     7
370
    25
100
AcDbCircle
 10
0.0
 20
0.0
 30
0.0
 40
8.5
100
AcDbArc
 50
0.0
 51
180.0
  0
ARC
  5
4AA
330
363
100
AcDbEntity
  8
0
  6
Continuous
 62
     7
370
    25
100
AcDbCircle
 10
0.0
 20
0.0
 30
0.0
 40
5.0
100
AcDbArc
 50
270.0
 51
90.0
  0
ARC
  5
4AB
330
363
100
AcDbEntity
  8
0
  6
Continuous
 62
     7
370
    25
100
AcDbCircle
 10
0.0
 20
-12.5
 30
0.0
 40
4.500000000000001
100
AcDbArc
 50
325.4818921589
 51
214.5181078411
  0
ARC
  5
4AC
330
363
100
AcDbEntity
  8
0
  6
Continuous
 62
     7
370
    25
100
AcDbCircle
 10
0.0
 20
-80.0
 30
0.0
 40
17.5
100
AcDbArc
 50
180.0
 51
0.0
  0
ARC
  5
4AD
330
363
100
AcDbEntity
  8
0
  6
Continuous
 62
     7
370
    25
100
AcDbCircle
 10
0.0
 20
-80.0
 30
0.0
 40
15.5
100
AcDbArc
 50
0.0
 51
180.0
  0
ARC
  5
4AE
330
363
100
AcDbEntity
  8
0
  6
Continuous
 62
     7
370
    25
100
AcDbCircle
 10
0.0
 20
0.0
 30
0.0
 40
17.45
100
AcDbArc
 50
0.0
 51
180.0
  0
ARC
  5
4AF
330
363
100
AcDbEntity
  8
0
  6
Continuous
 62
     7
370
    25
100
AcDbCircle
 10
0.0
 20
0.0
 30
0.0
 40
21.0
100
AcDbArc
 50
180.0
 51
0.0
  0
ARC
  5
4B0
330
363
100
AcDbEntity
  8
0
  6
Continuous
 62
     7
370
    25
100
AcDbCircle
 10
0.0
 20
0.0
 30
0.0
 40
15.5
100
AcDbArc
 50
0.0
 51
180.0
  0
ARC
  5
4B1
330
363
100
AcDbEntity
  8
0
  6
Continuous
 62
     7
370
    25
100
AcDbCircle
 10
0.0
 20
80.0
 30
0.0
 40
15.5
100
AcDbArc
 50
180.0
 51
0.0
  0
ARC
  5
4B2
330
363
100
AcDbEntity
  8
0
  6
Continuous
 62
     7
370
    25
100
AcDbCircle
 10
0.0
 20
80.0
 30
0.0
 40
17.5
100
AcDbArc
 50
180.0
 51
0.0
  0
ARC
  5
4B3
330
363
100
AcDbEntity
  8
0
  6
Continuous
 62
     7
370
    25
100
AcDbCircle
 10
0.0001127811
 20
-79.9997146474
 30
0.0
 40
14.50028915060123
100
AcDbArc
 50
249.8286762402
 51
290.1703913031
  0
ARC
  5
4B4
330
363
100
AcDbEntity
  8
0
  6
Continuous
 62
     7
370
    25
100
AcDbCircle
 10
0.0002593489
 20
-79.9998968023
 30
0.0
 40
14.50026236377035
100
AcDbArc
 50
159.8295232206
 51
200.1713223475
  0
ARC
  5
4B5
330
363
100
AcDbEntity
  8
0
  6
Continuous
 62
     7
370
    25
100
AcDbCircle
 10
-0.0000257114
 20
-80.0000121372
 30
0.0
 40
14.50002481445987
100
AcDbArc
 50
339.8288114819
 51
20.1712858775
  0
ARC
  5
4B6
330
363
100
AcDbEntity
  8
0
  6
Continuous
 62
     7
370
    25
100
AcDbCircle
 10
-0.0000257114
 20
-80.0000121372
 30
0.0
 40
13.50002534274019
100
AcDbArc
 50
338.2616103395
 51
21.7384682246
  0
ARC
  5
4B7
330
363
100
AcDbEntity
  8
0
  6
Continuous
 62
     7
370
    25
100
AcDbCircle
 10
-0.0000117405
 20
-80.0000251456
 30
0.0
 40
13.50002478504115
100
AcDbArc
 50
68.2615324503
 51
111.7383858545
  0
ARC
  5
4B8
330
363
100
AcDbEntity
  8
0
  6
Continuous
 62
     7
370
    25
100
AcDbCircle
 10
-0.0000117405
 20
-80.0000251456
 30
0.0
 40
14.50002434912143
100
AcDbArc
 50
69.8287150679
 51
110.1711963314
  0
ARC
  5
4B9
330
363
100
AcDbEntity
  8
0
  6
Continuous
 62
     7
370
    25
100
AcDbCircle
 10
0.0001127811
 20
80.0002853526
 30
0.0
 40
14.5002891506007
100
AcDbArc
 50
249.8286762402
 51
290.1703913031
  0
ARC
  5
4BA
330
363
100
AcDbEntity
  8
0
  6
Continuous
 62
     7
370
    25
100
AcDbCircle
 10
0.0002593489
 20
80.0001031977
 30
0.0
 40
14.50026236377028
100
AcDbArc
 50
159.8295232206
 51
200.1713223475
  0
ARC
  5
4BB
330
363
100
AcDbEntity
  8
0
  6
Continuous
 62
     7
370
    25
100
AcDbCircle
 10
-0.0000257114
 20
79.9999878628
 30
0.0
 40
14.50002481445978
100
AcDbArc
 50
339.8288114819
 51
20.1712858775
  0
ARC
  5
4BC
330
363
100
AcDbEntity
  8
0
  6
Continuous
 62
     7
370
    25
100
AcDbCircle
 10
-0.0000257114
 20
79.9999878628
 30
0.0
 40
13.50002534274021
100
AcDbArc
 50
338.2616103395
 51
21.7384682246
  0
ARC
  5
4BD
330
363
100
AcDbEntity
  8
0
  6
Continuous
 62
     7
370
    25
100
AcDbCircle
 10
-0.0000117405
 20
79.9999748544
 30
0.0
 40
13.50002478504092
100
AcDbArc
 50
68.2615324503
 51
111.7383858545
  0
ARC
  5
4BE
330
363
100
AcDbEntity
  8
0
  6
Continuous
 62
     7
370
    25
100
AcDbCircle
 10
-0.0000117405
 20
79.9999748544
 30
0.0
 40
14.50002434912061
100
AcDbArc
 50
69.8287150679
 51
110.1711963314
  0
ARC
  5
4BF
330
363
100
AcDbEntity
  8
0
  6
Continuous
 62
     7
370
    25
100
AcDbCircle
 10
0.0
 20
80.0
 30
0.0
 40
21.0
100
AcDbArc
 50
180.0
 51
0.0
  0
ARC
  5
4C0
330
363
100
AcDbEntity
  8
0
  6
Continuous
 62
     7
370
    25
100
AcDbCircle
 10
0.0
 20
80.0
 30
0.0
 40
17.55
100
AcDbArc
 50
0.0
 51
180.0
  0
VIEWPORT
  5
4C7
330
363
100
AcDbEntity
  8
0
100
AcDbViewport
 10
0.0
 20
0.0
 30
0.0
 40
205.6
 41
156.0
 68
     1
 69
     1
 12
0.0
 22
115.15
 13
0.0
 23
0.0
 14
10.0
 24
10.0
 15
10.0
 25
10.0
 16
0.0
 26
0.0
 36
1.0
 17
0.0
 27
0.0
 37
0.0
 42
50.0
 43
0.0
 44
0.0
 45
92.8715953307
 50
0.0
 51
0.0
 72
   100
 90
   557152
  1

281
     0
 71
     1
 74
     0
110
0.0
120
0.0
130
0.0
111
1.0
121
0.0
131
0.0
112
0.0
122
1.0
132
0.0
 79
     0
146
0.0
  0
ENDBLK
  5
366
330
363
100
AcDbEntity
  8
0
100
AcDbBlockEnd
  0
ENDSEC
  0
SECTION
  2
ENTITIES
  0
LINE
  5
A6
330
1F
100
AcDbEntity
  8
0
  6
Continuous
 62
     7
370
    25
100
AcDbLine
 10
60.0
 20
95.0
 30
0.0
 11
-60.0
 21
95.0
 31
0.0
  0
LINE
  5
A7
330
1F
100
AcDbEntity
  8
0
  6
Continuous
 62
     7
370
    25
100
AcDbLine
 10
60.0
 20
93.5
 30
0.0
 11
60.0
 21
95.0
 31
0.0
  0
LINE
  5
A8
330
1F
100
AcDbEntity
  8
0
  6
Continuous
 62
     7
370
    25
100
AcDbLine
 10
59.5
 20
93.5
 30
0.0
 11
59.5
 21
95.5
 31
0.0
  0
LINE
  5
A9
330
1F
100
AcDbEntity
  8
0
  6
Continuous
 62
     7
370
    25
100
AcDbLine
 10
-59.5
 20
93.5
 30
0.0
 11
-59.5
 21
95.5
 31
0.0
  0
LINE
  5
AA
330
1F
100
AcDbEntity
  8
0
  6
Continuous
 62
     7
370
    25
100
AcDbLine
 10
59.5
 20
95.5
 30
0.0
 11
-59.5
 21
95.5
 31
0.0
  0
LINE
  5
AB
330
1F
100
AcDbEntity
  8
0
  6
Continuous
 62
     7
370
    25
100
AcDbLine
 10
-60.0
 20
93.5
 30
0.0
 11
-60.0
 21
95.0
 31
0.0
  0
LINE
  5
AC
330
1F
100
AcDbEntity
  8
0
  6
Continuous
 62
     7
370
    25
100
AcDbLine
 10
-60.0
 20
93.5
 30
0.0
 11
60.0
 21
93.5
 31
0.0
  0
LINE
  5
AD
330
1F
100
AcDbEntity
  8
0
  6
Continuous
 62
     7
370
    25
100
AcDbLine
 10
-0.2152610144
 20
117.2855961864
 30
0.0
 11
1.17893353
 21
116.7292196001
 31
0.0
  0
LINE
  5
AE
330
1F
100
AcDbEntity
  8
0
  6
Continuous
 62
     7
370
    25
100
AcDbLine
 10
1.3941945444
 20
115.2436234137
 30
0.0
 11
1.17893353
 21
116.7292196001
 31
0.0
  0
LINE
  5
AF
330
1F
100
AcDbEntity
  8
0
  6
Continuous
 62
     7
370
    25
100
AcDbLine
 10
-0.2152610144
 20
117.2855961864
 30
0.0
 11
-1.3941945444
 21
116.3563765863
 31
0.0
  0
LINE
  5
B0
330
1F
100
AcDbEntity
  8
0
  6
Continuous
 62
     7
370
    25
100
AcDbLine
 10
-1.3941945444
 20
116.3563765863
 30
0.0
 11
-1.17893353
 21
114.8707803999
 31
0.0
  0
LINE
  5
B1
330
1F
100
AcDbEntity
  8
0
  6
Continuous
 62
     7
370
    25
100
AcDbLine
 10
0.2152610144
 20
114.3144038136
 30
0.0
 11
-1.17893353
 21
114.8707803999
 31
0.0
  0
LINE
  5
B2
330
1F
100
AcDbEntity
  8
0
  6
Continuous
 62
     7
370
    25
100
AcDbLine
 10
0.2152610144
 20
114.3144038136
 30
0.0
 11
1.3941945444
 21
115.2436234137
 31
0.0
  0
LINE
  5
B3
330
1F
100
AcDbEntity
  8
0
  6
Continuous
 62
     7
370
    25
100
AcDbLine
 10
19.0
 20
98.5
 30
0.0
 11
19.0
 21
98.8
 31
0.0
  0
LINE
  5
B4
330
1F
100
AcDbEntity
  8
0
  6
Continuous
 62
     7
370
    25
100
AcDbLine
 10
-19.0
 20
98.5
 30
0.0
 11
-19.0
 21
98.8
 31
0.0
  0
LINE
  5
B5
330
1F
100
AcDbEntity
  8
0
  6
Continuous
 62
     7
370
    25
100
AcDbLine
 10
-21.0
 20
99.3
 30
0.0
 11
21.0
 21
99.3
 31
0.0
  0
LINE
  5
B6
330
1F
100
AcDbEntity
  8
0
  6
Continuous
 62
     7
370
    25
100
AcDbLine
 10
-20.5
 20
136.8
 30
0.0
 11
-20.5
 21
98.8
 31
0.0
  0
LINE
  5
B7
330
1F
100
AcDbEntity
  8
0
  6
Continuous
 62
     7
370
    25
100
AcDbLine
 10
20.5
 20
98.8
 30
0.0
 11
-20.5
 21
98.8
 31
0.0
  0
LINE
  5
B8
330
1F
100
AcDbEntity
  8
0
  6
Continuous
 62
     7
370
    25
100
AcDbLine
 10
20.5
 20
98.8
 30
0.0
 11
20.5
 21
136.8
 31
0.0
  0
LINE
  5
B9
330
1F
100
AcDbEntity
  8
0
  6
Continuous
 62
     7
370
    25
100
AcDbLine
 10
-21.0
 20
99.3
 30
0.0
 11
-21.0
 21
136.3
 31
0.0
  0
LINE
  5
BA
330
1F
100
AcDbEntity
  8
0
  6
Continuous
 62
     7
370
    25
100
AcDbLine
 10
21.0
 20
136.3
 30
0.0
 11
-21.0
 21
136.3
 31
0.0
  0
LINE
  5
BB
330
1F
100
AcDbEntity
  8
0
  6
Continuous
 62
     7
370
    25
100
AcDbLine
 10
21.0
 20
136.3
 30
0.0
 11
21.0
 21
99.3
 31
0.0
  0
LINE
  5
BC
330
1F
100
AcDbEntity
  8
0
  6
Continuous
 62
     7
370
    25
100
AcDbLine
 10
-20.5
 20
136.8
 30
0.0
 11
20.5
 21
136.8
 31
0.0
  0
LINE
  5
BD
330
1F
100
AcDbEntity
  8
0
  6
Continuous
 62
     7
370
    25
100
AcDbLine
 10
-21.0
 20
98.0
 30
0.0
 11
21.0
 21
98.0
 31
0.0
  0
LINE
  5
BE
330
1F
100
AcDbEntity
  8
0
  6
Continuous
 62
     7
370
    25
100
AcDbLine
 10
21.0
 20
98.0
 30
0.0
 11
21.0
 21
95.5
 31
0.0
  0
LINE
  5
BF
330
1F
100
AcDbEntity
  8
0
  6
Continuous
 62
     7
370
    25
100
AcDbLine
 10
-21.0
 20
98.0
 30
0.0
 11
-21.0
 21
95.5
 31
0.0
  0
LINE
  5
C0
330
1F
100
AcDbEntity
  8
0
  6
Continuous
 62
     7
370
    25
100
AcDbLine
 10
-20.5
 20
98.5
 30
0.0
 11
20.5
 21
98.5
 31
0.0
  0
ARC
  5
C1
330
1F
100
AcDbEntity
  8
0
  6
Continuous
 62
     7
370
    25
100
AcDbCircle
 10
59.5
 20
95.0
 30
0.0
 40
0.5
100
AcDbArc
 50
0.0
 51
90.0
  0
ARC
  5
C2
330
1F
100
AcDbEntity
  8
0
  6
Continuous
 62
     7
370
    25
100
AcDbCircle
 10
-59.5
 20
95.0
 30
0.0
 40
0.5
100
AcDbArc
 50
90.0
 51
180.0
  0
ARC
  5
C3
330
1F
100
AcDbEntity
  8
0
  6
Continuous
 62
     7
370
    25
100
AcDbCircle
 10
0.0
 20
115.8
 30
0.0
 40
2.500000000000006
100
AcDbArc
 50
338.2447048031
 51
158.2447048031
  0
ARC
  5
C4
330
1F
100
AcDbEntity
  8
0
  6
Continuous
 62
     7
370
    25
100
AcDbCircle
 10
20.5
 20
136.3
 30
0.0
 40
0.5000000000000284
100
AcDbArc
 50
0.0
 51
90.0
  0
ARC
  5
C5
330
1F
100
AcDbEntity
  8
0
  6
Continuous
 62
     7
370
    25
100
AcDbCircle
 10
-20.5
 20
99.3
 30
0.0
 40
0.5000000000000036
100
AcDbArc
 50
180.0
 51
270.0
  0
ARC
  5
C6
330
1F
100
AcDbEntity
  8
0
  6
Continuous
 62
     7
370
    25
100
AcDbCircle
 10
-20.5
 20
136.3
 30
0.0
 40
0.5000000000000284
100
AcDbArc
 50
90.0
 51
180.0
  0
ARC
  5
C7
330
1F
100
AcDbEntity
  8
0
  6
Continuous
 62
     7
370
    25
100
AcDbCircle
 10
20.5
 20
99.3
 30
0.0
 40
0.5000000000000142
100
AcDbArc
 50
270.0
 51
360.0
  0
ARC
  5
C8
330
1F
100
AcDbEntity
  8
0
  6
Continuous
 62
     7
370
    25
100
AcDbCircle
 10
20.5
 20
98.0
 30
0.0
 40
0.5000000000000142
100
AcDbArc
 50
0.0
 51
90.0
  0
ARC
  5
C9
330
1F
100
AcDbEntity
  8
0
  6
Continuous
 62
     7
370
    25
100
AcDbCircle
 10
-20.5
 20
98.0
 30
0.0
 40
0.5000000000000142
100
AcDbArc
 50
90.0
 51
180.0
  0
LINE
  5
150
330
1B
100
AcDbEntity
 67
     1
  8
0
  6
Continuous
 62
     7
370
    25
100
AcDbLine
 10
-59.0
 20
95.5
 30
0.0
 11
-59.0
 21
98.0
 31
0.0
  0
LINE
  5
151
330
1B
100
AcDbEntity
 67
     1
  8
0
  6
Continuous
 62
     7
370
    25
100
AcDbLine
 10
-101.0
 20
98.0
 30
0.0
 11
-101.0
 21
95.5
 31
0.0
  0
LINE
  5
152
330
1B
100
AcDbEntity
 67
     1
  8
0
  6
Continuous
 62
     7
370
    25
100
AcDbLine
 10
-59.0
 20
113.3
 30
0.0
 11
-58.8916849894
 21
113.3
 31
0.0
  0
LINE
  5
153
330
1B
100
AcDbEntity
 67
     1
  8
0
  6
Continuous
 62
     7
370
    25
100
AcDbLine
 10
-58.8916849894
 20
118.3
 30
0.0
 11
-59.0
 21
118.3
 31
0.0
  0
LINE
  5
154
330
1B
100
AcDbEntity
 67
     1
  8
0
  6
Continuous
 62
     7
370
    25
100
AcDbLine
 10
101.0
 20
113.3
 30
0.0
 11
101.1083150106
 21
113.3
 31
0.0
  0
LINE
  5
155
330
1B
100
AcDbEntity
 67
     1
  8
0
  6
Continuous
 62
     7
370
    25
100
AcDbLine
 10
101.1083150106
 20
118.3
 30
0.0
 11
101.0
 21
118.3
 31
0.0
  0
LINE
  5
156
330
1B
100
AcDbEntity
 67
     1
  8
0
  6
Continuous
 62
     7
370
    25
100
AcDbLine
 10
-21.0
 20
126.3
 30
0.0
 11
-24.5
 21
126.3
 31
0.0
  0
LINE
  5
157
330
1B
100
AcDbEntity
 67
     1
  8
0
  6
Continuous
 62
     7
370
    25
100
AcDbLine
 10
-24.5
 20
118.3
 30
0.0
 11
-21.0
 21
118.3
 31
0.0
  0
LINE
  5
158
330
1B
100
AcDbEntity
 67
     1
  8
0
  6
Continuous
 62
     7
370
    25
100
AcDbLine
 10
-99.0
 20
98.8
 30
0.0
 11
-99.0
 21
98.5
 31
0.0
  0
LINE
  5
159
330
1B
100
AcDbEntity
 67
     1
  8
0
  6
Continuous
 62
     7
370
    25
100
AcDbLine
 10
-61.0
 20
98.5
 30
0.0
 11
-61.0
 21
98.8
 31
0.0
  0
LINE
  5
15A
330
1B
100
AcDbEntity
 67
     1
  8
0
  6
Continuous
 62
     7
370
    25
100
AcDbLine
 10
21.0
 20
95.5
 30
0.0
 11
21.0
 21
98.0
 31
0.0
  0
LINE
  5
15B
330
1B
100
AcDbEntity
 67
     1
  8
0
  6
Continuous
 62
     7
370
    25
100
AcDbLine
 10
-21.0
 20
98.0
 30
0.0
 11
-21.0
 21
95.5
 31
0.0
  0
LINE
  5
15C
330
1B
100
AcDbEntity
 67
     1
  8
0
  6
Continuous
 62
     7
370
    25
100
AcDbLine
 10
19.0
 20
98.5
 30
0.0
 11
19.0
 21
98.8
 31
0.0
  0
LINE
  5
15D
330
1B
100
AcDbEntity
 67
     1
  8
0
  6
Continuous
 62
     7
370
    25
100
AcDbLine
 10
-19.0
 20
98.8
 30
0.0
 11
-19.0
 21
98.5
 31
0.0
  0
LINE
  5
15E
330
1B
100
AcDbEntity
 67
     1
  8
0
  6
Continuous
 62
     7
370
    25
100
AcDbLine
 10
99.0
 20
98.5
 30
0.0
 11
99.0
 21
98.8
 31
0.0
  0
LINE
  5
15F
330
1B
100
AcDbEntity
 67
     1
  8
0
  6
Continuous
 62
     7
370
    25
100
AcDbLine
 10
61.0
 20
98.8
 30
0.0
 11
61.0
 21
98.5
 31
0.0
  0
LINE
  5
160
330
1B
100
AcDbEntity
 67
     1
  8
0
  6
Continuous
 62
     7
370
    25
100
AcDbLine
 10
101.0
 20
95.5
 30
0.0
 11
101.0
 21
98.0
 31
0.0
  0
LINE
  5
161
330
1B
100
AcDbEntity
 67
     1
  8
0
  6
Continuous
 62
     7
370
    25
100
AcDbLine
 10
59.0
 20
98.0
 30
0.0
 11
59.0
 21
95.5
 31
0.0
  0
LINE
  5
162
330
1B
100
AcDbEntity
 67
     1
  8
0
  6
Continuous
 62
     7
370
    25
100
AcDbLine
 10
-59.5
 20
98.5
 30
0.0
 11
-100.5
 21
98.5
 31
0.0
  0
LINE
  5
163
330
1B
100
AcDbEntity
 67
     1
  8
0
  6
Continuous
 62
     7
370
    25
100
AcDbLine
 10
-80.0
 20
95.5
 30
0.0
 11
-80.0
 21
98.8
 31
0.0
  0
LINE
  5
164
330
1B
100
AcDbEntity
 67
     1
  8
0
  6
Continuous
 62
     7
370
    25
100
AcDbLine
 10
137.5
 20
95.0
 30
0.0
 11
-137.5
 21
95.0
 31
0.0
  0
LINE
  5
165
330
1B
100
AcDbEntity
 67
     1
  8
0
  6
Continuous
 62
     7
370
    25
100
AcDbLine
 10
-137.0
 20
93.5
 30
0.0
 11
-137.0
 21
95.5
 31
0.0
  0
LINE
  5
166
330
1B
100
AcDbEntity
 67
     1
  8
0
  6
Continuous
 62
     7
370
    25
100
AcDbLine
 10
137.0
 20
95.5
 30
0.0
 11
-137.0
 21
95.5
 31
0.0
  0
LINE
  5
167
330
1B
100
AcDbEntity
 67
     1
  8
0
  6
Continuous
 62
     7
370
    25
100
AcDbLine
 10
137.0
 20
93.5
 30
0.0
 11
137.0
 21
95.5
 31
0.0
  0
LINE
  5
168
330
1B
100
AcDbEntity
 67
     1
  8
0
  6
Continuous
 62
     7
370
    25
100
AcDbLine
 10
-137.5
 20
93.5
 30
0.0
 11
137.5
 21
93.5
 31
0.0
  0
LINE
  5
169
330
1B
100
AcDbEntity
 67
     1
  8
0
  6
Continuous
 62
     7
370
    25
100
AcDbLine
 10
137.5
 20
93.5
 30
0.0
 11
137.5
 21
95.0
 31
0.0
  0
LINE
  5
16A
330
1B
100
AcDbEntity
 67
     1
  8
0
  6
Continuous
 62
     7
370
    25
100
AcDbLine
 10
-137.5
 20
93.5
 30
0.0
 11
-137.5
 21
95.0
 31
0.0
  0
LINE
  5
16B
330
1B
100
AcDbEntity
 67
     1
  8
0
  6
Continuous
 62
     7
370
    25
100
AcDbLine
 10
-58.8916849894
 20
113.3
 30
0.0
 11
-58.8916849894
 21
118.3
 31
0.0
  0
LINE
  5
16C
330
1B
100
AcDbEntity
 67
     1
  8
0
  6
Continuous
 62
     7
370
    25
100
AcDbLine
 10
101.1083150106
 20
113.3
 30
0.0
 11
101.1083150106
 21
118.3
 31
0.0
  0
LINE
  5
16D
330
1B
100
AcDbEntity
 67
     1
  8
0
  6
Continuous
 62
     7
370
    25
100
AcDbLine
 10
-21.0
 20
99.3
 30
0.0
 11
21.0
 21
99.3
 31
0.0
  0
LINE
  5
16E
330
1B
100
AcDbEntity
 67
     1
  8
0
  6
Continuous
 62
     7
370
    25
100
AcDbLine
 10
20.5
 20
98.8
 30
0.0
 11
-20.5
 21
98.8
 31
0.0
  0
LINE
  5
16F
330
1B
100
AcDbEntity
 67
     1
  8
0
  6
Continuous
 62
     7
370
    25
100
AcDbLine
 10
-20.5
 20
136.8
 30
0.0
 11
-20.5
 21
98.8
 31
0.0
  0
LINE
  5
170
330
1B
100
AcDbEntity
 67
     1
  8
0
  6
Continuous
 62
     7
370
    25
100
AcDbLine
 10
21.0
 20
136.3
 30
0.0
 11
-21.0
 21
136.3
 31
0.0
  0
LINE
  5
171
330
1B
100
AcDbEntity
 67
     1
  8
0
  6
Continuous
 62
     7
370
    25
100
AcDbLine
 10
20.5
 20
98.8
 30
0.0
 11
20.5
 21
136.8
 31
0.0
  0
LINE
  5
172
330
1B
100
AcDbEntity
 67
     1
  8
0
  6
Continuous
 62
     7
370
    25
100
AcDbLine
 10
21.0
 20
136.3
 30
0.0
 11
21.0
 21
99.3
 31
0.0
  0
LINE
  5
173
330
1B
100
AcDbEntity
 67
     1
  8
0
  6
Continuous
 62
     7
370
    25
100
AcDbLine
 10
-20.5
 20
136.8
 30
0.0
 11
20.5
 21
136.8
 31
0.0
  0
LINE
  5
174
330
1B
100
AcDbEntity
 67
     1
  8
0
  6
Continuous
 62
     7
370
    25
100
AcDbLine
 10
-21.0
 20
99.3
 30
0.0
 11
-21.0
 21
136.3
 31
0.0
  0
LINE
  5
175
330
1B
100
AcDbEntity
 67
     1
  8
0
  6
Continuous
 62
     7
370
    25
100
AcDbLine
 10
-25.0
 20
118.8
 30
0.0
 11
-25.0
 21
125.8
 31
0.0
  0
LINE
  5
176
330
1B
100
AcDbEntity
 67
     1
  8
0
  6
Continuous
 62
     7
370
    25
100
AcDbLine
 10
-25.0
 20
122.3
 30
0.0
 11
-21.0
 21
122.3
 31
0.0
  0
LINE
  5
177
330
1B
100
AcDbEntity
 67
     1
  8
0
  6
Continuous
 62
     7
370
    25
100
AcDbLine
 10
-20.5
 20
98.5
 30
0.0
 11
20.5
 21
98.5
 31
0.0
  0
LINE
  5
178
330
1B
100
AcDbEntity
 67
     1
  8
0
  6
Continuous
 62
     7
370
    25
100
AcDbLine
 10
0.0
 20
95.5
 30
0.0
 11
0.0
 21
98.8
 31
0.0
  0
LINE
  5
179
330
1B
100
AcDbEntity
 67
     1
  8
0
  6
Continuous
 62
     7
370
    25
100
AcDbLine
 10
-101.0
 20
99.3
 30
0.0
 11
-101.0
 21
136.3
 31
0.0
  0
LINE
  5
17A
330
1B
100
AcDbEntity
 67
     1
  8
0
  6
Continuous
 62
     7
370
    25
100
AcDbLine
 10
-100.5
 20
136.8
 30
0.0
 11
-100.5
 21
98.8
 31
0.0
  0
LINE
  5
17B
330
1B
100
AcDbEntity
 67
     1
  8
0
  6
Continuous
 62
     7
370
    25
100
AcDbLine
 10
-101.0
 20
99.3
 30
0.0
 11
-59.0
 21
99.3
 31
0.0
  0
LINE
  5
17C
330
1B
100
AcDbEntity
 67
     1
  8
0
  6
Continuous
 62
     7
370
    25
100
AcDbLine
 10
-59.5
 20
98.8
 30
0.0
 11
-59.5
 21
136.8
 31
0.0
  0
LINE
  5
17D
330
1B
100
AcDbEntity
 67
     1
  8
0
  6
Continuous
 62
     7
370
    25
100
AcDbLine
 10
-59.0
 20
136.3
 30
0.0
 11
-101.0
 21
136.3
 31
0.0
  0
LINE
  5
17E
330
1B
100
AcDbEntity
 67
     1
  8
0
  6
Continuous
 62
     7
370
    25
100
AcDbLine
 10
-59.0
 20
136.3
 30
0.0
 11
-59.0
 21
99.3
 31
0.0
  0
LINE
  5
17F
330
1B
100
AcDbEntity
 67
     1
  8
0
  6
Continuous
 62
     7
370
    25
100
AcDbLine
 10
-100.5
 20
136.8
 30
0.0
 11
-59.5
 21
136.8
 31
0.0
  0
LINE
  5
180
330
1B
100
AcDbEntity
 67
     1
  8
0
  6
Continuous
 62
     7
370
    25
100
AcDbLine
 10
-59.5
 20
98.8
 30
0.0
 11
-100.5
 21
98.8
 31
0.0
  0
LINE
  5
181
330
1B
100
AcDbEntity
 67
     1
  8
0
  6
Continuous
 62
     7
370
    25
100
AcDbLine
 10
59.5
 20
136.8
 30
0.0
 11
59.5
 21
98.8
 31
0.0
  0
LINE
  5
182
330
1B
100
AcDbEntity
 67
     1
  8
0
  6
Continuous
 62
     7
370
    25
100
AcDbLine
 10
59.0
 20
99.3
 30
0.0
 11
101.0
 21
99.3
 31
0.0
  0
LINE
  5
183
330
1B
100
AcDbEntity
 67
     1
  8
0
  6
Continuous
 62
     7
370
    25
100
AcDbLine
 10
59.0
 20
99.3
 30
0.0
 11
59.0
 21
136.3
 31
0.0
  0
LINE
  5
184
330
1B
100
AcDbEntity
 67
     1
  8
0
  6
Continuous
 62
     7
370
    25
100
AcDbLine
 10
101.0
 20
136.3
 30
0.0
 11
59.0
 21
136.3
 31
0.0
  0
LINE
  5
185
330
1B
100
AcDbEntity
 67
     1
  8
0
  6
Continuous
 62
     7
370
    25
100
AcDbLine
 10
100.5
 20
98.8
 30
0.0
 11
100.5
 21
136.8
 31
0.0
  0
LINE
  5
186
330
1B
100
AcDbEntity
 67
     1
  8
0
  6
Continuous
 62
     7
370
    25
100
AcDbLine
 10
101.0
 20
136.3
 30
0.0
 11
101.0
 21
99.3
 31
0.0
  0
LINE
  5
187
330
1B
100
AcDbEntity
 67
     1
  8
0
  6
Continuous
 62
     7
370
    25
100
AcDbLine
 10
59.5
 20
136.8
 30
0.0
 11
100.5
 21
136.8
 31
0.0
  0
LINE
  5
188
330
1B
100
AcDbEntity
 67
     1
  8
0
  6
Continuous
 62
     7
370
    25
100
AcDbLine
 10
100.5
 20
98.8
 30
0.0
 11
59.5
 21
98.8
 31
0.0
  0
LINE
  5
189
330
1B
100
AcDbEntity
 67
     1
  8
0
  6
Continuous
 62
     7
370
    25
100
AcDbLine
 10
59.5
 20
98.5
 30
0.0
 11
100.5
 21
98.5
 31
0.0
  0
LINE
  5
18A
330
1B
100
AcDbEntity
 67
     1
  8
0
  6
Continuous
 62
     7
370
    25
100
AcDbLine
 10
80.0
 20
98.8
 30
0.0
 11
80.0
 21
95.5
 31
0.0
  0
LINE
  5
18B
330
1B
100
AcDbEntity
 67
     1
  8
0
  6
Continuous
 62
     8
370
    25
100
AcDbLine
 10
-59.0
 20
98.0
 30
0.0
 11
-101.0
 21
98.0
 31
0.0
  0
LINE
  5
18C
330
1B
100
AcDbEntity
 67
     1
  8
0
  6
Continuous
 62
     8
370
    25
100
AcDbLine
 10
-59.0
 20
116.7266081881
 30
0.0
 11
-58.8916849894
 21
116.7266081881
 31
0.0
  0
LINE
  5
18D
330
1B
100
AcDbEntity
 67
     1
  8
0
  6
Continuous
 62
     8
370
    25
100
AcDbLine
 10
101.0
 20
116.7266081881
 30
0.0
 11
101.1083150106
 21
116.7266081881
 31
0.0
  0
LINE
  5
18E
330
1B
100
AcDbEntity
 67
     1
  8
0
  6
Continuous
 62
     8
370
    25
100
AcDbLine
 10
-24.5
 20
118.3
 30
0.0
 11
-24.5
 21
126.3
 31
0.0
  0
LINE
  5
18F
330
1B
100
AcDbEntity
 67
     1
  8
0
  6
Continuous
 62
     8
370
    25
100
AcDbLine
 10
-21.0
 20
98.0
 30
0.0
 11
21.0
 21
98.0
 31
0.0
  0
LINE
  5
190
330
1B
100
AcDbEntity
 67
     1
  8
0
  6
Continuous
 62
     8
370
    25
100
AcDbLine
 10
59.0
 20
98.0
 30
0.0
 11
101.0
 21
98.0
 31
0.0
  0
ARC
  5
191
330
1B
100
AcDbEntity
 67
     1
  8
0
  6
Continuous
 62
     7
370
    25
100
AcDbCircle
 10
-100.5
 20
98.0
 30
0.0
 40
0.5
100
AcDbArc
 50
90.0
 51
180.0
  0
ARC
  5
192
330
1B
100
AcDbEntity
 67
     1
  8
0
  6
Continuous
 62
     7
370
    25
100
AcDbCircle
 10
-59.5
 20
98.0
 30
0.0
 40
0.5
100
AcDbArc
 50
0.0
 51
90.0
  0
ARC
  5
193
330
1B
100
AcDbEntity
 67
     1
  8
0
  6
Continuous
 62
     7
370
    25
100
AcDbCircle
 10
-24.5
 20
125.8
 30
0.0
 40
0.5
100
AcDbArc
 50
90.0
 51
180.0
  0
ARC
  5
194
330
1B
100
AcDbEntity
 67
     1
  8
0
  6
Continuous
 62
     7
370
    25
100
AcDbCircle
 10
-24.5
 20
118.8
 30
0.0
 40
0.5000000000000284
100
AcDbArc
 50
180.0
 51
270.0
  0
ARC
  5
195
330
1B
100
AcDbEntity
 67
     1
  8
0
  6
Continuous
 62
     7
370
    25
100
AcDbCircle
 10
20.5
 20
98.0
 30
0.0
 40
0.5
100
AcDbArc
 50
0.0
 51
90.0
  0
ARC
  5
196
330
1B
100
AcDbEntity
 67
     1
  8
0
  6
Continuous
 62
     7
370
    25
100
AcDbCircle
 10
-20.5
 20
98.0
 30
0.0
 40
0.5000000000000036
100
AcDbArc
 50
90.0
 51
180.0
  0
ARC
  5
197
330
1B
100
AcDbEntity
 67
     1
  8
0
  6
Continuous
 62
     7
370
    25
100
AcDbCircle
 10
100.5
 20
98.0
 30
0.0
 40
0.5000000000000142
100
AcDbArc
 50
0.0
 51
90.0
  0
ARC
  5
198
330
1B
100
AcDbEntity
 67
     1
  8
0
  6
Continuous
 62
     7
370
    25
100
AcDbCircle
 10
59.5
 20
98.0
 30
0.0
 40
0.5
100
AcDbArc
 50
90.0
 51
180.0
  0
ARC
  5
199
330
1B
100
AcDbEntity
 67
     1
  8
0
  6
Continuous
 62
     7
370
    25
100
AcDbCircle
 10
-137.0
 20
95.0
 30
0.0
 40
0.5000000000000426
100
AcDbArc
 50
90.0
 51
180.0
  0
ARC
  5
19A
330
1B
100
AcDbEntity
 67
     1
  8
0
  6
Continuous
 62
     7
370
    25
100
AcDbCircle
 10
137.0
 20
95.0
 30
0.0
 40
0.5
100
AcDbArc
 50
0.0
 51
90.0
  0
ARC
  5
19B
330
1B
100
AcDbEntity
 67
     1
  8
0
  6
Continuous
 62
     7
370
    25
100
AcDbCircle
 10
-20.5
 20
99.3
 30
0.0
 40
0.5000000000000036
100
AcDbArc
 50
180.0
 51
270.0
  0
ARC
  5
19C
330
1B
100
AcDbEntity
 67
     1
  8
0
  6
Continuous
 62
     7
370
    25
100
AcDbCircle
 10
-20.5
 20
136.3
 30
0.0
 40
0.5000000000000284
100
AcDbArc
 50
90.0
 51
180.0
  0
ARC
  5
19D
330
1B
100
AcDbEntity
 67
     1
  8
0
  6
Continuous
 62
     7
370
    25
100
AcDbCircle
 10
20.5
 20
136.3
 30
0.0
 40
0.5000000000000284
100
AcDbArc
 50
0.0
 51
90.0
  0
ARC
  5
19E
330
1B
100
AcDbEntity
 67
     1
  8
0
  6
Continuous
 62
     7
370
    25
100
AcDbCircle
 10
20.5
 20
99.3
 30
0.0
 40
0.5000000000000142
100
AcDbArc
 50
270.0
 51
360.0
  0
ARC
  5
19F
330
1B
100
AcDbEntity
 67
     1
  8
0
  6
Continuous
 62
     7
370
    25
100
AcDbCircle
 10
-100.5
 20
99.3
 30
0.0
 40
0.5
100
AcDbArc
 50
180.0
 51
270.0
  0
ARC
  5
1A0
330
1B
100
AcDbEntity
 67
     1
  8
0
  6
Continuous
 62
     7
370
    25
100
AcDbCircle
 10
-59.5
 20
99.3
 30
0.0
 40
0.5
100
AcDbArc
 50
270.0
 51
0.0
  0
ARC
  5
1A1
330
1B
100
AcDbEntity
 67
     1
  8
0
  6
Continuous
 62
     7
370
    25
100
AcDbCircle
 10
-59.5
 20
136.3
 30
0.0
 40
0.5000000000000284
100
AcDbArc
 50
0.0
 51
90.0
  0
ARC
  5
1A2
330
1B
100
AcDbEntity
 67
     1
  8
0
  6
Continuous
 62
     7
370
    25
100
AcDbCircle
 10
-100.5
 20
136.3
 30
0.0
 40
0.5000000000000284
100
AcDbArc
 50
90.0
 51
180.0
  0
ARC
  5
1A3
330
1B
100
AcDbEntity
 67
     1
  8
0
  6
Continuous
 62
     7
370
    25
100
AcDbCircle
 10
59.5
 20
99.3
 30
0.0
 40
0.5
100
AcDbArc
 50
180.0
 51
270.0
  0
ARC
  5
1A4
330
1B
100
AcDbEntity
 67
     1
  8
0
  6
Continuous
 62
     7
370
    25
100
AcDbCircle
 10
59.5
 20
136.3
 30
0.0
 40
0.5000000000000284
100
AcDbArc
 50
90.0
 51
180.0
  0
ARC
  5
1A5
330
1B
100
AcDbEntity
 67
     1
  8
0
  6
Continuous
 62
     7
370
    25
100
AcDbCircle
 10
100.5
 20
99.3
 30
0.0
 40
0.5000000000000142
100
AcDbArc
 50
270.0
 51
360.0
  0
ARC
  5
1A6
330
1B
100
AcDbEntity
 67
     1
  8
0
  6
Continuous
 62
     7
370
    25
100
AcDbCircle
 10
100.5
 20
136.3
 30
0.0
 40
0.5000000000000284
100
AcDbArc
 50
0.0
 51
90.0
  0
VIEWPORT
  5
4C1
330
1B
100
AcDbEntity
 67
     1
  8
0
100
AcDbViewport
 10
0.0
 20
0.0
 30
0.0
 40
205.6
 41
156.0
 68
     1
 69
     1
 12
0.0
 22
115.15
 13
0.0
 23
0.0
 14
10.0
 24
10.0
 15
10.0
 25
10.0
 16
0.0
 26
0.0
 36
1.0
 17
0.0
 27
0.0
 37
0.0
 42
50.0
 43
0.0
 44
0.0
 45
92.8715953307
 50
0.0
 51
0.0
 72
   100
 90
   557152
  1

281
     0
 71
     1
 74
     0
110
0.0
120
0.0
130
0.0
111
1.0
121
0.0
131
0.0
112
0.0
122
1.0
132
0.0
 79
     0
146
0.0
  0
ENDSEC
  0
SECTION
  2
OBJECTS
  0
DICTIONARY
  5
C
330
0
100
AcDbDictionary
281
     1
  3
ACAD_GROUP
350
D
  3
ACAD_LAYOUT
350
1A
  3
ACAD_MLINESTYLE
350
17
  3
ACAD_PLOTSETTINGS
350
19
  3
ACAD_PLOTSTYLENAME
350
E
  3
ACAD_SCALELIST
350
47
  0
DICTIONARY
  5
D
102
{ACAD_REACTORS
330
C
102
}
330
C
100
AcDbDictionary
281
     1
  0
DICTIONARY
  5
1A
102
{ACAD_REACTORS
330
C
102
}
330
C
100
AcDbDictionary
281
     1
  3
_Bottom
350
364
  3
_Left
350
1E
  3
_Right
350
26
  3
_Top
350
285
  3
Model
350
22
  0
DICTIONARY
  5
17
102
{ACAD_REACTORS
330
C
102
}
330
C
100
AcDbDictionary
281
     1
  3
Standard
350
18
  0
DICTIONARY
  5
19
102
{ACAD_REACTORS
330
C
102
}
330
C
100
AcDbDictionary
281
     1
  0
ACDBDICTIONARYWDFLT
  5
E
102
{ACAD_REACTORS
330
C
102
}
330
C
100
AcDbDictionary
281
     1
  3
Normal
350
F
100
AcDbDictionaryWithDefault
340
F
  0
DICTIONARY
  5
47
102
{ACAD_REACTORS
330
C
102
}
330
C
100
AcDbDictionary
281
     1
  3
A0
350
48
  3
A1
350
49
  3
A2
350
4A
  3
A3
350
4B
  3
A4
350
4C
  3
A5
350
4D
  3
A6
350
4E
  3
A7
350
4F
  3
A8
350
50
  3
A9
350
51
  3
B0
350
52
  3
B1
350
53
  3
B2
350
54
  3
B3
350
55
  3
B4
350
56
  3
B5
350
57
  3
B6
350
58
  3
B7
350
59
  3
B8
350
5A
  3
B9
350
5B
  3
C0
350
5C
  3
C1
350
5D
  3
C2
350
5E
  3
C3
350
5F
  3
C4
350
60
  3
C5
350
61
  3
C6
350
62
  3
C7
350
63
  3
C8
350
64
  3
C9
350
65
  3
D0
350
66
  3
D1
350
67
  3
D2
350
68
  0
LAYOUT
  5
364
102
{ACAD_REACTORS
330
1A
102
}
330
1A
100
AcDbPlotSettings
  1

  2
none_device
  4
ISO_A4_(210.00_x_297.00_MM)
  6

 40
7.5
 41
20.0
 42
7.5
 43
20.0
 44
210.0
 45
297.0
 46
0.0
 47
0.0
 48
0.0
 49
0.0
140
0.0
141
0.0
142
1.0
143
1.0700389105
 70
   688
 72
     1
 73
     1
 74
     1
  7

 75
     0
147
0.9345454545
148
137.5
149
-93.5
100
AcDbLayout
  1
_Bottom
 70
     1
 71
     4
 10
0.0
 20
0.0
 11
0.0
 21
0.0
 12
0.0
 22
0.0
 32
0.0
 14
0.0
 24
0.0
 34
0.0
 15
0.0
 25
0.0
 35
0.0
146
0.0
 13
0.0
 23
0.0
 33
0.0
 16
1.0
 26
0.0
 36
0.0
 17
0.0
 27
1.0
 37
0.0
 76
     0
330
363
331
4C7
  0
LAYOUT
  5
1E
102
{ACAD_REACTORS
330
1A
102
}
330
1A
100
AcDbPlotSettings
  1

  2
none_device
  4
ISO_A4_(210.00_x_297.00_MM)
  6

 40
7.5
 41
20.0
 42
7.5
 43
20.0
 44
210.0
 45
297.0
 46
0.0
 47
0.0
 48
0.0
 49
0.0
140
0.0
141
0.0
142
1.0
143
1.0700389105
 70
   688
 72
     1
 73
     1
 74
     1
  7

 75
     0
147
0.9345454545
148
137.5
149
-93.5
100
AcDbLayout
  1
_Left
 70
     1
 71
     1
 10
-158.9007782102
 20
85.4747081712
 11
158.9007782101
 21
310.1828793774
 12
0.0
 22
0.0
 32
0.0
 14
-137.5
 24
93.5
 34
0.0
 15
137.5
 25
136.8
 35
0.0
146
0.0
 13
0.0
 23
0.0
 33
0.0
 16
1.0
 26
0.0
 36
0.0
 17
0.0
 27
1.0
 37
0.0
 76
     0
330
1B
331
4C1
  0
LAYOUT
  5
26
102
{ACAD_REACTORS
330
1A
102
}
330
1A
100
AcDbPlotSettings
  1

  2
none_device
  4
ISO_A4_(210.00_x_297.00_MM)
  6

 40
7.5
 41
20.0
 42
7.5
 43
20.0
 44
210.0
 45
297.0
 46
0.0
 47
0.0
 48
0.0
 49
0.0
140
0.0
141
0.0
142
1.0
143
1.0700389105
 70
   688
 72
     1
 73
     1
 74
     1
  7

 75
     0
147
0.9345454545
148
137.5
149
-93.5
100
AcDbLayout
  1
_Right
 70
     1
 71
     2
 10
0.0
 20
0.0
 11
0.0
 21
0.0
 12
0.0
 22
0.0
 32
0.0
 14
0.0
 24
0.0
 34
0.0
 15
0.0
 25
0.0
 35
0.0
146
0.0
 13
0.0
 23
0.0
 33
0.0
 16
1.0
 26
0.0
 36
0.0
 17
0.0
 27
1.0
 37
0.0
 76
     0
330
23
331
4C3
  0
LAYOUT
  5
285
102
{ACAD_REACTORS
330
1A
102
}
330
1A
100
AcDbPlotSettings
  1

  2
none_device
  4
ISO_A4_(210.00_x_297.00_MM)
  6

 40
7.5
 41
20.0
 42
7.5
 43
20.0
 44
210.0
 45
297.0
 46
0.0
 47
0.0
 48
0.0
 49
0.0
140
0.0
141
0.0
142
1.0
143
1.0700389105
 70
   688
 72
     1
 73
     1
 74
     1
  7

 75
     0
147
0.9345454545
148
137.5
149
-93.5
100
AcDbLayout
  1
_Top
 70
     1
 71
     3
 10
0.0
 20
0.0
 11
0.0
 21
0.0
 12
0.0
 22
0.0
 32
0.0
 14
0.0
 24
0.0
 34
0.0
 15
0.0
 25
0.0
 35
0.0
146
0.0
 13
0.0
 23
0.0
 33
0.0
 16
1.0
 26
0.0
 36
0.0
 17
0.0
 27
1.0
 37
0.0
 76
     0
330
284
331
4C5
  0
LAYOUT
  5
22
102
{ACAD_REACTORS
330
1A
102
}
330
1A
100
AcDbPlotSettings
  1

  2
none_device
  4
ANSI_A_(11.00_x_8.50_Inches)
  6

 40
6.35
 41
19.05
 42
6.35000508
 43
19.05000254
 44
279.4
 45
215.9
 46
133.34999746
 47
-176.52650877
 48
0.0
 49
0.0
140
0.0
141
0.0
142
0.09075
143
1.0
 70
  1696
 72
     0
 73
     0
 74
     0
  7

 75
     0
147
0.0179189148
148
-1300.4909072572
149
0.0
100
AcDbLayout
  1
Model
 70
     1
 71
     0
 10
0.0
 20
0.0
 11
420.0
 21
297.0
 12
0.0
 22
0.0
 32
0.0
 14
-60.0
 24
93.5
 34
0.0
 15
60.0
 25
136.8
 35
0.0
146
0.0
 13
0.0
 23
0.0
 33
0.0
 16
1.0
 26
0.0
 36
0.0
 17
0.0
 27
1.0
 37
0.0
 76
     0
330
1F
331
29
  0
MLINESTYLE
  5
18
102
{ACAD_REACTORS
330
17
102
}
330
17
100
AcDbMlineStyle
  2
Standard
 70
     0
  3

 62
   256
 51
90.0
 52
90.0
 71
     2
 49
0.5
 62
   256
  6
BYLAYER
 49
-0.5
 62
   256
  6
BYLAYER
  0
ACDBPLACEHOLDER
  5
F
102
{ACAD_REACTORS
330
E
102
}
330
E
  0
SCALE
  5
48
102
{ACAD_REACTORS
330
47
102
}
330
47
100
AcDbScale
 70
     0
300
1:1
140
1.0
141
1.0
290
     1
  0
SCALE
  5
49
102
{ACAD_REACTORS
330
47
102
}
330
47
100
AcDbScale
 70
     0
300
1:2
140
1.0
141
2.0
290
     0
  0
SCALE
  5
4A
102
{ACAD_REACTORS
330
47
102
}
330
47
100
AcDbScale
 70
     0
300
1:4
140
1.0
141
4.0
290
     0
  0
SCALE
  5
4B
102
{ACAD_REACTORS
330
47
102
}
330
47
100
AcDbScale
 70
     0
300
1:5
140
1.0
141
5.0
290
     0
  0
SCALE
  5
4C
102
{ACAD_REACTORS
330
47
102
}
330
47
100
AcDbScale
 70
     0
300
1:8
140
1.0
141
8.0
290
     0
  0
SCALE
  5
4D
102
{ACAD_REACTORS
330
47
102
}
330
47
100
AcDbScale
 70
     0
300
1:10
140
1.0
141
10.0
290
     0
  0
SCALE
  5
4E
102
{ACAD_REACTORS
330
47
102
}
330
47
100
AcDbScale
 70
     0
300
1:16
140
1.0
141
16.0
290
     0
  0
SCALE
  5
4F
102
{ACAD_REACTORS
330
47
102
}
330
47
100
AcDbScale
 70
     0
300
1:20
140
1.0
141
20.0
290
     0
  0
SCALE
  5
50
102
{ACAD_REACTORS
330
47
102
}
330
47
100
AcDbScale
 70
     0
300
1:30
140
1.0
141
30.0
290
     0
  0
SCALE
  5
51
102
{ACAD_REACTORS
330
47
102
}
330
47
100
AcDbScale
 70
     0
300
1:40
140
1.0
141
40.0
290
     0
  0
SCALE
  5
52
102
{ACAD_REACTORS
330
47
102
}
330
47
100
AcDbScale
 70
     0
300
1:50
140
1.0
141
50.0
290
     0
  0
SCALE
  5
53
102
{ACAD_REACTORS
330
47
102
}
330
47
100
AcDbScale
 70
     0
300
1:100
140
1.0
141
100.0
290
     0
  0
SCALE
  5
54
102
{ACAD_REACTORS
330
47
102
}
330
47
100
AcDbScale
 70
     0
300
2:1
140
2.0
141
1.0
290
     0
  0
SCALE
  5
55
102
{ACAD_REACTORS
330
47
102
}
330
47
100
AcDbScale
 70
     0
300
4:1
140
4.0
141
1.0
290
     0
  0
SCALE
  5
56
102
{ACAD_REACTORS
330
47
102
}
330
47
100
AcDbScale
 70
     0
300
8:1
140
8.0
141
1.0
290
     0
  0
SCALE
  5
57
102
{ACAD_REACTORS
330
47
102
}
330
47
100
AcDbScale
 70
     0
300
10:1
140
10.0
141
1.0
290
     0
  0
SCALE
  5
58
102
{ACAD_REACTORS
330
47
102
}
330
47
100
AcDbScale
 70
     0
300
100:1
140
100.0
141
1.0
290
     0
  0
SCALE
  5
59
102
{ACAD_REACTORS
330
47
102
}
330
47
100
AcDbScale
 70
     0
300
1/128" = 1'-0"
140
0.0078125
141
12.0
290
     0
  0
SCALE
  5
5A
102
{ACAD_REACTORS
330
47
102
}
330
47
100
AcDbScale
 70
     0
300
1/64" = 1'-0"
140
0.015625
141
12.0
290
     0
  0
SCALE
  5
5B
102
{ACAD_REACTORS
330
47
102
}
330
47
100
AcDbScale
 70
     0
300
1/32" = 1'-0"
140
0.03125
141
12.0
290
     0
  0
SCALE
  5
5C
102
{ACAD_REACTORS
330
47
102
}
330
47
100
AcDbScale
 70
     0
300
1/16" = 1'-0"
140
0.0625
141
12.0
290
     0
  0
SCALE
  5
5D
102
{ACAD_REACTORS
330
47
102
}
330
47
100
AcDbScale
 70
     0
300
3/32" = 1'-0"
140
0.09375
141
12.0
290
     0
  0
SCALE
  5
5E
102
{ACAD_REACTORS
330
47
102
}
330
47
100
AcDbScale
 70
     0
300
1/8" = 1'-0"
140
0.125
141
12.0
290
     0
  0
SCALE
  5
5F
102
{ACAD_REACTORS
330
47
102
}
330
47
100
AcDbScale
 70
     0
300
3/16" = 1'-0"
140
0.1875
141
12.0
290
     0
  0
SCALE
  5
60
102
{ACAD_REACTORS
330
47
102
}
330
47
100
AcDbScale
 70
     0
300
1/4" = 1'-0"
140
0.25
141
12.0
290
     0
  0
SCALE
  5
61
102
{ACAD_REACTORS
330
47
102
}
330
47
100
AcDbScale
 70
     0
300
3/8" = 1'-0"
140
0.375
141
12.0
290
     0
  0
SCALE
  5
62
102
{ACAD_REACTORS
330
47
102
}
330
47
100
AcDbScale
 70
     0
300
1/2" = 1'-0"
140
0.5
141
12.0
290
     0
  0
SCALE
  5
63
102
{ACAD_REACTORS
330
47
102
}
330
47
100
AcDbScale
 70
     0
300
3/4" = 1'-0"
140
0.75
141
12.0
290
     0
  0
SCALE
  5
64
102
{ACAD_REACTORS
330
47
102
}
330
47
100
AcDbScale
 70
     0
300
1" = 1'-0"
140
1.0
141
12.0
290
     0
  0
SCALE
  5
65
102
{ACAD_REACTORS
330
47
102
}
330
47
100
AcDbScale
 70
     0
300
1-1/2" = 1'-0"
140
1.5
141
12.0
290
     0
  0
SCALE
  5
66
102
{ACAD_REACTORS
330
47
102
}
330
47
100
AcDbScale
 70
     0
300
3" = 1'-0"
140
3.0
141
12.0
290
     0
  0
SCALE
  5
67
102
{ACAD_REACTORS
330
47
102
}
330
47
100
AcDbScale
 70
     0
300
6" = 1'-0"
140
6.0
141
12.0
290
     0
  0
SCALE
  5
68
102
{ACAD_REACTORS
330
47
102
}
330
47
100
AcDbScale
 70
     0
300
1'-0" = 1'-0"
140
12.0
141
12.0
290
     0
  0
ENDSEC
  0
EOF
